  0
SECTION
  2
HEADER
  9
$ACADVER
  1
AC1009
  9
$INSBASE
 10
0.0
 20
0.0
 30
0.0
  9
$EXTMIN
 10
-52.799999999999798
 20
-26.833313154349671
 30
0.0
  9
$EXTMAX
 10
50.0
 20
60.909614751167979
 30
0.0
  9
$LIMMIN
 10
0.0
 20
0.0
  9
$LIMMAX
 10
297.0
 20
210.0
  9
$ORTHOMODE
 70
     1
  9
$REGENMODE
 70
     1
  9
$FILLMODE
 70
     1
  9
$QTEXTMODE
 70
     0
  9
$MIRRTEXT
 70
     1
  9
$DRAGMODE
 70
     2
  9
$LTSCALE
 40
10.0
  9
$OSMODE
 70
    39
  9
$ATTMODE
 70
     1
  9
$TEXTSIZE
 40
3.0
  9
$TRACEWID
 40
1.0
  9
$TEXTSTYLE
  7
YOKO
  9
$CLAYER
  8
240
  9
$CELTYPE
  6
BYLAYER
  9
$CECOLOR
 62
   256
  9
$DIMSCALE
 40
1.0
  9
$DIMASZ
 40
2.2299999999999991
  9
$DIMEXO
 40
0.5
  9
$DIMDLI
 40
7.0
  9
$DIMRND
 40
0.0
  9
$DIMDLE
 40
0.0
  9
$DIMEXE
 40
1.0
  9
$DIMTP
 40
0.0
  9
$DIMTM
 40
0.01
  9
$DIMTXT
 40
2.799999999999998
  9
$DIMCEN
 40
0.0
  9
$DIMTSZ
 40
0.0
  9
$DIMTOL
 70
     0
  9
$DIMLIM
 70
     0
  9
$DIMTIH
 70
     0
  9
$DIMTOH
 70
     0
  9
$DIMSE1
 70
     0
  9
$DIMSE2
 70
     0
  9
$DIMTAD
 70
     3
  9
$DIMZIN
 70
     9
  9
$DIMBLK
  1
OPEN
  9
$DIMASO
 70
     1
  9
$DIMSHO
 70
     1
  9
$DIMPOST
  1

  9
$DIMAPOST
  1

  9
$DIMALT
 70
     0
  9
$DIMALTD
 70
     2
  9
$DIMALTF
 40
25.399999999999999
  9
$DIMLFAC
 40
1.0
  9
$DIMTOFL
 70
     1
  9
$DIMTVP
 40
0.0
  9
$DIMTIX
 70
     1
  9
$DIMSOXD
 70
     0
  9
$DIMSAH
 70
     0
  9
$DIMBLK1
  1

  9
$DIMBLK2
  1

  9
$DIMSTYLE
  2
BIGT
  9
$DIMCLRD
 70
   256
  9
$DIMCLRE
 70
   256
  9
$DIMCLRT
 70
    40
  9
$DIMTFAC
 40
1.0
  9
$DIMGAP
 40
1.0
  9
$LUNITS
 70
     2
  9
$LUPREC
 70
     3
  9
$SKETCHINC
 40
1.0
  9
$FILLETRAD
 40
0.0
  9
$AUNITS
 70
     0
  9
$AUPREC
 70
     3
  9
$MENU
  1
.
  9
$ELEVATION
 40
0.0
  9
$PELEVATION
 40
0.0
  9
$THICKNESS
 40
0.0
  9
$LIMCHECK
 70
     0
  9
$BLIPMODE
 70
     0
  9
$CHAMFERA
 40
0.25
  9
$CHAMFERB
 40
0.25
  9
$SKPOLY
 70
     0
  9
$TDCREATE
 40
2455933.7017382761
  9
$TDUPDATE
 40
2456330.4046784719
  9
$TDINDWG
 40
0.0240290162
  9
$TDUSRTIMER
 40
0.0240288426
  9
$USRTIMER
 70
     1
  9
$ANGBASE
 50
0.0
  9
$ANGDIR
 70
     0
  9
$PDMODE
 70
     1
  9
$PDSIZE
 40
0.0
  9
$PLINEWID
 40
0.0
  9
$COORDS
 70
     0
  9
$SPLFRAME
 70
     0
  9
$SPLINETYPE
 70
     6
  9
$SPLINESEGS
 70
     4
  9
$ATTDIA
 70
     1
  9
$ATTREQ
 70
     1
  9
$HANDLING
 70
     1
  9
$HANDSEED
  5
375F
  9
$SURFTAB1
 70
     6
  9
$SURFTAB2
 70
     6
  9
$SURFTYPE
 70
     6
  9
$SURFU
 70
     6
  9
$SURFV
 70
     6
  9
$UCSNAME
  2

  9
$UCSORG
 10
0.0
 20
0.0
 30
0.0
  9
$UCSXDIR
 10
1.0
 20
0.0
 30
0.0
  9
$UCSYDIR
 10
0.0
 20
1.0
 30
0.0
  9
$PUCSNAME
  2

  9
$PUCSORG
 10
0.0
 20
0.0
 30
0.0
  9
$PUCSXDIR
 10
1.0
 20
0.0
 30
0.0
  9
$PUCSYDIR
 10
0.0
 20
1.0
 30
0.0
  9
$USERI1
 70
     1
  9
$USERI2
 70
     0
  9
$USERI3
 70
     0
  9
$USERI4
 70
     0
  9
$USERI5
 70
     0
  9
$USERR1
 40
0.0
  9
$USERR2
 40
0.0
  9
$USERR3
 40
0.0
  9
$USERR4
 40
0.0
  9
$USERR5
 40
0.0
  9
$WORLDVIEW
 70
     1
  9
$SHADEDGE
 70
     3
  9
$SHADEDIF
 70
    70
  9
$TILEMODE
 70
     1
  9
$MAXACTVP
 70
    16
  9
$PLIMCHECK
 70
     0
  9
$PEXTMIN
 10
1.0000000000000000E+020
 20
1.0000000000000000E+020
 30
1.0000000000000000E+020
  9
$PEXTMAX
 10
-1.0000000000000000E+020
 20
-1.0000000000000000E+020
 30
-1.0000000000000000E+020
  9
$PLIMMIN
 10
0.0
 20
0.0
  9
$PLIMMAX
 10
420.0
 20
297.0
  9
$UNITMODE
 70
     0
  9
$VISRETAIN
 70
     1
  9
$PLINEGEN
 70
     0
  9
$PSLTSCALE
 70
     1
  0
ENDSEC
  0
SECTION
  2
TABLES
  0
TABLE
  2
VPORT
 70
     3
  0
VPORT
  2
*ACTIVE
 70
     0
 10
0.0
 20
0.0
 11
1.0
 21
1.0
 12
-1.3969704596987349
 22
17.03989956539305
 13
0.0
 23
0.0
 14
7.0
 24
7.0
 15
7.0
 25
7.0
 16
0.0
 26
0.0
 36
1.0
 17
0.0
 27
0.0
 37
0.0
 40
88.357862063595405
 41
1.4600431965442759
 42
50.0
 43
0.0
 44
0.0
 50
0.0
 51
0.0
 71
     0
 72
  2000
 73
     1
 74
     0
 75
     0
 76
     0
 77
     0
 78
     0
  0
ENDTAB
  0
TABLE
  2
LTYPE
 70
    16
  0
LTYPE
  2
CONTINUOUS
 70
     0
  3
Solid line
 72
    65
 73
     0
 40
0.0
  0
LTYPE
  2
CENTER2
 70
     0
  3
___ _ ___ _ ___ _ ___ _ ___ _ ___ _ ___ _ ___ _
 72
    65
 73
     4
 40
1.125
 49
0.75
 49
-0.125
 49
0.125
 49
-0.125
  0
LTYPE
  2
HIDDEN2
 70
     0
  3
_ _ _ _ _ _ _ _ _ _ _ _ _ _ _ _ _ _ _ _ _ _ _ _
 72
    65
 73
     2
 40
0.1875
 49
0.125
 49
-0.0625
  0
LTYPE
  2
PHANTOM2
 70
     0
  3
___ _ _ ___ _ _ ___ _ _ ___ _ _ ___ _ _ ___ _ _
 72
    65
 73
     6
 40
1.25
 49
0.625
 49
-0.125
 49
0.125
 49
-0.125
 49
0.125
 49
-0.125
  0
LTYPE
  2
CENTER
 70
     0
  3
____ _ ____ _ ____ _ ____ _ ____ _ ____ _ ____ 
 72
    65
 73
     4
 40
2.0
 49
1.25
 49
-0.25
 49
0.25
 49
-0.25
  0
LTYPE
  2
AMCONSTR
 70
     0
  3
_______________________
 72
    65
 73
     2
 40
9999.0
 49
9999.0
 49
0.0
  0
LTYPE
  2
HIDDEN
 70
     0
  3
Hidden __ __ __ __ __ __ __ __ __ __ __ __ __ _
 72
    65
 73
     2
 40
9.5249999999999986
 49
6.349999999999997
 49
-3.174999999999998
  0
LTYPE
  2
AMZIGZAG2
 70
     0
  3
/\/-/\/-/\/-/\/-/\/-/\/
 72
    65
 73
     2
 40
0.4401
 49
0.0001
 49
-0.4400000000000002
  0
LTYPE
  2
ACANSTGB
 70
     0
  3
__ . . __ . .
 72
    65
 73
     6
 40
0.35433070866
 49
0.15748031496
 49
-0.03937007874
 49
0.03937007874
 49
-0.03937007874
 49
0.03937007874
 49
-0.03937007874
  0
LTYPE
  2
ACANSTGL
 70
     0
  3
_ _ _ _ _
 72
    65
 73
     2
 40
0.11811023622
 49
0.07874015748
 49
-0.03937007874
  0
ENDTAB
  0
TABLE
  2
LAYER
 70
     7
  0
LAYER
  2
0
 70
     0
 62
     7
  6
CONTINUOUS
  0
LAYER
  2
240
 70
     0
 62
     4
  6
CONTINUOUS
  0
LAYER
  2
DEFPOINTS
 70
     0
 62
     7
  6
CONTINUOUS
  0
LAYER
  2
245
 70
     0
 62
     2
  6
CENTER2
  0
LAYER
  2
241
 70
     0
 62
   211
  6
CONTINUOUS
  0
LAYER
  2
247
 70
     0
 62
    60
  6
CONTINUOUS
  0
LAYER
  2
250
 70
     0
 62
     3
  6
CONTINUOUS
  0
ENDTAB
  0
TABLE
  2
STYLE
 70
     5
  0
STYLE
  2
STANDARD
 70
     0
 40
0.0
 41
1.0
 50
0.0
 71
     0
 42
3.0
  3
romans.shx
  4
extfont.shx
  0
STYLE
  2
YOKO
 70
     0
 40
0.0
 41
1.0
 50
0.0
 71
     0
 42
3.0
  3
romans.shx
  4
extfont.shx
  0
STYLE
  2
ACANSTS
 70
     0
 40
1.0
 41
1.0
 50
0.0
 71
     0
 42
3.0
  3
romans.shx
  4
extfont.shx
  0
STYLE
  2
ACANSGDT
 70
     0
 40
0.0
 41
1.0
 50
0.0
 71
     0
 42
3.0
  3
amgdtans.shx
  4

  0
ENDTAB
  0
TABLE
  2
VIEW
 70
     0
  0
ENDTAB
  0
TABLE
  2
UCS
 70
     0
  0
ENDTAB
  0
TABLE
  2
APPID
 70
    31
  0
APPID
  2
ACAD
 70
     0
  0
APPID
  2
GLOBAL
 70
     0
  0
APPID
  2
DETAIL
 70
     0
  0
APPID
  2
GRPNAME
 70
     0
  0
APPID
  2
GPARA
 70
     0
  0
APPID
  2
MCAD_NO_VIS
 70
     0
  0
APPID
  2
ACAD_TEMP_GRAPHIC
 70
     0
  0
APPID
  2
ACATTRIBSERVICES
 70
     0
  0
APPID
  2
GENIUS_GENSCREG_15
 70
     0
  0
APPID
  2
GENIUS_GENODEF_13
 70
     0
  0
APPID
  2
GENIUS_GENOBJ-N-SDF_13
 70
     0
  0
APPID
  2
GENIUS_GENREC_14
 70
     0
  0
APPID
  2
GENIUS_GENOBJ-N-REC_13
 70
     0
  0
APPID
  2
GENIUS_GENDIMSH_14
 70
     0
  0
APPID
  2
GENIUS_GENOBJ-N-DIM_13
 70
     0
  0
APPID
  2
GENIUS_GENDIM_13
 70
     0
  0
APPID
  2
GENIUS_GENDTOL_13
 70
     0
  0
APPID
  2
GENIUS_GENOLIS_13
 70
     0
  0
APPID
  2
GENIUS_GENOENT_13
 70
     0
  0
APPID
  2
GENIUS_GENOBJ-F-FEM_13
 70
     0
  0
APPID
  2
GENIUS_GENOREF_13
 70
     0
  0
APPID
  2
GENIUS_GEFFEM_13
 70
     0
  0
APPID
  2
GENIUS_GEFFEMP_13
 70
     0
  0
APPID
  2
AD_DRAW
 70
     0
  0
APPID
  2
DESIGNERASSEMBLIES
 70
     0
  0
APPID
  2
ACADM_DIM_EDIT
 70
     0
  0
APPID
  2
AMDT_DM_ADJ
 70
     0
  0
APPID
  2
ITEMNAME
 70
     0
  0
APPID
  2
HATCH_TYPE
 70
     0
  0
APPID
  2
HATCH_DISPLAY
 70
     0
  0
APPID
  2
HATCH_DISTANCE
 70
     0
  0
ENDTAB
  0
TABLE
  2
DIMSTYLE
 70
     7
  0
DIMSTYLE
  2
BIGT
 70
     0
  3

  4

  5

  6

  7

 40
1.0
 41
2.2299999999999991
 42
0.5
 43
7.0
 44
1.0
 45
0.0
 46
0.0
 47
0.0
 48
0.01
140
2.799999999999998
141
0.0
142
0.0
143
25.399999999999999
144
1.0
145
0.0
146
1.0
147
1.0
 71
     0
 72
     0
 73
     0
 74
     0
 75
     0
 76
     0
 77
     3
 78
     9
170
     0
171
     2
172
     1
173
     0
174
     1
175
     0
176
   256
177
   256
178
    40
  0
DIMSTYLE
  2
AM_ANSI
 70
     0
  3

  4
mm
  5

  6

  7

 40
1.0
 41
0.1
 42
0.05
 43
0.5
 44
0.1
 45
0.0
 46
0.0
 47
0.1
 48
0.1
140
0.12
141
0.0
142
0.0
143
25.399999999999999
144
1.0
145
0.0
146
0.71
147
0.06
 71
     0
 72
     0
 73
     1
 74
     1
 75
     0
 76
     0
 77
     0
 78
     7
170
     0
171
     2
172
     0
173
     0
174
     0
175
     0
176
   256
177
   256
178
     2
  0
DIMSTYLE
  2
AM_ANSI$3
 70
     0
  3

  4
mm
  5

  6

  7

 40
1.0
 41
0.1
 42
0.05
 43
0.5
 44
0.1
 45
0.0
 46
0.0
 47
0.1
 48
0.1
140
0.12
141
0.0
142
0.0
143
25.399999999999999
144
1.0
145
0.0
146
0.71
147
0.06
 71
     0
 72
     0
 73
     1
 74
     1
 75
     0
 76
     0
 77
     0
 78
     7
170
     0
171
     2
172
     0
173
     0
174
     0
175
     0
176
   256
177
   256
178
     2
  0
DIMSTYLE
  2
AM_ANSI$4
 70
     0
  3

  4
mm
  5

  6

  7

 40
1.0
 41
0.1
 42
0.05
 43
0.5
 44
0.1
 45
0.0
 46
0.0
 47
0.1
 48
0.1
140
0.12
141
0.0
142
0.0
143
25.399999999999999
144
1.0
145
0.0
146
0.71
147
0.06
 71
     0
 72
     0
 73
     1
 74
     1
 75
     0
 76
     0
 77
     0
 78
     7
170
     0
171
     2
172
     0
173
     0
174
     0
175
     0
176
   256
177
   256
178
     2
  0
DIMSTYLE
  2
AM_ANSI$7
 70
     0
  3

  4
mm
  5

  6

  7

 40
1.0
 41
0.1
 42
0.05
 43
0.5
 44
0.1
 45
0.0
 46
0.0
 47
0.1
 48
0.1
140
0.24
141
0.0
142
0.0
143
25.399999999999999
144
1.0
145
0.0
146
0.71
147
0.06
 71
     0
 72
     0
 73
     1
 74
     1
 75
     0
 76
     0
 77
     0
 78
     7
170
     0
171
     2
172
     0
173
     0
174
     0
175
     0
176
   256
177
   256
178
     2
  0
DIMSTYLE
  2
AM_ANSI$SF
 70
     0
  3

  4
mm
  5

  6

  7

 40
1.0
 41
0.1
 42
0.05
 43
0.5
 44
0.1
 45
0.0
 46
0.0
 47
0.1
 48
0.1
140
0.12
141
0.0
142
0.0
143
25.399999999999999
144
1.0
145
0.0
146
0.71
147
0.06
 71
     0
 72
     0
 73
     1
 74
     1
 75
     1
 76
     1
 77
     0
 78
     7
170
     0
171
     2
172
     0
173
     0
174
     0
175
     0
176
   256
177
   256
178
     2
  0
DIMSTYLE
  2
AM_ANSI$SH
 70
     0
  3

  4
mm
  5

  6

  7

 40
1.0
 41
0.1
 42
0.05
 43
0.5
 44
0.1
 45
0.0
 46
0.0
 47
0.1
 48
0.1
140
0.12
141
0.0
142
0.0
143
25.399999999999999
144
1.0
145
0.0
146
0.71
147
0.06
 71
     0
 72
     0
 73
     1
 74
     1
 75
     1
 76
     1
 77
     0
 78
     7
170
     0
171
     2
172
     0
173
     1
174
     0
175
     0
176
   256
177
   256
178
     2
  0
ENDTAB
  0
ENDSEC
  0
SECTION
  2
BLOCKS
  0
BLOCK
  8
0
  2
$MODEL_SPACE
 70
     0
 10
0.0
 20
0.0
 30
0.0
  3
$MODEL_SPACE
  1

  0
ENDBLK
  5
3685
  8
0
  0
BLOCK
 67
     1
  8
0
  2
$PAPER_SPACE
 70
     0
 10
0.0
 20
0.0
 30
0.0
  3
$PAPER_SPACE
  1

  0
ENDBLK
  5
3681
 67
     1
  8
0
  0
BLOCK
  8
0
  2
_OPEN
 70
     0
 10
0.0
 20
0.0
 30
0.0
  3
_OPEN
  1

  0
LINE
  5
1DA7
  8
0
  6
BYBLOCK
 62
     0
 10
-1.0
 20
0.1666666666666666
 30
0.0
 11
0.0
 21
0.0
 31
0.0
  0
LINE
  5
1DA8
  8
0
  6
BYBLOCK
 62
     0
 10
-1.0
 20
-0.1666666666666666
 30
0.0
 11
0.0
 21
0.0
 31
0.0
  0
LINE
  5
1DA9
  8
0
  6
BYBLOCK
 62
     0
 10
0.0
 20
0.0
 30
0.0
 11
-1.0
 21
0.0
 31
0.0
  0
ENDBLK
  5
1DAA
  8
0
  0
ENDSEC
  0
SECTION
  2
ENTITIES
  0
TEXT
  5
16B2
  8
241
 10
-36.881494308516842
 20
55.909614751167958
 30
0.0
 40
5.0
  1
CKB4-C4252-45B-20
  7
YOKO
 11
-36.881494308516842
 21
55.909614751167958
 31
0.0
 73
     1
  0
LINE
  5
16B3
  8
250
 10
-23.645452210997721
 20
-26.833313154349671
 30
0.0
 11
-37.788309353854849
 21
-26.833313154349671
 31
0.0
1001
ITEMNAME
1000
LNSP2
  0
TEXT
  5
16B4
  8
250
 10
-35.216880782426287
 20
-25.833313154349671
 30
0.0
 40
3.0
  1
CK4
  7
YOKO
  0
LINE
  5
16B5
  8
250
 10
-15.68574979390598
 20
-12.93123665043931
 30
0.0
 11
-23.712117405733402
 21
-26.833313154349671
 31
0.0
  0
LINE
  5
16B6
  8
250
 10
-16.00762256897918
 20
-12.745403317105991
 30
0.0
 11
-14.57074979390597
 21
-11.00000000000003
 31
0.0
  0
LINE
  5
16B7
  8
250
 10
-15.363877018832749
 20
-13.117069983772661
 30
0.0
 11
-14.57074979390597
 21
-11.00000000000003
 31
0.0
  0
LINE
  5
16B8
  8
250
 10
-14.57074979390597
 20
-11.00000000000003
 30
0.0
 11
-15.68574979390597
 21
-12.93123665043931
 31
0.0
  0
LINE
  5
1816
  8
250
 10
12.11066316989416
 20
26.0
 30
0.0
 11
-49.99999999999978
 21
26.000000000000011
 31
0.0
  0
LINE
  5
1817
  8
250
 10
-48.99999999999978
 20
23.77000000000001
 30
0.0
 11
-48.999999999999801
 21
-4.5333333333339052
 31
0.0
  0
LINE
  5
181A
  8
250
 10
7.1106639930746569
 20
20.999999999999989
 30
0.0
 11
-42.999999999999822
 21
21.000000000000011
 31
0.0
  0
LINE
  5
181B
  8
250
 10
-41.999999999999829
 20
18.77
 30
0.0
 11
-41.999999999999837
 21
-4.533333333333835
 31
0.0
  0
LINE
  5
181E
  8
250
 10
-0.5
 20
-19.500000402331381
 30
0.0
 11
-36.000000000000007
 21
-19.50000040233137
 31
0.0
  0
LINE
  5
181F
  8
250
 10
-0.5
 20
19.50000040233132
 30
0.0
 11
-36.0
 21
19.500000402331331
 31
0.0
  0
LINE
  5
1820
  8
250
 10
-35.000000000000021
 20
-17.27000040233137
 30
0.0
 11
-35.0
 21
17.27000040233133
 31
0.0
  0
LINE
  5
1824
  8
250
 10
15.08933765056706
 20
26.0
 30
0.0
 11
43.0
 21
25.999999999999989
 31
0.0
  0
LINE
  5
1825
  8
250
 10
42.0
 20
23.769999999999978
 30
0.0
 11
41.999999999999993
 21
-4.5333333333333403
 31
0.0
  0
LINE
  5
1828
  8
250
 10
20.089336724489002
 20
21.0
 30
0.0
 11
36.0
 21
20.999999999999989
 31
0.0
  0
LINE
  5
1829
  8
250
 10
35.0
 20
18.769999999999989
 30
0.0
 11
35.0
 21
-4.5333333333333341
 31
0.0
  0
LINE
  5
182C
  8
250
 10
14.80710731074214
 20
-26.282230392098459
 30
0.0
 11
50.0
 21
-26.282230392098469
 31
0.0
  0
LINE
  5
182D
  8
250
 10
14.80710731074214
 20
26.282230392098398
 30
0.0
 11
50.0
 21
26.282230392098391
 31
0.0
  0
LINE
  5
182E
  8
250
 10
48.999999999999979
 20
-24.052230392098469
 30
0.0
 11
49.0
 21
24.052230392098391
 31
0.0
  0
LINE
  5
1832
  8
250
 10
13.953553952890671
 20
26.635783815433481
 30
0.0
 11
8.6791695844016274
 21
31.910169160821031
 31
0.0
  0
ARC
  5
1833
  8
250
 10
19.963961443863809
 20
20.625375211238829
 30
0.0
 40
14.959107174147009
 50
98.549186239965664
 51
126.4508084539973
  0
LINE
  5
1837
  8
250
 10
0.0
 20
20.00000040233132
 30
0.0
 11
0.0000000000000014
 21
43.0
 31
0.0
  0
LINE
  5
1838
  8
250
 10
19.963961443863809
 20
21.125375211238829
 30
0.0
 11
19.963961443863809
 21
43.0
 31
0.0
  0
LINE
  5
1839
  8
250
 10
2.2299999999999991
 20
42.0
 30
0.0
 11
17.733961443863809
 21
42.0
 31
0.0
  0
TEXT
  5
183D
  8
250
 10
40.838282923057321
 20
-3.7999999999999989
 30
0.0
 40
2.799999999999998
  1
\U+220552
 50
90.0
  0
LINE
  5
183E
  8
250
 10
41.62833333333333
 20
23.769999999999978
 30
0.0
 11
42.0
 21
25.999999999999989
 31
0.0
  0
LINE
  5
183F
  8
250
 10
42.371666666666663
 20
23.769999999999978
 30
0.0
 11
42.0
 21
25.999999999999989
 31
0.0
  0
LINE
  5
1840
  8
250
 10
42.0
 20
25.999999999999989
 30
0.0
 11
42.0
 21
23.769999999999978
 31
0.0
  0
TEXT
  5
1841
  8
250
 10
33.838282923057349
 20
-3.7999999999999932
 30
0.0
 40
2.799999999999998
  1
\U+220542
 50
90.0
  0
LINE
  5
1842
  8
250
 10
34.62833333333333
 20
18.769999999999989
 30
0.0
 11
35.0
 21
20.999999999999989
 31
0.0
  0
LINE
  5
1843
  8
250
 10
35.37166666666667
 20
18.769999999999989
 30
0.0
 11
35.0
 21
20.999999999999989
 31
0.0
  0
LINE
  5
1844
  8
250
 10
35.0
 20
20.999999999999989
 30
0.0
 11
35.0
 21
18.769999999999989
 31
0.0
  0
TEXT
  5
1845
  8
250
 10
47.999999999999993
 20
-5.895238095238124
 30
0.0
 40
3.0
  1
\U+2205
 50
90.0
  0
TEXT
  5
1846
  8
250
 10
47.899999999999991
 20
-3.1809523809524101
 30
0.0
 40
2.799999999999998
  1
52.7
 50
90.0
  0
LINE
  5
1847
  8
250
 10
48.62833333333333
 20
24.052230392098391
 30
0.0
 11
49.0
 21
26.282230392098391
 31
0.0
  0
LINE
  5
1848
  8
250
 10
49.37166666666667
 20
24.052230392098391
 30
0.0
 11
49.0
 21
26.282230392098391
 31
0.0
  0
LINE
  5
1849
  8
250
 10
49.0
 20
26.282230392098391
 30
0.0
 11
49.0
 21
24.052230392098391
 31
0.0
  0
LINE
  5
184A
  8
250
 10
49.371666666666663
 20
-24.052230392098469
 30
0.0
 11
48.999999999999979
 21
-26.282230392098469
 31
0.0
  0
LINE
  5
184B
  8
250
 10
48.628333333333302
 20
-24.052230392098469
 30
0.0
 11
48.999999999999979
 21
-26.282230392098469
 31
0.0
  0
LINE
  5
184C
  8
250
 10
48.999999999999979
 20
-26.282230392098469
 30
0.0
 11
48.999999999999979
 21
-24.052230392098469
 31
0.0
  0
TEXT
  5
184D
  8
250
 10
10.17933313995553
 20
34.128792581663362
 30
0.0
 40
2.799999999999998
  1
45üï
 50
20.105146991762489
  0
LINE
  5
184E
  8
250
 10
11.318759144119159
 20
32.37632535741966
 30
0.0
 11
9.3862763001045586
 21
31.20306231415087
 31
0.0
  0
LINE
  5
184F
  8
250
 10
10.833782868247409
 20
32.939656926112569
 30
0.0
 11
9.3862763001045586
 21
31.20306231415087
 31
0.0
  0
LINE
  5
1850
  8
250
 10
9.3862763001045586
 20
31.20306231415087
 30
0.0
 11
11.07627100618328
 21
32.657991141766111
 31
0.0
  0
LINE
  5
1851
  8
250
 10
17.712461926358351
 20
35.788898710036563
 30
0.0
 11
19.96396144386382
 21
35.584482385385861
 31
0.0
  0
LINE
  5
1852
  8
250
 10
17.76786741660705
 20
35.04763311924286
 30
0.0
 11
19.96396144386382
 21
35.584482385385861
 31
0.0
  0
LINE
  5
1853
  8
250
 10
19.96396144386382
 20
35.584482385385861
 30
0.0
 11
17.740164671482699
 21
35.418265914639711
 31
0.0
  0
TEXT
  5
1854
  8
250
 10
7.315314055265234
 20
43.0
 30
0.0
 40
2.799999999999998
  1
20
  0
LINE
  5
1855
  8
250
 10
17.733961443863809
 20
42.371666666666663
 30
0.0
 11
19.963961443863809
 21
42.0
 31
0.0
  0
LINE
  5
1856
  8
250
 10
17.733961443863809
 20
41.62833333333333
 30
0.0
 11
19.963961443863809
 21
42.0
 31
0.0
  0
LINE
  5
1857
  8
250
 10
19.963961443863809
 20
42.0
 30
0.0
 11
17.733961443863809
 21
42.0
 31
0.0
  0
LINE
  5
1858
  8
250
 10
2.2299999999999991
 20
41.62833333333333
 30
0.0
 11
0.0000000000000014
 21
42.0
 31
0.0
  0
LINE
  5
1859
  8
250
 10
2.2299999999999991
 20
42.371666666666663
 30
0.0
 11
0.0000000000000014
 21
42.0
 31
0.0
  0
LINE
  5
185A
  8
250
 10
0.0000000000000014
 20
42.0
 30
0.0
 11
2.2299999999999991
 21
42.0
 31
0.0
  0
TEXT
  5
185B
  8
250
 10
-49.999999999999801
 20
-3.800000000000578
 30
0.0
 40
2.799999999999998
  1
\U+220552
 50
90.0
  0
LINE
  5
185C
  8
250
 10
-49.371666666666442
 20
23.77000000000001
 30
0.0
 11
-48.99999999999978
 21
26.000000000000011
 31
0.0
  0
LINE
  5
185D
  8
250
 10
-48.628333333333131
 20
23.77000000000001
 30
0.0
 11
-48.99999999999978
 21
26.000000000000011
 31
0.0
  0
LINE
  5
185E
  8
250
 10
-48.99999999999978
 20
26.000000000000011
 30
0.0
 11
-48.99999999999978
 21
23.77000000000001
 31
0.0
  0
TEXT
  5
185F
  8
250
 10
-42.999999999999822
 20
-3.8000000000005101
 30
0.0
 40
2.799999999999998
  1
\U+220542
 50
90.0
  0
LINE
  5
1860
  8
250
 10
-42.371666666666492
 20
18.77
 30
0.0
 11
-41.999999999999829
 21
21.000000000000011
 31
0.0
  0
LINE
  5
1861
  8
250
 10
-41.62833333333316
 20
18.77
 30
0.0
 11
-41.999999999999829
 21
21.000000000000011
 31
0.0
  0
LINE
  5
1862
  8
250
 10
-41.999999999999829
 20
21.000000000000011
 30
0.0
 11
-41.999999999999829
 21
18.77
 31
0.0
  0
TEXT
  5
1863
  8
250
 10
-36.000000000000007
 20
-3.8285714285714469
 30
0.0
 40
3.0
  1
\U+2205
 50
90.0
  0
TEXT
  5
1864
  8
250
 10
-36.100000000000009
 20
-1.1142857142857341
 30
0.0
 40
2.799999999999998
  1
39
 50
90.0
  0
LINE
  5
1865
  8
250
 10
-35.37166666666667
 20
17.27000040233133
 30
0.0
 11
-35.0
 21
19.500000402331331
 31
0.0
  0
LINE
  5
1866
  8
250
 10
-34.62833333333333
 20
17.27000040233133
 30
0.0
 11
-35.0
 21
19.500000402331331
 31
0.0
  0
LINE
  5
1867
  8
250
 10
-35.0
 20
19.500000402331331
 30
0.0
 11
-35.0
 21
17.27000040233133
 31
0.0
  0
LINE
  5
1868
  8
250
 10
-34.628333333333337
 20
-17.27000040233137
 30
0.0
 11
-35.000000000000021
 21
-19.50000040233137
 31
0.0
  0
LINE
  5
1869
  8
250
 10
-35.371666666666691
 20
-17.27000040233137
 30
0.0
 11
-35.000000000000021
 21
-19.50000040233137
 31
0.0
  0
LINE
  5
186A
  8
250
 10
-35.000000000000021
 20
-19.50000040233137
 30
0.0
 11
-35.000000000000021
 21
-17.27000040233137
 31
0.0
  0
LINE
  5
2A52
  8
245
 10
-27.484650638786889
 20
0.0
 30
0.0
 11
22.827617634603939
 21
0.0
 31
0.0
  0
LINE
  5
2A53
  8
241
 10
19.963961443863809
 20
9.0136500075459196
 30
0.0
 11
14.30710731074214
 21
11.842076666653121
 31
0.0
  0
LINE
  5
2A54
  8
240
 10
19.963961443863809
 20
-20.62537521123889
 30
0.0
 11
14.30710731074214
 21
-26.282230392098459
 31
0.0
  0
POLYLINE
  5
2A55
  8
241
 66
     1
 10
0.0
 20
0.0
 30
0.0
 70
     8
  0
VERTEX
  5
2A56
  8
241
 10
14.199999999999999
 20
-25.225000000000001
 30
0.0
 70
    32
  0
VERTEX
  5
2A57
  8
241
 10
14.217000000000001
 20
-25.204799999999999
 30
0.0
 70
    32
  0
VERTEX
  5
2A58
  8
241
 10
14.234
 20
-25.1846
 30
0.0
 70
    32
  0
VERTEX
  5
2A59
  8
241
 10
14.250999999999999
 20
-25.1645
 30
0.0
 70
    32
  0
VERTEX
  5
2A5A
  8
241
 10
14.268000000000001
 20
-25.144300000000001
 30
0.0
 70
    32
  0
VERTEX
  5
2A5B
  8
241
 10
14.2849
 20
-25.124099999999999
 30
0.0
 70
    32
  0
VERTEX
  5
2A5C
  8
241
 10
14.3019
 20
-25.103899999999999
 30
0.0
 70
    32
  0
VERTEX
  5
2A5D
  8
241
 10
14.318899999999999
 20
-25.0837
 30
0.0
 70
    32
  0
VERTEX
  5
2A5E
  8
241
 10
14.335800000000001
 20
-25.063500000000001
 30
0.0
 70
    32
  0
VERTEX
  5
2A5F
  8
241
 10
14.3528
 20
-25.043299999999999
 30
0.0
 70
    32
  0
VERTEX
  5
2A60
  8
241
 10
14.3697
 20
-25.023099999999999
 30
0.0
 70
    32
  0
VERTEX
  5
2A61
  8
241
 10
14.3866
 20
-25.0029
 30
0.0
 70
    32
  0
VERTEX
  5
2A62
  8
241
 10
14.403600000000001
 20
-24.982700000000001
 30
0.0
 70
    32
  0
VERTEX
  5
2A63
  8
241
 10
14.420500000000001
 20
-24.962399999999999
 30
0.0
 70
    32
  0
VERTEX
  5
2A64
  8
241
 10
14.4374
 20
-24.9422
 30
0.0
 70
    32
  0
VERTEX
  5
2A65
  8
241
 10
14.4543
 20
-24.922000000000001
 30
0.0
 70
    32
  0
VERTEX
  5
2A66
  8
241
 10
14.4712
 20
-24.901800000000001
 30
0.0
 70
    32
  0
VERTEX
  5
2A67
  8
241
 10
14.488099999999999
 20
-24.881499999999999
 30
0.0
 70
    32
  0
VERTEX
  5
2A68
  8
241
 10
14.505000000000001
 20
-24.8613
 30
0.0
 70
    32
  0
VERTEX
  5
2A69
  8
241
 10
14.5219
 20
-24.841000000000001
 30
0.0
 70
    32
  0
VERTEX
  5
2A6A
  8
241
 10
14.5388
 20
-24.820799999999998
 30
0.0
 70
    32
  0
VERTEX
  5
2A6B
  8
241
 10
14.5556
 20
-24.8005
 30
0.0
 70
    32
  0
VERTEX
  5
2A6C
  8
241
 10
14.5725
 20
-24.7803
 30
0.0
 70
    32
  0
VERTEX
  5
2A6D
  8
241
 10
14.5893
 20
-24.760000000000002
 30
0.0
 70
    32
  0
VERTEX
  5
2A6E
  8
241
 10
14.606199999999999
 20
-24.739699999999999
 30
0.0
 70
    32
  0
VERTEX
  5
2A6F
  8
241
 10
14.622999999999999
 20
-24.7195
 30
0.0
 70
    32
  0
VERTEX
  5
2A70
  8
241
 10
14.639900000000001
 20
-24.699200000000001
 30
0.0
 70
    32
  0
VERTEX
  5
2A71
  8
241
 10
14.656700000000001
 20
-24.678899999999999
 30
0.0
 70
    32
  0
VERTEX
  5
2A72
  8
241
 10
14.673500000000001
 20
-24.6586
 30
0.0
 70
    32
  0
VERTEX
  5
2A73
  8
241
 10
14.690300000000001
 20
-24.638300000000001
 30
0.0
 70
    32
  0
VERTEX
  5
2A74
  8
241
 10
14.7072
 20
-24.617999999999999
 30
0.0
 70
    32
  0
VERTEX
  5
2A75
  8
241
 10
14.724
 20
-24.5977
 30
0.0
 70
    32
  0
VERTEX
  5
2A76
  8
241
 10
14.7407
 20
-24.577400000000001
 30
0.0
 70
    32
  0
VERTEX
  5
2A77
  8
241
 10
14.7575
 20
-24.557099999999998
 30
0.0
 70
    32
  0
VERTEX
  5
2A78
  8
241
 10
14.7743
 20
-24.536799999999999
 30
0.0
 70
    32
  0
VERTEX
  5
2A79
  8
241
 10
14.7911
 20
-24.516500000000001
 30
0.0
 70
    32
  0
VERTEX
  5
2A7A
  8
241
 10
14.8079
 20
-24.496200000000002
 30
0.0
 70
    32
  0
VERTEX
  5
2A7B
  8
241
 10
14.8246
 20
-24.475899999999999
 30
0.0
 70
    32
  0
VERTEX
  5
2A7C
  8
241
 10
14.8414
 20
-24.455500000000001
 30
0.0
 70
    32
  0
VERTEX
  5
2A7D
  8
241
 10
14.8581
 20
-24.435199999999998
 30
0.0
 70
    32
  0
VERTEX
  5
2A7E
  8
241
 10
14.8749
 20
-24.414899999999999
 30
0.0
 70
    32
  0
VERTEX
  5
2A7F
  8
241
 10
14.8916
 20
-24.394500000000001
 30
0.0
 70
    32
  0
VERTEX
  5
2A80
  8
241
 10
14.908300000000001
 20
-24.374199999999998
 30
0.0
 70
    32
  0
VERTEX
  5
2A81
  8
241
 10
14.925000000000001
 20
-24.3538
 30
0.0
 70
    32
  0
VERTEX
  5
2A82
  8
241
 10
14.941700000000001
 20
-24.333500000000001
 30
0.0
 70
    32
  0
VERTEX
  5
2A83
  8
241
 10
14.958399999999999
 20
-24.313099999999999
 30
0.0
 70
    32
  0
VERTEX
  5
2A84
  8
241
 10
14.975099999999999
 20
-24.2927
 30
0.0
 70
    32
  0
VERTEX
  5
2A85
  8
241
 10
14.9918
 20
-24.272400000000001
 30
0.0
 70
    32
  0
VERTEX
  5
2A86
  8
241
 10
15.0085
 20
-24.251999999999999
 30
0.0
 70
    32
  0
VERTEX
  5
2A87
  8
241
 10
15.0252
 20
-24.2316
 30
0.0
 70
    32
  0
VERTEX
  5
2A88
  8
241
 10
15.0418
 20
-24.211300000000001
 30
0.0
 70
    32
  0
VERTEX
  5
2A89
  8
241
 10
15.0585
 20
-24.190899999999999
 30
0.0
 70
    32
  0
VERTEX
  5
2A8A
  8
241
 10
15.075100000000001
 20
-24.170500000000001
 30
0.0
 70
    32
  0
VERTEX
  5
2A8B
  8
241
 10
15.091799999999999
 20
-24.150099999999998
 30
0.0
 70
    32
  0
VERTEX
  5
2A8C
  8
241
 10
15.1084
 20
-24.1297
 30
0.0
 70
    32
  0
VERTEX
  5
2A8D
  8
241
 10
15.125
 20
-24.109300000000001
 30
0.0
 70
    32
  0
VERTEX
  5
2A8E
  8
241
 10
15.1417
 20
-24.088899999999999
 30
0.0
 70
    32
  0
VERTEX
  5
2A8F
  8
241
 10
15.158300000000001
 20
-24.0685
 30
0.0
 70
    32
  0
VERTEX
  5
2A90
  8
241
 10
15.174899999999999
 20
-24.048100000000002
 30
0.0
 70
    32
  0
VERTEX
  5
2A91
  8
241
 10
15.1915
 20
-24.0276
 30
0.0
 70
    32
  0
VERTEX
  5
2A92
  8
241
 10
15.2081
 20
-24.007200000000001
 30
0.0
 70
    32
  0
VERTEX
  5
2A93
  8
241
 10
15.224600000000001
 20
-23.986799999999999
 30
0.0
 70
    32
  0
VERTEX
  5
2A94
  8
241
 10
15.241199999999999
 20
-23.9664
 30
0.0
 70
    32
  0
VERTEX
  5
2A95
  8
241
 10
15.2578
 20
-23.945900000000002
 30
0.0
 70
    32
  0
VERTEX
  5
2A96
  8
241
 10
15.2743
 20
-23.9255
 30
0.0
 70
    32
  0
VERTEX
  5
2A97
  8
241
 10
15.290900000000001
 20
-23.905000000000001
 30
0.0
 70
    32
  0
VERTEX
  5
2A98
  8
241
 10
15.307399999999999
 20
-23.884599999999999
 30
0.0
 70
    32
  0
VERTEX
  5
2A99
  8
241
 10
15.3239
 20
-23.864100000000001
 30
0.0
 70
    32
  0
VERTEX
  5
2A9A
  8
241
 10
15.3405
 20
-23.843699999999998
 30
0.0
 70
    32
  0
VERTEX
  5
2A9B
  8
241
 10
15.356999999999999
 20
-23.8232
 30
0.0
 70
    32
  0
VERTEX
  5
2A9C
  8
241
 10
15.3735
 20
-23.802700000000002
 30
0.0
 70
    32
  0
VERTEX
  5
2A9D
  8
241
 10
15.390000000000001
 20
-23.782299999999999
 30
0.0
 70
    32
  0
VERTEX
  5
2A9E
  8
241
 10
15.406499999999999
 20
-23.761800000000001
 30
0.0
 70
    32
  0
VERTEX
  5
2A9F
  8
241
 10
15.423
 20
-23.741299999999999
 30
0.0
 70
    32
  0
VERTEX
  5
2AA0
  8
241
 10
15.439399999999999
 20
-23.720800000000001
 30
0.0
 70
    32
  0
VERTEX
  5
2AA1
  8
241
 10
15.4559
 20
-23.700299999999999
 30
0.0
 70
    32
  0
VERTEX
  5
2AA2
  8
241
 10
15.4724
 20
-23.6799
 30
0.0
 70
    32
  0
VERTEX
  5
2AA3
  8
241
 10
15.488799999999999
 20
-23.659400000000002
 30
0.0
 70
    32
  0
VERTEX
  5
2AA4
  8
241
 10
15.5053
 20
-23.6389
 30
0.0
 70
    32
  0
VERTEX
  5
2AA5
  8
241
 10
15.521699999999999
 20
-23.618400000000001
 30
0.0
 70
    32
  0
VERTEX
  5
2AA6
  8
241
 10
15.5381
 20
-23.597799999999999
 30
0.0
 70
    32
  0
VERTEX
  5
2AA7
  8
241
 10
15.554500000000001
 20
-23.577300000000001
 30
0.0
 70
    32
  0
VERTEX
  5
2AA8
  8
241
 10
15.5709
 20
-23.556799999999999
 30
0.0
 70
    32
  0
VERTEX
  5
2AA9
  8
241
 10
15.587300000000001
 20
-23.536300000000001
 30
0.0
 70
    32
  0
VERTEX
  5
2AAA
  8
241
 10
15.6037
 20
-23.515799999999999
 30
0.0
 70
    32
  0
VERTEX
  5
2AAB
  8
241
 10
15.620100000000001
 20
-23.495200000000001
 30
0.0
 70
    32
  0
VERTEX
  5
2AAC
  8
241
 10
15.6365
 20
-23.474699999999999
 30
0.0
 70
    32
  0
VERTEX
  5
2AAD
  8
241
 10
15.652799999999999
 20
-23.4542
 30
0.0
 70
    32
  0
VERTEX
  5
2AAE
  8
241
 10
15.6692
 20
-23.433599999999998
 30
0.0
 70
    32
  0
VERTEX
  5
2AAF
  8
241
 10
15.685499999999999
 20
-23.4131
 30
0.0
 70
    32
  0
VERTEX
  5
2AB0
  8
241
 10
15.7019
 20
-23.392499999999998
 30
0.0
 70
    32
  0
VERTEX
  5
2AB1
  8
241
 10
15.7182
 20
-23.372
 30
0.0
 70
    32
  0
VERTEX
  5
2AB2
  8
241
 10
15.734500000000001
 20
-23.351400000000002
 30
0.0
 70
    32
  0
VERTEX
  5
2AB3
  8
241
 10
15.7509
 20
-23.3308
 30
0.0
 70
    32
  0
VERTEX
  5
2AB4
  8
241
 10
15.767200000000001
 20
-23.310300000000002
 30
0.0
 70
    32
  0
VERTEX
  5
2AB5
  8
241
 10
15.7834
 20
-23.2897
 30
0.0
 70
    32
  0
VERTEX
  5
2AB6
  8
241
 10
15.7997
 20
-23.269100000000002
 30
0.0
 70
    32
  0
VERTEX
  5
2AB7
  8
241
 10
15.816000000000001
 20
-23.2485
 30
0.0
 70
    32
  0
VERTEX
  5
2AB8
  8
241
 10
15.8323
 20
-23.227900000000002
 30
0.0
 70
    32
  0
VERTEX
  5
2AB9
  8
241
 10
15.8485
 20
-23.2073
 30
0.0
 70
    32
  0
VERTEX
  5
2ABA
  8
241
 10
15.864800000000001
 20
-23.186800000000002
 30
0.0
 70
    32
  0
VERTEX
  5
2ABB
  8
241
 10
15.881
 20
-23.1662
 30
0.0
 70
    32
  0
VERTEX
  5
2ABC
  8
241
 10
15.8973
 20
-23.145600000000002
 30
0.0
 70
    32
  0
VERTEX
  5
2ABD
  8
241
 10
15.913500000000001
 20
-23.1249
 30
0.0
 70
    32
  0
VERTEX
  5
2ABE
  8
241
 10
15.9297
 20
-23.104299999999999
 30
0.0
 70
    32
  0
VERTEX
  5
2ABF
  8
241
 10
15.9459
 20
-23.0837
 30
0.0
 70
    32
  0
VERTEX
  5
2AC0
  8
241
 10
15.9621
 20
-23.063099999999999
 30
0.0
 70
    32
  0
VERTEX
  5
2AC1
  8
241
 10
15.978300000000001
 20
-23.0425
 30
0.0
 70
    32
  0
VERTEX
  5
2AC2
  8
241
 10
15.9945
 20
-23.021799999999999
 30
0.0
 70
    32
  0
VERTEX
  5
2AC3
  8
241
 10
16.0106
 20
-23.001200000000001
 30
0.0
 70
    32
  0
VERTEX
  5
2AC4
  8
241
 10
16.026800000000001
 20
-22.980599999999999
 30
0.0
 70
    32
  0
VERTEX
  5
2AC5
  8
241
 10
16.042899999999999
 20
-22.959900000000001
 30
0.0
 70
    32
  0
VERTEX
  5
2AC6
  8
241
 10
16.059100000000001
 20
-22.939299999999999
 30
0.0
 70
    32
  0
VERTEX
  5
2AC7
  8
241
 10
16.075199999999999
 20
-22.918600000000001
 30
0.0
 70
    32
  0
VERTEX
  5
2AC8
  8
241
 10
16.0913
 20
-22.898
 30
0.0
 70
    32
  0
VERTEX
  5
2AC9
  8
241
 10
16.107399999999998
 20
-22.877300000000002
 30
0.0
 70
    32
  0
VERTEX
  5
2ACA
  8
241
 10
16.1235
 20
-22.8566
 30
0.0
 70
    32
  0
VERTEX
  5
2ACB
  8
241
 10
16.139600000000002
 20
-22.835999999999999
 30
0.0
 70
    32
  0
VERTEX
  5
2ACC
  8
241
 10
16.1557
 20
-22.815300000000001
 30
0.0
 70
    32
  0
VERTEX
  5
2ACD
  8
241
 10
16.171800000000001
 20
-22.794599999999999
 30
0.0
 70
    32
  0
VERTEX
  5
2ACE
  8
241
 10
16.187799999999999
 20
-22.773900000000001
 30
0.0
 70
    32
  0
VERTEX
  5
2ACF
  8
241
 10
16.203900000000001
 20
-22.753299999999999
 30
0.0
 70
    32
  0
VERTEX
  5
2AD0
  8
241
 10
16.219899999999999
 20
-22.732600000000001
 30
0.0
 70
    32
  0
VERTEX
  5
2AD1
  8
241
 10
16.236000000000001
 20
-22.7119
 30
0.0
 70
    32
  0
VERTEX
  5
2AD2
  8
241
 10
16.251999999999999
 20
-22.691199999999998
 30
0.0
 70
    32
  0
VERTEX
  5
2AD3
  8
241
 10
16.268000000000001
 20
-22.670500000000001
 30
0.0
 70
    32
  0
VERTEX
  5
2AD4
  8
241
 10
16.283999999999999
 20
-22.649799999999999
 30
0.0
 70
    32
  0
VERTEX
  5
2AD5
  8
241
 10
16.300000000000001
 20
-22.629100000000001
 30
0.0
 70
    32
  0
SEQEND
  5
2AD6
  8
241
  0
LINE
  5
2AD7
  8
240
 10
19.963961443863809
 20
-11.611726135015511
 30
0.0
 11
19.500000402331349
 21
-11.84370662236342
 31
0.0
  0
LINE
  5
2AD8
  8
241
 10
19.500000402331349
 20
-11.84370662236342
 30
0.0
 11
14.30710731074214
 21
-14.440152794122721
 31
0.0
  0
POLYLINE
  5
2AD9
  8
241
 66
     1
 10
0.0
 20
0.0
 30
0.0
 70
     8
  0
VERTEX
  5
2ADA
  8
241
 10
13.7241
 20
-15.431800000000001
 30
0.0
 70
    32
  0
VERTEX
  5
2ADB
  8
241
 10
13.744899999999999
 20
-15.431800000000001
 30
0.0
 70
    32
  0
VERTEX
  5
2ADC
  8
241
 10
13.7658
 20
-15.431699999999999
 30
0.0
 70
    32
  0
VERTEX
  5
2ADD
  8
241
 10
13.7867
 20
-15.4316
 30
0.0
 70
    32
  0
VERTEX
  5
2ADE
  8
241
 10
13.807600000000001
 20
-15.4314
 30
0.0
 70
    32
  0
VERTEX
  5
2ADF
  8
241
 10
13.8285
 20
-15.4312
 30
0.0
 70
    32
  0
VERTEX
  5
2AE0
  8
241
 10
13.849399999999999
 20
-15.430899999999999
 30
0.0
 70
    32
  0
VERTEX
  5
2AE1
  8
241
 10
13.8703
 20
-15.4306
 30
0.0
 70
    32
  0
VERTEX
  5
2AE2
  8
241
 10
13.8912
 20
-15.430300000000001
 30
0.0
 70
    32
  0
VERTEX
  5
2AE3
  8
241
 10
13.912100000000001
 20
-15.4299
 30
0.0
 70
    32
  0
VERTEX
  5
2AE4
  8
241
 10
13.933
 20
-15.429399999999999
 30
0.0
 70
    32
  0
VERTEX
  5
2AE5
  8
241
 10
13.953799999999999
 20
-15.428900000000001
 30
0.0
 70
    32
  0
VERTEX
  5
2AE6
  8
241
 10
13.9747
 20
-15.4284
 30
0.0
 70
    32
  0
VERTEX
  5
2AE7
  8
241
 10
13.9956
 20
-15.4278
 30
0.0
 70
    32
  0
VERTEX
  5
2AE8
  8
241
 10
14.016400000000001
 20
-15.427199999999999
 30
0.0
 70
    32
  0
VERTEX
  5
2AE9
  8
241
 10
14.0373
 20
-15.426500000000001
 30
0.0
 70
    32
  0
VERTEX
  5
2AEA
  8
241
 10
14.058199999999999
 20
-15.425700000000001
 30
0.0
 70
    32
  0
VERTEX
  5
2AEB
  8
241
 10
14.079000000000001
 20
-15.425000000000001
 30
0.0
 70
    32
  0
VERTEX
  5
2AEC
  8
241
 10
14.0999
 20
-15.424099999999999
 30
0.0
 70
    32
  0
VERTEX
  5
2AED
  8
241
 10
14.120699999999999
 20
-15.423299999999999
 30
0.0
 70
    32
  0
VERTEX
  5
2AEE
  8
241
 10
14.1416
 20
-15.4223
 30
0.0
 70
    32
  0
VERTEX
  5
2AEF
  8
241
 10
14.1624
 20
-15.4214
 30
0.0
 70
    32
  0
VERTEX
  5
2AF0
  8
241
 10
14.183199999999999
 20
-15.420400000000001
 30
0.0
 70
    32
  0
VERTEX
  5
2AF1
  8
241
 10
14.204000000000001
 20
-15.4193
 30
0.0
 70
    32
  0
VERTEX
  5
2AF2
  8
241
 10
14.2249
 20
-15.418200000000001
 30
0.0
 70
    32
  0
VERTEX
  5
2AF3
  8
241
 10
14.245699999999999
 20
-15.417
 30
0.0
 70
    32
  0
VERTEX
  5
2AF4
  8
241
 10
14.266500000000001
 20
-15.415800000000001
 30
0.0
 70
    32
  0
VERTEX
  5
2AF5
  8
241
 10
14.2873
 20
-15.4146
 30
0.0
 70
    32
  0
VERTEX
  5
2AF6
  8
241
 10
14.3081
 20
-15.4133
 30
0.0
 70
    32
  0
VERTEX
  5
2AF7
  8
241
 10
14.328799999999999
 20
-15.411899999999999
 30
0.0
 70
    32
  0
VERTEX
  5
2AF8
  8
241
 10
14.349600000000001
 20
-15.410500000000001
 30
0.0
 70
    32
  0
VERTEX
  5
2AF9
  8
241
 10
14.3704
 20
-15.4091
 30
0.0
 70
    32
  0
VERTEX
  5
2AFA
  8
241
 10
14.3911
 20
-15.4076
 30
0.0
 70
    32
  0
VERTEX
  5
2AFB
  8
241
 10
14.411899999999999
 20
-15.4061
 30
0.0
 70
    32
  0
VERTEX
  5
2AFC
  8
241
 10
14.432600000000001
 20
-15.404500000000001
 30
0.0
 70
    32
  0
VERTEX
  5
2AFD
  8
241
 10
14.4533
 20
-15.402900000000001
 30
0.0
 70
    32
  0
VERTEX
  5
2AFE
  8
241
 10
14.474
 20
-15.401199999999999
 30
0.0
 70
    32
  0
VERTEX
  5
2AFF
  8
241
 10
14.4947
 20
-15.3995
 30
0.0
 70
    32
  0
VERTEX
  5
2B00
  8
241
 10
14.5154
 20
-15.3977
 30
0.0
 70
    32
  0
VERTEX
  5
2B01
  8
241
 10
14.536099999999999
 20
-15.395899999999999
 30
0.0
 70
    32
  0
VERTEX
  5
2B02
  8
241
 10
14.556800000000001
 20
-15.3941
 30
0.0
 70
    32
  0
VERTEX
  5
2B03
  8
241
 10
14.577500000000001
 20
-15.392099999999999
 30
0.0
 70
    32
  0
VERTEX
  5
2B04
  8
241
 10
14.598100000000001
 20
-15.3902
 30
0.0
 70
    32
  0
VERTEX
  5
2B05
  8
241
 10
14.6187
 20
-15.388199999999999
 30
0.0
 70
    32
  0
VERTEX
  5
2B06
  8
241
 10
14.6394
 20
-15.386100000000001
 30
0.0
 70
    32
  0
VERTEX
  5
2B07
  8
241
 10
14.66
 20
-15.3841
 30
0.0
 70
    32
  0
VERTEX
  5
2B08
  8
241
 10
14.6806
 20
-15.3819
 30
0.0
 70
    32
  0
VERTEX
  5
2B09
  8
241
 10
14.7012
 20
-15.3797
 30
0.0
 70
    32
  0
VERTEX
  5
2B0A
  8
241
 10
14.7217
 20
-15.3775
 30
0.0
 70
    32
  0
VERTEX
  5
2B0B
  8
241
 10
14.7423
 20
-15.3752
 30
0.0
 70
    32
  0
VERTEX
  5
2B0C
  8
241
 10
14.7628
 20
-15.3729
 30
0.0
 70
    32
  0
VERTEX
  5
2B0D
  8
241
 10
14.7834
 20
-15.3705
 30
0.0
 70
    32
  0
VERTEX
  5
2B0E
  8
241
 10
14.803900000000001
 20
-15.3681
 30
0.0
 70
    32
  0
VERTEX
  5
2B0F
  8
241
 10
14.824400000000001
 20
-15.365600000000001
 30
0.0
 70
    32
  0
VERTEX
  5
2B10
  8
241
 10
14.844900000000001
 20
-15.363099999999999
 30
0.0
 70
    32
  0
VERTEX
  5
2B11
  8
241
 10
14.865399999999999
 20
-15.3606
 30
0.0
 70
    32
  0
VERTEX
  5
2B12
  8
241
 10
14.8858
 20
-15.358000000000001
 30
0.0
 70
    32
  0
VERTEX
  5
2B13
  8
241
 10
14.9063
 20
-15.3553
 30
0.0
 70
    32
  0
VERTEX
  5
2B14
  8
241
 10
14.9267
 20
-15.352600000000001
 30
0.0
 70
    32
  0
VERTEX
  5
2B15
  8
241
 10
14.947100000000001
 20
-15.3499
 30
0.0
 70
    32
  0
VERTEX
  5
2B16
  8
241
 10
14.967499999999999
 20
-15.347099999999999
 30
0.0
 70
    32
  0
VERTEX
  5
2B17
  8
241
 10
14.9879
 20
-15.344200000000001
 30
0.0
 70
    32
  0
VERTEX
  5
2B18
  8
241
 10
15.0082
 20
-15.3414
 30
0.0
 70
    32
  0
VERTEX
  5
2B19
  8
241
 10
15.028499999999999
 20
-15.3384
 30
0.0
 70
    32
  0
VERTEX
  5
2B1A
  8
241
 10
15.0489
 20
-15.3355
 30
0.0
 70
    32
  0
VERTEX
  5
2B1B
  8
241
 10
15.0692
 20
-15.3324
 30
0.0
 70
    32
  0
VERTEX
  5
2B1C
  8
241
 10
15.089499999999999
 20
-15.3294
 30
0.0
 70
    32
  0
VERTEX
  5
2B1D
  8
241
 10
15.1097
 20
-15.3263
 30
0.0
 70
    32
  0
VERTEX
  5
2B1E
  8
241
 10
15.130000000000001
 20
-15.3231
 30
0.0
 70
    32
  0
VERTEX
  5
2B1F
  8
241
 10
15.1502
 20
-15.319900000000001
 30
0.0
 70
    32
  0
VERTEX
  5
2B20
  8
241
 10
15.170400000000001
 20
-15.316599999999999
 30
0.0
 70
    32
  0
VERTEX
  5
2B21
  8
241
 10
15.1906
 20
-15.3134
 30
0.0
 70
    32
  0
VERTEX
  5
2B22
  8
241
 10
15.210800000000001
 20
-15.31
 30
0.0
 70
    32
  0
VERTEX
  5
2B23
  8
241
 10
15.2309
 20
-15.3066
 30
0.0
 70
    32
  0
VERTEX
  5
2B24
  8
241
 10
15.251099999999999
 20
-15.3032
 30
0.0
 70
    32
  0
VERTEX
  5
2B25
  8
241
 10
15.2712
 20
-15.2997
 30
0.0
 70
    32
  0
VERTEX
  5
2B26
  8
241
 10
15.2912
 20
-15.296200000000001
 30
0.0
 70
    32
  0
VERTEX
  5
2B27
  8
241
 10
15.311299999999999
 20
-15.2926
 30
0.0
 70
    32
  0
VERTEX
  5
2B28
  8
241
 10
15.3314
 20
-15.289
 30
0.0
 70
    32
  0
VERTEX
  5
2B29
  8
241
 10
15.3514
 20
-15.285399999999999
 30
0.0
 70
    32
  0
VERTEX
  5
2B2A
  8
241
 10
15.3714
 20
-15.281700000000001
 30
0.0
 70
    32
  0
VERTEX
  5
2B2B
  8
241
 10
15.391400000000001
 20
-15.277900000000001
 30
0.0
 70
    32
  0
VERTEX
  5
2B2C
  8
241
 10
15.411300000000001
 20
-15.274100000000001
 30
0.0
 70
    32
  0
VERTEX
  5
2B2D
  8
241
 10
15.4312
 20
-15.270300000000001
 30
0.0
 70
    32
  0
VERTEX
  5
2B2E
  8
241
 10
15.4512
 20
-15.266400000000001
 30
0.0
 70
    32
  0
VERTEX
  5
2B2F
  8
241
 10
15.471
 20
-15.262499999999999
 30
0.0
 70
    32
  0
VERTEX
  5
2B30
  8
241
 10
15.4909
 20
-15.2585
 30
0.0
 70
    32
  0
VERTEX
  5
2B31
  8
241
 10
15.5107
 20
-15.2545
 30
0.0
 70
    32
  0
VERTEX
  5
2B32
  8
241
 10
15.5305
 20
-15.250400000000001
 30
0.0
 70
    32
  0
VERTEX
  5
2B33
  8
241
 10
15.5503
 20
-15.2463
 30
0.0
 70
    32
  0
VERTEX
  5
2B34
  8
241
 10
15.5701
 20
-15.242100000000001
 30
0.0
 70
    32
  0
VERTEX
  5
2B35
  8
241
 10
15.5898
 20
-15.2379
 30
0.0
 70
    32
  0
VERTEX
  5
2B36
  8
241
 10
15.6096
 20
-15.233700000000001
 30
0.0
 70
    32
  0
VERTEX
  5
2B37
  8
241
 10
15.629200000000001
 20
-15.2294
 30
0.0
 70
    32
  0
VERTEX
  5
2B38
  8
241
 10
15.648899999999999
 20
-15.225099999999999
 30
0.0
 70
    32
  0
VERTEX
  5
2B39
  8
241
 10
15.6685
 20
-15.220700000000001
 30
0.0
 70
    32
  0
VERTEX
  5
2B3A
  8
241
 10
15.6881
 20
-15.2163
 30
0.0
 70
    32
  0
VERTEX
  5
2B3B
  8
241
 10
15.707700000000001
 20
-15.2118
 30
0.0
 70
    32
  0
VERTEX
  5
2B3C
  8
241
 10
15.7273
 20
-15.2073
 30
0.0
 70
    32
  0
VERTEX
  5
2B3D
  8
241
 10
15.7468
 20
-15.2028
 30
0.0
 70
    32
  0
VERTEX
  5
2B3E
  8
241
 10
15.766299999999999
 20
-15.1982
 30
0.0
 70
    32
  0
VERTEX
  5
2B3F
  8
241
 10
15.7858
 20
-15.1935
 30
0.0
 70
    32
  0
VERTEX
  5
2B40
  8
241
 10
15.805199999999999
 20
-15.188800000000001
 30
0.0
 70
    32
  0
VERTEX
  5
2B41
  8
241
 10
15.8246
 20
-15.184100000000001
 30
0.0
 70
    32
  0
VERTEX
  5
2B42
  8
241
 10
15.843999999999999
 20
-15.1793
 30
0.0
 70
    32
  0
VERTEX
  5
2B43
  8
241
 10
15.8634
 20
-15.1745
 30
0.0
 70
    32
  0
VERTEX
  5
2B44
  8
241
 10
15.8827
 20
-15.169700000000001
 30
0.0
 70
    32
  0
VERTEX
  5
2B45
  8
241
 10
15.901999999999999
 20
-15.1648
 30
0.0
 70
    32
  0
VERTEX
  5
2B46
  8
241
 10
15.9213
 20
-15.159800000000001
 30
0.0
 70
    32
  0
VERTEX
  5
2B47
  8
241
 10
15.9405
 20
-15.1548
 30
0.0
 70
    32
  0
VERTEX
  5
2B48
  8
241
 10
15.9597
 20
-15.149800000000001
 30
0.0
 70
    32
  0
VERTEX
  5
2B49
  8
241
 10
15.978899999999999
 20
-15.1447
 30
0.0
 70
    32
  0
VERTEX
  5
2B4A
  8
241
 10
15.997999999999999
 20
-15.1396
 30
0.0
 70
    32
  0
VERTEX
  5
2B4B
  8
241
 10
16.017199999999999
 20
-15.134399999999999
 30
0.0
 70
    32
  0
VERTEX
  5
2B4C
  8
241
 10
16.036200000000001
 20
-15.129200000000001
 30
0.0
 70
    32
  0
VERTEX
  5
2B4D
  8
241
 10
16.055299999999999
 20
-15.124000000000001
 30
0.0
 70
    32
  0
VERTEX
  5
2B4E
  8
241
 10
16.074300000000001
 20
-15.1187
 30
0.0
 70
    32
  0
VERTEX
  5
2B4F
  8
241
 10
16.093299999999999
 20
-15.113300000000001
 30
0.0
 70
    32
  0
VERTEX
  5
2B50
  8
241
 10
16.112300000000001
 20
-15.107900000000001
 30
0.0
 70
    32
  0
VERTEX
  5
2B51
  8
241
 10
16.1312
 20
-15.102499999999999
 30
0.0
 70
    32
  0
VERTEX
  5
2B52
  8
241
 10
16.150099999999998
 20
-15.097099999999999
 30
0.0
 70
    32
  0
VERTEX
  5
2B53
  8
241
 10
16.168900000000001
 20
-15.0915
 30
0.0
 70
    32
  0
VERTEX
  5
2B54
  8
241
 10
16.187799999999999
 20
-15.086
 30
0.0
 70
    32
  0
VERTEX
  5
2B55
  8
241
 10
16.206600000000002
 20
-15.080399999999999
 30
0.0
 70
    32
  0
VERTEX
  5
2B56
  8
241
 10
16.225300000000001
 20
-15.0748
 30
0.0
 70
    32
  0
VERTEX
  5
2B57
  8
241
 10
16.244
 20
-15.069100000000001
 30
0.0
 70
    32
  0
VERTEX
  5
2B58
  8
241
 10
16.262699999999999
 20
-15.0634
 30
0.0
 70
    32
  0
VERTEX
  5
2B59
  8
241
 10
16.281400000000001
 20
-15.057600000000001
 30
0.0
 70
    32
  0
VERTEX
  5
2B5A
  8
241
 10
16.300000000000001
 20
-15.0518
 30
0.0
 70
    32
  0
SEQEND
  5
2B5B
  8
241
  0
LINE
  5
2B5C
  8
241
 10
14.30710731074214
 20
5.478115752339332
 30
0.0
 11
19.500000402331349
 21
8.0745627790364694
 31
0.0
  0
LINE
  5
2B5D
  8
240
 10
19.500000402331349
 20
8.0745627790364694
 30
0.0
 11
19.963961443863809
 21
8.3065433427691175
 31
0.0
  0
LINE
  5
2B5E
  8
241
 10
19.075420044828199
 20
12.015154585242239
 30
0.0
 11
14.304107986390591
 21
14.400810003280601
 31
0.0
  0
LINE
  5
2B5F
  8
240
 10
19.963961443863809
 20
20.625375211238829
 30
0.0
 11
14.30710731074214
 21
26.282230392098398
 31
0.0
  0
LINE
  5
2B60
  8
240
 10
0.0
 20
-19.500000402331381
 30
0.0
 11
0.0
 21
-11.00000000000003
 31
0.0
  0
LINE
  5
2B61
  8
240
 10
0.0
 20
10.99999999999997
 30
0.0
 11
0.0
 21
19.50000040233132
 31
0.0
  0
LINE
  5
2B62
  8
241
 10
6.5999999642372131
 20
-19.500000402331381
 30
0.0
 11
6.5999999642372131
 21
5.7318819308905162
 31
0.0
  0
LINE
  5
2B63
  8
240
 10
12.89289351552725
 20
-26.282230392098459
 30
0.0
 11
7.2360392659902573
 21
-20.62537521123889
 31
0.0
  0
LINE
  5
2B64
  8
241
 10
14.20000055804848
 20
-25.845456868410139
 30
0.0
 11
14.20000055804848
 21
-25.224981829524069
 31
0.0
  0
LINE
  5
2B65
  8
241
 10
13.0000002682209
 20
-25.845456868410139
 30
0.0
 11
13.0000002682209
 21
-25.224981829524069
 31
0.0
  0
LINE
  5
2B66
  8
240
 10
14.30710731074214
 20
-26.282230392098459
 30
0.0
 11
12.89289351552725
 21
-26.282230392098459
 31
0.0
  0
LINE
  5
2B67
  8
241
 10
13.0000002682209
 20
-25.845456868410139
 30
0.0
 11
14.20000055804848
 21
-25.845456868410139
 31
0.0
  0
LINE
  5
2B68
  8
241
 10
12.89289351552725
 20
-14.440152794122721
 30
0.0
 11
6.913636790364535
 21
-11.450524923742201
 31
0.0
  0
LINE
  5
2B69
  8
241
 10
14.30710731074214
 20
-14.440152794122721
 30
0.0
 11
14.3040331642997
 21
-11.417393900071501
 31
0.0
  0
LINE
  5
2B6A
  8
241
 10
12.89366511628031
 20
-13.68162501603368
 30
0.0
 11
12.89289351552725
 21
-14.440152794122721
 31
0.0
  0
POLYLINE
  5
2B6B
  8
241
 66
     1
 10
0.0
 20
0.0
 30
0.0
 70
     8
  0
VERTEX
  5
2B6C
  8
241
 10
6.6155299999999988
 20
-13.3101
 30
0.0
 70
    32
  0
VERTEX
  5
2B6D
  8
241
 10
6.6205100000000003
 20
-13.3407
 30
0.0
 70
    32
  0
VERTEX
  5
2B6E
  8
241
 10
6.6255300000000004
 20
-13.3714
 30
0.0
 70
    32
  0
VERTEX
  5
2B6F
  8
241
 10
6.6306000000000003
 20
-13.401999999999999
 30
0.0
 70
    32
  0
VERTEX
  5
2B70
  8
241
 10
6.6357200000000001
 20
-13.432600000000001
 30
0.0
 70
    32
  0
VERTEX
  5
2B71
  8
241
 10
6.6408699999999987
 20
-13.463100000000001
 30
0.0
 70
    32
  0
VERTEX
  5
2B72
  8
241
 10
6.6460800000000004
 20
-13.4937
 30
0.0
 70
    32
  0
VERTEX
  5
2B73
  8
241
 10
6.6513200000000001
 20
-13.5242
 30
0.0
 70
    32
  0
VERTEX
  5
2B74
  8
241
 10
6.6566099999999988
 20
-13.5547
 30
0.0
 70
    32
  0
VERTEX
  5
2B75
  8
241
 10
6.6619399999999986
 20
-13.5852
 30
0.0
 70
    32
  0
VERTEX
  5
2B76
  8
241
 10
6.6673200000000001
 20
-13.615600000000001
 30
0.0
 70
    32
  0
VERTEX
  5
2B77
  8
241
 10
6.672749999999998
 20
-13.646000000000001
 30
0.0
 70
    32
  0
VERTEX
  5
2B78
  8
241
 10
6.67821
 20
-13.676399999999999
 30
0.0
 70
    32
  0
VERTEX
  5
2B79
  8
241
 10
6.6837200000000001
 20
-13.706799999999999
 30
0.0
 70
    32
  0
VERTEX
  5
2B7A
  8
241
 10
6.6892800000000001
 20
-13.7372
 30
0.0
 70
    32
  0
VERTEX
  5
2B7B
  8
241
 10
6.6948800000000004
 20
-13.7675
 30
0.0
 70
    32
  0
VERTEX
  5
2B7C
  8
241
 10
6.7005299999999988
 20
-13.797800000000001
 30
0.0
 70
    32
  0
VERTEX
  5
2B7D
  8
241
 10
6.7062200000000001
 20
-13.828099999999999
 30
0.0
 70
    32
  0
VERTEX
  5
2B7E
  8
241
 10
6.7119499999999981
 20
-13.8584
 30
0.0
 70
    32
  0
VERTEX
  5
2B7F
  8
241
 10
6.7177300000000004
 20
-13.8886
 30
0.0
 70
    32
  0
VERTEX
  5
2B80
  8
241
 10
6.7235500000000004
 20
-13.918799999999999
 30
0.0
 70
    32
  0
VERTEX
  5
2B81
  8
241
 10
6.7294199999999993
 20
-13.949
 30
0.0
 70
    32
  0
VERTEX
  5
2B82
  8
241
 10
6.7353300000000003
 20
-13.979200000000001
 30
0.0
 70
    32
  0
VERTEX
  5
2B83
  8
241
 10
6.7412899999999993
 20
-14.009399999999999
 30
0.0
 70
    32
  0
VERTEX
  5
2B84
  8
241
 10
6.7473000000000001
 20
-14.0395
 30
0.0
 70
    32
  0
VERTEX
  5
2B85
  8
241
 10
6.7533500000000002
 20
-14.069599999999999
 30
0.0
 70
    32
  0
VERTEX
  5
2B86
  8
241
 10
6.7594399999999979
 20
-14.0997
 30
0.0
 70
    32
  0
VERTEX
  5
2B87
  8
241
 10
6.765579999999999
 20
-14.129799999999999
 30
0.0
 70
    32
  0
VERTEX
  5
2B88
  8
241
 10
6.7717599999999987
 20
-14.159800000000001
 30
0.0
 70
    32
  0
VERTEX
  5
2B89
  8
241
 10
6.7779899999999991
 20
-14.1898
 30
0.0
 70
    32
  0
VERTEX
  5
2B8A
  8
241
 10
6.7842700000000002
 20
-14.219799999999999
 30
0.0
 70
    32
  0
VERTEX
  5
2B8B
  8
241
 10
6.790589999999999
 20
-14.2498
 30
0.0
 70
    32
  0
VERTEX
  5
2B8C
  8
241
 10
6.796949999999998
 20
-14.2798
 30
0.0
 70
    32
  0
VERTEX
  5
2B8D
  8
241
 10
6.8033599999999987
 20
-14.309699999999999
 30
0.0
 70
    32
  0
VERTEX
  5
2B8E
  8
241
 10
6.8098199999999993
 20
-14.339600000000001
 30
0.0
 70
    32
  0
VERTEX
  5
2B8F
  8
241
 10
6.8163199999999993
 20
-14.3695
 30
0.0
 70
    32
  0
VERTEX
  5
2B90
  8
241
 10
6.8228699999999991
 20
-14.3994
 30
0.0
 70
    32
  0
VERTEX
  5
2B91
  8
241
 10
6.8294600000000001
 20
-14.4292
 30
0.0
 70
    32
  0
VERTEX
  5
2B92
  8
241
 10
6.8361000000000001
 20
-14.459099999999999
 30
0.0
 70
    32
  0
VERTEX
  5
2B93
  8
241
 10
6.842789999999999
 20
-14.488899999999999
 30
0.0
 70
    32
  0
VERTEX
  5
2B94
  8
241
 10
6.8495200000000001
 20
-14.518700000000001
 30
0.0
 70
    32
  0
VERTEX
  5
2B95
  8
241
 10
6.8563000000000001
 20
-14.548400000000001
 30
0.0
 70
    32
  0
VERTEX
  5
2B96
  8
241
 10
6.8631200000000003
 20
-14.578200000000001
 30
0.0
 70
    32
  0
VERTEX
  5
2B97
  8
241
 10
6.8699899999999987
 20
-14.607900000000001
 30
0.0
 70
    32
  0
VERTEX
  5
2B98
  8
241
 10
6.8769
 20
-14.637600000000001
 30
0.0
 70
    32
  0
VERTEX
  5
2B99
  8
241
 10
6.8838600000000003
 20
-14.667299999999999
 30
0.0
 70
    32
  0
VERTEX
  5
2B9A
  8
241
 10
6.8908699999999987
 20
-14.696999999999999
 30
0.0
 70
    32
  0
VERTEX
  5
2B9B
  8
241
 10
6.8979299999999988
 20
-14.726599999999999
 30
0.0
 70
    32
  0
VERTEX
  5
2B9C
  8
241
 10
6.90503
 20
-14.7562
 30
0.0
 70
    32
  0
VERTEX
  5
2B9D
  8
241
 10
6.9121699999999979
 20
-14.7858
 30
0.0
 70
    32
  0
VERTEX
  5
2B9E
  8
241
 10
6.9193600000000002
 20
-14.8154
 30
0.0
 70
    32
  0
VERTEX
  5
2B9F
  8
241
 10
6.9265999999999979
 20
-14.845000000000001
 30
0.0
 70
    32
  0
VERTEX
  5
2BA0
  8
241
 10
6.9338899999999981
 20
-14.874499999999999
 30
0.0
 70
    32
  0
VERTEX
  5
2BA1
  8
241
 10
6.9412199999999986
 20
-14.9041
 30
0.0
 70
    32
  0
VERTEX
  5
2BA2
  8
241
 10
6.9485999999999981
 20
-14.9336
 30
0.0
 70
    32
  0
VERTEX
  5
2BA3
  8
241
 10
6.9560300000000002
 20
-14.963100000000001
 30
0.0
 70
    32
  0
VERTEX
  5
2BA4
  8
241
 10
6.963499999999998
 20
-14.9925
 30
0.0
 70
    32
  0
VERTEX
  5
2BA5
  8
241
 10
6.9710199999999993
 20
-15.022
 30
0.0
 70
    32
  0
VERTEX
  5
2BA6
  8
241
 10
6.97858
 20
-15.051399999999999
 30
0.0
 70
    32
  0
VERTEX
  5
2BA7
  8
241
 10
6.9862000000000002
 20
-15.0808
 30
0.0
 70
    32
  0
VERTEX
  5
2BA8
  8
241
 10
6.9938599999999989
 20
-15.110200000000001
 30
0.0
 70
    32
  0
VERTEX
  5
2BA9
  8
241
 10
7.0015599999999987
 20
-15.1396
 30
0.0
 70
    32
  0
VERTEX
  5
2BAA
  8
241
 10
7.009319999999998
 20
-15.169
 30
0.0
 70
    32
  0
VERTEX
  5
2BAB
  8
241
 10
7.0171200000000002
 20
-15.1983
 30
0.0
 70
    32
  0
VERTEX
  5
2BAC
  8
241
 10
7.0249699999999979
 20
-15.227600000000001
 30
0.0
 70
    32
  0
VERTEX
  5
2BAD
  8
241
 10
7.0328600000000003
 20
-15.2569
 30
0.0
 70
    32
  0
VERTEX
  5
2BAE
  8
241
 10
7.0407999999999991
 20
-15.286199999999999
 30
0.0
 70
    32
  0
VERTEX
  5
2BAF
  8
241
 10
7.0487899999999986
 20
-15.3155
 30
0.0
 70
    32
  0
VERTEX
  5
2BB0
  8
241
 10
7.0568299999999988
 20
-15.3447
 30
0.0
 70
    32
  0
VERTEX
  5
2BB1
  8
241
 10
7.0649199999999981
 20
-15.373900000000001
 30
0.0
 70
    32
  0
VERTEX
  5
2BB2
  8
241
 10
7.0730500000000003
 20
-15.4031
 30
0.0
 70
    32
  0
VERTEX
  5
2BB3
  8
241
 10
7.0812299999999988
 20
-15.4323
 30
0.0
 70
    32
  0
VERTEX
  5
2BB4
  8
241
 10
7.0894500000000003
 20
-15.461499999999999
 30
0.0
 70
    32
  0
VERTEX
  5
2BB5
  8
241
 10
7.0977300000000003
 20
-15.4907
 30
0.0
 70
    32
  0
VERTEX
  5
2BB6
  8
241
 10
7.106049999999998
 20
-15.5198
 30
0.0
 70
    32
  0
VERTEX
  5
2BB7
  8
241
 10
7.1144199999999991
 20
-15.5489
 30
0.0
 70
    32
  0
VERTEX
  5
2BB8
  8
241
 10
7.1228399999999992
 20
-15.577999999999999
 30
0.0
 70
    32
  0
VERTEX
  5
2BB9
  8
241
 10
7.13131
 20
-15.607100000000001
 30
0.0
 70
    32
  0
VERTEX
  5
2BBA
  8
241
 10
7.1398200000000003
 20
-15.636200000000001
 30
0.0
 70
    32
  0
VERTEX
  5
2BBB
  8
241
 10
7.1483800000000004
 20
-15.6652
 30
0.0
 70
    32
  0
VERTEX
  5
2BBC
  8
241
 10
7.1569899999999986
 20
-15.6942
 30
0.0
 70
    32
  0
VERTEX
  5
2BBD
  8
241
 10
7.1656500000000003
 20
-15.7233
 30
0.0
 70
    32
  0
VERTEX
  5
2BBE
  8
241
 10
7.1743600000000001
 20
-15.7523
 30
0.0
 70
    32
  0
VERTEX
  5
2BBF
  8
241
 10
7.1831100000000001
 20
-15.7812
 30
0.0
 70
    32
  0
VERTEX
  5
2BC0
  8
241
 10
7.19191
 20
-15.8102
 30
0.0
 70
    32
  0
VERTEX
  5
2BC1
  8
241
 10
7.2007599999999989
 20
-15.8392
 30
0.0
 70
    32
  0
VERTEX
  5
2BC2
  8
241
 10
7.2096600000000004
 20
-15.8681
 30
0.0
 70
    32
  0
VERTEX
  5
2BC3
  8
241
 10
7.21861
 20
-15.897
 30
0.0
 70
    32
  0
VERTEX
  5
2BC4
  8
241
 10
7.2276100000000003
 20
-15.9259
 30
0.0
 70
    32
  0
VERTEX
  5
2BC5
  8
241
 10
7.23665
 20
-15.954800000000001
 30
0.0
 70
    32
  0
VERTEX
  5
2BC6
  8
241
 10
7.2457500000000001
 20
-15.983700000000001
 30
0.0
 70
    32
  0
VERTEX
  5
2BC7
  8
241
 10
7.2548899999999978
 20
-16.012499999999999
 30
0.0
 70
    32
  0
VERTEX
  5
2BC8
  8
241
 10
7.2640899999999977
 20
-16.041399999999999
 30
0.0
 70
    32
  0
VERTEX
  5
2BC9
  8
241
 10
7.2733299999999979
 20
-16.0702
 30
0.0
 70
    32
  0
VERTEX
  5
2BCA
  8
241
 10
7.2826199999999988
 20
-16.099
 30
0.0
 70
    32
  0
VERTEX
  5
2BCB
  8
241
 10
7.2919600000000004
 20
-16.127800000000001
 30
0.0
 70
    32
  0
VERTEX
  5
2BCC
  8
241
 10
7.3013500000000002
 20
-16.156500000000001
 30
0.0
 70
    32
  0
VERTEX
  5
2BCD
  8
241
 10
7.3107800000000003
 20
-16.185300000000002
 30
0.0
 70
    32
  0
VERTEX
  5
2BCE
  8
241
 10
7.3202699999999989
 20
-16.214099999999998
 30
0.0
 70
    32
  0
VERTEX
  5
2BCF
  8
241
 10
7.3298100000000002
 20
-16.242799999999999
 30
0.0
 70
    32
  0
VERTEX
  5
2BD0
  8
241
 10
7.3394000000000004
 20
-16.2715
 30
0.0
 70
    32
  0
VERTEX
  5
2BD1
  8
241
 10
7.3490299999999982
 20
-16.3002
 30
0.0
 70
    32
  0
VERTEX
  5
2BD2
  8
241
 10
7.358719999999999
 20
-16.328900000000001
 30
0.0
 70
    32
  0
VERTEX
  5
2BD3
  8
241
 10
7.3684500000000002
 20
-16.357600000000001
 30
0.0
 70
    32
  0
VERTEX
  5
2BD4
  8
241
 10
7.378239999999999
 20
-16.386199999999999
 30
0.0
 70
    32
  0
VERTEX
  5
2BD5
  8
241
 10
7.388069999999999
 20
-16.414899999999999
 30
0.0
 70
    32
  0
VERTEX
  5
2BD6
  8
241
 10
7.3979600000000003
 20
-16.4435
 30
0.0
 70
    32
  0
VERTEX
  5
2BD7
  8
241
 10
7.4078899999999983
 20
-16.472100000000001
 30
0.0
 70
    32
  0
VERTEX
  5
2BD8
  8
241
 10
7.4178800000000003
 20
-16.500699999999998
 30
0.0
 70
    32
  0
VERTEX
  5
2BD9
  8
241
 10
7.4279199999999976
 20
-16.529299999999999
 30
0.0
 70
    32
  0
VERTEX
  5
2BDA
  8
241
 10
7.4379999999999988
 20
-16.5579
 30
0.0
 70
    32
  0
VERTEX
  5
2BDB
  8
241
 10
7.4481399999999978
 20
-16.586400000000001
 30
0.0
 70
    32
  0
VERTEX
  5
2BDC
  8
241
 10
7.4583199999999978
 20
-16.614999999999998
 30
0.0
 70
    32
  0
VERTEX
  5
2BDD
  8
241
 10
7.4685600000000001
 20
-16.6435
 30
0.0
 70
    32
  0
VERTEX
  5
2BDE
  8
241
 10
7.4788500000000004
 20
-16.6721
 30
0.0
 70
    32
  0
VERTEX
  5
2BDF
  8
241
 10
7.4891899999999989
 20
-16.700600000000001
 30
0.0
 70
    32
  0
VERTEX
  5
2BE0
  8
241
 10
7.499579999999999
 20
-16.729099999999999
 30
0.0
 70
    32
  0
VERTEX
  5
2BE1
  8
241
 10
7.510019999999999
 20
-16.7575
 30
0.0
 70
    32
  0
VERTEX
  5
2BE2
  8
241
 10
7.5205099999999989
 20
-16.786000000000001
 30
0.0
 70
    32
  0
VERTEX
  5
2BE3
  8
241
 10
7.5310499999999978
 20
-16.814499999999999
 30
0.0
 70
    32
  0
VERTEX
  5
2BE4
  8
241
 10
7.5416399999999983
 20
-16.8429
 30
0.0
 70
    32
  0
VERTEX
  5
2BE5
  8
241
 10
7.5522799999999979
 20
-16.871400000000001
 30
0.0
 70
    32
  0
VERTEX
  5
2BE6
  8
241
 10
7.5629799999999978
 20
-16.899799999999999
 30
0.0
 70
    32
  0
VERTEX
  5
2BE7
  8
241
 10
7.5737199999999989
 20
-16.9282
 30
0.0
 70
    32
  0
VERTEX
  5
2BE8
  8
241
 10
7.5845199999999977
 20
-16.956600000000002
 30
0.0
 70
    32
  0
VERTEX
  5
2BE9
  8
241
 10
7.5953699999999982
 20
-16.984999999999999
 30
0.0
 70
    32
  0
VERTEX
  5
2BEA
  8
241
 10
7.6062699999999976
 20
-17.013400000000001
 30
0.0
 70
    32
  0
VERTEX
  5
2BEB
  8
241
 10
7.6172199999999988
 20
-17.041699999999999
 30
0.0
 70
    32
  0
VERTEX
  5
2BEC
  8
241
 10
7.6282199999999989
 20
-17.0701
 30
0.0
 70
    32
  0
VERTEX
  5
2BED
  8
241
 10
7.6392800000000003
 20
-17.098400000000002
 30
0.0
 70
    32
  0
VERTEX
  5
2BEE
  8
241
 10
7.6503800000000002
 20
-17.126799999999999
 30
0.0
 70
    32
  0
VERTEX
  5
2BEF
  8
241
 10
7.6615399999999978
 20
-17.155100000000001
 30
0.0
 70
    32
  0
VERTEX
  5
2BF0
  8
241
 10
7.6727499999999988
 20
-17.183399999999999
 30
0.0
 70
    32
  0
VERTEX
  5
2BF1
  8
241
 10
7.6840099999999989
 20
-17.2117
 30
0.0
 70
    32
  0
VERTEX
  5
2BF2
  8
241
 10
7.6953199999999988
 20
-17.239999999999998
 30
0.0
 70
    32
  0
VERTEX
  5
2BF3
  8
241
 10
7.7066899999999983
 20
-17.2683
 30
0.0
 70
    32
  0
VERTEX
  5
2BF4
  8
241
 10
7.7181100000000002
 20
-17.296600000000002
 30
0.0
 70
    32
  0
VERTEX
  5
2BF5
  8
241
 10
7.7295800000000003
 20
-17.3248
 30
0.0
 70
    32
  0
VERTEX
  5
2BF6
  8
241
 10
7.7411000000000003
 20
-17.353100000000001
 30
0.0
 70
    32
  0
VERTEX
  5
2BF7
  8
241
 10
7.7526699999999984
 20
-17.3813
 30
0.0
 70
    32
  0
VERTEX
  5
2BF8
  8
241
 10
7.7643000000000004
 20
-17.409600000000001
 30
0.0
 70
    32
  0
VERTEX
  5
2BF9
  8
241
 10
7.7759799999999979
 20
-17.437799999999999
 30
0.0
 70
    32
  0
VERTEX
  5
2BFA
  8
241
 10
7.7877099999999979
 20
-17.466000000000001
 30
0.0
 70
    32
  0
VERTEX
  5
2BFB
  8
241
 10
7.7995000000000001
 20
-17.494199999999999
 30
0.0
 70
    32
  0
VERTEX
  5
2BFC
  8
241
 10
7.8113299999999981
 20
-17.522400000000001
 30
0.0
 70
    32
  0
VERTEX
  5
2BFD
  8
241
 10
7.8232200000000001
 20
-17.550599999999999
 30
0.0
 70
    32
  0
VERTEX
  5
2BFE
  8
241
 10
7.8351699999999989
 20
-17.578700000000001
 30
0.0
 70
    32
  0
VERTEX
  5
2BFF
  8
241
 10
7.8471599999999979
 20
-17.6069
 30
0.0
 70
    32
  0
VERTEX
  5
2C00
  8
241
 10
7.85921
 20
-17.635100000000001
 30
0.0
 70
    32
  0
VERTEX
  5
2C01
  8
241
 10
7.8713100000000003
 20
-17.6632
 30
0.0
 70
    32
  0
VERTEX
  5
2C02
  8
241
 10
7.8834699999999982
 20
-17.691400000000002
 30
0.0
 70
    32
  0
VERTEX
  5
2C03
  8
241
 10
7.8956799999999978
 20
-17.7195
 30
0.0
 70
    32
  0
VERTEX
  5
2C04
  8
241
 10
7.9079399999999982
 20
-17.747599999999991
 30
0.0
 70
    32
  0
VERTEX
  5
2C05
  8
241
 10
7.9202500000000002
 20
-17.775700000000001
 30
0.0
 70
    32
  0
VERTEX
  5
2C06
  8
241
 10
7.93262
 20
-17.803899999999999
 30
0.0
 70
    32
  0
VERTEX
  5
2C07
  8
241
 10
7.9450399999999988
 20
-17.832000000000001
 30
0.0
 70
    32
  0
VERTEX
  5
2C08
  8
241
 10
7.9575199999999988
 20
-17.860099999999999
 30
0.0
 70
    32
  0
VERTEX
  5
2C09
  8
241
 10
7.9700499999999979
 20
-17.888100000000001
 30
0.0
 70
    32
  0
VERTEX
  5
2C0A
  8
241
 10
7.9826300000000003
 20
-17.9162
 30
0.0
 70
    32
  0
VERTEX
  5
2C0B
  8
241
 10
7.9952699999999988
 20
-17.944299999999991
 30
0.0
 70
    32
  0
VERTEX
  5
2C0C
  8
241
 10
8.0079600000000006
 20
-17.9724
 30
0.0
 70
    32
  0
VERTEX
  5
2C0D
  8
241
 10
8.0207100000000011
 20
-18.000399999999999
 30
0.0
 70
    32
  0
VERTEX
  5
2C0E
  8
241
 10
8.0335099999999962
 20
-18.028500000000001
 30
0.0
 70
    32
  0
VERTEX
  5
2C0F
  8
241
 10
8.0463699999999978
 20
-18.0565
 30
0.0
 70
    32
  0
VERTEX
  5
2C10
  8
241
 10
8.0592800000000011
 20
-18.084599999999998
 30
0.0
 70
    32
  0
VERTEX
  5
2C11
  8
241
 10
8.0722500000000004
 20
-18.1126
 30
0.0
 70
    32
  0
VERTEX
  5
2C12
  8
241
 10
8.0852799999999991
 20
-18.140699999999999
 30
0.0
 70
    32
  0
VERTEX
  5
2C13
  8
241
 10
8.0983600000000013
 20
-18.168700000000001
 30
0.0
 70
    32
  0
VERTEX
  5
2C14
  8
241
 10
8.1114999999999977
 20
-18.1967
 30
0.0
 70
    32
  0
VERTEX
  5
2C15
  8
241
 10
8.1246899999999975
 20
-18.224799999999998
 30
0.0
 70
    32
  0
VERTEX
  5
2C16
  8
241
 10
8.1379399999999986
 20
-18.252800000000001
 30
0.0
 70
    32
  0
VERTEX
  5
2C17
  8
241
 10
8.1512499999999992
 20
-18.280799999999999
 30
0.0
 70
    32
  0
VERTEX
  5
2C18
  8
241
 10
8.1646099999999961
 20
-18.308800000000002
 30
0.0
 70
    32
  0
VERTEX
  5
2C19
  8
241
 10
8.1780200000000001
 20
-18.3368
 30
0.0
 70
    32
  0
VERTEX
  5
2C1A
  8
241
 10
8.1914899999999982
 20
-18.364799999999999
 30
0.0
 70
    32
  0
VERTEX
  5
2C1B
  8
241
 10
8.2050199999999975
 20
-18.392800000000001
 30
0.0
 70
    32
  0
VERTEX
  5
2C1C
  8
241
 10
8.2186000000000003
 20
-18.4208
 30
0.0
 70
    32
  0
VERTEX
  5
2C1D
  8
241
 10
8.2322299999999977
 20
-18.448799999999999
 30
0.0
 70
    32
  0
VERTEX
  5
2C1E
  8
241
 10
8.2459199999999981
 20
-18.476800000000001
 30
0.0
 70
    32
  0
VERTEX
  5
2C1F
  8
241
 10
8.2596699999999998
 20
-18.504799999999999
 30
0.0
 70
    32
  0
VERTEX
  5
2C20
  8
241
 10
8.27346
 20
-18.532699999999998
 30
0.0
 70
    32
  0
VERTEX
  5
2C21
  8
241
 10
8.2873199999999976
 20
-18.560700000000001
 30
0.0
 70
    32
  0
VERTEX
  5
2C22
  8
241
 10
8.3012300000000003
 20
-18.588699999999999
 30
0.0
 70
    32
  0
VERTEX
  5
2C23
  8
241
 10
8.3151899999999976
 20
-18.616599999999998
 30
0.0
 70
    32
  0
VERTEX
  5
2C24
  8
241
 10
8.3292099999999998
 20
-18.644600000000001
 30
0.0
 70
    32
  0
VERTEX
  5
2C25
  8
241
 10
8.34328
 20
-18.672499999999999
 30
0.0
 70
    32
  0
VERTEX
  5
2C26
  8
241
 10
8.3574000000000002
 20
-18.700399999999998
 30
0.0
 70
    32
  0
VERTEX
  5
2C27
  8
241
 10
8.3715799999999998
 20
-18.728400000000001
 30
0.0
 70
    32
  0
VERTEX
  5
2C28
  8
241
 10
8.3858199999999972
 20
-18.7563
 30
0.0
 70
    32
  0
VERTEX
  5
2C29
  8
241
 10
8.4001099999999962
 20
-18.784199999999998
 30
0.0
 70
    32
  0
VERTEX
  5
2C2A
  8
241
 10
8.4144500000000004
 20
-18.812100000000001
 30
0.0
 70
    32
  0
VERTEX
  5
2C2B
  8
241
 10
8.4288399999999992
 20
-18.84
 30
0.0
 70
    32
  0
VERTEX
  5
2C2C
  8
241
 10
8.4432899999999975
 20
-18.867899999999999
 30
0.0
 70
    32
  0
VERTEX
  5
2C2D
  8
241
 10
8.4578000000000007
 20
-18.895800000000001
 30
0.0
 70
    32
  0
VERTEX
  5
2C2E
  8
241
 10
8.4723500000000005
 20
-18.9237
 30
0.0
 70
    32
  0
VERTEX
  5
2C2F
  8
241
 10
8.4869599999999998
 20
-18.951599999999999
 30
0.0
 70
    32
  0
VERTEX
  5
2C30
  8
241
 10
8.5016300000000005
 20
-18.979500000000002
 30
0.0
 70
    32
  0
VERTEX
  5
2C31
  8
241
 10
8.5163499999999992
 20
-19.007300000000001
 30
0.0
 70
    32
  0
VERTEX
  5
2C32
  8
241
 10
8.5311199999999978
 20
-19.0352
 30
0.0
 70
    32
  0
VERTEX
  5
2C33
  8
241
 10
8.5459399999999999
 20
-19.063099999999999
 30
0.0
 70
    32
  0
VERTEX
  5
2C34
  8
241
 10
8.5608199999999979
 20
-19.090900000000001
 30
0.0
 70
    32
  0
VERTEX
  5
2C35
  8
241
 10
8.5757499999999975
 20
-19.1187
 30
0.0
 70
    32
  0
VERTEX
  5
2C36
  8
241
 10
8.5907300000000006
 20
-19.146599999999999
 30
0.0
 70
    32
  0
VERTEX
  5
2C37
  8
241
 10
8.6057600000000001
 20
-19.174399999999999
 30
0.0
 70
    32
  0
VERTEX
  5
2C38
  8
241
 10
8.6208500000000008
 20
-19.202200000000001
 30
0.0
 70
    32
  0
VERTEX
  5
2C39
  8
241
 10
8.6359899999999978
 20
-19.23
 30
0.0
 70
    32
  0
VERTEX
  5
2C3A
  8
241
 10
8.6511899999999962
 20
-19.2578
 30
0.0
 70
    32
  0
VERTEX
  5
2C3B
  8
241
 10
8.6664300000000001
 20
-19.285599999999999
 30
0.0
 70
    32
  0
VERTEX
  5
2C3C
  8
241
 10
8.6817299999999982
 20
-19.313400000000001
 30
0.0
 70
    32
  0
VERTEX
  5
2C3D
  8
241
 10
8.6970799999999961
 20
-19.341200000000001
 30
0.0
 70
    32
  0
VERTEX
  5
2C3E
  8
241
 10
8.7124899999999972
 20
-19.369
 30
0.0
 70
    32
  0
VERTEX
  5
2C3F
  8
241
 10
8.7279400000000003
 20
-19.396799999999999
 30
0.0
 70
    32
  0
VERTEX
  5
2C40
  8
241
 10
8.7434499999999993
 20
-19.424499999999998
 30
0.0
 70
    32
  0
VERTEX
  5
2C41
  8
241
 10
8.7590099999999982
 20
-19.452300000000001
 30
0.0
 70
    32
  0
VERTEX
  5
2C42
  8
241
 10
8.7746200000000005
 20
-19.48
 30
0.0
 70
    32
  0
VERTEX
  5
2C43
  8
241
 10
8.7902900000000006
 20
-19.5078
 30
0.0
 70
    32
  0
VERTEX
  5
2C44
  8
241
 10
8.8059999999999992
 20
-19.535499999999999
 30
0.0
 70
    32
  0
VERTEX
  5
2C45
  8
241
 10
8.8217699999999972
 20
-19.563199999999998
 30
0.0
 70
    32
  0
VERTEX
  5
2C46
  8
241
 10
8.8375899999999987
 20
-19.590900000000001
 30
0.0
 70
    32
  0
VERTEX
  5
2C47
  8
241
 10
8.8534600000000001
 20
-19.618600000000001
 30
0.0
 70
    32
  0
VERTEX
  5
2C48
  8
241
 10
8.8693799999999978
 20
-19.6463
 30
0.0
 70
    32
  0
VERTEX
  5
2C49
  8
241
 10
8.8853500000000007
 20
-19.673999999999999
 30
0.0
 70
    32
  0
VERTEX
  5
2C4A
  8
241
 10
8.9013799999999978
 20
-19.701699999999999
 30
0.0
 70
    32
  0
VERTEX
  5
2C4B
  8
241
 10
8.9174600000000002
 20
-19.729399999999998
 30
0.0
 70
    32
  0
VERTEX
  5
2C4C
  8
241
 10
8.9335799999999992
 20
-19.757000000000001
 30
0.0
 70
    32
  0
VERTEX
  5
2C4D
  8
241
 10
8.9497600000000013
 20
-19.784700000000001
 30
0.0
 70
    32
  0
VERTEX
  5
2C4E
  8
241
 10
8.9659899999999961
 20
-19.8123
 30
0.0
 70
    32
  0
VERTEX
  5
2C4F
  8
241
 10
8.9822699999999998
 20
-19.84
 30
0.0
 70
    32
  0
VERTEX
  5
2C50
  8
241
 10
8.9985999999999962
 20
-19.867599999999999
 30
0.0
 70
    32
  0
VERTEX
  5
2C51
  8
241
 10
9.0149899999999992
 20
-19.895199999999999
 30
0.0
 70
    32
  0
VERTEX
  5
2C52
  8
241
 10
9.0314199999999971
 20
-19.922799999999999
 30
0.0
 70
    32
  0
VERTEX
  5
2C53
  8
241
 10
9.0479000000000003
 20
-19.950500000000002
 30
0.0
 70
    32
  0
VERTEX
  5
2C54
  8
241
 10
9.0644399999999994
 20
-19.978000000000002
 30
0.0
 70
    32
  0
VERTEX
  5
2C55
  8
241
 10
9.0810200000000005
 20
-20.005600000000001
 30
0.0
 70
    32
  0
VERTEX
  5
2C56
  8
241
 10
9.0976599999999994
 20
-20.033200000000001
 30
0.0
 70
    32
  0
VERTEX
  5
2C57
  8
241
 10
9.1143399999999986
 20
-20.0608
 30
0.0
 70
    32
  0
VERTEX
  5
2C58
  8
241
 10
9.1310800000000008
 20
-20.0883
 30
0.0
 70
    32
  0
VERTEX
  5
2C59
  8
241
 10
9.1478699999999993
 20
-20.1159
 30
0.0
 70
    32
  0
VERTEX
  5
2C5A
  8
241
 10
9.1646999999999998
 20
-20.1434
 30
0.0
 70
    32
  0
VERTEX
  5
2C5B
  8
241
 10
9.1815899999999981
 20
-20.170999999999999
 30
0.0
 70
    32
  0
VERTEX
  5
2C5C
  8
241
 10
9.1985200000000003
 20
-20.198499999999999
 30
0.0
 70
    32
  0
VERTEX
  5
2C5D
  8
241
 10
9.2155100000000001
 20
-20.225999999999999
 30
0.0
 70
    32
  0
VERTEX
  5
2C5E
  8
241
 10
9.2325499999999998
 20
-20.253499999999999
 30
0.0
 70
    32
  0
VERTEX
  5
2C5F
  8
241
 10
9.2496399999999994
 20
-20.280999999999999
 30
0.0
 70
    32
  0
VERTEX
  5
2C60
  8
241
 10
9.2667800000000007
 20
-20.308499999999999
 30
0.0
 70
    32
  0
VERTEX
  5
2C61
  8
241
 10
9.2839700000000001
 20
-20.335999999999999
 30
0.0
 70
    32
  0
VERTEX
  5
2C62
  8
241
 10
9.3012099999999993
 20
-20.363499999999998
 30
0.0
 70
    32
  0
VERTEX
  5
2C63
  8
241
 10
9.3185000000000002
 20
-20.390999999999998
 30
0.0
 70
    32
  0
VERTEX
  5
2C64
  8
241
 10
9.3358399999999993
 20
-20.418399999999998
 30
0.0
 70
    32
  0
VERTEX
  5
2C65
  8
241
 10
9.3532299999999982
 20
-20.445900000000002
 30
0.0
 70
    32
  0
VERTEX
  5
2C66
  8
241
 10
9.3706800000000001
 20
-20.473400000000002
 30
0.0
 70
    32
  0
VERTEX
  5
2C67
  8
241
 10
9.3881700000000006
 20
-20.500800000000002
 30
0.0
 70
    32
  0
VERTEX
  5
2C68
  8
241
 10
9.4057200000000005
 20
-20.528300000000002
 30
0.0
 70
    32
  0
VERTEX
  5
2C69
  8
241
 10
9.4233100000000007
 20
-20.555700000000002
 30
0.0
 70
    32
  0
VERTEX
  5
2C6A
  8
241
 10
9.4409600000000005
 20
-20.583200000000001
 30
0.0
 70
    32
  0
VERTEX
  5
2C6B
  8
241
 10
9.4586600000000001
 20
-20.610600000000002
 30
0.0
 70
    32
  0
VERTEX
  5
2C6C
  8
241
 10
9.4764099999999996
 20
-20.638100000000001
 30
0.0
 70
    32
  0
VERTEX
  5
2C6D
  8
241
 10
9.4942100000000007
 20
-20.665500000000002
 30
0.0
 70
    32
  0
VERTEX
  5
2C6E
  8
241
 10
9.5120699999999996
 20
-20.693000000000001
 30
0.0
 70
    32
  0
VERTEX
  5
2C6F
  8
241
 10
9.5299700000000005
 20
-20.720400000000001
 30
0.0
 70
    32
  0
VERTEX
  5
2C70
  8
241
 10
9.5479299999999991
 20
-20.747800000000002
 30
0.0
 70
    32
  0
VERTEX
  5
2C71
  8
241
 10
9.5659399999999994
 20
-20.775300000000001
 30
0.0
 70
    32
  0
VERTEX
  5
2C72
  8
241
 10
9.5839999999999996
 20
-20.802700000000002
 30
0.0
 70
    32
  0
VERTEX
  5
2C73
  8
241
 10
9.6021099999999997
 20
-20.830100000000002
 30
0.0
 70
    32
  0
VERTEX
  5
2C74
  8
241
 10
9.6202699999999997
 20
-20.857500000000002
 30
0.0
 70
    32
  0
VERTEX
  5
2C75
  8
241
 10
9.6384799999999995
 20
-20.884899999999998
 30
0.0
 70
    32
  0
VERTEX
  5
2C76
  8
241
 10
9.6567500000000006
 20
-20.912400000000002
 30
0.0
 70
    32
  0
VERTEX
  5
2C77
  8
241
 10
9.6750699999999998
 20
-20.939800000000002
 30
0.0
 70
    32
  0
VERTEX
  5
2C78
  8
241
 10
9.6934399999999972
 20
-20.967199999999998
 30
0.0
 70
    32
  0
VERTEX
  5
2C79
  8
241
 10
9.7118599999999997
 20
-20.994599999999998
 30
0.0
 70
    32
  0
VERTEX
  5
2C7A
  8
241
 10
9.7303300000000004
 20
-21.021999999999998
 30
0.0
 70
    32
  0
VERTEX
  5
2C7B
  8
241
 10
9.7488499999999991
 20
-21.049499999999998
 30
0.0
 70
    32
  0
VERTEX
  5
2C7C
  8
241
 10
9.7674299999999992
 20
-21.076899999999998
 30
0.0
 70
    32
  0
VERTEX
  5
2C7D
  8
241
 10
9.7860600000000009
 20
-21.104299999999999
 30
0.0
 70
    32
  0
VERTEX
  5
2C7E
  8
241
 10
9.8047399999999971
 20
-21.131699999999999
 30
0.0
 70
    32
  0
VERTEX
  5
2C7F
  8
241
 10
9.8234700000000004
 20
-21.159099999999999
 30
0.0
 70
    32
  0
VERTEX
  5
2C80
  8
241
 10
9.8422599999999996
 20
-21.186499999999999
 30
0.0
 70
    32
  0
VERTEX
  5
2C81
  8
241
 10
9.8611000000000004
 20
-21.213899999999999
 30
0.0
 70
    32
  0
VERTEX
  5
2C82
  8
241
 10
9.8799799999999998
 20
-21.241399999999999
 30
0.0
 70
    32
  0
VERTEX
  5
2C83
  8
241
 10
9.89893
 20
-21.268799999999999
 30
0.0
 70
    32
  0
VERTEX
  5
2C84
  8
241
 10
9.9179200000000005
 20
-21.296199999999999
 30
0.0
 70
    32
  0
VERTEX
  5
2C85
  8
241
 10
9.9369700000000005
 20
-21.323599999999999
 30
0.0
 70
    32
  0
VERTEX
  5
2C86
  8
241
 10
9.9560700000000004
 20
-21.350999999999999
 30
0.0
 70
    32
  0
VERTEX
  5
2C87
  8
241
 10
9.9752200000000002
 20
-21.378499999999999
 30
0.0
 70
    32
  0
VERTEX
  5
2C88
  8
241
 10
9.9944200000000016
 20
-21.405899999999999
 30
0.0
 70
    32
  0
VERTEX
  5
2C89
  8
241
 10
10.0137
 20
-21.433299999999999
 30
0.0
 70
    32
  0
VERTEX
  5
2C8A
  8
241
 10
10.032999999999999
 20
-21.460799999999999
 30
0.0
 70
    32
  0
VERTEX
  5
2C8B
  8
241
 10
10.052300000000001
 20
-21.488199999999999
 30
0.0
 70
    32
  0
VERTEX
  5
2C8C
  8
241
 10
10.0718
 20
-21.515599999999999
 30
0.0
 70
    32
  0
VERTEX
  5
2C8D
  8
241
 10
10.091200000000001
 20
-21.543099999999999
 30
0.0
 70
    32
  0
VERTEX
  5
2C8E
  8
241
 10
10.110799999999999
 20
-21.570499999999999
 30
0.0
 70
    32
  0
VERTEX
  5
2C8F
  8
241
 10
10.1303
 20
-21.597999999999999
 30
0.0
 70
    32
  0
VERTEX
  5
2C90
  8
241
 10
10.149900000000001
 20
-21.625399999999999
 30
0.0
 70
    32
  0
VERTEX
  5
2C91
  8
241
 10
10.169600000000001
 20
-21.652899999999999
 30
0.0
 70
    32
  0
VERTEX
  5
2C92
  8
241
 10
10.189399999999999
 20
-21.680299999999999
 30
0.0
 70
    32
  0
VERTEX
  5
2C93
  8
241
 10
10.209099999999999
 20
-21.707799999999999
 30
0.0
 70
    32
  0
VERTEX
  5
2C94
  8
241
 10
10.228999999999999
 20
-21.735199999999999
 30
0.0
 70
    32
  0
VERTEX
  5
2C95
  8
241
 10
10.248900000000001
 20
-21.762699999999999
 30
0.0
 70
    32
  0
VERTEX
  5
2C96
  8
241
 10
10.268800000000001
 20
-21.790199999999999
 30
0.0
 70
    32
  0
VERTEX
  5
2C97
  8
241
 10
10.2888
 20
-21.817699999999999
 30
0.0
 70
    32
  0
VERTEX
  5
2C98
  8
241
 10
10.3089
 20
-21.845199999999998
 30
0.0
 70
    32
  0
VERTEX
  5
2C99
  8
241
 10
10.329000000000001
 20
-21.872599999999998
 30
0.0
 70
    32
  0
VERTEX
  5
2C9A
  8
241
 10
10.3491
 20
-21.900099999999998
 30
0.0
 70
    32
  0
VERTEX
  5
2C9B
  8
241
 10
10.369300000000001
 20
-21.927600000000002
 30
0.0
 70
    32
  0
VERTEX
  5
2C9C
  8
241
 10
10.3896
 20
-21.955100000000002
 30
0.0
 70
    32
  0
VERTEX
  5
2C9D
  8
241
 10
10.4099
 20
-21.982700000000001
 30
0.0
 70
    32
  0
VERTEX
  5
2C9E
  8
241
 10
10.430300000000001
 20
-22.010200000000001
 30
0.0
 70
    32
  0
VERTEX
  5
2C9F
  8
241
 10
10.450699999999999
 20
-22.037700000000001
 30
0.0
 70
    32
  0
VERTEX
  5
2CA0
  8
241
 10
10.4712
 20
-22.065200000000001
 30
0.0
 70
    32
  0
VERTEX
  5
2CA1
  8
241
 10
10.4917
 20
-22.0928
 30
0.0
 70
    32
  0
VERTEX
  5
2CA2
  8
241
 10
10.5123
 20
-22.1203
 30
0.0
 70
    32
  0
VERTEX
  5
2CA3
  8
241
 10
10.5329
 20
-22.1479
 30
0.0
 70
    32
  0
VERTEX
  5
2CA4
  8
241
 10
10.553599999999999
 20
-22.1754
 30
0.0
 70
    32
  0
VERTEX
  5
2CA5
  8
241
 10
10.574400000000001
 20
-22.202999999999999
 30
0.0
 70
    32
  0
VERTEX
  5
2CA6
  8
241
 10
10.5952
 20
-22.230599999999999
 30
0.0
 70
    32
  0
VERTEX
  5
2CA7
  8
241
 10
10.616
 20
-22.258199999999999
 30
0.0
 70
    32
  0
VERTEX
  5
2CA8
  8
241
 10
10.637
 20
-22.285799999999998
 30
0.0
 70
    32
  0
VERTEX
  5
2CA9
  8
241
 10
10.6579
 20
-22.313400000000001
 30
0.0
 70
    32
  0
VERTEX
  5
2CAA
  8
241
 10
10.678900000000001
 20
-22.341000000000001
 30
0.0
 70
    32
  0
VERTEX
  5
2CAB
  8
241
 10
10.699999999999999
 20
-22.368600000000001
 30
0.0
 70
    32
  0
SEQEND
  5
2CAC
  8
241
  0
POLYLINE
  5
2CAD
  8
241
 66
     1
 10
0.0
 20
0.0
 30
0.0
 70
     8
  0
VERTEX
  5
2CAE
  8
241
 10
6.6155299999999988
 20
-13.3101
 30
0.0
 70
    32
  0
VERTEX
  5
2CAF
  8
241
 10
6.6258100000000004
 20
-13.315099999999999
 30
0.0
 70
    32
  0
VERTEX
  5
2CB0
  8
241
 10
6.6361100000000004
 20
-13.3202
 30
0.0
 70
    32
  0
VERTEX
  5
2CB1
  8
241
 10
6.6464199999999991
 20
-13.3253
 30
0.0
 70
    32
  0
VERTEX
  5
2CB2
  8
241
 10
6.6567600000000002
 20
-13.330399999999999
 30
0.0
 70
    32
  0
VERTEX
  5
2CB3
  8
241
 10
6.6671199999999979
 20
-13.3355
 30
0.0
 70
    32
  0
VERTEX
  5
2CB4
  8
241
 10
6.6774899999999979
 20
-13.3405
 30
0.0
 70
    32
  0
VERTEX
  5
2CB5
  8
241
 10
6.6878799999999989
 20
-13.345599999999999
 30
0.0
 70
    32
  0
VERTEX
  5
2CB6
  8
241
 10
6.6982899999999992
 20
-13.3507
 30
0.0
 70
    32
  0
VERTEX
  5
2CB7
  8
241
 10
6.7087199999999987
 20
-13.355700000000001
 30
0.0
 70
    32
  0
VERTEX
  5
2CB8
  8
241
 10
6.7191599999999987
 20
-13.360799999999999
 30
0.0
 70
    32
  0
VERTEX
  5
2CB9
  8
241
 10
6.7296300000000002
 20
-13.3658
 30
0.0
 70
    32
  0
VERTEX
  5
2CBA
  8
241
 10
6.7401099999999987
 20
-13.370900000000001
 30
0.0
 70
    32
  0
VERTEX
  5
2CBB
  8
241
 10
6.75061
 20
-13.3759
 30
0.0
 70
    32
  0
VERTEX
  5
2CBC
  8
241
 10
6.7611299999999988
 20
-13.381
 30
0.0
 70
    32
  0
VERTEX
  5
2CBD
  8
241
 10
6.7716599999999989
 20
-13.385999999999999
 30
0.0
 70
    32
  0
VERTEX
  5
2CBE
  8
241
 10
6.7822199999999979
 20
-13.391
 30
0.0
 70
    32
  0
VERTEX
  5
2CBF
  8
241
 10
6.7927899999999992
 20
-13.396100000000001
 30
0.0
 70
    32
  0
VERTEX
  5
2CC0
  8
241
 10
6.8033799999999989
 20
-13.4011
 30
0.0
 70
    32
  0
VERTEX
  5
2CC1
  8
241
 10
6.8139899999999987
 20
-13.4061
 30
0.0
 70
    32
  0
VERTEX
  5
2CC2
  8
241
 10
6.824609999999999
 20
-13.411199999999999
 30
0.0
 70
    32
  0
VERTEX
  5
2CC3
  8
241
 10
6.8352500000000003
 20
-13.4162
 30
0.0
 70
    32
  0
VERTEX
  5
2CC4
  8
241
 10
6.8459099999999991
 20
-13.421200000000001
 30
0.0
 70
    32
  0
VERTEX
  5
2CC5
  8
241
 10
6.856589999999998
 20
-13.4262
 30
0.0
 70
    32
  0
VERTEX
  5
2CC6
  8
241
 10
6.8672899999999979
 20
-13.4312
 30
0.0
 70
    32
  0
VERTEX
  5
2CC7
  8
241
 10
6.8780000000000001
 20
-13.436299999999999
 30
0.0
 70
    32
  0
VERTEX
  5
2CC8
  8
241
 10
6.8887299999999989
 20
-13.4413
 30
0.0
 70
    32
  0
VERTEX
  5
2CC9
  8
241
 10
6.8994699999999991
 20
-13.446300000000001
 30
0.0
 70
    32
  0
VERTEX
  5
2CCA
  8
241
 10
6.910239999999999
 20
-13.4513
 30
0.0
 70
    32
  0
VERTEX
  5
2CCB
  8
241
 10
6.9210199999999986
 20
-13.456300000000001
 30
0.0
 70
    32
  0
VERTEX
  5
2CCC
  8
241
 10
6.9318200000000001
 20
-13.4613
 30
0.0
 70
    32
  0
VERTEX
  5
2CCD
  8
241
 10
6.9426300000000003
 20
-13.4663
 30
0.0
 70
    32
  0
VERTEX
  5
2CCE
  8
241
 10
6.9534700000000003
 20
-13.471299999999999
 30
0.0
 70
    32
  0
VERTEX
  5
2CCF
  8
241
 10
6.9643199999999981
 20
-13.4764
 30
0.0
 70
    32
  0
VERTEX
  5
2CD0
  8
241
 10
6.9751899999999987
 20
-13.481400000000001
 30
0.0
 70
    32
  0
VERTEX
  5
2CD1
  8
241
 10
6.986069999999998
 20
-13.4864
 30
0.0
 70
    32
  0
VERTEX
  5
2CD2
  8
241
 10
6.9969700000000001
 20
-13.491400000000001
 30
0.0
 70
    32
  0
VERTEX
  5
2CD3
  8
241
 10
7.007889999999998
 20
-13.4964
 30
0.0
 70
    32
  0
VERTEX
  5
2CD4
  8
241
 10
7.0188199999999981
 20
-13.5014
 30
0.0
 70
    32
  0
VERTEX
  5
2CD5
  8
241
 10
7.0297700000000001
 20
-13.506399999999999
 30
0.0
 70
    32
  0
VERTEX
  5
2CD6
  8
241
 10
7.0407399999999987
 20
-13.5114
 30
0.0
 70
    32
  0
VERTEX
  5
2CD7
  8
241
 10
7.0517300000000001
 20
-13.516400000000001
 30
0.0
 70
    32
  0
VERTEX
  5
2CD8
  8
241
 10
7.0627300000000002
 20
-13.5214
 30
0.0
 70
    32
  0
VERTEX
  5
2CD9
  8
241
 10
7.0737500000000004
 20
-13.526400000000001
 30
0.0
 70
    32
  0
VERTEX
  5
2CDA
  8
241
 10
7.0847800000000003
 20
-13.5314
 30
0.0
 70
    32
  0
VERTEX
  5
2CDB
  8
241
 10
7.0958300000000003
 20
-13.5364
 30
0.0
 70
    32
  0
VERTEX
  5
2CDC
  8
241
 10
7.1069000000000004
 20
-13.541399999999999
 30
0.0
 70
    32
  0
VERTEX
  5
2CDD
  8
241
 10
7.117989999999998
 20
-13.5465
 30
0.0
 70
    32
  0
VERTEX
  5
2CDE
  8
241
 10
7.1290899999999979
 20
-13.551500000000001
 30
0.0
 70
    32
  0
VERTEX
  5
2CDF
  8
241
 10
7.1402000000000001
 20
-13.5565
 30
0.0
 70
    32
  0
VERTEX
  5
2CE0
  8
241
 10
7.1513400000000003
 20
-13.561500000000001
 30
0.0
 70
    32
  0
VERTEX
  5
2CE1
  8
241
 10
7.1624899999999991
 20
-13.5665
 30
0.0
 70
    32
  0
VERTEX
  5
2CE2
  8
241
 10
7.1736500000000003
 20
-13.5715
 30
0.0
 70
    32
  0
VERTEX
  5
2CE3
  8
241
 10
7.1848299999999989
 20
-13.576499999999999
 30
0.0
 70
    32
  0
VERTEX
  5
2CE4
  8
241
 10
7.1960300000000004
 20
-13.5816
 30
0.0
 70
    32
  0
VERTEX
  5
2CE5
  8
241
 10
7.2072500000000002
 20
-13.586600000000001
 30
0.0
 70
    32
  0
VERTEX
  5
2CE6
  8
241
 10
7.2184799999999978
 20
-13.5916
 30
0.0
 70
    32
  0
VERTEX
  5
2CE7
  8
241
 10
7.2297199999999977
 20
-13.5966
 30
0.0
 70
    32
  0
VERTEX
  5
2CE8
  8
241
 10
7.2409800000000004
 20
-13.601599999999999
 30
0.0
 70
    32
  0
VERTEX
  5
2CE9
  8
241
 10
7.2522599999999979
 20
-13.6067
 30
0.0
 70
    32
  0
VERTEX
  5
2CEA
  8
241
 10
7.2635500000000004
 20
-13.611700000000001
 30
0.0
 70
    32
  0
VERTEX
  5
2CEB
  8
241
 10
7.2748600000000003
 20
-13.6167
 30
0.0
 70
    32
  0
VERTEX
  5
2CEC
  8
241
 10
7.2861899999999977
 20
-13.6218
 30
0.0
 70
    32
  0
VERTEX
  5
2CED
  8
241
 10
7.2975300000000001
 20
-13.626799999999999
 30
0.0
 70
    32
  0
VERTEX
  5
2CEE
  8
241
 10
7.3088899999999981
 20
-13.6319
 30
0.0
 70
    32
  0
VERTEX
  5
2CEF
  8
241
 10
7.3202600000000002
 20
-13.636900000000001
 30
0.0
 70
    32
  0
VERTEX
  5
2CF0
  8
241
 10
7.3316499999999989
 20
-13.6419
 30
0.0
 70
    32
  0
VERTEX
  5
2CF1
  8
241
 10
7.3430499999999981
 20
-13.647
 30
0.0
 70
    32
  0
VERTEX
  5
2CF2
  8
241
 10
7.3544700000000001
 20
-13.652100000000001
 30
0.0
 70
    32
  0
VERTEX
  5
2CF3
  8
241
 10
7.365899999999999
 20
-13.6571
 30
0.0
 70
    32
  0
VERTEX
  5
2CF4
  8
241
 10
7.3773499999999981
 20
-13.6622
 30
0.0
 70
    32
  0
VERTEX
  5
2CF5
  8
241
 10
7.3888199999999982
 20
-13.667199999999999
 30
0.0
 70
    32
  0
VERTEX
  5
2CF6
  8
241
 10
7.4002999999999988
 20
-13.6723
 30
0.0
 70
    32
  0
VERTEX
  5
2CF7
  8
241
 10
7.4117899999999981
 20
-13.6774
 30
0.0
 70
    32
  0
VERTEX
  5
2CF8
  8
241
 10
7.4233000000000002
 20
-13.682399999999999
 30
0.0
 70
    32
  0
VERTEX
  5
2CF9
  8
241
 10
7.4348299999999989
 20
-13.6875
 30
0.0
 70
    32
  0
VERTEX
  5
2CFA
  8
241
 10
7.446369999999999
 20
-13.692600000000001
 30
0.0
 70
    32
  0
VERTEX
  5
2CFB
  8
241
 10
7.4579199999999988
 20
-13.697699999999999
 30
0.0
 70
    32
  0
VERTEX
  5
2CFC
  8
241
 10
7.4694899999999977
 20
-13.7028
 30
0.0
 70
    32
  0
VERTEX
  5
2CFD
  8
241
 10
7.4810800000000004
 20
-13.7079
 30
0.0
 70
    32
  0
VERTEX
  5
2CFE
  8
241
 10
7.49268
 20
-13.712999999999999
 30
0.0
 70
    32
  0
VERTEX
  5
2CFF
  8
241
 10
7.5042999999999989
 20
-13.7181
 30
0.0
 70
    32
  0
VERTEX
  5
2D00
  8
241
 10
7.5159299999999982
 20
-13.7232
 30
0.0
 70
    32
  0
VERTEX
  5
2D01
  8
241
 10
7.5275800000000004
 20
-13.728300000000001
 30
0.0
 70
    32
  0
VERTEX
  5
2D02
  8
241
 10
7.5392399999999977
 20
-13.7334
 30
0.0
 70
    32
  0
VERTEX
  5
2D03
  8
241
 10
7.5509199999999979
 20
-13.7385
 30
0.0
 70
    32
  0
VERTEX
  5
2D04
  8
241
 10
7.5626100000000003
 20
-13.7437
 30
0.0
 70
    32
  0
VERTEX
  5
2D05
  8
241
 10
7.5743199999999984
 20
-13.748799999999999
 30
0.0
 70
    32
  0
VERTEX
  5
2D06
  8
241
 10
7.5860500000000002
 20
-13.7539
 30
0.0
 70
    32
  0
VERTEX
  5
2D07
  8
241
 10
7.5977899999999989
 20
-13.759
 30
0.0
 70
    32
  0
VERTEX
  5
2D08
  8
241
 10
7.6095399999999982
 20
-13.764200000000001
 30
0.0
 70
    32
  0
VERTEX
  5
2D09
  8
241
 10
7.6213199999999981
 20
-13.769299999999999
 30
0.0
 70
    32
  0
VERTEX
  5
2D0A
  8
241
 10
7.6331100000000003
 20
-13.7745
 30
0.0
 70
    32
  0
VERTEX
  5
2D0B
  8
241
 10
7.6449100000000003
 20
-13.7796
 30
0.0
 70
    32
  0
VERTEX
  5
2D0C
  8
241
 10
7.6567299999999978
 20
-13.784700000000001
 30
0.0
 70
    32
  0
VERTEX
  5
2D0D
  8
241
 10
7.6685699999999981
 20
-13.789899999999999
 30
0.0
 70
    32
  0
VERTEX
  5
2D0E
  8
241
 10
7.6804199999999989
 20
-13.795
 30
0.0
 70
    32
  0
VERTEX
  5
2D0F
  8
241
 10
7.6922899999999981
 20
-13.8002
 30
0.0
 70
    32
  0
VERTEX
  5
2D10
  8
241
 10
7.7041699999999977
 20
-13.805400000000001
 30
0.0
 70
    32
  0
VERTEX
  5
2D11
  8
241
 10
7.7160699999999984
 20
-13.810499999999999
 30
0.0
 70
    32
  0
VERTEX
  5
2D12
  8
241
 10
7.7279899999999984
 20
-13.8157
 30
0.0
 70
    32
  0
VERTEX
  5
2D13
  8
241
 10
7.7399199999999988
 20
-13.8209
 30
0.0
 70
    32
  0
VERTEX
  5
2D14
  8
241
 10
7.7518699999999976
 20
-13.826000000000001
 30
0.0
 70
    32
  0
VERTEX
  5
2D15
  8
241
 10
7.7638299999999978
 20
-13.831200000000001
 30
0.0
 70
    32
  0
VERTEX
  5
2D16
  8
241
 10
7.7758199999999977
 20
-13.836399999999999
 30
0.0
 70
    32
  0
VERTEX
  5
2D17
  8
241
 10
7.7878100000000003
 20
-13.8416
 30
0.0
 70
    32
  0
VERTEX
  5
2D18
  8
241
 10
7.79983
 20
-13.8468
 30
0.0
 70
    32
  0
VERTEX
  5
2D19
  8
241
 10
7.8118600000000002
 20
-13.851900000000001
 30
0.0
 70
    32
  0
VERTEX
  5
2D1A
  8
241
 10
7.8239000000000001
 20
-13.857100000000001
 30
0.0
 70
    32
  0
VERTEX
  5
2D1B
  8
241
 10
7.83596
 20
-13.862299999999999
 30
0.0
 70
    32
  0
VERTEX
  5
2D1C
  8
241
 10
7.8480399999999984
 20
-13.8675
 30
0.0
 70
    32
  0
VERTEX
  5
2D1D
  8
241
 10
7.8601399999999977
 20
-13.8727
 30
0.0
 70
    32
  0
VERTEX
  5
2D1E
  8
241
 10
7.8722500000000002
 20
-13.8779
 30
0.0
 70
    32
  0
VERTEX
  5
2D1F
  8
241
 10
7.8843800000000002
 20
-13.8832
 30
0.0
 70
    32
  0
VERTEX
  5
2D20
  8
241
 10
7.8965199999999989
 20
-13.888400000000001
 30
0.0
 70
    32
  0
VERTEX
  5
2D21
  8
241
 10
7.9086800000000004
 20
-13.893599999999999
 30
0.0
 70
    32
  0
VERTEX
  5
2D22
  8
241
 10
7.9208600000000002
 20
-13.8988
 30
0.0
 70
    32
  0
VERTEX
  5
2D23
  8
241
 10
7.9330499999999988
 20
-13.904
 30
0.0
 70
    32
  0
VERTEX
  5
2D24
  8
241
 10
7.9452600000000002
 20
-13.9093
 30
0.0
 70
    32
  0
VERTEX
  5
2D25
  8
241
 10
7.9574899999999982
 20
-13.9145
 30
0.0
 70
    32
  0
VERTEX
  5
2D26
  8
241
 10
7.9697300000000002
 20
-13.919700000000001
 30
0.0
 70
    32
  0
VERTEX
  5
2D27
  8
241
 10
7.9819899999999988
 20
-13.925000000000001
 30
0.0
 70
    32
  0
VERTEX
  5
2D28
  8
241
 10
7.9942699999999984
 20
-13.930199999999999
 30
0.0
 70
    32
  0
VERTEX
  5
2D29
  8
241
 10
8.0065600000000003
 20
-13.9354
 30
0.0
 70
    32
  0
VERTEX
  5
2D2A
  8
241
 10
8.0188800000000011
 20
-13.9407
 30
0.0
 70
    32
  0
VERTEX
  5
2D2B
  8
241
 10
8.0312000000000001
 20
-13.9459
 30
0.0
 70
    32
  0
VERTEX
  5
2D2C
  8
241
 10
8.0435499999999998
 20
-13.9512
 30
0.0
 70
    32
  0
VERTEX
  5
2D2D
  8
241
 10
8.0559100000000008
 20
-13.9565
 30
0.0
 70
    32
  0
VERTEX
  5
2D2E
  8
241
 10
8.0682799999999961
 20
-13.9617
 30
0.0
 70
    32
  0
VERTEX
  5
2D2F
  8
241
 10
8.0806799999999992
 20
-13.967000000000001
 30
0.0
 70
    32
  0
VERTEX
  5
2D30
  8
241
 10
8.0930900000000001
 20
-13.972200000000001
 30
0.0
 70
    32
  0
VERTEX
  5
2D31
  8
241
 10
8.1055200000000003
 20
-13.977499999999999
 30
0.0
 70
    32
  0
VERTEX
  5
2D32
  8
241
 10
8.1179600000000001
 20
-13.982799999999999
 30
0.0
 70
    32
  0
VERTEX
  5
2D33
  8
241
 10
8.1304300000000005
 20
-13.988099999999999
 30
0.0
 70
    32
  0
VERTEX
  5
2D34
  8
241
 10
8.1429100000000005
 20
-13.9933
 30
0.0
 70
    32
  0
VERTEX
  5
2D35
  8
241
 10
8.1554000000000002
 20
-13.9986
 30
0.0
 70
    32
  0
VERTEX
  5
2D36
  8
241
 10
8.1679200000000005
 20
-14.0039
 30
0.0
 70
    32
  0
VERTEX
  5
2D37
  8
241
 10
8.1804500000000004
 20
-14.0092
 30
0.0
 70
    32
  0
VERTEX
  5
2D38
  8
241
 10
8.1929899999999982
 20
-14.0145
 30
0.0
 70
    32
  0
VERTEX
  5
2D39
  8
241
 10
8.2055600000000002
 20
-14.0198
 30
0.0
 70
    32
  0
VERTEX
  5
2D3A
  8
241
 10
8.21814
 20
-14.0251
 30
0.0
 70
    32
  0
VERTEX
  5
2D3B
  8
241
 10
8.2307399999999991
 20
-14.0304
 30
0.0
 70
    32
  0
VERTEX
  5
2D3C
  8
241
 10
8.2433599999999991
 20
-14.0357
 30
0.0
 70
    32
  0
VERTEX
  5
2D3D
  8
241
 10
8.2559900000000006
 20
-14.041
 30
0.0
 70
    32
  0
VERTEX
  5
2D3E
  8
241
 10
8.2686399999999978
 20
-14.0464
 30
0.0
 70
    32
  0
VERTEX
  5
2D3F
  8
241
 10
8.2813100000000013
 20
-14.0517
 30
0.0
 70
    32
  0
VERTEX
  5
2D40
  8
241
 10
8.2940000000000005
 20
-14.057
 30
0.0
 70
    32
  0
VERTEX
  5
2D41
  8
241
 10
8.3066999999999975
 20
-14.0623
 30
0.0
 70
    32
  0
VERTEX
  5
2D42
  8
241
 10
8.3194199999999991
 20
-14.0677
 30
0.0
 70
    32
  0
VERTEX
  5
2D43
  8
241
 10
8.33216
 20
-14.073
 30
0.0
 70
    32
  0
VERTEX
  5
2D44
  8
241
 10
8.3449100000000005
 20
-14.0783
 30
0.0
 70
    32
  0
VERTEX
  5
2D45
  8
241
 10
8.3576899999999998
 20
-14.0837
 30
0.0
 70
    32
  0
VERTEX
  5
2D46
  8
241
 10
8.3704800000000006
 20
-14.089
 30
0.0
 70
    32
  0
VERTEX
  5
2D47
  8
241
 10
8.3832900000000006
 20
-14.0944
 30
0.0
 70
    32
  0
VERTEX
  5
2D48
  8
241
 10
8.3961100000000002
 20
-14.0997
 30
0.0
 70
    32
  0
VERTEX
  5
2D49
  8
241
 10
8.4089500000000008
 20
-14.1051
 30
0.0
 70
    32
  0
VERTEX
  5
2D4A
  8
241
 10
8.4218200000000003
 20
-14.1104
 30
0.0
 70
    32
  0
VERTEX
  5
2D4B
  8
241
 10
8.4346899999999998
 20
-14.1158
 30
0.0
 70
    32
  0
VERTEX
  5
2D4C
  8
241
 10
8.4475899999999982
 20
-14.1212
 30
0.0
 70
    32
  0
VERTEX
  5
2D4D
  8
241
 10
8.4604999999999961
 20
-14.1265
 30
0.0
 70
    32
  0
VERTEX
  5
2D4E
  8
241
 10
8.4734400000000001
 20
-14.1319
 30
0.0
 70
    32
  0
VERTEX
  5
2D4F
  8
241
 10
8.4863800000000005
 20
-14.1373
 30
0.0
 70
    32
  0
VERTEX
  5
2D50
  8
241
 10
8.4993400000000001
 20
-14.1427
 30
0.0
 70
    32
  0
VERTEX
  5
2D51
  8
241
 10
8.5123199999999972
 20
-14.148
 30
0.0
 70
    32
  0
VERTEX
  5
2D52
  8
241
 10
8.5253100000000011
 20
-14.1534
 30
0.0
 70
    32
  0
VERTEX
  5
2D53
  8
241
 10
8.5383200000000006
 20
-14.158799999999999
 30
0.0
 70
    32
  0
VERTEX
  5
2D54
  8
241
 10
8.5513399999999962
 20
-14.164199999999999
 30
0.0
 70
    32
  0
VERTEX
  5
2D55
  8
241
 10
8.5643799999999999
 20
-14.169600000000001
 30
0.0
 70
    32
  0
VERTEX
  5
2D56
  8
241
 10
8.5774299999999961
 20
-14.175000000000001
 30
0.0
 70
    32
  0
VERTEX
  5
2D57
  8
241
 10
8.5905000000000005
 20
-14.180400000000001
 30
0.0
 70
    32
  0
VERTEX
  5
2D58
  8
241
 10
8.6035799999999991
 20
-14.1858
 30
0.0
 70
    32
  0
VERTEX
  5
2D59
  8
241
 10
8.6166699999999992
 20
-14.1911
 30
0.0
 70
    32
  0
VERTEX
  5
2D5A
  8
241
 10
8.6297800000000002
 20
-14.1965
 30
0.0
 70
    32
  0
VERTEX
  5
2D5B
  8
241
 10
8.6429100000000005
 20
-14.2019
 30
0.0
 70
    32
  0
VERTEX
  5
2D5C
  8
241
 10
8.6560399999999991
 20
-14.2073
 30
0.0
 70
    32
  0
VERTEX
  5
2D5D
  8
241
 10
8.6692
 20
-14.2128
 30
0.0
 70
    32
  0
VERTEX
  5
2D5E
  8
241
 10
8.6823599999999992
 20
-14.2182
 30
0.0
 70
    32
  0
VERTEX
  5
2D5F
  8
241
 10
8.6955500000000008
 20
-14.223599999999999
 30
0.0
 70
    32
  0
VERTEX
  5
2D60
  8
241
 10
8.7087400000000006
 20
-14.228999999999999
 30
0.0
 70
    32
  0
VERTEX
  5
2D61
  8
241
 10
8.7219499999999979
 20
-14.234400000000001
 30
0.0
 70
    32
  0
VERTEX
  5
2D62
  8
241
 10
8.7351799999999962
 20
-14.239800000000001
 30
0.0
 70
    32
  0
VERTEX
  5
2D63
  8
241
 10
8.7484099999999998
 20
-14.245200000000001
 30
0.0
 70
    32
  0
VERTEX
  5
2D64
  8
241
 10
8.7616700000000005
 20
-14.2506
 30
0.0
 70
    32
  0
VERTEX
  5
2D65
  8
241
 10
8.7749299999999977
 20
-14.256
 30
0.0
 70
    32
  0
VERTEX
  5
2D66
  8
241
 10
8.7882100000000012
 20
-14.2614
 30
0.0
 70
    32
  0
VERTEX
  5
2D67
  8
241
 10
8.8015100000000004
 20
-14.2669
 30
0.0
 70
    32
  0
VERTEX
  5
2D68
  8
241
 10
8.8148100000000014
 20
-14.2723
 30
0.0
 70
    32
  0
VERTEX
  5
2D69
  8
241
 10
8.8281299999999998
 20
-14.277699999999999
 30
0.0
 70
    32
  0
VERTEX
  5
2D6A
  8
241
 10
8.8414699999999993
 20
-14.283099999999999
 30
0.0
 70
    32
  0
VERTEX
  5
2D6B
  8
241
 10
8.8548200000000001
 20
-14.288500000000001
 30
0.0
 70
    32
  0
VERTEX
  5
2D6C
  8
241
 10
8.8681800000000006
 20
-14.294
 30
0.0
 70
    32
  0
VERTEX
  5
2D6D
  8
241
 10
8.8815500000000007
 20
-14.2994
 30
0.0
 70
    32
  0
VERTEX
  5
2D6E
  8
241
 10
8.8949400000000001
 20
-14.3048
 30
0.0
 70
    32
  0
VERTEX
  5
2D6F
  8
241
 10
8.9083500000000004
 20
-14.3102
 30
0.0
 70
    32
  0
VERTEX
  5
2D70
  8
241
 10
8.9217600000000008
 20
-14.3157
 30
0.0
 70
    32
  0
VERTEX
  5
2D71
  8
241
 10
8.9351899999999986
 20
-14.321099999999999
 30
0.0
 70
    32
  0
VERTEX
  5
2D72
  8
241
 10
8.9486299999999979
 20
-14.326499999999999
 30
0.0
 70
    32
  0
VERTEX
  5
2D73
  8
241
 10
8.9620899999999981
 20
-14.331899999999999
 30
0.0
 70
    32
  0
VERTEX
  5
2D74
  8
241
 10
8.9755500000000001
 20
-14.337400000000001
 30
0.0
 70
    32
  0
VERTEX
  5
2D75
  8
241
 10
8.9890399999999993
 20
-14.3428
 30
0.0
 70
    32
  0
VERTEX
  5
2D76
  8
241
 10
9.0025300000000001
 20
-14.3482
 30
0.0
 70
    32
  0
VERTEX
  5
2D77
  8
241
 10
9.0160400000000003
 20
-14.3536
 30
0.0
 70
    32
  0
VERTEX
  5
2D78
  8
241
 10
9.02956
 20
-14.3591
 30
0.0
 70
    32
  0
VERTEX
  5
2D79
  8
241
 10
9.0430899999999994
 20
-14.3645
 30
0.0
 70
    32
  0
VERTEX
  5
2D7A
  8
241
 10
9.0566399999999998
 20
-14.369899999999999
 30
0.0
 70
    32
  0
VERTEX
  5
2D7B
  8
241
 10
9.0701900000000002
 20
-14.375299999999999
 30
0.0
 70
    32
  0
VERTEX
  5
2D7C
  8
241
 10
9.0837699999999995
 20
-14.380800000000001
 30
0.0
 70
    32
  0
VERTEX
  5
2D7D
  8
241
 10
9.0973500000000005
 20
-14.386200000000001
 30
0.0
 70
    32
  0
VERTEX
  5
2D7E
  8
241
 10
9.1109500000000008
 20
-14.3916
 30
0.0
 70
    32
  0
VERTEX
  5
2D7F
  8
241
 10
9.1245499999999993
 20
-14.3971
 30
0.0
 70
    32
  0
VERTEX
  5
2D80
  8
241
 10
9.1381800000000002
 20
-14.4025
 30
0.0
 70
    32
  0
VERTEX
  5
2D81
  8
241
 10
9.1518099999999993
 20
-14.4079
 30
0.0
 70
    32
  0
VERTEX
  5
2D82
  8
241
 10
9.1654500000000017
 20
-14.4133
 30
0.0
 70
    32
  0
VERTEX
  5
2D83
  8
241
 10
9.1791099999999997
 20
-14.418799999999999
 30
0.0
 70
    32
  0
VERTEX
  5
2D84
  8
241
 10
9.1927800000000008
 20
-14.424200000000001
 30
0.0
 70
    32
  0
VERTEX
  5
2D85
  8
241
 10
9.2064699999999995
 20
-14.429600000000001
 30
0.0
 70
    32
  0
VERTEX
  5
2D86
  8
241
 10
9.2201599999999981
 20
-14.4351
 30
0.0
 70
    32
  0
VERTEX
  5
2D87
  8
241
 10
9.2338699999999996
 20
-14.4405
 30
0.0
 70
    32
  0
VERTEX
  5
2D88
  8
241
 10
9.2475900000000006
 20
-14.4459
 30
0.0
 70
    32
  0
VERTEX
  5
2D89
  8
241
 10
9.2613199999999996
 20
-14.4513
 30
0.0
 70
    32
  0
VERTEX
  5
2D8A
  8
241
 10
9.2750600000000016
 20
-14.456799999999999
 30
0.0
 70
    32
  0
VERTEX
  5
2D8B
  8
241
 10
9.2888099999999998
 20
-14.462199999999999
 30
0.0
 70
    32
  0
VERTEX
  5
2D8C
  8
241
 10
9.3025800000000007
 20
-14.467599999999999
 30
0.0
 70
    32
  0
VERTEX
  5
2D8D
  8
241
 10
9.3163599999999995
 20
-14.473000000000001
 30
0.0
 70
    32
  0
VERTEX
  5
2D8E
  8
241
 10
9.3301499999999997
 20
-14.478400000000001
 30
0.0
 70
    32
  0
VERTEX
  5
2D8F
  8
241
 10
9.3439499999999995
 20
-14.4839
 30
0.0
 70
    32
  0
VERTEX
  5
2D90
  8
241
 10
9.3577600000000007
 20
-14.4893
 30
0.0
 70
    32
  0
VERTEX
  5
2D91
  8
241
 10
9.3715799999999998
 20
-14.4947
 30
0.0
 70
    32
  0
VERTEX
  5
2D92
  8
241
 10
9.3854200000000017
 20
-14.5001
 30
0.0
 70
    32
  0
VERTEX
  5
2D93
  8
241
 10
9.3992699999999996
 20
-14.5055
 30
0.0
 70
    32
  0
VERTEX
  5
2D94
  8
241
 10
9.4131199999999993
 20
-14.510899999999999
 30
0.0
 70
    32
  0
VERTEX
  5
2D95
  8
241
 10
9.4269899999999982
 20
-14.516400000000001
 30
0.0
 70
    32
  0
VERTEX
  5
2D96
  8
241
 10
9.4408799999999982
 20
-14.521800000000001
 30
0.0
 70
    32
  0
VERTEX
  5
2D97
  8
241
 10
9.4547699999999981
 20
-14.527200000000001
 30
0.0
 70
    32
  0
VERTEX
  5
2D98
  8
241
 10
9.4686699999999995
 20
-14.5326
 30
0.0
 70
    32
  0
VERTEX
  5
2D99
  8
241
 10
9.4825800000000005
 20
-14.538
 30
0.0
 70
    32
  0
VERTEX
  5
2D9A
  8
241
 10
9.4965100000000007
 20
-14.5434
 30
0.0
 70
    32
  0
VERTEX
  5
2D9B
  8
241
 10
9.5104500000000005
 20
-14.5488
 30
0.0
 70
    32
  0
VERTEX
  5
2D9C
  8
241
 10
9.5243899999999986
 20
-14.5542
 30
0.0
 70
    32
  0
VERTEX
  5
2D9D
  8
241
 10
9.5383499999999994
 20
-14.5596
 30
0.0
 70
    32
  0
VERTEX
  5
2D9E
  8
241
 10
9.5523199999999981
 20
-14.565
 30
0.0
 70
    32
  0
VERTEX
  5
2D9F
  8
241
 10
9.5663
 20
-14.570399999999999
 30
0.0
 70
    32
  0
VERTEX
  5
2DA0
  8
241
 10
9.5802999999999994
 20
-14.575799999999999
 30
0.0
 70
    32
  0
VERTEX
  5
2DA1
  8
241
 10
9.5943000000000005
 20
-14.581200000000001
 30
0.0
 70
    32
  0
VERTEX
  5
2DA2
  8
241
 10
9.6083200000000009
 20
-14.586600000000001
 30
0.0
 70
    32
  0
VERTEX
  5
2DA3
  8
241
 10
9.6223500000000008
 20
-14.592000000000001
 30
0.0
 70
    32
  0
VERTEX
  5
2DA4
  8
241
 10
9.6364000000000001
 20
-14.5974
 30
0.0
 70
    32
  0
VERTEX
  5
2DA5
  8
241
 10
9.6504600000000007
 20
-14.6028
 30
0.0
 70
    32
  0
VERTEX
  5
2DA6
  8
241
 10
9.6645299999999992
 20
-14.6082
 30
0.0
 70
    32
  0
VERTEX
  5
2DA7
  8
241
 10
9.6786100000000008
 20
-14.6136
 30
0.0
 70
    32
  0
VERTEX
  5
2DA8
  8
241
 10
9.6927099999999982
 20
-14.619
 30
0.0
 70
    32
  0
VERTEX
  5
2DA9
  8
241
 10
9.7068200000000004
 20
-14.6244
 30
0.0
 70
    32
  0
VERTEX
  5
2DAA
  8
241
 10
9.7209400000000006
 20
-14.6297
 30
0.0
 70
    32
  0
VERTEX
  5
2DAB
  8
241
 10
9.7350799999999982
 20
-14.6351
 30
0.0
 70
    32
  0
VERTEX
  5
2DAC
  8
241
 10
9.7492300000000007
 20
-14.640499999999999
 30
0.0
 70
    32
  0
VERTEX
  5
2DAD
  8
241
 10
9.7633899999999993
 20
-14.645899999999999
 30
0.0
 70
    32
  0
VERTEX
  5
2DAE
  8
241
 10
9.7775699999999972
 20
-14.651300000000001
 30
0.0
 70
    32
  0
VERTEX
  5
2DAF
  8
241
 10
9.79176
 20
-14.656700000000001
 30
0.0
 70
    32
  0
VERTEX
  5
2DB0
  8
241
 10
9.8059600000000007
 20
-14.662000000000001
 30
0.0
 70
    32
  0
VERTEX
  5
2DB1
  8
241
 10
9.8201800000000006
 20
-14.667400000000001
 30
0.0
 70
    32
  0
VERTEX
  5
2DB2
  8
241
 10
9.8344100000000001
 20
-14.672800000000001
 30
0.0
 70
    32
  0
VERTEX
  5
2DB3
  8
241
 10
9.8486499999999992
 20
-14.6782
 30
0.0
 70
    32
  0
VERTEX
  5
2DB4
  8
241
 10
9.8629099999999994
 20
-14.6836
 30
0.0
 70
    32
  0
VERTEX
  5
2DB5
  8
241
 10
9.8771799999999992
 20
-14.6889
 30
0.0
 70
    32
  0
VERTEX
  5
2DB6
  8
241
 10
9.8914699999999982
 20
-14.6943
 30
0.0
 70
    32
  0
VERTEX
  5
2DB7
  8
241
 10
9.9057700000000004
 20
-14.6997
 30
0.0
 70
    32
  0
VERTEX
  5
2DB8
  8
241
 10
9.9200800000000005
 20
-14.705
 30
0.0
 70
    32
  0
VERTEX
  5
2DB9
  8
241
 10
9.9344099999999997
 20
-14.7104
 30
0.0
 70
    32
  0
VERTEX
  5
2DBA
  8
241
 10
9.9487500000000004
 20
-14.7158
 30
0.0
 70
    32
  0
VERTEX
  5
2DBB
  8
241
 10
9.9631000000000007
 20
-14.7211
 30
0.0
 70
    32
  0
VERTEX
  5
2DBC
  8
241
 10
9.9774700000000003
 20
-14.7265
 30
0.0
 70
    32
  0
VERTEX
  5
2DBD
  8
241
 10
9.9918499999999995
 20
-14.7318
 30
0.0
 70
    32
  0
VERTEX
  5
2DBE
  8
241
 10
10.0063
 20
-14.7372
 30
0.0
 70
    32
  0
VERTEX
  5
2DBF
  8
241
 10
10.0207
 20
-14.7425
 30
0.0
 70
    32
  0
VERTEX
  5
2DC0
  8
241
 10
10.0351
 20
-14.7479
 30
0.0
 70
    32
  0
VERTEX
  5
2DC1
  8
241
 10
10.0495
 20
-14.7532
 30
0.0
 70
    32
  0
VERTEX
  5
2DC2
  8
241
 10
10.064
 20
-14.758599999999999
 30
0.0
 70
    32
  0
VERTEX
  5
2DC3
  8
241
 10
10.0785
 20
-14.7639
 30
0.0
 70
    32
  0
VERTEX
  5
2DC4
  8
241
 10
10.0929
 20
-14.769299999999999
 30
0.0
 70
    32
  0
VERTEX
  5
2DC5
  8
241
 10
10.1074
 20
-14.7746
 30
0.0
 70
    32
  0
VERTEX
  5
2DC6
  8
241
 10
10.122
 20
-14.779999999999999
 30
0.0
 70
    32
  0
VERTEX
  5
2DC7
  8
241
 10
10.1365
 20
-14.785299999999999
 30
0.0
 70
    32
  0
VERTEX
  5
2DC8
  8
241
 10
10.151
 20
-14.7906
 30
0.0
 70
    32
  0
VERTEX
  5
2DC9
  8
241
 10
10.1656
 20
-14.795999999999999
 30
0.0
 70
    32
  0
VERTEX
  5
2DCA
  8
241
 10
10.180199999999999
 20
-14.801299999999999
 30
0.0
 70
    32
  0
VERTEX
  5
2DCB
  8
241
 10
10.194699999999999
 20
-14.8066
 30
0.0
 70
    32
  0
VERTEX
  5
2DCC
  8
241
 10
10.209300000000001
 20
-14.8119
 30
0.0
 70
    32
  0
VERTEX
  5
2DCD
  8
241
 10
10.224
 20
-14.817299999999999
 30
0.0
 70
    32
  0
VERTEX
  5
2DCE
  8
241
 10
10.2386
 20
-14.8226
 30
0.0
 70
    32
  0
VERTEX
  5
2DCF
  8
241
 10
10.2532
 20
-14.8279
 30
0.0
 70
    32
  0
VERTEX
  5
2DD0
  8
241
 10
10.267899999999999
 20
-14.8332
 30
0.0
 70
    32
  0
VERTEX
  5
2DD1
  8
241
 10
10.2826
 20
-14.8385
 30
0.0
 70
    32
  0
VERTEX
  5
2DD2
  8
241
 10
10.2973
 20
-14.8438
 30
0.0
 70
    32
  0
VERTEX
  5
2DD3
  8
241
 10
10.311999999999999
 20
-14.8491
 30
0.0
 70
    32
  0
VERTEX
  5
2DD4
  8
241
 10
10.326700000000001
 20
-14.8544
 30
0.0
 70
    32
  0
VERTEX
  5
2DD5
  8
241
 10
10.3415
 20
-14.8597
 30
0.0
 70
    32
  0
VERTEX
  5
2DD6
  8
241
 10
10.356199999999999
 20
-14.865
 30
0.0
 70
    32
  0
VERTEX
  5
2DD7
  8
241
 10
10.371
 20
-14.8703
 30
0.0
 70
    32
  0
VERTEX
  5
2DD8
  8
241
 10
10.3858
 20
-14.8756
 30
0.0
 70
    32
  0
VERTEX
  5
2DD9
  8
241
 10
10.400600000000001
 20
-14.8809
 30
0.0
 70
    32
  0
VERTEX
  5
2DDA
  8
241
 10
10.4154
 20
-14.886200000000001
 30
0.0
 70
    32
  0
VERTEX
  5
2DDB
  8
241
 10
10.430199999999999
 20
-14.891500000000001
 30
0.0
 70
    32
  0
VERTEX
  5
2DDC
  8
241
 10
10.4451
 20
-14.896800000000001
 30
0.0
 70
    32
  0
VERTEX
  5
2DDD
  8
241
 10
10.459899999999999
 20
-14.901999999999999
 30
0.0
 70
    32
  0
VERTEX
  5
2DDE
  8
241
 10
10.4748
 20
-14.907299999999999
 30
0.0
 70
    32
  0
VERTEX
  5
2DDF
  8
241
 10
10.489699999999999
 20
-14.912599999999999
 30
0.0
 70
    32
  0
VERTEX
  5
2DE0
  8
241
 10
10.5046
 20
-14.917899999999999
 30
0.0
 70
    32
  0
VERTEX
  5
2DE1
  8
241
 10
10.519600000000001
 20
-14.9231
 30
0.0
 70
    32
  0
VERTEX
  5
2DE2
  8
241
 10
10.5345
 20
-14.9284
 30
0.0
 70
    32
  0
VERTEX
  5
2DE3
  8
241
 10
10.5495
 20
-14.9336
 30
0.0
 70
    32
  0
VERTEX
  5
2DE4
  8
241
 10
10.564399999999999
 20
-14.9389
 30
0.0
 70
    32
  0
VERTEX
  5
2DE5
  8
241
 10
10.5794
 20
-14.944100000000001
 30
0.0
 70
    32
  0
VERTEX
  5
2DE6
  8
241
 10
10.5945
 20
-14.949400000000001
 30
0.0
 70
    32
  0
VERTEX
  5
2DE7
  8
241
 10
10.609500000000001
 20
-14.954599999999999
 30
0.0
 70
    32
  0
VERTEX
  5
2DE8
  8
241
 10
10.624499999999999
 20
-14.959899999999999
 30
0.0
 70
    32
  0
VERTEX
  5
2DE9
  8
241
 10
10.6396
 20
-14.9651
 30
0.0
 70
    32
  0
VERTEX
  5
2DEA
  8
241
 10
10.6547
 20
-14.9703
 30
0.0
 70
    32
  0
VERTEX
  5
2DEB
  8
241
 10
10.6698
 20
-14.9756
 30
0.0
 70
    32
  0
VERTEX
  5
2DEC
  8
241
 10
10.684900000000001
 20
-14.9808
 30
0.0
 70
    32
  0
VERTEX
  5
2DED
  8
241
 10
10.699999999999999
 20
-14.986000000000001
 30
0.0
 70
    32
  0
SEQEND
  5
2DEE
  8
241
  0
LINE
  5
2DEF
  8
240
 10
7.2360392659902573
 20
-20.62537521123889
 30
0.0
 11
7.2360392659902573
 21
-20.130619075501901
 31
0.0
  0
POLYLINE
  5
2DF0
  8
240
 66
     1
 10
0.0
 20
0.0
 30
0.0
 70
     8
  0
VERTEX
  5
2DF1
  8
240
 10
0.0
 20
-19.5
 30
0.0
 70
    32
  0
VERTEX
  5
2DF2
  8
240
 10
0.104762
 20
-19.5
 30
0.0
 70
    32
  0
VERTEX
  5
2DF3
  8
240
 10
0.209524
 20
-19.5
 30
0.0
 70
    32
  0
VERTEX
  5
2DF4
  8
240
 10
0.314286
 20
-19.5
 30
0.0
 70
    32
  0
VERTEX
  5
2DF5
  8
240
 10
0.419048
 20
-19.5
 30
0.0
 70
    32
  0
VERTEX
  5
2DF6
  8
240
 10
0.5238100000000001
 20
-19.5
 30
0.0
 70
    32
  0
VERTEX
  5
2DF7
  8
240
 10
0.628571
 20
-19.5
 30
0.0
 70
    32
  0
VERTEX
  5
2DF8
  8
240
 10
0.7333330000000001
 20
-19.5
 30
0.0
 70
    32
  0
VERTEX
  5
2DF9
  8
240
 10
0.838095
 20
-19.5
 30
0.0
 70
    32
  0
VERTEX
  5
2DFA
  8
240
 10
0.9428569999999998
 20
-19.5
 30
0.0
 70
    32
  0
VERTEX
  5
2DFB
  8
240
 10
1.0476199999999991
 20
-19.5
 30
0.0
 70
    32
  0
VERTEX
  5
2DFC
  8
240
 10
1.1523799999999991
 20
-19.5
 30
0.0
 70
    32
  0
VERTEX
  5
2DFD
  8
240
 10
1.257139999999999
 20
-19.5
 30
0.0
 70
    32
  0
VERTEX
  5
2DFE
  8
240
 10
1.3619000000000001
 20
-19.5
 30
0.0
 70
    32
  0
VERTEX
  5
2DFF
  8
240
 10
1.466669999999999
 20
-19.5
 30
0.0
 70
    32
  0
VERTEX
  5
2E00
  8
240
 10
1.571429999999999
 20
-19.5
 30
0.0
 70
    32
  0
VERTEX
  5
2E01
  8
240
 10
1.6761900000000001
 20
-19.5
 30
0.0
 70
    32
  0
VERTEX
  5
2E02
  8
240
 10
1.780949999999998
 20
-19.5
 30
0.0
 70
    32
  0
VERTEX
  5
2E03
  8
240
 10
1.8857099999999991
 20
-19.5
 30
0.0
 70
    32
  0
VERTEX
  5
2E04
  8
240
 10
1.990479999999998
 20
-19.5
 30
0.0
 70
    32
  0
VERTEX
  5
2E05
  8
240
 10
2.0952399999999991
 20
-19.5
 30
0.0
 70
    32
  0
VERTEX
  5
2E06
  8
240
 10
2.2000000000000002
 20
-19.5
 30
0.0
 70
    32
  0
VERTEX
  5
2E07
  8
240
 10
2.304759999999999
 20
-19.5
 30
0.0
 70
    32
  0
VERTEX
  5
2E08
  8
240
 10
2.4095200000000001
 20
-19.5
 30
0.0
 70
    32
  0
VERTEX
  5
2E09
  8
240
 10
2.514289999999999
 20
-19.5
 30
0.0
 70
    32
  0
VERTEX
  5
2E0A
  8
240
 10
2.6190500000000001
 20
-19.5
 30
0.0
 70
    32
  0
VERTEX
  5
2E0B
  8
240
 10
2.7238099999999981
 20
-19.5
 30
0.0
 70
    32
  0
VERTEX
  5
2E0C
  8
240
 10
2.82857
 20
-19.5
 30
0.0
 70
    32
  0
VERTEX
  5
2E0D
  8
240
 10
2.933329999999998
 20
-19.5
 30
0.0
 70
    32
  0
VERTEX
  5
2E0E
  8
240
 10
3.0381
 20
-19.5
 30
0.0
 70
    32
  0
VERTEX
  5
2E0F
  8
240
 10
3.142859999999998
 20
-19.5
 30
0.0
 70
    32
  0
VERTEX
  5
2E10
  8
240
 10
3.2476199999999991
 20
-19.5
 30
0.0
 70
    32
  0
VERTEX
  5
2E11
  8
240
 10
3.3523800000000001
 20
-19.5
 30
0.0
 70
    32
  0
VERTEX
  5
2E12
  8
240
 10
3.457139999999999
 20
-19.5
 30
0.0
 70
    32
  0
VERTEX
  5
2E13
  8
240
 10
3.5619000000000001
 20
-19.5
 30
0.0
 70
    32
  0
VERTEX
  5
2E14
  8
240
 10
3.6666699999999981
 20
-19.5
 30
0.0
 70
    32
  0
VERTEX
  5
2E15
  8
240
 10
3.7714300000000001
 20
-19.5
 30
0.0
 70
    32
  0
VERTEX
  5
2E16
  8
240
 10
3.8761899999999989
 20
-19.5
 30
0.0
 70
    32
  0
VERTEX
  5
2E17
  8
240
 10
3.9809499999999991
 20
-19.5
 30
0.0
 70
    32
  0
VERTEX
  5
2E18
  8
240
 10
4.085709999999998
 20
-19.5
 30
0.0
 70
    32
  0
VERTEX
  5
2E19
  8
240
 10
4.1904799999999991
 20
-19.5
 30
0.0
 70
    32
  0
VERTEX
  5
2E1A
  8
240
 10
4.2952399999999979
 20
-19.5
 30
0.0
 70
    32
  0
VERTEX
  5
2E1B
  8
240
 10
4.4000000000000004
 20
-19.5
 30
0.0
 70
    32
  0
VERTEX
  5
2E1C
  8
240
 10
4.5047600000000001
 20
-19.5
 30
0.0
 70
    32
  0
VERTEX
  5
2E1D
  8
240
 10
4.6095199999999981
 20
-19.5
 30
0.0
 70
    32
  0
VERTEX
  5
2E1E
  8
240
 10
4.7142900000000001
 20
-19.5
 30
0.0
 70
    32
  0
VERTEX
  5
2E1F
  8
240
 10
4.8190499999999981
 20
-19.5
 30
0.0
 70
    32
  0
VERTEX
  5
2E20
  8
240
 10
4.9238099999999987
 20
-19.5
 30
0.0
 70
    32
  0
VERTEX
  5
2E21
  8
240
 10
5.0285699999999993
 20
-19.5
 30
0.0
 70
    32
  0
VERTEX
  5
2E22
  8
240
 10
5.1333299999999991
 20
-19.5
 30
0.0
 70
    32
  0
VERTEX
  5
2E23
  8
240
 10
5.2381000000000002
 20
-19.5
 30
0.0
 70
    32
  0
VERTEX
  5
2E24
  8
240
 10
5.3428599999999991
 20
-19.5
 30
0.0
 70
    32
  0
VERTEX
  5
2E25
  8
240
 10
5.4476199999999979
 20
-19.5
 30
0.0
 70
    32
  0
VERTEX
  5
2E26
  8
240
 10
5.5523800000000003
 20
-19.5
 30
0.0
 70
    32
  0
VERTEX
  5
2E27
  8
240
 10
5.6571400000000001
 20
-19.5
 30
0.0
 70
    32
  0
VERTEX
  5
2E28
  8
240
 10
5.761899999999998
 20
-19.5
 30
0.0
 70
    32
  0
VERTEX
  5
2E29
  8
240
 10
5.8666700000000001
 20
-19.5
 30
0.0
 70
    32
  0
VERTEX
  5
2E2A
  8
240
 10
5.9714299999999989
 20
-19.5
 30
0.0
 70
    32
  0
VERTEX
  5
2E2B
  8
240
 10
6.0761900000000004
 20
-19.5
 30
0.0
 70
    32
  0
VERTEX
  5
2E2C
  8
240
 10
6.1809500000000002
 20
-19.5
 30
0.0
 70
    32
  0
VERTEX
  5
2E2D
  8
240
 10
6.285709999999999
 20
-19.5
 30
0.0
 70
    32
  0
VERTEX
  5
2E2E
  8
240
 10
6.3904800000000002
 20
-19.5
 30
0.0
 70
    32
  0
VERTEX
  5
2E2F
  8
240
 10
6.495239999999999
 20
-19.5
 30
0.0
 70
    32
  0
VERTEX
  5
2E30
  8
240
 10
6.5999999999999979
 20
-19.5
 30
0.0
 70
    32
  0
SEQEND
  5
2E31
  8
240
  0
POLYLINE
  5
2E32
  8
241
 66
     1
 10
0.0
 20
0.0
 30
0.0
 70
     8
  0
VERTEX
  5
2E33
  8
241
 10
10.699999999999999
 20
-22.368600000000001
 30
0.0
 70
    32
  0
VERTEX
  5
2E34
  8
241
 10
10.7174
 20
-22.391400000000001
 30
0.0
 70
    32
  0
VERTEX
  5
2E35
  8
241
 10
10.7349
 20
-22.414300000000001
 30
0.0
 70
    32
  0
VERTEX
  5
2E36
  8
241
 10
10.7524
 20
-22.437100000000001
 30
0.0
 70
    32
  0
VERTEX
  5
2E37
  8
241
 10
10.7698
 20
-22.459900000000001
 30
0.0
 70
    32
  0
VERTEX
  5
2E38
  8
241
 10
10.7873
 20
-22.482700000000001
 30
0.0
 70
    32
  0
VERTEX
  5
2E39
  8
241
 10
10.8048
 20
-22.505500000000001
 30
0.0
 70
    32
  0
VERTEX
  5
2E3A
  8
241
 10
10.8224
 20
-22.528300000000002
 30
0.0
 70
    32
  0
VERTEX
  5
2E3B
  8
241
 10
10.8399
 20
-22.551100000000002
 30
0.0
 70
    32
  0
VERTEX
  5
2E3C
  8
241
 10
10.8574
 20
-22.573899999999998
 30
0.0
 70
    32
  0
VERTEX
  5
2E3D
  8
241
 10
10.875
 20
-22.596599999999999
 30
0.0
 70
    32
  0
VERTEX
  5
2E3E
  8
241
 10
10.8925
 20
-22.619399999999999
 30
0.0
 70
    32
  0
VERTEX
  5
2E3F
  8
241
 10
10.9101
 20
-22.642199999999999
 30
0.0
 70
    32
  0
VERTEX
  5
2E40
  8
241
 10
10.9277
 20
-22.664899999999999
 30
0.0
 70
    32
  0
VERTEX
  5
2E41
  8
241
 10
10.9453
 20
-22.6877
 30
0.0
 70
    32
  0
VERTEX
  5
2E42
  8
241
 10
10.962899999999999
 20
-22.7104
 30
0.0
 70
    32
  0
VERTEX
  5
2E43
  8
241
 10
10.980499999999999
 20
-22.7332
 30
0.0
 70
    32
  0
VERTEX
  5
2E44
  8
241
 10
10.998100000000001
 20
-22.7559
 30
0.0
 70
    32
  0
VERTEX
  5
2E45
  8
241
 10
11.0158
 20
-22.778600000000001
 30
0.0
 70
    32
  0
VERTEX
  5
2E46
  8
241
 10
11.0334
 20
-22.801400000000001
 30
0.0
 70
    32
  0
VERTEX
  5
2E47
  8
241
 10
11.0511
 20
-22.824100000000001
 30
0.0
 70
    32
  0
VERTEX
  5
2E48
  8
241
 10
11.0688
 20
-22.846800000000002
 30
0.0
 70
    32
  0
VERTEX
  5
2E49
  8
241
 10
11.086499999999999
 20
-22.869499999999999
 30
0.0
 70
    32
  0
VERTEX
  5
2E4A
  8
241
 10
11.104100000000001
 20
-22.892199999999999
 30
0.0
 70
    32
  0
VERTEX
  5
2E4B
  8
241
 10
11.1219
 20
-22.914899999999999
 30
0.0
 70
    32
  0
VERTEX
  5
2E4C
  8
241
 10
11.1396
 20
-22.9376
 30
0.0
 70
    32
  0
VERTEX
  5
2E4D
  8
241
 10
11.157299999999999
 20
-22.9603
 30
0.0
 70
    32
  0
VERTEX
  5
2E4E
  8
241
 10
11.175000000000001
 20
-22.982900000000001
 30
0.0
 70
    32
  0
VERTEX
  5
2E4F
  8
241
 10
11.1928
 20
-23.005600000000001
 30
0.0
 70
    32
  0
VERTEX
  5
2E50
  8
241
 10
11.210599999999999
 20
-23.028300000000002
 30
0.0
 70
    32
  0
VERTEX
  5
2E51
  8
241
 10
11.228300000000001
 20
-23.050899999999999
 30
0.0
 70
    32
  0
VERTEX
  5
2E52
  8
241
 10
11.2461
 20
-23.073599999999999
 30
0.0
 70
    32
  0
VERTEX
  5
2E53
  8
241
 10
11.2639
 20
-23.096299999999999
 30
0.0
 70
    32
  0
VERTEX
  5
2E54
  8
241
 10
11.281700000000001
 20
-23.1189
 30
0.0
 70
    32
  0
VERTEX
  5
2E55
  8
241
 10
11.2995
 20
-23.141500000000001
 30
0.0
 70
    32
  0
VERTEX
  5
2E56
  8
241
 10
11.317399999999999
 20
-23.164200000000001
 30
0.0
 70
    32
  0
VERTEX
  5
2E57
  8
241
 10
11.3352
 20
-23.186800000000002
 30
0.0
 70
    32
  0
VERTEX
  5
2E58
  8
241
 10
11.3531
 20
-23.209399999999999
 30
0.0
 70
    32
  0
VERTEX
  5
2E59
  8
241
 10
11.370900000000001
 20
-23.231999999999999
 30
0.0
 70
    32
  0
VERTEX
  5
2E5A
  8
241
 10
11.3888
 20
-23.2547
 30
0.0
 70
    32
  0
VERTEX
  5
2E5B
  8
241
 10
11.406700000000001
 20
-23.2773
 30
0.0
 70
    32
  0
VERTEX
  5
2E5C
  8
241
 10
11.4246
 20
-23.299900000000001
 30
0.0
 70
    32
  0
VERTEX
  5
2E5D
  8
241
 10
11.442500000000001
 20
-23.322500000000002
 30
0.0
 70
    32
  0
VERTEX
  5
2E5E
  8
241
 10
11.4604
 20
-23.345099999999999
 30
0.0
 70
    32
  0
VERTEX
  5
2E5F
  8
241
 10
11.478300000000001
 20
-23.367599999999999
 30
0.0
 70
    32
  0
VERTEX
  5
2E60
  8
241
 10
11.4962
 20
-23.3902
 30
0.0
 70
    32
  0
VERTEX
  5
2E61
  8
241
 10
11.514200000000001
 20
-23.412800000000001
 30
0.0
 70
    32
  0
VERTEX
  5
2E62
  8
241
 10
11.5321
 20
-23.435400000000001
 30
0.0
 70
    32
  0
VERTEX
  5
2E63
  8
241
 10
11.5501
 20
-23.457899999999999
 30
0.0
 70
    32
  0
VERTEX
  5
2E64
  8
241
 10
11.568099999999999
 20
-23.480499999999999
 30
0.0
 70
    32
  0
VERTEX
  5
2E65
  8
241
 10
11.5861
 20
-23.503
 30
0.0
 70
    32
  0
VERTEX
  5
2E66
  8
241
 10
11.604100000000001
 20
-23.525600000000001
 30
0.0
 70
    32
  0
VERTEX
  5
2E67
  8
241
 10
11.6221
 20
-23.548100000000002
 30
0.0
 70
    32
  0
VERTEX
  5
2E68
  8
241
 10
11.6401
 20
-23.570699999999999
 30
0.0
 70
    32
  0
VERTEX
  5
2E69
  8
241
 10
11.658099999999999
 20
-23.5932
 30
0.0
 70
    32
  0
VERTEX
  5
2E6A
  8
241
 10
11.6762
 20
-23.6157
 30
0.0
 70
    32
  0
VERTEX
  5
2E6B
  8
241
 10
11.6942
 20
-23.638300000000001
 30
0.0
 70
    32
  0
VERTEX
  5
2E6C
  8
241
 10
11.712300000000001
 20
-23.660799999999998
 30
0.0
 70
    32
  0
VERTEX
  5
2E6D
  8
241
 10
11.7303
 20
-23.683299999999999
 30
0.0
 70
    32
  0
VERTEX
  5
2E6E
  8
241
 10
11.7484
 20
-23.7058
 30
0.0
 70
    32
  0
VERTEX
  5
2E6F
  8
241
 10
11.766500000000001
 20
-23.728300000000001
 30
0.0
 70
    32
  0
VERTEX
  5
2E70
  8
241
 10
11.784599999999999
 20
-23.750800000000002
 30
0.0
 70
    32
  0
VERTEX
  5
2E71
  8
241
 10
11.8027
 20
-23.773299999999999
 30
0.0
 70
    32
  0
VERTEX
  5
2E72
  8
241
 10
11.8208
 20
-23.7958
 30
0.0
 70
    32
  0
VERTEX
  5
2E73
  8
241
 10
11.839
 20
-23.818200000000001
 30
0.0
 70
    32
  0
VERTEX
  5
2E74
  8
241
 10
11.857100000000001
 20
-23.840699999999998
 30
0.0
 70
    32
  0
VERTEX
  5
2E75
  8
241
 10
11.875299999999999
 20
-23.863199999999999
 30
0.0
 70
    32
  0
VERTEX
  5
2E76
  8
241
 10
11.8934
 20
-23.8857
 30
0.0
 70
    32
  0
VERTEX
  5
2E77
  8
241
 10
11.9116
 20
-23.908100000000001
 30
0.0
 70
    32
  0
VERTEX
  5
2E78
  8
241
 10
11.9298
 20
-23.930599999999998
 30
0.0
 70
    32
  0
VERTEX
  5
2E79
  8
241
 10
11.948
 20
-23.952999999999999
 30
0.0
 70
    32
  0
VERTEX
  5
2E7A
  8
241
 10
11.966100000000001
 20
-23.9755
 30
0.0
 70
    32
  0
VERTEX
  5
2E7B
  8
241
 10
11.984400000000001
 20
-23.997900000000001
 30
0.0
 70
    32
  0
VERTEX
  5
2E7C
  8
241
 10
12.002599999999999
 20
-24.020399999999999
 30
0.0
 70
    32
  0
VERTEX
  5
2E7D
  8
241
 10
12.020799999999999
 20
-24.0428
 30
0.0
 70
    32
  0
VERTEX
  5
2E7E
  8
241
 10
12.039
 20
-24.065200000000001
 30
0.0
 70
    32
  0
VERTEX
  5
2E7F
  8
241
 10
12.0573
 20
-24.087599999999998
 30
0.0
 70
    32
  0
VERTEX
  5
2E80
  8
241
 10
12.0755
 20
-24.110099999999999
 30
0.0
 70
    32
  0
VERTEX
  5
2E81
  8
241
 10
12.0938
 20
-24.1325
 30
0.0
 70
    32
  0
VERTEX
  5
2E82
  8
241
 10
12.1121
 20
-24.154900000000001
 30
0.0
 70
    32
  0
VERTEX
  5
2E83
  8
241
 10
12.1304
 20
-24.177299999999999
 30
0.0
 70
    32
  0
VERTEX
  5
2E84
  8
241
 10
12.1487
 20
-24.1997
 30
0.0
 70
    32
  0
VERTEX
  5
2E85
  8
241
 10
12.167
 20
-24.222100000000001
 30
0.0
 70
    32
  0
VERTEX
  5
2E86
  8
241
 10
12.1853
 20
-24.244499999999999
 30
0.0
 70
    32
  0
VERTEX
  5
2E87
  8
241
 10
12.2036
 20
-24.2668
 30
0.0
 70
    32
  0
VERTEX
  5
2E88
  8
241
 10
12.2219
 20
-24.289200000000001
 30
0.0
 70
    32
  0
VERTEX
  5
2E89
  8
241
 10
12.2403
 20
-24.311599999999999
 30
0.0
 70
    32
  0
VERTEX
  5
2E8A
  8
241
 10
12.258599999999999
 20
-24.334
 30
0.0
 70
    32
  0
VERTEX
  5
2E8B
  8
241
 10
12.276999999999999
 20
-24.356300000000001
 30
0.0
 70
    32
  0
VERTEX
  5
2E8C
  8
241
 10
12.295400000000001
 20
-24.378699999999998
 30
0.0
 70
    32
  0
VERTEX
  5
2E8D
  8
241
 10
12.313700000000001
 20
-24.401
 30
0.0
 70
    32
  0
VERTEX
  5
2E8E
  8
241
 10
12.332100000000001
 20
-24.423400000000001
 30
0.0
 70
    32
  0
VERTEX
  5
2E8F
  8
241
 10
12.3505
 20
-24.445699999999999
 30
0.0
 70
    32
  0
VERTEX
  5
2E90
  8
241
 10
12.3689
 20
-24.4681
 30
0.0
 70
    32
  0
VERTEX
  5
2E91
  8
241
 10
12.3873
 20
-24.490400000000001
 30
0.0
 70
    32
  0
VERTEX
  5
2E92
  8
241
 10
12.405799999999999
 20
-24.512699999999999
 30
0.0
 70
    32
  0
VERTEX
  5
2E93
  8
241
 10
12.424200000000001
 20
-24.5351
 30
0.0
 70
    32
  0
VERTEX
  5
2E94
  8
241
 10
12.4427
 20
-24.557400000000001
 30
0.0
 70
    32
  0
VERTEX
  5
2E95
  8
241
 10
12.4611
 20
-24.579699999999999
 30
0.0
 70
    32
  0
VERTEX
  5
2E96
  8
241
 10
12.4796
 20
-24.602
 30
0.0
 70
    32
  0
VERTEX
  5
2E97
  8
241
 10
12.497999999999999
 20
-24.624300000000002
 30
0.0
 70
    32
  0
VERTEX
  5
2E98
  8
241
 10
12.516500000000001
 20
-24.646599999999999
 30
0.0
 70
    32
  0
VERTEX
  5
2E99
  8
241
 10
12.535
 20
-24.668900000000001
 30
0.0
 70
    32
  0
VERTEX
  5
2E9A
  8
241
 10
12.5535
 20
-24.691199999999998
 30
0.0
 70
    32
  0
VERTEX
  5
2E9B
  8
241
 10
12.571999999999999
 20
-24.7135
 30
0.0
 70
    32
  0
VERTEX
  5
2E9C
  8
241
 10
12.5905
 20
-24.735800000000001
 30
0.0
 70
    32
  0
VERTEX
  5
2E9D
  8
241
 10
12.609
 20
-24.758099999999999
 30
0.0
 70
    32
  0
VERTEX
  5
2E9E
  8
241
 10
12.627599999999999
 20
-24.7804
 30
0.0
 70
    32
  0
VERTEX
  5
2E9F
  8
241
 10
12.646100000000001
 20
-24.802600000000002
 30
0.0
 70
    32
  0
VERTEX
  5
2EA0
  8
241
 10
12.6647
 20
-24.8249
 30
0.0
 70
    32
  0
VERTEX
  5
2EA1
  8
241
 10
12.683199999999999
 20
-24.847200000000001
 30
0.0
 70
    32
  0
VERTEX
  5
2EA2
  8
241
 10
12.7018
 20
-24.869399999999999
 30
0.0
 70
    32
  0
VERTEX
  5
2EA3
  8
241
 10
12.7204
 20
-24.8917
 30
0.0
 70
    32
  0
VERTEX
  5
2EA4
  8
241
 10
12.738899999999999
 20
-24.913900000000002
 30
0.0
 70
    32
  0
VERTEX
  5
2EA5
  8
241
 10
12.7575
 20
-24.936199999999999
 30
0.0
 70
    32
  0
VERTEX
  5
2EA6
  8
241
 10
12.7761
 20
-24.958400000000001
 30
0.0
 70
    32
  0
VERTEX
  5
2EA7
  8
241
 10
12.794700000000001
 20
-24.980599999999999
 30
0.0
 70
    32
  0
VERTEX
  5
2EA8
  8
241
 10
12.8134
 20
-25.0029
 30
0.0
 70
    32
  0
VERTEX
  5
2EA9
  8
241
 10
12.832000000000001
 20
-25.025099999999998
 30
0.0
 70
    32
  0
VERTEX
  5
2EAA
  8
241
 10
12.8506
 20
-25.0473
 30
0.0
 70
    32
  0
VERTEX
  5
2EAB
  8
241
 10
12.869300000000001
 20
-25.069600000000001
 30
0.0
 70
    32
  0
VERTEX
  5
2EAC
  8
241
 10
12.8879
 20
-25.091799999999999
 30
0.0
 70
    32
  0
VERTEX
  5
2EAD
  8
241
 10
12.906599999999999
 20
-25.114000000000001
 30
0.0
 70
    32
  0
VERTEX
  5
2EAE
  8
241
 10
12.9252
 20
-25.136199999999999
 30
0.0
 70
    32
  0
VERTEX
  5
2EAF
  8
241
 10
12.943899999999999
 20
-25.1584
 30
0.0
 70
    32
  0
VERTEX
  5
2EB0
  8
241
 10
12.9626
 20
-25.180599999999998
 30
0.0
 70
    32
  0
VERTEX
  5
2EB1
  8
241
 10
12.981299999999999
 20
-25.2028
 30
0.0
 70
    32
  0
VERTEX
  5
2EB2
  8
241
 10
13.0
 20
-25.225000000000001
 30
0.0
 70
    32
  0
SEQEND
  5
2EB3
  8
241
  0
LINE
  5
2EB4
  8
241
 10
13.0000002682209
 20
-25.224981829524069
 30
0.0
 11
14.20000055804848
 21
-25.224981829524069
 31
0.0
  0
POLYLINE
  5
2EB5
  8
241
 66
     1
 10
0.0
 20
0.0
 30
0.0
 70
     8
  0
VERTEX
  5
2EB6
  8
241
 10
10.699999999999999
 20
-14.986000000000001
 30
0.0
 70
    32
  0
VERTEX
  5
2EB7
  8
241
 10
10.719799999999999
 20
-14.992800000000001
 30
0.0
 70
    32
  0
VERTEX
  5
2EB8
  8
241
 10
10.739599999999999
 20
-14.999499999999999
 30
0.0
 70
    32
  0
VERTEX
  5
2EB9
  8
241
 10
10.759499999999999
 20
-15.0062
 30
0.0
 70
    32
  0
VERTEX
  5
2EBA
  8
241
 10
10.779400000000001
 20
-15.0129
 30
0.0
 70
    32
  0
VERTEX
  5
2EBB
  8
241
 10
10.799300000000001
 20
-15.019500000000001
 30
0.0
 70
    32
  0
VERTEX
  5
2EBC
  8
241
 10
10.8193
 20
-15.026
 30
0.0
 70
    32
  0
VERTEX
  5
2EBD
  8
241
 10
10.8393
 20
-15.032500000000001
 30
0.0
 70
    32
  0
VERTEX
  5
2EBE
  8
241
 10
10.859400000000001
 20
-15.039
 30
0.0
 70
    32
  0
VERTEX
  5
2EBF
  8
241
 10
10.8795
 20
-15.045299999999999
 30
0.0
 70
    32
  0
VERTEX
  5
2EC0
  8
241
 10
10.899699999999999
 20
-15.0517
 30
0.0
 70
    32
  0
VERTEX
  5
2EC1
  8
241
 10
10.9199
 20
-15.058
 30
0.0
 70
    32
  0
VERTEX
  5
2EC2
  8
241
 10
10.940099999999999
 20
-15.0642
 30
0.0
 70
    32
  0
VERTEX
  5
2EC3
  8
241
 10
10.9604
 20
-15.070399999999999
 30
0.0
 70
    32
  0
VERTEX
  5
2EC4
  8
241
 10
10.980700000000001
 20
-15.076599999999999
 30
0.0
 70
    32
  0
VERTEX
  5
2EC5
  8
241
 10
11.001099999999999
 20
-15.082700000000001
 30
0.0
 70
    32
  0
VERTEX
  5
2EC6
  8
241
 10
11.0215
 20
-15.088699999999999
 30
0.0
 70
    32
  0
VERTEX
  5
2EC7
  8
241
 10
11.0419
 20
-15.0947
 30
0.0
 70
    32
  0
VERTEX
  5
2EC8
  8
241
 10
11.0624
 20
-15.1007
 30
0.0
 70
    32
  0
VERTEX
  5
2EC9
  8
241
 10
11.0829
 20
-15.1066
 30
0.0
 70
    32
  0
VERTEX
  5
2ECA
  8
241
 10
11.1035
 20
-15.112399999999999
 30
0.0
 70
    32
  0
VERTEX
  5
2ECB
  8
241
 10
11.1241
 20
-15.1182
 30
0.0
 70
    32
  0
VERTEX
  5
2ECC
  8
241
 10
11.1447
 20
-15.124000000000001
 30
0.0
 70
    32
  0
VERTEX
  5
2ECD
  8
241
 10
11.1654
 20
-15.1297
 30
0.0
 70
    32
  0
VERTEX
  5
2ECE
  8
241
 10
11.1861
 20
-15.135300000000001
 30
0.0
 70
    32
  0
VERTEX
  5
2ECF
  8
241
 10
11.206899999999999
 20
-15.1409
 30
0.0
 70
    32
  0
VERTEX
  5
2ED0
  8
241
 10
11.2277
 20
-15.1464
 30
0.0
 70
    32
  0
VERTEX
  5
2ED1
  8
241
 10
11.2485
 20
-15.151899999999999
 30
0.0
 70
    32
  0
VERTEX
  5
2ED2
  8
241
 10
11.269299999999999
 20
-15.157400000000001
 30
0.0
 70
    32
  0
VERTEX
  5
2ED3
  8
241
 10
11.2902
 20
-15.162800000000001
 30
0.0
 70
    32
  0
VERTEX
  5
2ED4
  8
241
 10
11.3111
 20
-15.168100000000001
 30
0.0
 70
    32
  0
VERTEX
  5
2ED5
  8
241
 10
11.332100000000001
 20
-15.173400000000001
 30
0.0
 70
    32
  0
VERTEX
  5
2ED6
  8
241
 10
11.3531
 20
-15.178599999999999
 30
0.0
 70
    32
  0
VERTEX
  5
2ED7
  8
241
 10
11.3741
 20
-15.1838
 30
0.0
 70
    32
  0
VERTEX
  5
2ED8
  8
241
 10
11.395200000000001
 20
-15.1889
 30
0.0
 70
    32
  0
VERTEX
  5
2ED9
  8
241
 10
11.4163
 20
-15.194000000000001
 30
0.0
 70
    32
  0
VERTEX
  5
2EDA
  8
241
 10
11.4374
 20
-15.199
 30
0.0
 70
    32
  0
VERTEX
  5
2EDB
  8
241
 10
11.458600000000001
 20
-15.204000000000001
 30
0.0
 70
    32
  0
VERTEX
  5
2EDC
  8
241
 10
11.479799999999999
 20
-15.2089
 30
0.0
 70
    32
  0
VERTEX
  5
2EDD
  8
241
 10
11.500999999999999
 20
-15.213800000000001
 30
0.0
 70
    32
  0
VERTEX
  5
2EDE
  8
241
 10
11.5222
 20
-15.2186
 30
0.0
 70
    32
  0
VERTEX
  5
2EDF
  8
241
 10
11.5435
 20
-15.2234
 30
0.0
 70
    32
  0
VERTEX
  5
2EE0
  8
241
 10
11.5649
 20
-15.2281
 30
0.0
 70
    32
  0
VERTEX
  5
2EE1
  8
241
 10
11.5862
 20
-15.232799999999999
 30
0.0
 70
    32
  0
VERTEX
  5
2EE2
  8
241
 10
11.6076
 20
-15.237399999999999
 30
0.0
 70
    32
  0
VERTEX
  5
2EE3
  8
241
 10
11.629
 20
-15.242000000000001
 30
0.0
 70
    32
  0
VERTEX
  5
2EE4
  8
241
 10
11.650399999999999
 20
-15.246499999999999
 30
0.0
 70
    32
  0
VERTEX
  5
2EE5
  8
241
 10
11.671900000000001
 20
-15.2509
 30
0.0
 70
    32
  0
VERTEX
  5
2EE6
  8
241
 10
11.6934
 20
-15.2553
 30
0.0
 70
    32
  0
VERTEX
  5
2EE7
  8
241
 10
11.7149
 20
-15.2597
 30
0.0
 70
    32
  0
VERTEX
  5
2EE8
  8
241
 10
11.736499999999999
 20
-15.263999999999999
 30
0.0
 70
    32
  0
VERTEX
  5
2EE9
  8
241
 10
11.758100000000001
 20
-15.2682
 30
0.0
 70
    32
  0
VERTEX
  5
2EEA
  8
241
 10
11.7797
 20
-15.272399999999999
 30
0.0
 70
    32
  0
VERTEX
  5
2EEB
  8
241
 10
11.801299999999999
 20
-15.2765
 30
0.0
 70
    32
  0
VERTEX
  5
2EEC
  8
241
 10
11.823
 20
-15.2806
 30
0.0
 70
    32
  0
VERTEX
  5
2EED
  8
241
 10
11.8447
 20
-15.284599999999999
 30
0.0
 70
    32
  0
VERTEX
  5
2EEE
  8
241
 10
11.866400000000001
 20
-15.288600000000001
 30
0.0
 70
    32
  0
VERTEX
  5
2EEF
  8
241
 10
11.8881
 20
-15.2925
 30
0.0
 70
    32
  0
VERTEX
  5
2EF0
  8
241
 10
11.9099
 20
-15.2964
 30
0.0
 70
    32
  0
VERTEX
  5
2EF1
  8
241
 10
11.931699999999999
 20
-15.3002
 30
0.0
 70
    32
  0
VERTEX
  5
2EF2
  8
241
 10
11.9535
 20
-15.304
 30
0.0
 70
    32
  0
VERTEX
  5
2EF3
  8
241
 10
11.9754
 20
-15.307700000000001
 30
0.0
 70
    32
  0
VERTEX
  5
2EF4
  8
241
 10
11.997199999999999
 20
-15.311299999999999
 30
0.0
 70
    32
  0
VERTEX
  5
2EF5
  8
241
 10
12.0191
 20
-15.3149
 30
0.0
 70
    32
  0
VERTEX
  5
2EF6
  8
241
 10
12.041
 20
-15.3185
 30
0.0
 70
    32
  0
VERTEX
  5
2EF7
  8
241
 10
12.063000000000001
 20
-15.321999999999999
 30
0.0
 70
    32
  0
VERTEX
  5
2EF8
  8
241
 10
12.084899999999999
 20
-15.3254
 30
0.0
 70
    32
  0
VERTEX
  5
2EF9
  8
241
 10
12.1069
 20
-15.328799999999999
 30
0.0
 70
    32
  0
VERTEX
  5
2EFA
  8
241
 10
12.1289
 20
-15.3322
 30
0.0
 70
    32
  0
VERTEX
  5
2EFB
  8
241
 10
12.151
 20
-15.3354
 30
0.0
 70
    32
  0
VERTEX
  5
2EFC
  8
241
 10
12.173
 20
-15.338699999999999
 30
0.0
 70
    32
  0
VERTEX
  5
2EFD
  8
241
 10
12.1951
 20
-15.341799999999999
 30
0.0
 70
    32
  0
VERTEX
  5
2EFE
  8
241
 10
12.2172
 20
-15.344900000000001
 30
0.0
 70
    32
  0
VERTEX
  5
2EFF
  8
241
 10
12.2393
 20
-15.348000000000001
 30
0.0
 70
    32
  0
VERTEX
  5
2F00
  8
241
 10
12.2614
 20
-15.351000000000001
 30
0.0
 70
    32
  0
VERTEX
  5
2F01
  8
241
 10
12.2836
 20
-15.353999999999999
 30
0.0
 70
    32
  0
VERTEX
  5
2F02
  8
241
 10
12.3057
 20
-15.3569
 30
0.0
 70
    32
  0
VERTEX
  5
2F03
  8
241
 10
12.3279
 20
-15.3597
 30
0.0
 70
    32
  0
VERTEX
  5
2F04
  8
241
 10
12.350099999999999
 20
-15.362500000000001
 30
0.0
 70
    32
  0
VERTEX
  5
2F05
  8
241
 10
12.372299999999999
 20
-15.3652
 30
0.0
 70
    32
  0
VERTEX
  5
2F06
  8
241
 10
12.394600000000001
 20
-15.367900000000001
 30
0.0
 70
    32
  0
VERTEX
  5
2F07
  8
241
 10
12.4168
 20
-15.3705
 30
0.0
 70
    32
  0
VERTEX
  5
2F08
  8
241
 10
12.4391
 20
-15.373100000000001
 30
0.0
 70
    32
  0
VERTEX
  5
2F09
  8
241
 10
12.461399999999999
 20
-15.3756
 30
0.0
 70
    32
  0
VERTEX
  5
2F0A
  8
241
 10
12.483700000000001
 20
-15.3781
 30
0.0
 70
    32
  0
VERTEX
  5
2F0B
  8
241
 10
12.506
 20
-15.3805
 30
0.0
 70
    32
  0
VERTEX
  5
2F0C
  8
241
 10
12.5284
 20
-15.3828
 30
0.0
 70
    32
  0
VERTEX
  5
2F0D
  8
241
 10
12.550700000000001
 20
-15.3851
 30
0.0
 70
    32
  0
VERTEX
  5
2F0E
  8
241
 10
12.5731
 20
-15.3874
 30
0.0
 70
    32
  0
VERTEX
  5
2F0F
  8
241
 10
12.595499999999999
 20
-15.3896
 30
0.0
 70
    32
  0
VERTEX
  5
2F10
  8
241
 10
12.617900000000001
 20
-15.3917
 30
0.0
 70
    32
  0
VERTEX
  5
2F11
  8
241
 10
12.6403
 20
-15.393800000000001
 30
0.0
 70
    32
  0
VERTEX
  5
2F12
  8
241
 10
12.662699999999999
 20
-15.395799999999999
 30
0.0
 70
    32
  0
VERTEX
  5
2F13
  8
241
 10
12.6852
 20
-15.3978
 30
0.0
 70
    32
  0
VERTEX
  5
2F14
  8
241
 10
12.707599999999999
 20
-15.399699999999999
 30
0.0
 70
    32
  0
VERTEX
  5
2F15
  8
241
 10
12.7301
 20
-15.4015
 30
0.0
 70
    32
  0
VERTEX
  5
2F16
  8
241
 10
12.752599999999999
 20
-15.4034
 30
0.0
 70
    32
  0
VERTEX
  5
2F17
  8
241
 10
12.775
 20
-15.405099999999999
 30
0.0
 70
    32
  0
VERTEX
  5
2F18
  8
241
 10
12.797499999999999
 20
-15.4068
 30
0.0
 70
    32
  0
VERTEX
  5
2F19
  8
241
 10
12.8201
 20
-15.4084
 30
0.0
 70
    32
  0
VERTEX
  5
2F1A
  8
241
 10
12.842599999999999
 20
-15.41
 30
0.0
 70
    32
  0
VERTEX
  5
2F1B
  8
241
 10
12.8651
 20
-15.4115
 30
0.0
 70
    32
  0
VERTEX
  5
2F1C
  8
241
 10
12.887600000000001
 20
-15.413
 30
0.0
 70
    32
  0
VERTEX
  5
2F1D
  8
241
 10
12.9102
 20
-15.414400000000001
 30
0.0
 70
    32
  0
VERTEX
  5
2F1E
  8
241
 10
12.9328
 20
-15.415800000000001
 30
0.0
 70
    32
  0
VERTEX
  5
2F1F
  8
241
 10
12.955299999999999
 20
-15.4171
 30
0.0
 70
    32
  0
VERTEX
  5
2F20
  8
241
 10
12.9779
 20
-15.4183
 30
0.0
 70
    32
  0
VERTEX
  5
2F21
  8
241
 10
13.000500000000001
 20
-15.419499999999999
 30
0.0
 70
    32
  0
VERTEX
  5
2F22
  8
241
 10
13.023099999999999
 20
-15.4207
 30
0.0
 70
    32
  0
VERTEX
  5
2F23
  8
241
 10
13.0457
 20
-15.421799999999999
 30
0.0
 70
    32
  0
VERTEX
  5
2F24
  8
241
 10
13.068300000000001
 20
-15.422800000000001
 30
0.0
 70
    32
  0
VERTEX
  5
2F25
  8
241
 10
13.0909
 20
-15.4238
 30
0.0
 70
    32
  0
VERTEX
  5
2F26
  8
241
 10
13.1135
 20
-15.4247
 30
0.0
 70
    32
  0
VERTEX
  5
2F27
  8
241
 10
13.136100000000001
 20
-15.4255
 30
0.0
 70
    32
  0
VERTEX
  5
2F28
  8
241
 10
13.158799999999999
 20
-15.426299999999999
 30
0.0
 70
    32
  0
VERTEX
  5
2F29
  8
241
 10
13.1814
 20
-15.427099999999999
 30
0.0
 70
    32
  0
VERTEX
  5
2F2A
  8
241
 10
13.204000000000001
 20
-15.4278
 30
0.0
 70
    32
  0
VERTEX
  5
2F2B
  8
241
 10
13.226699999999999
 20
-15.4284
 30
0.0
 70
    32
  0
VERTEX
  5
2F2C
  8
241
 10
13.2493
 20
-15.429
 30
0.0
 70
    32
  0
VERTEX
  5
2F2D
  8
241
 10
13.272
 20
-15.429500000000001
 30
0.0
 70
    32
  0
VERTEX
  5
2F2E
  8
241
 10
13.294600000000001
 20
-15.43
 30
0.0
 70
    32
  0
VERTEX
  5
2F2F
  8
241
 10
13.317299999999999
 20
-15.430400000000001
 30
0.0
 70
    32
  0
VERTEX
  5
2F30
  8
241
 10
13.34
 20
-15.4308
 30
0.0
 70
    32
  0
VERTEX
  5
2F31
  8
241
 10
13.3626
 20
-15.431100000000001
 30
0.0
 70
    32
  0
VERTEX
  5
2F32
  8
241
 10
13.385300000000001
 20
-15.4313
 30
0.0
 70
    32
  0
VERTEX
  5
2F33
  8
241
 10
13.4079
 20
-15.4315
 30
0.0
 70
    32
  0
VERTEX
  5
2F34
  8
241
 10
13.4306
 20
-15.431699999999999
 30
0.0
 70
    32
  0
VERTEX
  5
2F35
  8
241
 10
13.4533
 20
-15.431800000000001
 30
0.0
 70
    32
  0
VERTEX
  5
2F36
  8
241
 10
13.475899999999999
 20
-15.431800000000001
 30
0.0
 70
    32
  0
SEQEND
  5
2F37
  8
241
  0
LINE
  5
2F38
  8
241
 10
14.30710731074214
 20
-14.440152794122721
 30
0.0
 11
12.89289351552725
 21
-14.440152794122721
 31
0.0
  0
LINE
  5
2F39
  8
241
 10
13.724055141210551
 20
-15.431793406605751
 30
0.0
 11
13.47594568505883
 21
-15.431793406605751
 31
0.0
  0
POLYLINE
  5
2F3A
  8
241
 66
     1
 10
0.0
 20
0.0
 30
0.0
 70
     8
  0
VERTEX
  5
2F3B
  8
241
 10
6.9136399999999991
 20
-8.4162199999999991
 30
0.0
 70
    32
  0
VERTEX
  5
2F3C
  8
241
 10
6.9615400000000003
 20
-8.4402600000000003
 30
0.0
 70
    32
  0
VERTEX
  5
2F3D
  8
241
 10
7.0094399999999979
 20
-8.4642999999999962
 30
0.0
 70
    32
  0
VERTEX
  5
2F3E
  8
241
 10
7.0573499999999987
 20
-8.4883299999999977
 30
0.0
 70
    32
  0
VERTEX
  5
2F3F
  8
241
 10
7.1052499999999981
 20
-8.5123700000000007
 30
0.0
 70
    32
  0
VERTEX
  5
2F40
  8
241
 10
7.1531599999999989
 20
-8.5364100000000001
 30
0.0
 70
    32
  0
VERTEX
  5
2F41
  8
241
 10
7.2010699999999987
 20
-8.5604499999999977
 30
0.0
 70
    32
  0
VERTEX
  5
2F42
  8
241
 10
7.248969999999999
 20
-8.5844799999999992
 30
0.0
 70
    32
  0
VERTEX
  5
2F43
  8
241
 10
7.2968799999999989
 20
-8.6085200000000004
 30
0.0
 70
    32
  0
VERTEX
  5
2F44
  8
241
 10
7.3447899999999988
 20
-8.6325599999999998
 30
0.0
 70
    32
  0
VERTEX
  5
2F45
  8
241
 10
7.3926899999999982
 20
-8.6565899999999978
 30
0.0
 70
    32
  0
VERTEX
  5
2F46
  8
241
 10
7.4405999999999981
 20
-8.6806300000000007
 30
0.0
 70
    32
  0
VERTEX
  5
2F47
  8
241
 10
7.4885099999999989
 20
-8.7046700000000001
 30
0.0
 70
    32
  0
VERTEX
  5
2F48
  8
241
 10
7.5364199999999988
 20
-8.7286999999999981
 30
0.0
 70
    32
  0
VERTEX
  5
2F49
  8
241
 10
7.5843299999999978
 20
-8.7527399999999975
 30
0.0
 70
    32
  0
VERTEX
  5
2F4A
  8
241
 10
7.6322399999999977
 20
-8.7767699999999991
 30
0.0
 70
    32
  0
VERTEX
  5
2F4B
  8
241
 10
7.6801500000000003
 20
-8.8008100000000002
 30
0.0
 70
    32
  0
VERTEX
  5
2F4C
  8
241
 10
7.7280600000000002
 20
-8.82484
 30
0.0
 70
    32
  0
VERTEX
  5
2F4D
  8
241
 10
7.77597
 20
-8.8488799999999976
 30
0.0
 70
    32
  0
VERTEX
  5
2F4E
  8
241
 10
7.8238799999999982
 20
-8.8729099999999992
 30
0.0
 70
    32
  0
VERTEX
  5
2F4F
  8
241
 10
7.8717899999999981
 20
-8.8969500000000004
 30
0.0
 70
    32
  0
VERTEX
  5
2F50
  8
241
 10
7.9196999999999989
 20
-8.9209800000000001
 30
0.0
 70
    32
  0
VERTEX
  5
2F51
  8
241
 10
7.9676099999999979
 20
-8.9450199999999978
 30
0.0
 70
    32
  0
VERTEX
  5
2F52
  8
241
 10
8.0155200000000004
 20
-8.9690499999999975
 30
0.0
 70
    32
  0
VERTEX
  5
2F53
  8
241
 10
8.0634399999999982
 20
-8.9930899999999987
 30
0.0
 70
    32
  0
VERTEX
  5
2F54
  8
241
 10
8.1113499999999998
 20
-9.0171200000000002
 30
0.0
 70
    32
  0
VERTEX
  5
2F55
  8
241
 10
8.1592599999999962
 20
-9.04115
 30
0.0
 70
    32
  0
VERTEX
  5
2F56
  8
241
 10
8.207180000000001
 20
-9.0651899999999994
 30
0.0
 70
    32
  0
VERTEX
  5
2F57
  8
241
 10
8.2550899999999992
 20
-9.0892199999999992
 30
0.0
 70
    32
  0
VERTEX
  5
2F58
  8
241
 10
8.3030000000000008
 20
-9.1132500000000007
 30
0.0
 70
    32
  0
VERTEX
  5
2F59
  8
241
 10
8.3509200000000003
 20
-9.1372900000000001
 30
0.0
 70
    32
  0
VERTEX
  5
2F5A
  8
241
 10
8.3988300000000002
 20
-9.1613199999999981
 30
0.0
 70
    32
  0
VERTEX
  5
2F5B
  8
241
 10
8.4467499999999998
 20
-9.1853499999999997
 30
0.0
 70
    32
  0
VERTEX
  5
2F5C
  8
241
 10
8.4946600000000014
 20
-9.2093799999999995
 30
0.0
 70
    32
  0
VERTEX
  5
2F5D
  8
241
 10
8.5425799999999992
 20
-9.2334200000000006
 30
0.0
 70
    32
  0
VERTEX
  5
2F5E
  8
241
 10
8.5905000000000005
 20
-9.2574500000000004
 30
0.0
 70
    32
  0
VERTEX
  5
2F5F
  8
241
 10
8.6384100000000004
 20
-9.2814800000000002
 30
0.0
 70
    32
  0
VERTEX
  5
2F60
  8
241
 10
8.6863299999999999
 20
-9.3055099999999982
 30
0.0
 70
    32
  0
VERTEX
  5
2F61
  8
241
 10
8.7342499999999976
 20
-9.3295399999999997
 30
0.0
 70
    32
  0
VERTEX
  5
2F62
  8
241
 10
8.7821699999999971
 20
-9.3535799999999991
 30
0.0
 70
    32
  0
VERTEX
  5
2F63
  8
241
 10
8.8300800000000006
 20
-9.3776100000000007
 30
0.0
 70
    32
  0
VERTEX
  5
2F64
  8
241
 10
8.8780000000000001
 20
-9.4016399999999987
 30
0.0
 70
    32
  0
VERTEX
  5
2F65
  8
241
 10
8.9259199999999979
 20
-9.4256700000000002
 30
0.0
 70
    32
  0
VERTEX
  5
2F66
  8
241
 10
8.9738399999999992
 20
-9.4496999999999982
 30
0.0
 70
    32
  0
VERTEX
  5
2F67
  8
241
 10
9.0217600000000004
 20
-9.4737299999999998
 30
0.0
 70
    32
  0
VERTEX
  5
2F68
  8
241
 10
9.0696799999999982
 20
-9.4977599999999995
 30
0.0
 70
    32
  0
VERTEX
  5
2F69
  8
241
 10
9.1175999999999995
 20
-9.5217899999999993
 30
0.0
 70
    32
  0
VERTEX
  5
2F6A
  8
241
 10
9.1655200000000008
 20
-9.5458200000000009
 30
0.0
 70
    32
  0
VERTEX
  5
2F6B
  8
241
 10
9.2134400000000003
 20
-9.5698500000000006
 30
0.0
 70
    32
  0
VERTEX
  5
2F6C
  8
241
 10
9.2613599999999998
 20
-9.5938800000000004
 30
0.0
 70
    32
  0
VERTEX
  5
2F6D
  8
241
 10
9.3092799999999993
 20
-9.6179100000000002
 30
0.0
 70
    32
  0
VERTEX
  5
2F6E
  8
241
 10
9.3572000000000006
 20
-9.6419399999999982
 30
0.0
 70
    32
  0
VERTEX
  5
2F6F
  8
241
 10
9.4051200000000001
 20
-9.6659699999999997
 30
0.0
 70
    32
  0
VERTEX
  5
2F70
  8
241
 10
9.4530499999999993
 20
-9.6899999999999995
 30
0.0
 70
    32
  0
VERTEX
  5
2F71
  8
241
 10
9.5009700000000006
 20
-9.7140299999999993
 30
0.0
 70
    32
  0
VERTEX
  5
2F72
  8
241
 10
9.5488900000000001
 20
-9.7380600000000008
 30
0.0
 70
    32
  0
VERTEX
  5
2F73
  8
241
 10
9.5968099999999996
 20
-9.7620900000000006
 30
0.0
 70
    32
  0
VERTEX
  5
2F74
  8
241
 10
9.6447400000000005
 20
-9.7861100000000008
 30
0.0
 70
    32
  0
VERTEX
  5
2F75
  8
241
 10
9.6926600000000001
 20
-9.8101400000000005
 30
0.0
 70
    32
  0
VERTEX
  5
2F76
  8
241
 10
9.7405899999999992
 20
-9.8341700000000003
 30
0.0
 70
    32
  0
VERTEX
  5
2F77
  8
241
 10
9.7885100000000005
 20
-9.8582000000000001
 30
0.0
 70
    32
  0
VERTEX
  5
2F78
  8
241
 10
9.83643
 20
-9.8822299999999998
 30
0.0
 70
    32
  0
VERTEX
  5
2F79
  8
241
 10
9.8843599999999991
 20
-9.9062599999999996
 30
0.0
 70
    32
  0
VERTEX
  5
2F7A
  8
241
 10
9.9322800000000004
 20
-9.9302799999999998
 30
0.0
 70
    32
  0
VERTEX
  5
2F7B
  8
241
 10
9.9802099999999996
 20
-9.9543099999999995
 30
0.0
 70
    32
  0
VERTEX
  5
2F7C
  8
241
 10
10.0281
 20
-9.9783399999999993
 30
0.0
 70
    32
  0
VERTEX
  5
2F7D
  8
241
 10
10.0761
 20
-10.0024
 30
0.0
 70
    32
  0
VERTEX
  5
2F7E
  8
241
 10
10.124000000000001
 20
-10.026400000000001
 30
0.0
 70
    32
  0
VERTEX
  5
2F7F
  8
241
 10
10.171900000000001
 20
-10.0504
 30
0.0
 70
    32
  0
VERTEX
  5
2F80
  8
241
 10
10.219799999999999
 20
-10.074400000000001
 30
0.0
 70
    32
  0
VERTEX
  5
2F81
  8
241
 10
10.267799999999999
 20
-10.0985
 30
0.0
 70
    32
  0
VERTEX
  5
2F82
  8
241
 10
10.3157
 20
-10.1225
 30
0.0
 70
    32
  0
VERTEX
  5
2F83
  8
241
 10
10.3636
 20
-10.1465
 30
0.0
 70
    32
  0
VERTEX
  5
2F84
  8
241
 10
10.4115
 20
-10.1706
 30
0.0
 70
    32
  0
VERTEX
  5
2F85
  8
241
 10
10.4595
 20
-10.194599999999999
 30
0.0
 70
    32
  0
VERTEX
  5
2F86
  8
241
 10
10.507400000000001
 20
-10.2186
 30
0.0
 70
    32
  0
VERTEX
  5
2F87
  8
241
 10
10.555300000000001
 20
-10.242599999999999
 30
0.0
 70
    32
  0
VERTEX
  5
2F88
  8
241
 10
10.603300000000001
 20
-10.2667
 30
0.0
 70
    32
  0
VERTEX
  5
2F89
  8
241
 10
10.651199999999999
 20
-10.290699999999999
 30
0.0
 70
    32
  0
VERTEX
  5
2F8A
  8
241
 10
10.6991
 20
-10.3147
 30
0.0
 70
    32
  0
VERTEX
  5
2F8B
  8
241
 10
10.7471
 20
-10.338699999999999
 30
0.0
 70
    32
  0
VERTEX
  5
2F8C
  8
241
 10
10.795
 20
-10.3628
 30
0.0
 70
    32
  0
VERTEX
  5
2F8D
  8
241
 10
10.8429
 20
-10.386799999999999
 30
0.0
 70
    32
  0
VERTEX
  5
2F8E
  8
241
 10
10.8908
 20
-10.4108
 30
0.0
 70
    32
  0
VERTEX
  5
2F8F
  8
241
 10
10.938800000000001
 20
-10.434799999999999
 30
0.0
 70
    32
  0
VERTEX
  5
2F90
  8
241
 10
10.986700000000001
 20
-10.4589
 30
0.0
 70
    32
  0
VERTEX
  5
2F91
  8
241
 10
11.034599999999999
 20
-10.482900000000001
 30
0.0
 70
    32
  0
VERTEX
  5
2F92
  8
241
 10
11.082599999999999
 20
-10.5069
 30
0.0
 70
    32
  0
VERTEX
  5
2F93
  8
241
 10
11.1305
 20
-10.530900000000001
 30
0.0
 70
    32
  0
VERTEX
  5
2F94
  8
241
 10
11.1784
 20
-10.555
 30
0.0
 70
    32
  0
VERTEX
  5
2F95
  8
241
 10
11.2264
 20
-10.579000000000001
 30
0.0
 70
    32
  0
VERTEX
  5
2F96
  8
241
 10
11.2743
 20
-10.603
 30
0.0
 70
    32
  0
VERTEX
  5
2F97
  8
241
 10
11.3222
 20
-10.627000000000001
 30
0.0
 70
    32
  0
VERTEX
  5
2F98
  8
241
 10
11.370200000000001
 20
-10.6511
 30
0.0
 70
    32
  0
VERTEX
  5
2F99
  8
241
 10
11.418100000000001
 20
-10.6751
 30
0.0
 70
    32
  0
VERTEX
  5
2F9A
  8
241
 10
11.465999999999999
 20
-10.6991
 30
0.0
 70
    32
  0
VERTEX
  5
2F9B
  8
241
 10
11.513999999999999
 20
-10.723100000000001
 30
0.0
 70
    32
  0
VERTEX
  5
2F9C
  8
241
 10
11.5619
 20
-10.7471
 30
0.0
 70
    32
  0
VERTEX
  5
2F9D
  8
241
 10
11.6098
 20
-10.7712
 30
0.0
 70
    32
  0
VERTEX
  5
2F9E
  8
241
 10
11.6578
 20
-10.795199999999999
 30
0.0
 70
    32
  0
VERTEX
  5
2F9F
  8
241
 10
11.7057
 20
-10.8192
 30
0.0
 70
    32
  0
VERTEX
  5
2FA0
  8
241
 10
11.7536
 20
-10.8432
 30
0.0
 70
    32
  0
VERTEX
  5
2FA1
  8
241
 10
11.801600000000001
 20
-10.8673
 30
0.0
 70
    32
  0
VERTEX
  5
2FA2
  8
241
 10
11.849500000000001
 20
-10.891299999999999
 30
0.0
 70
    32
  0
VERTEX
  5
2FA3
  8
241
 10
11.897399999999999
 20
-10.9153
 30
0.0
 70
    32
  0
VERTEX
  5
2FA4
  8
241
 10
11.945399999999999
 20
-10.939299999999999
 30
0.0
 70
    32
  0
VERTEX
  5
2FA5
  8
241
 10
11.9933
 20
-10.9634
 30
0.0
 70
    32
  0
VERTEX
  5
2FA6
  8
241
 10
12.0412
 20
-10.987399999999999
 30
0.0
 70
    32
  0
VERTEX
  5
2FA7
  8
241
 10
12.0892
 20
-11.0114
 30
0.0
 70
    32
  0
VERTEX
  5
2FA8
  8
241
 10
12.1371
 20
-11.035399999999999
 30
0.0
 70
    32
  0
VERTEX
  5
2FA9
  8
241
 10
12.1851
 20
-11.0594
 30
0.0
 70
    32
  0
VERTEX
  5
2FAA
  8
241
 10
12.233000000000001
 20
-11.083500000000001
 30
0.0
 70
    32
  0
VERTEX
  5
2FAB
  8
241
 10
12.280900000000001
 20
-11.1075
 30
0.0
 70
    32
  0
VERTEX
  5
2FAC
  8
241
 10
12.328900000000001
 20
-11.131500000000001
 30
0.0
 70
    32
  0
VERTEX
  5
2FAD
  8
241
 10
12.376799999999999
 20
-11.1555
 30
0.0
 70
    32
  0
VERTEX
  5
2FAE
  8
241
 10
12.4247
 20
-11.179600000000001
 30
0.0
 70
    32
  0
VERTEX
  5
2FAF
  8
241
 10
12.4727
 20
-11.2036
 30
0.0
 70
    32
  0
VERTEX
  5
2FB0
  8
241
 10
12.5206
 20
-11.227600000000001
 30
0.0
 70
    32
  0
VERTEX
  5
2FB1
  8
241
 10
12.5685
 20
-11.2516
 30
0.0
 70
    32
  0
VERTEX
  5
2FB2
  8
241
 10
12.6165
 20
-11.275600000000001
 30
0.0
 70
    32
  0
VERTEX
  5
2FB3
  8
241
 10
12.664400000000001
 20
-11.2997
 30
0.0
 70
    32
  0
VERTEX
  5
2FB4
  8
241
 10
12.712400000000001
 20
-11.323700000000001
 30
0.0
 70
    32
  0
VERTEX
  5
2FB5
  8
241
 10
12.760300000000001
 20
-11.3477
 30
0.0
 70
    32
  0
VERTEX
  5
2FB6
  8
241
 10
12.808199999999999
 20
-11.371700000000001
 30
0.0
 70
    32
  0
VERTEX
  5
2FB7
  8
241
 10
12.856199999999999
 20
-11.3957
 30
0.0
 70
    32
  0
VERTEX
  5
2FB8
  8
241
 10
12.9041
 20
-11.4198
 30
0.0
 70
    32
  0
VERTEX
  5
2FB9
  8
241
 10
12.9521
 20
-11.4438
 30
0.0
 70
    32
  0
VERTEX
  5
2FBA
  8
241
 10
13.0
 20
-11.4678
 30
0.0
 70
    32
  0
SEQEND
  5
2FBB
  8
241
  0
LINE
  5
2FBC
  8
241
 10
7.2360392659902573
 20
-11.611726135015511
 30
0.0
 11
7.6373920361866681
 21
-8.7793606196166891
 31
0.0
  0
POLYLINE
  5
2FBD
  8
241
 66
     1
 10
0.0
 20
0.0
 30
0.0
 70
     8
  0
VERTEX
  5
2FBE
  8
241
 10
6.5999999999999979
 20
-13.255100000000001
 30
0.0
 70
    32
  0
VERTEX
  5
2FBF
  8
241
 10
6.6001199999999987
 20
-13.2555
 30
0.0
 70
    32
  0
VERTEX
  5
2FC0
  8
241
 10
6.6002400000000003
 20
-13.2559
 30
0.0
 70
    32
  0
VERTEX
  5
2FC1
  8
241
 10
6.6003600000000002
 20
-13.256399999999999
 30
0.0
 70
    32
  0
VERTEX
  5
2FC2
  8
241
 10
6.6004800000000001
 20
-13.2568
 30
0.0
 70
    32
  0
VERTEX
  5
2FC3
  8
241
 10
6.6006
 20
-13.257199999999999
 30
0.0
 70
    32
  0
VERTEX
  5
2FC4
  8
241
 10
6.600719999999999
 20
-13.2577
 30
0.0
 70
    32
  0
VERTEX
  5
2FC5
  8
241
 10
6.600839999999998
 20
-13.258100000000001
 30
0.0
 70
    32
  0
VERTEX
  5
2FC6
  8
241
 10
6.6009599999999988
 20
-13.2585
 30
0.0
 70
    32
  0
VERTEX
  5
2FC7
  8
241
 10
6.6010799999999987
 20
-13.259
 30
0.0
 70
    32
  0
VERTEX
  5
2FC8
  8
241
 10
6.6012000000000004
 20
-13.259399999999999
 30
0.0
 70
    32
  0
VERTEX
  5
2FC9
  8
241
 10
6.6013200000000003
 20
-13.2598
 30
0.0
 70
    32
  0
VERTEX
  5
2FCA
  8
241
 10
6.6014399999999993
 20
-13.260300000000001
 30
0.0
 70
    32
  0
VERTEX
  5
2FCB
  8
241
 10
6.6015600000000001
 20
-13.2607
 30
0.0
 70
    32
  0
VERTEX
  5
2FCC
  8
241
 10
6.6016799999999991
 20
-13.261100000000001
 30
0.0
 70
    32
  0
VERTEX
  5
2FCD
  8
241
 10
6.601799999999999
 20
-13.2616
 30
0.0
 70
    32
  0
VERTEX
  5
2FCE
  8
241
 10
6.601919999999998
 20
-13.262
 30
0.0
 70
    32
  0
VERTEX
  5
2FCF
  8
241
 10
6.6020399999999979
 20
-13.2624
 30
0.0
 70
    32
  0
VERTEX
  5
2FD0
  8
241
 10
6.6021599999999987
 20
-13.2629
 30
0.0
 70
    32
  0
VERTEX
  5
2FD1
  8
241
 10
6.6022800000000004
 20
-13.263299999999999
 30
0.0
 70
    32
  0
VERTEX
  5
2FD2
  8
241
 10
6.6024000000000003
 20
-13.2637
 30
0.0
 70
    32
  0
VERTEX
  5
2FD3
  8
241
 10
6.6025199999999993
 20
-13.264200000000001
 30
0.0
 70
    32
  0
VERTEX
  5
2FD4
  8
241
 10
6.6026399999999992
 20
-13.2646
 30
0.0
 70
    32
  0
VERTEX
  5
2FD5
  8
241
 10
6.60276
 20
-13.265000000000001
 30
0.0
 70
    32
  0
VERTEX
  5
2FD6
  8
241
 10
6.6028799999999981
 20
-13.265499999999999
 30
0.0
 70
    32
  0
VERTEX
  5
2FD7
  8
241
 10
6.602999999999998
 20
-13.2659
 30
0.0
 70
    32
  0
VERTEX
  5
2FD8
  8
241
 10
6.6031199999999979
 20
-13.266299999999999
 30
0.0
 70
    32
  0
VERTEX
  5
2FD9
  8
241
 10
6.6032399999999987
 20
-13.2668
 30
0.0
 70
    32
  0
VERTEX
  5
2FDA
  8
241
 10
6.6033600000000003
 20
-13.267200000000001
 30
0.0
 70
    32
  0
VERTEX
  5
2FDB
  8
241
 10
6.6034800000000002
 20
-13.2676
 30
0.0
 70
    32
  0
VERTEX
  5
2FDC
  8
241
 10
6.6036000000000001
 20
-13.2681
 30
0.0
 70
    32
  0
VERTEX
  5
2FDD
  8
241
 10
6.60372
 20
-13.2685
 30
0.0
 70
    32
  0
VERTEX
  5
2FDE
  8
241
 10
6.603839999999999
 20
-13.2689
 30
0.0
 70
    32
  0
VERTEX
  5
2FDF
  8
241
 10
6.6039599999999989
 20
-13.269399999999999
 30
0.0
 70
    32
  0
VERTEX
  5
2FE0
  8
241
 10
6.6040899999999993
 20
-13.2698
 30
0.0
 70
    32
  0
VERTEX
  5
2FE1
  8
241
 10
6.604210000000001
 20
-13.270200000000001
 30
0.0
 70
    32
  0
VERTEX
  5
2FE2
  8
241
 10
6.60433
 20
-13.2707
 30
0.0
 70
    32
  0
VERTEX
  5
2FE3
  8
241
 10
6.604449999999999
 20
-13.271100000000001
 30
0.0
 70
    32
  0
VERTEX
  5
2FE4
  8
241
 10
6.6045699999999981
 20
-13.2715
 30
0.0
 70
    32
  0
VERTEX
  5
2FE5
  8
241
 10
6.604689999999998
 20
-13.272
 30
0.0
 70
    32
  0
VERTEX
  5
2FE6
  8
241
 10
6.6048099999999987
 20
-13.272399999999999
 30
0.0
 70
    32
  0
VERTEX
  5
2FE7
  8
241
 10
6.6049300000000004
 20
-13.2728
 30
0.0
 70
    32
  0
VERTEX
  5
2FE8
  8
241
 10
6.6050500000000003
 20
-13.273300000000001
 30
0.0
 70
    32
  0
VERTEX
  5
2FE9
  8
241
 10
6.6051799999999989
 20
-13.2737
 30
0.0
 70
    32
  0
VERTEX
  5
2FEA
  8
241
 10
6.605299999999998
 20
-13.274100000000001
 30
0.0
 70
    32
  0
VERTEX
  5
2FEB
  8
241
 10
6.6054199999999987
 20
-13.2746
 30
0.0
 70
    32
  0
VERTEX
  5
2FEC
  8
241
 10
6.6055399999999986
 20
-13.275
 30
0.0
 70
    32
  0
VERTEX
  5
2FED
  8
241
 10
6.6056600000000003
 20
-13.275399999999999
 30
0.0
 70
    32
  0
VERTEX
  5
2FEE
  8
241
 10
6.6057800000000002
 20
-13.2759
 30
0.0
 70
    32
  0
VERTEX
  5
2FEF
  8
241
 10
6.6059000000000001
 20
-13.276300000000001
 30
0.0
 70
    32
  0
VERTEX
  5
2FF0
  8
241
 10
6.6060299999999987
 20
-13.2767
 30
0.0
 70
    32
  0
VERTEX
  5
2FF1
  8
241
 10
6.6061500000000004
 20
-13.277200000000001
 30
0.0
 70
    32
  0
VERTEX
  5
2FF2
  8
241
 10
6.6062700000000003
 20
-13.2776
 30
0.0
 70
    32
  0
VERTEX
  5
2FF3
  8
241
 10
6.6063899999999993
 20
-13.278
 30
0.0
 70
    32
  0
VERTEX
  5
2FF4
  8
241
 10
6.6065100000000001
 20
-13.278499999999999
 30
0.0
 70
    32
  0
VERTEX
  5
2FF5
  8
241
 10
6.60663
 20
-13.2789
 30
0.0
 70
    32
  0
VERTEX
  5
2FF6
  8
241
 10
6.6067600000000004
 20
-13.279299999999999
 30
0.0
 70
    32
  0
VERTEX
  5
2FF7
  8
241
 10
6.6068800000000003
 20
-13.2798
 30
0.0
 70
    32
  0
VERTEX
  5
2FF8
  8
241
 10
6.6070000000000002
 20
-13.280200000000001
 30
0.0
 70
    32
  0
VERTEX
  5
2FF9
  8
241
 10
6.6071200000000001
 20
-13.2806
 30
0.0
 70
    32
  0
VERTEX
  5
2FFA
  8
241
 10
6.6072399999999991
 20
-13.2811
 30
0.0
 70
    32
  0
VERTEX
  5
2FFB
  8
241
 10
6.6073699999999986
 20
-13.281499999999999
 30
0.0
 70
    32
  0
VERTEX
  5
2FFC
  8
241
 10
6.6074900000000003
 20
-13.2819
 30
0.0
 70
    32
  0
VERTEX
  5
2FFD
  8
241
 10
6.6076100000000002
 20
-13.282400000000001
 30
0.0
 70
    32
  0
VERTEX
  5
2FFE
  8
241
 10
6.6077300000000001
 20
-13.2828
 30
0.0
 70
    32
  0
VERTEX
  5
2FFF
  8
241
 10
6.6078599999999987
 20
-13.283200000000001
 30
0.0
 70
    32
  0
VERTEX
  5
3000
  8
241
 10
6.6079800000000004
 20
-13.2837
 30
0.0
 70
    32
  0
VERTEX
  5
3001
  8
241
 10
6.6081000000000003
 20
-13.2841
 30
0.0
 70
    32
  0
VERTEX
  5
3002
  8
241
 10
6.6082199999999993
 20
-13.2845
 30
0.0
 70
    32
  0
VERTEX
  5
3003
  8
241
 10
6.6083499999999979
 20
-13.2849
 30
0.0
 70
    32
  0
VERTEX
  5
3004
  8
241
 10
6.6084699999999987
 20
-13.285399999999999
 30
0.0
 70
    32
  0
VERTEX
  5
3005
  8
241
 10
6.6085899999999986
 20
-13.2858
 30
0.0
 70
    32
  0
VERTEX
  5
3006
  8
241
 10
6.6087100000000003
 20
-13.286199999999999
 30
0.0
 70
    32
  0
VERTEX
  5
3007
  8
241
 10
6.608839999999998
 20
-13.2867
 30
0.0
 70
    32
  0
VERTEX
  5
3008
  8
241
 10
6.6089599999999988
 20
-13.287100000000001
 30
0.0
 70
    32
  0
VERTEX
  5
3009
  8
241
 10
6.6090799999999987
 20
-13.2875
 30
0.0
 70
    32
  0
VERTEX
  5
300A
  8
241
 10
6.6092000000000004
 20
-13.288
 30
0.0
 70
    32
  0
VERTEX
  5
300B
  8
241
 10
6.609329999999999
 20
-13.288399999999999
 30
0.0
 70
    32
  0
VERTEX
  5
300C
  8
241
 10
6.609449999999998
 20
-13.2888
 30
0.0
 70
    32
  0
VERTEX
  5
300D
  8
241
 10
6.6095699999999979
 20
-13.289300000000001
 30
0.0
 70
    32
  0
VERTEX
  5
300E
  8
241
 10
6.6097000000000001
 20
-13.2897
 30
0.0
 70
    32
  0
VERTEX
  5
300F
  8
241
 10
6.60982
 20
-13.290100000000001
 30
0.0
 70
    32
  0
VERTEX
  5
3010
  8
241
 10
6.609939999999999
 20
-13.2906
 30
0.0
 70
    32
  0
VERTEX
  5
3011
  8
241
 10
6.6100599999999989
 20
-13.291
 30
0.0
 70
    32
  0
VERTEX
  5
3012
  8
241
 10
6.6101899999999993
 20
-13.291399999999999
 30
0.0
 70
    32
  0
VERTEX
  5
3013
  8
241
 10
6.610310000000001
 20
-13.2919
 30
0.0
 70
    32
  0
VERTEX
  5
3014
  8
241
 10
6.61043
 20
-13.292299999999999
 30
0.0
 70
    32
  0
VERTEX
  5
3015
  8
241
 10
6.6105600000000004
 20
-13.2927
 30
0.0
 70
    32
  0
VERTEX
  5
3016
  8
241
 10
6.6106800000000003
 20
-13.293200000000001
 30
0.0
 70
    32
  0
VERTEX
  5
3017
  8
241
 10
6.6108000000000002
 20
-13.2936
 30
0.0
 70
    32
  0
VERTEX
  5
3018
  8
241
 10
6.6109299999999989
 20
-13.294
 30
0.0
 70
    32
  0
VERTEX
  5
3019
  8
241
 10
6.6110499999999979
 20
-13.294499999999999
 30
0.0
 70
    32
  0
VERTEX
  5
301A
  8
241
 10
6.6111699999999987
 20
-13.2949
 30
0.0
 70
    32
  0
VERTEX
  5
301B
  8
241
 10
6.6112999999999991
 20
-13.295299999999999
 30
0.0
 70
    32
  0
VERTEX
  5
301C
  8
241
 10
6.6114199999999981
 20
-13.2958
 30
0.0
 70
    32
  0
VERTEX
  5
301D
  8
241
 10
6.6115500000000003
 20
-13.296200000000001
 30
0.0
 70
    32
  0
VERTEX
  5
301E
  8
241
 10
6.6116699999999993
 20
-13.2966
 30
0.0
 70
    32
  0
VERTEX
  5
301F
  8
241
 10
6.6117899999999992
 20
-13.2971
 30
0.0
 70
    32
  0
VERTEX
  5
3020
  8
241
 10
6.6119199999999987
 20
-13.297499999999999
 30
0.0
 70
    32
  0
VERTEX
  5
3021
  8
241
 10
6.6120399999999986
 20
-13.2979
 30
0.0
 70
    32
  0
VERTEX
  5
3022
  8
241
 10
6.6121600000000003
 20
-13.298400000000001
 30
0.0
 70
    32
  0
VERTEX
  5
3023
  8
241
 10
6.612289999999998
 20
-13.2988
 30
0.0
 70
    32
  0
VERTEX
  5
3024
  8
241
 10
6.6124099999999988
 20
-13.299200000000001
 30
0.0
 70
    32
  0
VERTEX
  5
3025
  8
241
 10
6.6125399999999992
 20
-13.2997
 30
0.0
 70
    32
  0
VERTEX
  5
3026
  8
241
 10
6.61266
 20
-13.3001
 30
0.0
 70
    32
  0
VERTEX
  5
3027
  8
241
 10
6.6127799999999981
 20
-13.3005
 30
0.0
 70
    32
  0
VERTEX
  5
3028
  8
241
 10
6.6129100000000003
 20
-13.301
 30
0.0
 70
    32
  0
VERTEX
  5
3029
  8
241
 10
6.6130300000000002
 20
-13.301399999999999
 30
0.0
 70
    32
  0
VERTEX
  5
302A
  8
241
 10
6.6131599999999988
 20
-13.3018
 30
0.0
 70
    32
  0
VERTEX
  5
302B
  8
241
 10
6.6132799999999987
 20
-13.302300000000001
 30
0.0
 70
    32
  0
VERTEX
  5
302C
  8
241
 10
6.61341
 20
-13.3027
 30
0.0
 70
    32
  0
VERTEX
  5
302D
  8
241
 10
6.613529999999999
 20
-13.303100000000001
 30
0.0
 70
    32
  0
VERTEX
  5
302E
  8
241
 10
6.613649999999998
 20
-13.303599999999999
 30
0.0
 70
    32
  0
VERTEX
  5
302F
  8
241
 10
6.6137800000000002
 20
-13.304
 30
0.0
 70
    32
  0
VERTEX
  5
3030
  8
241
 10
6.6139000000000001
 20
-13.304399999999999
 30
0.0
 70
    32
  0
VERTEX
  5
3031
  8
241
 10
6.6140299999999987
 20
-13.3049
 30
0.0
 70
    32
  0
VERTEX
  5
3032
  8
241
 10
6.6141500000000004
 20
-13.305300000000001
 30
0.0
 70
    32
  0
VERTEX
  5
3033
  8
241
 10
6.614279999999999
 20
-13.3057
 30
0.0
 70
    32
  0
VERTEX
  5
3034
  8
241
 10
6.6143999999999981
 20
-13.3062
 30
0.0
 70
    32
  0
VERTEX
  5
3035
  8
241
 10
6.6145300000000002
 20
-13.3066
 30
0.0
 70
    32
  0
VERTEX
  5
3036
  8
241
 10
6.6146500000000001
 20
-13.307
 30
0.0
 70
    32
  0
VERTEX
  5
3037
  8
241
 10
6.6147799999999988
 20
-13.307499999999999
 30
0.0
 70
    32
  0
VERTEX
  5
3038
  8
241
 10
6.6148999999999987
 20
-13.3079
 30
0.0
 70
    32
  0
VERTEX
  5
3039
  8
241
 10
6.6150299999999991
 20
-13.308299999999999
 30
0.0
 70
    32
  0
VERTEX
  5
303A
  8
241
 10
6.6151499999999981
 20
-13.3088
 30
0.0
 70
    32
  0
VERTEX
  5
303B
  8
241
 10
6.6152800000000003
 20
-13.309200000000001
 30
0.0
 70
    32
  0
VERTEX
  5
303C
  8
241
 10
6.6154000000000002
 20
-13.3096
 30
0.0
 70
    32
  0
VERTEX
  5
303D
  8
241
 10
6.6155299999999988
 20
-13.3101
 30
0.0
 70
    32
  0
SEQEND
  5
303E
  8
241
  0
LINE
  5
303F
  8
241
 10
13.0000002682209
 20
-11.46780513226989
 30
0.0
 11
13.0000002682209
 21
-7.5249806977808751
 31
0.0
  0
LINE
  5
3040
  8
241
 10
14.20000055804848
 20
-11.46780513226989
 30
0.0
 11
14.20000055804848
 21
-7.5249806977808751
 31
0.0
  0
LINE
  5
3041
  8
241
 10
12.38063882194897
 20
-11.1574561922481
 30
0.0
 11
12.89366511628031
 21
-13.68162501603368
 31
0.0
  0
LINE
  5
3042
  8
241
 10
14.3040331642997
 20
-11.417393900071501
 30
0.0
 11
12.89366511628031
 21
-13.68162501603368
 31
0.0
  0
LINE
  5
3043
  8
241
 10
13.0000002682209
 20
-11.46780513226989
 30
0.0
 11
14.20000055804848
 21
-11.46780513226989
 31
0.0
  0
LINE
  5
3044
  8
241
 10
13.0000002682209
 20
-7.5249806977808751
 30
0.0
 11
14.20000055804848
 21
-7.5249806977808751
 31
0.0
  0
LINE
  5
3045
  8
240
 10
12.89289351552725
 20
26.282230392098398
 30
0.0
 11
7.2360392659902573
 21
20.625375211238829
 31
0.0
  0
LINE
  5
3046
  8
241
 10
7.2360392659902573
 20
9.0136500075459196
 30
0.0
 11
7.6264943927526438
 21
11.76611147820946
 31
0.0
  0
LINE
  5
3047
  8
241
 10
12.89289351552725
 20
11.842076666653121
 30
0.0
 11
7.2360392659902573
 21
9.0136500075459196
 31
0.0
  0
LINE
  5
3048
  8
241
 10
6.5999999642372131
 20
7.9768458381294911
 30
0.0
 11
6.5999999642372131
 21
19.50000040233132
 31
0.0
  0
LINE
  5
3049
  8
241
 10
7.2360392659902573
 20
8.3065433427691175
 30
0.0
 11
12.89289351552725
 21
5.478115752339332
 31
0.0
  0
LINE
  5
304A
  8
241
 10
7.2360392659902573
 20
9.0136500075459196
 30
0.0
 11
7.2360392659902573
 21
8.3065433427691175
 31
0.0
  0
LINE
  5
304B
  8
241
 10
13.724055141210551
 20
2.2682070266455101
 30
0.0
 11
13.47594568505883
 21
2.2682070266455101
 31
0.0
  0
LINE
  5
304C
  8
241
 10
12.89289351552725
 20
5.478115752339332
 30
0.0
 11
14.30710731074214
 21
5.478115752339332
 31
0.0
  0
LINE
  5
304D
  8
241
 10
7.2360392659902573
 20
19.211161881685221
 30
0.0
 11
8.3272093906998617
 21
18.119992688298201
 31
0.0
  0
POLYLINE
  5
304E
  8
240
 66
     1
 10
0.0
 20
0.0
 30
0.0
 70
     8
  0
VERTEX
  5
304F
  8
240
 10
6.5999999999999979
 20
19.5
 30
0.0
 70
    32
  0
VERTEX
  5
3050
  8
240
 10
6.495239999999999
 20
19.5
 30
0.0
 70
    32
  0
VERTEX
  5
3051
  8
240
 10
6.3904800000000002
 20
19.5
 30
0.0
 70
    32
  0
VERTEX
  5
3052
  8
240
 10
6.285709999999999
 20
19.5
 30
0.0
 70
    32
  0
VERTEX
  5
3053
  8
240
 10
6.1809500000000002
 20
19.5
 30
0.0
 70
    32
  0
VERTEX
  5
3054
  8
240
 10
6.0761900000000004
 20
19.5
 30
0.0
 70
    32
  0
VERTEX
  5
3055
  8
240
 10
5.9714299999999989
 20
19.5
 30
0.0
 70
    32
  0
VERTEX
  5
3056
  8
240
 10
5.8666700000000001
 20
19.5
 30
0.0
 70
    32
  0
VERTEX
  5
3057
  8
240
 10
5.761899999999998
 20
19.5
 30
0.0
 70
    32
  0
VERTEX
  5
3058
  8
240
 10
5.6571400000000001
 20
19.5
 30
0.0
 70
    32
  0
VERTEX
  5
3059
  8
240
 10
5.5523800000000003
 20
19.5
 30
0.0
 70
    32
  0
VERTEX
  5
305A
  8
240
 10
5.4476199999999979
 20
19.5
 30
0.0
 70
    32
  0
VERTEX
  5
305B
  8
240
 10
5.3428599999999991
 20
19.5
 30
0.0
 70
    32
  0
VERTEX
  5
305C
  8
240
 10
5.2381000000000002
 20
19.5
 30
0.0
 70
    32
  0
VERTEX
  5
305D
  8
240
 10
5.1333299999999991
 20
19.5
 30
0.0
 70
    32
  0
VERTEX
  5
305E
  8
240
 10
5.0285699999999993
 20
19.5
 30
0.0
 70
    32
  0
VERTEX
  5
305F
  8
240
 10
4.9238099999999987
 20
19.5
 30
0.0
 70
    32
  0
VERTEX
  5
3060
  8
240
 10
4.8190499999999981
 20
19.5
 30
0.0
 70
    32
  0
VERTEX
  5
3061
  8
240
 10
4.7142900000000001
 20
19.5
 30
0.0
 70
    32
  0
VERTEX
  5
3062
  8
240
 10
4.6095199999999981
 20
19.5
 30
0.0
 70
    32
  0
VERTEX
  5
3063
  8
240
 10
4.5047600000000001
 20
19.5
 30
0.0
 70
    32
  0
VERTEX
  5
3064
  8
240
 10
4.4000000000000004
 20
19.5
 30
0.0
 70
    32
  0
VERTEX
  5
3065
  8
240
 10
4.2952399999999979
 20
19.5
 30
0.0
 70
    32
  0
VERTEX
  5
3066
  8
240
 10
4.1904799999999991
 20
19.5
 30
0.0
 70
    32
  0
VERTEX
  5
3067
  8
240
 10
4.085709999999998
 20
19.5
 30
0.0
 70
    32
  0
VERTEX
  5
3068
  8
240
 10
3.9809499999999991
 20
19.5
 30
0.0
 70
    32
  0
VERTEX
  5
3069
  8
240
 10
3.8761899999999989
 20
19.5
 30
0.0
 70
    32
  0
VERTEX
  5
306A
  8
240
 10
3.7714300000000001
 20
19.5
 30
0.0
 70
    32
  0
VERTEX
  5
306B
  8
240
 10
3.6666699999999981
 20
19.5
 30
0.0
 70
    32
  0
VERTEX
  5
306C
  8
240
 10
3.5619000000000001
 20
19.5
 30
0.0
 70
    32
  0
VERTEX
  5
306D
  8
240
 10
3.457139999999999
 20
19.5
 30
0.0
 70
    32
  0
VERTEX
  5
306E
  8
240
 10
3.3523800000000001
 20
19.5
 30
0.0
 70
    32
  0
VERTEX
  5
306F
  8
240
 10
3.2476199999999991
 20
19.5
 30
0.0
 70
    32
  0
VERTEX
  5
3070
  8
240
 10
3.142859999999998
 20
19.5
 30
0.0
 70
    32
  0
VERTEX
  5
3071
  8
240
 10
3.0381
 20
19.5
 30
0.0
 70
    32
  0
VERTEX
  5
3072
  8
240
 10
2.933329999999998
 20
19.5
 30
0.0
 70
    32
  0
VERTEX
  5
3073
  8
240
 10
2.82857
 20
19.5
 30
0.0
 70
    32
  0
VERTEX
  5
3074
  8
240
 10
2.7238099999999981
 20
19.5
 30
0.0
 70
    32
  0
VERTEX
  5
3075
  8
240
 10
2.6190500000000001
 20
19.5
 30
0.0
 70
    32
  0
VERTEX
  5
3076
  8
240
 10
2.514289999999999
 20
19.5
 30
0.0
 70
    32
  0
VERTEX
  5
3077
  8
240
 10
2.4095200000000001
 20
19.5
 30
0.0
 70
    32
  0
VERTEX
  5
3078
  8
240
 10
2.304759999999999
 20
19.5
 30
0.0
 70
    32
  0
VERTEX
  5
3079
  8
240
 10
2.2000000000000002
 20
19.5
 30
0.0
 70
    32
  0
VERTEX
  5
307A
  8
240
 10
2.0952399999999991
 20
19.5
 30
0.0
 70
    32
  0
VERTEX
  5
307B
  8
240
 10
1.990479999999998
 20
19.5
 30
0.0
 70
    32
  0
VERTEX
  5
307C
  8
240
 10
1.8857099999999991
 20
19.5
 30
0.0
 70
    32
  0
VERTEX
  5
307D
  8
240
 10
1.780949999999998
 20
19.5
 30
0.0
 70
    32
  0
VERTEX
  5
307E
  8
240
 10
1.6761900000000001
 20
19.5
 30
0.0
 70
    32
  0
VERTEX
  5
307F
  8
240
 10
1.571429999999999
 20
19.5
 30
0.0
 70
    32
  0
VERTEX
  5
3080
  8
240
 10
1.466669999999999
 20
19.5
 30
0.0
 70
    32
  0
VERTEX
  5
3081
  8
240
 10
1.3619000000000001
 20
19.5
 30
0.0
 70
    32
  0
VERTEX
  5
3082
  8
240
 10
1.257139999999999
 20
19.5
 30
0.0
 70
    32
  0
VERTEX
  5
3083
  8
240
 10
1.1523799999999991
 20
19.5
 30
0.0
 70
    32
  0
VERTEX
  5
3084
  8
240
 10
1.0476199999999991
 20
19.5
 30
0.0
 70
    32
  0
VERTEX
  5
3085
  8
240
 10
0.9428569999999998
 20
19.5
 30
0.0
 70
    32
  0
VERTEX
  5
3086
  8
240
 10
0.838095
 20
19.5
 30
0.0
 70
    32
  0
VERTEX
  5
3087
  8
240
 10
0.7333330000000001
 20
19.5
 30
0.0
 70
    32
  0
VERTEX
  5
3088
  8
240
 10
0.628571
 20
19.5
 30
0.0
 70
    32
  0
VERTEX
  5
3089
  8
240
 10
0.5238100000000001
 20
19.5
 30
0.0
 70
    32
  0
VERTEX
  5
308A
  8
240
 10
0.419048
 20
19.5
 30
0.0
 70
    32
  0
VERTEX
  5
308B
  8
240
 10
0.314286
 20
19.5
 30
0.0
 70
    32
  0
VERTEX
  5
308C
  8
240
 10
0.209524
 20
19.5
 30
0.0
 70
    32
  0
VERTEX
  5
308D
  8
240
 10
0.104762
 20
19.5
 30
0.0
 70
    32
  0
VERTEX
  5
308E
  8
240
 10
0.0000000000660007
 20
19.5
 30
0.0
 70
    32
  0
SEQEND
  5
308F
  8
240
  0
LINE
  5
3090
  8
240
 10
7.2360392659902573
 20
20.625375211238829
 30
0.0
 11
7.2360392659902573
 21
20.17086564300098
 31
0.0
  0
LINE
  5
3091
  8
241
 10
7.2360392659902573
 20
20.17086564300098
 30
0.0
 11
7.2360392659902573
 21
19.211161881685221
 31
0.0
  0
POLYLINE
  5
3092
  8
241
 66
     1
 10
0.0
 20
0.0
 30
0.0
 70
     8
  0
VERTEX
  5
3093
  8
241
 10
6.5999999999999979
 20
19.0136
 30
0.0
 70
    32
  0
VERTEX
  5
3094
  8
241
 10
6.6001199999999987
 20
19.0136
 30
0.0
 70
    32
  0
VERTEX
  5
3095
  8
241
 10
6.6002400000000003
 20
19.0136
 30
0.0
 70
    32
  0
VERTEX
  5
3096
  8
241
 10
6.6003600000000002
 20
19.0136
 30
0.0
 70
    32
  0
VERTEX
  5
3097
  8
241
 10
6.6004800000000001
 20
19.0136
 30
0.0
 70
    32
  0
VERTEX
  5
3098
  8
241
 10
6.6006
 20
19.0137
 30
0.0
 70
    32
  0
VERTEX
  5
3099
  8
241
 10
6.600719999999999
 20
19.0137
 30
0.0
 70
    32
  0
VERTEX
  5
309A
  8
241
 10
6.600839999999998
 20
19.0137
 30
0.0
 70
    32
  0
VERTEX
  5
309B
  8
241
 10
6.6009599999999988
 20
19.0137
 30
0.0
 70
    32
  0
VERTEX
  5
309C
  8
241
 10
6.6010799999999987
 20
19.0137
 30
0.0
 70
    32
  0
VERTEX
  5
309D
  8
241
 10
6.6012000000000004
 20
19.0137
 30
0.0
 70
    32
  0
VERTEX
  5
309E
  8
241
 10
6.6013200000000003
 20
19.0137
 30
0.0
 70
    32
  0
VERTEX
  5
309F
  8
241
 10
6.6014399999999993
 20
19.0137
 30
0.0
 70
    32
  0
VERTEX
  5
30A0
  8
241
 10
6.6015600000000001
 20
19.0137
 30
0.0
 70
    32
  0
VERTEX
  5
30A1
  8
241
 10
6.6016799999999991
 20
19.0137
 30
0.0
 70
    32
  0
VERTEX
  5
30A2
  8
241
 10
6.601799999999999
 20
19.0138
 30
0.0
 70
    32
  0
VERTEX
  5
30A3
  8
241
 10
6.601919999999998
 20
19.0138
 30
0.0
 70
    32
  0
VERTEX
  5
30A4
  8
241
 10
6.6020399999999979
 20
19.0138
 30
0.0
 70
    32
  0
VERTEX
  5
30A5
  8
241
 10
6.6021599999999987
 20
19.0138
 30
0.0
 70
    32
  0
VERTEX
  5
30A6
  8
241
 10
6.6022800000000004
 20
19.0138
 30
0.0
 70
    32
  0
VERTEX
  5
30A7
  8
241
 10
6.6024000000000003
 20
19.0138
 30
0.0
 70
    32
  0
VERTEX
  5
30A8
  8
241
 10
6.6025199999999993
 20
19.0138
 30
0.0
 70
    32
  0
VERTEX
  5
30A9
  8
241
 10
6.6026399999999992
 20
19.0138
 30
0.0
 70
    32
  0
VERTEX
  5
30AA
  8
241
 10
6.60276
 20
19.0138
 30
0.0
 70
    32
  0
VERTEX
  5
30AB
  8
241
 10
6.6028799999999981
 20
19.0139
 30
0.0
 70
    32
  0
VERTEX
  5
30AC
  8
241
 10
6.602999999999998
 20
19.0139
 30
0.0
 70
    32
  0
VERTEX
  5
30AD
  8
241
 10
6.6031199999999979
 20
19.0139
 30
0.0
 70
    32
  0
VERTEX
  5
30AE
  8
241
 10
6.6032399999999987
 20
19.0139
 30
0.0
 70
    32
  0
VERTEX
  5
30AF
  8
241
 10
6.6033600000000003
 20
19.0139
 30
0.0
 70
    32
  0
VERTEX
  5
30B0
  8
241
 10
6.6034800000000002
 20
19.0139
 30
0.0
 70
    32
  0
VERTEX
  5
30B1
  8
241
 10
6.6036000000000001
 20
19.0139
 30
0.0
 70
    32
  0
VERTEX
  5
30B2
  8
241
 10
6.60372
 20
19.0139
 30
0.0
 70
    32
  0
VERTEX
  5
30B3
  8
241
 10
6.603839999999999
 20
19.0139
 30
0.0
 70
    32
  0
VERTEX
  5
30B4
  8
241
 10
6.6039599999999989
 20
19.013999999999999
 30
0.0
 70
    32
  0
VERTEX
  5
30B5
  8
241
 10
6.6040899999999993
 20
19.013999999999999
 30
0.0
 70
    32
  0
VERTEX
  5
30B6
  8
241
 10
6.604210000000001
 20
19.013999999999999
 30
0.0
 70
    32
  0
VERTEX
  5
30B7
  8
241
 10
6.60433
 20
19.013999999999999
 30
0.0
 70
    32
  0
VERTEX
  5
30B8
  8
241
 10
6.604449999999999
 20
19.013999999999999
 30
0.0
 70
    32
  0
VERTEX
  5
30B9
  8
241
 10
6.6045699999999981
 20
19.013999999999999
 30
0.0
 70
    32
  0
VERTEX
  5
30BA
  8
241
 10
6.604689999999998
 20
19.013999999999999
 30
0.0
 70
    32
  0
VERTEX
  5
30BB
  8
241
 10
6.6048099999999987
 20
19.013999999999999
 30
0.0
 70
    32
  0
VERTEX
  5
30BC
  8
241
 10
6.6049300000000004
 20
19.013999999999999
 30
0.0
 70
    32
  0
VERTEX
  5
30BD
  8
241
 10
6.6050500000000003
 20
19.014099999999999
 30
0.0
 70
    32
  0
VERTEX
  5
30BE
  8
241
 10
6.6051799999999989
 20
19.014099999999999
 30
0.0
 70
    32
  0
VERTEX
  5
30BF
  8
241
 10
6.605299999999998
 20
19.014099999999999
 30
0.0
 70
    32
  0
VERTEX
  5
30C0
  8
241
 10
6.6054199999999987
 20
19.014099999999999
 30
0.0
 70
    32
  0
VERTEX
  5
30C1
  8
241
 10
6.6055399999999986
 20
19.014099999999999
 30
0.0
 70
    32
  0
VERTEX
  5
30C2
  8
241
 10
6.6056600000000003
 20
19.014099999999999
 30
0.0
 70
    32
  0
VERTEX
  5
30C3
  8
241
 10
6.6057800000000002
 20
19.014099999999999
 30
0.0
 70
    32
  0
VERTEX
  5
30C4
  8
241
 10
6.6059000000000001
 20
19.014099999999999
 30
0.0
 70
    32
  0
VERTEX
  5
30C5
  8
241
 10
6.6060299999999987
 20
19.014199999999999
 30
0.0
 70
    32
  0
VERTEX
  5
30C6
  8
241
 10
6.6061500000000004
 20
19.014199999999999
 30
0.0
 70
    32
  0
VERTEX
  5
30C7
  8
241
 10
6.6062700000000003
 20
19.014199999999999
 30
0.0
 70
    32
  0
VERTEX
  5
30C8
  8
241
 10
6.6063899999999993
 20
19.014199999999999
 30
0.0
 70
    32
  0
VERTEX
  5
30C9
  8
241
 10
6.6065100000000001
 20
19.014199999999999
 30
0.0
 70
    32
  0
VERTEX
  5
30CA
  8
241
 10
6.60663
 20
19.014199999999999
 30
0.0
 70
    32
  0
VERTEX
  5
30CB
  8
241
 10
6.6067600000000004
 20
19.014199999999999
 30
0.0
 70
    32
  0
VERTEX
  5
30CC
  8
241
 10
6.6068800000000003
 20
19.014199999999999
 30
0.0
 70
    32
  0
VERTEX
  5
30CD
  8
241
 10
6.6070000000000002
 20
19.014299999999999
 30
0.0
 70
    32
  0
VERTEX
  5
30CE
  8
241
 10
6.6071200000000001
 20
19.014299999999999
 30
0.0
 70
    32
  0
VERTEX
  5
30CF
  8
241
 10
6.6072399999999991
 20
19.014299999999999
 30
0.0
 70
    32
  0
VERTEX
  5
30D0
  8
241
 10
6.6073699999999986
 20
19.014299999999999
 30
0.0
 70
    32
  0
VERTEX
  5
30D1
  8
241
 10
6.6074900000000003
 20
19.014299999999999
 30
0.0
 70
    32
  0
VERTEX
  5
30D2
  8
241
 10
6.6076100000000002
 20
19.014299999999999
 30
0.0
 70
    32
  0
VERTEX
  5
30D3
  8
241
 10
6.6077300000000001
 20
19.014299999999999
 30
0.0
 70
    32
  0
VERTEX
  5
30D4
  8
241
 10
6.6078599999999987
 20
19.014299999999999
 30
0.0
 70
    32
  0
VERTEX
  5
30D5
  8
241
 10
6.6079800000000004
 20
19.014299999999999
 30
0.0
 70
    32
  0
VERTEX
  5
30D6
  8
241
 10
6.6081000000000003
 20
19.014399999999998
 30
0.0
 70
    32
  0
VERTEX
  5
30D7
  8
241
 10
6.6082199999999993
 20
19.014399999999998
 30
0.0
 70
    32
  0
VERTEX
  5
30D8
  8
241
 10
6.6083499999999979
 20
19.014399999999998
 30
0.0
 70
    32
  0
VERTEX
  5
30D9
  8
241
 10
6.6084699999999987
 20
19.014399999999998
 30
0.0
 70
    32
  0
VERTEX
  5
30DA
  8
241
 10
6.6085899999999986
 20
19.014399999999998
 30
0.0
 70
    32
  0
VERTEX
  5
30DB
  8
241
 10
6.6087100000000003
 20
19.014399999999998
 30
0.0
 70
    32
  0
VERTEX
  5
30DC
  8
241
 10
6.608839999999998
 20
19.014399999999998
 30
0.0
 70
    32
  0
VERTEX
  5
30DD
  8
241
 10
6.6089599999999988
 20
19.014500000000002
 30
0.0
 70
    32
  0
VERTEX
  5
30DE
  8
241
 10
6.6090799999999987
 20
19.014500000000002
 30
0.0
 70
    32
  0
VERTEX
  5
30DF
  8
241
 10
6.6092000000000004
 20
19.014500000000002
 30
0.0
 70
    32
  0
VERTEX
  5
30E0
  8
241
 10
6.609329999999999
 20
19.014500000000002
 30
0.0
 70
    32
  0
VERTEX
  5
30E1
  8
241
 10
6.609449999999998
 20
19.014500000000002
 30
0.0
 70
    32
  0
VERTEX
  5
30E2
  8
241
 10
6.6095699999999979
 20
19.014500000000002
 30
0.0
 70
    32
  0
VERTEX
  5
30E3
  8
241
 10
6.6097000000000001
 20
19.014500000000002
 30
0.0
 70
    32
  0
VERTEX
  5
30E4
  8
241
 10
6.60982
 20
19.014500000000002
 30
0.0
 70
    32
  0
VERTEX
  5
30E5
  8
241
 10
6.609939999999999
 20
19.014600000000002
 30
0.0
 70
    32
  0
VERTEX
  5
30E6
  8
241
 10
6.6100599999999989
 20
19.014600000000002
 30
0.0
 70
    32
  0
VERTEX
  5
30E7
  8
241
 10
6.6101899999999993
 20
19.014600000000002
 30
0.0
 70
    32
  0
VERTEX
  5
30E8
  8
241
 10
6.610310000000001
 20
19.014600000000002
 30
0.0
 70
    32
  0
VERTEX
  5
30E9
  8
241
 10
6.61043
 20
19.014600000000002
 30
0.0
 70
    32
  0
VERTEX
  5
30EA
  8
241
 10
6.6105600000000004
 20
19.014600000000002
 30
0.0
 70
    32
  0
VERTEX
  5
30EB
  8
241
 10
6.6106800000000003
 20
19.014600000000002
 30
0.0
 70
    32
  0
VERTEX
  5
30EC
  8
241
 10
6.6108000000000002
 20
19.014600000000002
 30
0.0
 70
    32
  0
VERTEX
  5
30ED
  8
241
 10
6.6109299999999989
 20
19.014700000000001
 30
0.0
 70
    32
  0
VERTEX
  5
30EE
  8
241
 10
6.6110499999999979
 20
19.014700000000001
 30
0.0
 70
    32
  0
VERTEX
  5
30EF
  8
241
 10
6.6111699999999987
 20
19.014700000000001
 30
0.0
 70
    32
  0
VERTEX
  5
30F0
  8
241
 10
6.6112999999999991
 20
19.014700000000001
 30
0.0
 70
    32
  0
VERTEX
  5
30F1
  8
241
 10
6.6114199999999981
 20
19.014700000000001
 30
0.0
 70
    32
  0
VERTEX
  5
30F2
  8
241
 10
6.6115500000000003
 20
19.014700000000001
 30
0.0
 70
    32
  0
VERTEX
  5
30F3
  8
241
 10
6.6116699999999993
 20
19.014700000000001
 30
0.0
 70
    32
  0
VERTEX
  5
30F4
  8
241
 10
6.6117899999999992
 20
19.014800000000001
 30
0.0
 70
    32
  0
VERTEX
  5
30F5
  8
241
 10
6.6119199999999987
 20
19.014800000000001
 30
0.0
 70
    32
  0
VERTEX
  5
30F6
  8
241
 10
6.6120399999999986
 20
19.014800000000001
 30
0.0
 70
    32
  0
VERTEX
  5
30F7
  8
241
 10
6.6121600000000003
 20
19.014800000000001
 30
0.0
 70
    32
  0
VERTEX
  5
30F8
  8
241
 10
6.612289999999998
 20
19.014800000000001
 30
0.0
 70
    32
  0
VERTEX
  5
30F9
  8
241
 10
6.6124099999999988
 20
19.014800000000001
 30
0.0
 70
    32
  0
VERTEX
  5
30FA
  8
241
 10
6.6125399999999992
 20
19.014800000000001
 30
0.0
 70
    32
  0
VERTEX
  5
30FB
  8
241
 10
6.61266
 20
19.014900000000001
 30
0.0
 70
    32
  0
VERTEX
  5
30FC
  8
241
 10
6.6127799999999981
 20
19.014900000000001
 30
0.0
 70
    32
  0
VERTEX
  5
30FD
  8
241
 10
6.6129100000000003
 20
19.014900000000001
 30
0.0
 70
    32
  0
VERTEX
  5
30FE
  8
241
 10
6.6130300000000002
 20
19.014900000000001
 30
0.0
 70
    32
  0
VERTEX
  5
30FF
  8
241
 10
6.6131599999999988
 20
19.014900000000001
 30
0.0
 70
    32
  0
VERTEX
  5
3100
  8
241
 10
6.6132799999999987
 20
19.014900000000001
 30
0.0
 70
    32
  0
VERTEX
  5
3101
  8
241
 10
6.61341
 20
19.014900000000001
 30
0.0
 70
    32
  0
VERTEX
  5
3102
  8
241
 10
6.613529999999999
 20
19.015000000000001
 30
0.0
 70
    32
  0
VERTEX
  5
3103
  8
241
 10
6.613649999999998
 20
19.015000000000001
 30
0.0
 70
    32
  0
VERTEX
  5
3104
  8
241
 10
6.6137800000000002
 20
19.015000000000001
 30
0.0
 70
    32
  0
VERTEX
  5
3105
  8
241
 10
6.6139000000000001
 20
19.015000000000001
 30
0.0
 70
    32
  0
VERTEX
  5
3106
  8
241
 10
6.6140299999999987
 20
19.015000000000001
 30
0.0
 70
    32
  0
VERTEX
  5
3107
  8
241
 10
6.6141500000000004
 20
19.015000000000001
 30
0.0
 70
    32
  0
VERTEX
  5
3108
  8
241
 10
6.614279999999999
 20
19.015000000000001
 30
0.0
 70
    32
  0
VERTEX
  5
3109
  8
241
 10
6.6143999999999981
 20
19.0151
 30
0.0
 70
    32
  0
VERTEX
  5
310A
  8
241
 10
6.6145300000000002
 20
19.0151
 30
0.0
 70
    32
  0
VERTEX
  5
310B
  8
241
 10
6.6146500000000001
 20
19.0151
 30
0.0
 70
    32
  0
VERTEX
  5
310C
  8
241
 10
6.6147799999999988
 20
19.0151
 30
0.0
 70
    32
  0
VERTEX
  5
310D
  8
241
 10
6.6148999999999987
 20
19.0151
 30
0.0
 70
    32
  0
VERTEX
  5
310E
  8
241
 10
6.6150299999999991
 20
19.0151
 30
0.0
 70
    32
  0
VERTEX
  5
310F
  8
241
 10
6.6151499999999981
 20
19.0151
 30
0.0
 70
    32
  0
VERTEX
  5
3110
  8
241
 10
6.6152800000000003
 20
19.0152
 30
0.0
 70
    32
  0
VERTEX
  5
3111
  8
241
 10
6.6154000000000002
 20
19.0152
 30
0.0
 70
    32
  0
VERTEX
  5
3112
  8
241
 10
6.6155299999999988
 20
19.0152
 30
0.0
 70
    32
  0
SEQEND
  5
3113
  8
241
  0
LINE
  5
3114
  8
241
 10
13.0000002682209
 20
14.37765080481765
 30
0.0
 11
13.0000002682209
 21
17.699999734759299
 31
0.0
  0
LINE
  5
3115
  8
241
 10
14.20000055804848
 20
14.37765080481765
 30
0.0
 11
14.20000055804848
 21
17.699999734759299
 31
0.0
  0
LINE
  5
3116
  8
241
 10
12.39780616015196
 20
14.15176689624783
 30
0.0
 11
7.6264943927526438
 21
11.76611147820946
 31
0.0
  0
LINE
  5
3117
  8
241
 10
12.39780616015196
 20
14.15176689624783
 30
0.0
 11
14.256690163165331
 21
14.400810003280601
 31
0.0
  0
LINE
  5
3118
  8
241
 10
12.39780616015196
 20
14.15176689624783
 30
0.0
 11
12.89366511628031
 21
12.50018086284396
 31
0.0
  0
LINE
  5
3119
  8
241
 10
14.256690163165331
 20
14.400810003280601
 30
0.0
 11
14.304107986390591
 21
14.400810003280601
 31
0.0
  0
LINE
  5
311A
  8
241
 10
14.256690163165331
 20
14.400810003280601
 30
0.0
 11
12.89366511628031
 21
12.50018086284396
 31
0.0
  0
LINE
  5
311B
  8
241
 10
12.89366511628031
 20
12.50018086284396
 30
0.0
 11
12.89289351552725
 21
11.842076666653121
 31
0.0
  0
LINE
  5
311C
  8
241
 10
14.30710731074214
 20
11.842076666653121
 30
0.0
 11
14.304107986390591
 21
14.400810003280601
 31
0.0
  0
LINE
  5
311D
  8
241
 10
14.30710731074214
 20
11.842076666653121
 30
0.0
 11
12.89289351552725
 21
11.842076666653121
 31
0.0
  0
POLYLINE
  5
311E
  8
241
 66
     1
 10
0.0
 20
0.0
 30
0.0
 70
     8
  0
VERTEX
  5
311F
  8
241
 10
12.604799999999999
 20
14.179500000000001
 30
0.0
 70
    32
  0
VERTEX
  5
3120
  8
241
 10
12.6111
 20
14.182600000000001
 30
0.0
 70
    32
  0
VERTEX
  5
3121
  8
241
 10
12.6173
 20
14.1858
 30
0.0
 70
    32
  0
VERTEX
  5
3122
  8
241
 10
12.6236
 20
14.1889
 30
0.0
 70
    32
  0
VERTEX
  5
3123
  8
241
 10
12.629899999999999
 20
14.1921
 30
0.0
 70
    32
  0
VERTEX
  5
3124
  8
241
 10
12.636200000000001
 20
14.1952
 30
0.0
 70
    32
  0
VERTEX
  5
3125
  8
241
 10
12.6424
 20
14.198399999999999
 30
0.0
 70
    32
  0
VERTEX
  5
3126
  8
241
 10
12.6487
 20
14.201499999999999
 30
0.0
 70
    32
  0
VERTEX
  5
3127
  8
241
 10
12.654999999999999
 20
14.204700000000001
 30
0.0
 70
    32
  0
VERTEX
  5
3128
  8
241
 10
12.661199999999999
 20
14.207800000000001
 30
0.0
 70
    32
  0
VERTEX
  5
3129
  8
241
 10
12.6675
 20
14.211
 30
0.0
 70
    32
  0
VERTEX
  5
312A
  8
241
 10
12.6738
 20
14.2141
 30
0.0
 70
    32
  0
VERTEX
  5
312B
  8
241
 10
12.680099999999999
 20
14.2172
 30
0.0
 70
    32
  0
VERTEX
  5
312C
  8
241
 10
12.686299999999999
 20
14.2204
 30
0.0
 70
    32
  0
VERTEX
  5
312D
  8
241
 10
12.692600000000001
 20
14.2235
 30
0.0
 70
    32
  0
VERTEX
  5
312E
  8
241
 10
12.6989
 20
14.226699999999999
 30
0.0
 70
    32
  0
VERTEX
  5
312F
  8
241
 10
12.7052
 20
14.229799999999999
 30
0.0
 70
    32
  0
VERTEX
  5
3130
  8
241
 10
12.711399999999999
 20
14.233000000000001
 30
0.0
 70
    32
  0
VERTEX
  5
3131
  8
241
 10
12.717700000000001
 20
14.2361
 30
0.0
 70
    32
  0
VERTEX
  5
3132
  8
241
 10
12.724
 20
14.2393
 30
0.0
 70
    32
  0
VERTEX
  5
3133
  8
241
 10
12.7302
 20
14.2424
 30
0.0
 70
    32
  0
VERTEX
  5
3134
  8
241
 10
12.736499999999999
 20
14.2455
 30
0.0
 70
    32
  0
VERTEX
  5
3135
  8
241
 10
12.742800000000001
 20
14.248699999999999
 30
0.0
 70
    32
  0
VERTEX
  5
3136
  8
241
 10
12.7491
 20
14.251799999999999
 30
0.0
 70
    32
  0
VERTEX
  5
3137
  8
241
 10
12.7553
 20
14.255000000000001
 30
0.0
 70
    32
  0
VERTEX
  5
3138
  8
241
 10
12.7616
 20
14.258100000000001
 30
0.0
 70
    32
  0
VERTEX
  5
3139
  8
241
 10
12.767899999999999
 20
14.2613
 30
0.0
 70
    32
  0
VERTEX
  5
313A
  8
241
 10
12.7742
 20
14.2644
 30
0.0
 70
    32
  0
VERTEX
  5
313B
  8
241
 10
12.7804
 20
14.2676
 30
0.0
 70
    32
  0
VERTEX
  5
313C
  8
241
 10
12.7867
 20
14.2707
 30
0.0
 70
    32
  0
VERTEX
  5
313D
  8
241
 10
12.792999999999999
 20
14.273899999999999
 30
0.0
 70
    32
  0
VERTEX
  5
313E
  8
241
 10
12.799300000000001
 20
14.276999999999999
 30
0.0
 70
    32
  0
VERTEX
  5
313F
  8
241
 10
12.8055
 20
14.280099999999999
 30
0.0
 70
    32
  0
VERTEX
  5
3140
  8
241
 10
12.8118
 20
14.283300000000001
 30
0.0
 70
    32
  0
VERTEX
  5
3141
  8
241
 10
12.818099999999999
 20
14.2864
 30
0.0
 70
    32
  0
VERTEX
  5
3142
  8
241
 10
12.824299999999999
 20
14.2896
 30
0.0
 70
    32
  0
VERTEX
  5
3143
  8
241
 10
12.8306
 20
14.2927
 30
0.0
 70
    32
  0
VERTEX
  5
3144
  8
241
 10
12.8369
 20
14.2959
 30
0.0
 70
    32
  0
VERTEX
  5
3145
  8
241
 10
12.8432
 20
14.298999999999999
 30
0.0
 70
    32
  0
VERTEX
  5
3146
  8
241
 10
12.849399999999999
 20
14.302199999999999
 30
0.0
 70
    32
  0
VERTEX
  5
3147
  8
241
 10
12.855700000000001
 20
14.305300000000001
 30
0.0
 70
    32
  0
VERTEX
  5
3148
  8
241
 10
12.862
 20
14.3085
 30
0.0
 70
    32
  0
VERTEX
  5
3149
  8
241
 10
12.8683
 20
14.3116
 30
0.0
 70
    32
  0
VERTEX
  5
314A
  8
241
 10
12.874499999999999
 20
14.3147
 30
0.0
 70
    32
  0
VERTEX
  5
314B
  8
241
 10
12.880800000000001
 20
14.3179
 30
0.0
 70
    32
  0
VERTEX
  5
314C
  8
241
 10
12.8871
 20
14.321
 30
0.0
 70
    32
  0
VERTEX
  5
314D
  8
241
 10
12.8934
 20
14.324199999999999
 30
0.0
 70
    32
  0
VERTEX
  5
314E
  8
241
 10
12.8996
 20
14.327299999999999
 30
0.0
 70
    32
  0
VERTEX
  5
314F
  8
241
 10
12.905900000000001
 20
14.330500000000001
 30
0.0
 70
    32
  0
VERTEX
  5
3150
  8
241
 10
12.9122
 20
14.333600000000001
 30
0.0
 70
    32
  0
VERTEX
  5
3151
  8
241
 10
12.9184
 20
14.3368
 30
0.0
 70
    32
  0
VERTEX
  5
3152
  8
241
 10
12.9247
 20
14.3399
 30
0.0
 70
    32
  0
VERTEX
  5
3153
  8
241
 10
12.930999999999999
 20
14.3431
 30
0.0
 70
    32
  0
VERTEX
  5
3154
  8
241
 10
12.9373
 20
14.3462
 30
0.0
 70
    32
  0
VERTEX
  5
3155
  8
241
 10
12.9435
 20
14.349299999999999
 30
0.0
 70
    32
  0
VERTEX
  5
3156
  8
241
 10
12.9498
 20
14.352499999999999
 30
0.0
 70
    32
  0
VERTEX
  5
3157
  8
241
 10
12.956099999999999
 20
14.355600000000001
 30
0.0
 70
    32
  0
VERTEX
  5
3158
  8
241
 10
12.962400000000001
 20
14.3588
 30
0.0
 70
    32
  0
VERTEX
  5
3159
  8
241
 10
12.9686
 20
14.3619
 30
0.0
 70
    32
  0
VERTEX
  5
315A
  8
241
 10
12.9749
 20
14.3651
 30
0.0
 70
    32
  0
VERTEX
  5
315B
  8
241
 10
12.981199999999999
 20
14.3682
 30
0.0
 70
    32
  0
VERTEX
  5
315C
  8
241
 10
12.987500000000001
 20
14.3714
 30
0.0
 70
    32
  0
VERTEX
  5
315D
  8
241
 10
12.9937
 20
14.374499999999999
 30
0.0
 70
    32
  0
VERTEX
  5
315E
  8
241
 10
13.0
 20
14.377700000000001
 30
0.0
 70
    32
  0
SEQEND
  5
315F
  8
241
  0
LINE
  5
3160
  8
241
 10
13.0000002682209
 20
14.37765080481765
 30
0.0
 11
14.083824586123219
 21
14.37765080481765
 31
0.0
  0
LINE
  5
3161
  8
241
 10
13.0000002682209
 20
17.699999734759299
 30
0.0
 11
14.20000055804848
 21
17.699999734759299
 31
0.0
  0
LINE
  5
3162
  8
240
 10
14.30710731074214
 20
26.282230392098398
 30
0.0
 11
12.89289351552725
 21
26.282230392098398
 31
0.0
  0
LINE
  5
3163
  8
241
 10
19.500000402331349
 20
-8.3950432017445848
 30
0.0
 11
19.500000402331349
 21
-8.1154052168131177
 31
0.0
  0
LINE
  5
3164
  8
240
 10
19.500000402331349
 20
-8.1154052168131177
 30
0.0
 11
19.500000402331349
 21
8.0745627790364676
 31
0.0
  0
POLYLINE
  5
3165
  8
241
 66
     1
 10
0.0
 20
0.0
 30
0.0
 70
     8
  0
VERTEX
  5
3166
  8
241
 10
18.5792
 20
-14.278499999999999
 30
0.0
 70
    32
  0
VERTEX
  5
3167
  8
241
 10
18.585599999999999
 20
-14.270799999999999
 30
0.0
 70
    32
  0
VERTEX
  5
3168
  8
241
 10
18.591899999999999
 20
-14.2631
 30
0.0
 70
    32
  0
VERTEX
  5
3169
  8
241
 10
18.598099999999999
 20
-14.2554
 30
0.0
 70
    32
  0
VERTEX
  5
316A
  8
241
 10
18.604399999999998
 20
-14.2477
 30
0.0
 70
    32
  0
VERTEX
  5
316B
  8
241
 10
18.610600000000002
 20
-14.2399
 30
0.0
 70
    32
  0
VERTEX
  5
316C
  8
241
 10
18.616700000000002
 20
-14.232200000000001
 30
0.0
 70
    32
  0
VERTEX
  5
316D
  8
241
 10
18.622900000000001
 20
-14.224399999999999
 30
0.0
 70
    32
  0
VERTEX
  5
316E
  8
241
 10
18.629000000000001
 20
-14.2166
 30
0.0
 70
    32
  0
VERTEX
  5
316F
  8
241
 10
18.635100000000001
 20
-14.2088
 30
0.0
 70
    32
  0
VERTEX
  5
3170
  8
241
 10
18.641100000000002
 20
-14.201000000000001
 30
0.0
 70
    32
  0
VERTEX
  5
3171
  8
241
 10
18.647200000000002
 20
-14.193199999999999
 30
0.0
 70
    32
  0
VERTEX
  5
3172
  8
241
 10
18.653199999999998
 20
-14.1854
 30
0.0
 70
    32
  0
VERTEX
  5
3173
  8
241
 10
18.659099999999999
 20
-14.1775
 30
0.0
 70
    32
  0
VERTEX
  5
3174
  8
241
 10
18.664999999999999
 20
-14.169700000000001
 30
0.0
 70
    32
  0
VERTEX
  5
3175
  8
241
 10
18.6709
 20
-14.161799999999999
 30
0.0
 70
    32
  0
VERTEX
  5
3176
  8
241
 10
18.6768
 20
-14.1539
 30
0.0
 70
    32
  0
VERTEX
  5
3177
  8
241
 10
18.682700000000001
 20
-14.146000000000001
 30
0.0
 70
    32
  0
VERTEX
  5
3178
  8
241
 10
18.688500000000001
 20
-14.1381
 30
0.0
 70
    32
  0
VERTEX
  5
3179
  8
241
 10
18.694199999999999
 20
-14.130100000000001
 30
0.0
 70
    32
  0
VERTEX
  5
317A
  8
241
 10
18.699999999999999
 20
-14.122199999999999
 30
0.0
 70
    32
  0
VERTEX
  5
317B
  8
241
 10
18.7057
 20
-14.1142
 30
0.0
 70
    32
  0
VERTEX
  5
317C
  8
241
 10
18.711400000000001
 20
-14.106299999999999
 30
0.0
 70
    32
  0
VERTEX
  5
317D
  8
241
 10
18.716999999999999
 20
-14.0983
 30
0.0
 70
    32
  0
VERTEX
  5
317E
  8
241
 10
18.7227
 20
-14.090299999999999
 30
0.0
 70
    32
  0
VERTEX
  5
317F
  8
241
 10
18.728300000000001
 20
-14.0823
 30
0.0
 70
    32
  0
VERTEX
  5
3180
  8
241
 10
18.733799999999999
 20
-14.074199999999999
 30
0.0
 70
    32
  0
VERTEX
  5
3181
  8
241
 10
18.7393
 20
-14.0662
 30
0.0
 70
    32
  0
VERTEX
  5
3182
  8
241
 10
18.744800000000001
 20
-14.0581
 30
0.0
 70
    32
  0
VERTEX
  5
3183
  8
241
 10
18.750299999999999
 20
-14.0501
 30
0.0
 70
    32
  0
VERTEX
  5
3184
  8
241
 10
18.755700000000001
 20
-14.042
 30
0.0
 70
    32
  0
VERTEX
  5
3185
  8
241
 10
18.761199999999999
 20
-14.033899999999999
 30
0.0
 70
    32
  0
VERTEX
  5
3186
  8
241
 10
18.766500000000001
 20
-14.0258
 30
0.0
 70
    32
  0
VERTEX
  5
3187
  8
241
 10
18.771899999999999
 20
-14.0177
 30
0.0
 70
    32
  0
VERTEX
  5
3188
  8
241
 10
18.777200000000001
 20
-14.009600000000001
 30
0.0
 70
    32
  0
VERTEX
  5
3189
  8
241
 10
18.782499999999999
 20
-14.0014
 30
0.0
 70
    32
  0
VERTEX
  5
318A
  8
241
 10
18.787700000000001
 20
-13.9933
 30
0.0
 70
    32
  0
VERTEX
  5
318B
  8
241
 10
18.792899999999999
 20
-13.985099999999999
 30
0.0
 70
    32
  0
VERTEX
  5
318C
  8
241
 10
18.798100000000002
 20
-13.976900000000001
 30
0.0
 70
    32
  0
VERTEX
  5
318D
  8
241
 10
18.8033
 20
-13.9687
 30
0.0
 70
    32
  0
VERTEX
  5
318E
  8
241
 10
18.808399999999999
 20
-13.9605
 30
0.0
 70
    32
  0
VERTEX
  5
318F
  8
241
 10
18.813500000000001
 20
-13.952299999999999
 30
0.0
 70
    32
  0
VERTEX
  5
3190
  8
241
 10
18.8185
 20
-13.944100000000001
 30
0.0
 70
    32
  0
VERTEX
  5
3191
  8
241
 10
18.823599999999999
 20
-13.9358
 30
0.0
 70
    32
  0
VERTEX
  5
3192
  8
241
 10
18.828600000000002
 20
-13.9276
 30
0.0
 70
    32
  0
VERTEX
  5
3193
  8
241
 10
18.833500000000001
 20
-13.9193
 30
0.0
 70
    32
  0
VERTEX
  5
3194
  8
241
 10
18.8385
 20
-13.911
 30
0.0
 70
    32
  0
VERTEX
  5
3195
  8
241
 10
18.843399999999999
 20
-13.902699999999999
 30
0.0
 70
    32
  0
VERTEX
  5
3196
  8
241
 10
18.848199999999999
 20
-13.894399999999999
 30
0.0
 70
    32
  0
VERTEX
  5
3197
  8
241
 10
18.853100000000001
 20
-13.886100000000001
 30
0.0
 70
    32
  0
VERTEX
  5
3198
  8
241
 10
18.857900000000001
 20
-13.877800000000001
 30
0.0
 70
    32
  0
VERTEX
  5
3199
  8
241
 10
18.8626
 20
-13.869400000000001
 30
0.0
 70
    32
  0
VERTEX
  5
319A
  8
241
 10
18.8674
 20
-13.8611
 30
0.0
 70
    32
  0
VERTEX
  5
319B
  8
241
 10
18.8721
 20
-13.8527
 30
0.0
 70
    32
  0
VERTEX
  5
319C
  8
241
 10
18.876799999999999
 20
-13.8443
 30
0.0
 70
    32
  0
VERTEX
  5
319D
  8
241
 10
18.881399999999999
 20
-13.835900000000001
 30
0.0
 70
    32
  0
VERTEX
  5
319E
  8
241
 10
18.885999999999999
 20
-13.827500000000001
 30
0.0
 70
    32
  0
VERTEX
  5
319F
  8
241
 10
18.890599999999999
 20
-13.819100000000001
 30
0.0
 70
    32
  0
VERTEX
  5
31A0
  8
241
 10
18.895199999999999
 20
-13.810700000000001
 30
0.0
 70
    32
  0
VERTEX
  5
31A1
  8
241
 10
18.899699999999999
 20
-13.802300000000001
 30
0.0
 70
    32
  0
VERTEX
  5
31A2
  8
241
 10
18.904199999999999
 20
-13.793799999999999
 30
0.0
 70
    32
  0
VERTEX
  5
31A3
  8
241
 10
18.9086
 20
-13.785399999999999
 30
0.0
 70
    32
  0
VERTEX
  5
31A4
  8
241
 10
18.913
 20
-13.776899999999999
 30
0.0
 70
    32
  0
VERTEX
  5
31A5
  8
241
 10
18.917400000000001
 20
-13.7684
 30
0.0
 70
    32
  0
VERTEX
  5
31A6
  8
241
 10
18.921800000000001
 20
-13.7599
 30
0.0
 70
    32
  0
VERTEX
  5
31A7
  8
241
 10
18.926100000000002
 20
-13.7514
 30
0.0
 70
    32
  0
VERTEX
  5
31A8
  8
241
 10
18.930399999999999
 20
-13.742900000000001
 30
0.0
 70
    32
  0
VERTEX
  5
31A9
  8
241
 10
18.934699999999999
 20
-13.734400000000001
 30
0.0
 70
    32
  0
VERTEX
  5
31AA
  8
241
 10
18.9389
 20
-13.7258
 30
0.0
 70
    32
  0
VERTEX
  5
31AB
  8
241
 10
18.943100000000001
 20
-13.7173
 30
0.0
 70
    32
  0
VERTEX
  5
31AC
  8
241
 10
18.947299999999998
 20
-13.7087
 30
0.0
 70
    32
  0
VERTEX
  5
31AD
  8
241
 10
18.9514
 20
-13.700100000000001
 30
0.0
 70
    32
  0
VERTEX
  5
31AE
  8
241
 10
18.955500000000001
 20
-13.691599999999999
 30
0.0
 70
    32
  0
VERTEX
  5
31AF
  8
241
 10
18.959599999999998
 20
-13.683
 30
0.0
 70
    32
  0
VERTEX
  5
31B0
  8
241
 10
18.9636
 20
-13.6744
 30
0.0
 70
    32
  0
VERTEX
  5
31B1
  8
241
 10
18.967600000000001
 20
-13.665699999999999
 30
0.0
 70
    32
  0
VERTEX
  5
31B2
  8
241
 10
18.971599999999999
 20
-13.6571
 30
0.0
 70
    32
  0
VERTEX
  5
31B3
  8
241
 10
18.9755
 20
-13.6485
 30
0.0
 70
    32
  0
VERTEX
  5
31B4
  8
241
 10
18.979399999999998
 20
-13.639799999999999
 30
0.0
 70
    32
  0
VERTEX
  5
31B5
  8
241
 10
18.9833
 20
-13.6312
 30
0.0
 70
    32
  0
VERTEX
  5
31B6
  8
241
 10
18.987100000000002
 20
-13.6225
 30
0.0
 70
    32
  0
VERTEX
  5
31B7
  8
241
 10
18.9909
 20
-13.613799999999999
 30
0.0
 70
    32
  0
VERTEX
  5
31B8
  8
241
 10
18.994700000000002
 20
-13.6051
 30
0.0
 70
    32
  0
VERTEX
  5
31B9
  8
241
 10
18.9984
 20
-13.596399999999999
 30
0.0
 70
    32
  0
VERTEX
  5
31BA
  8
241
 10
19.002199999999998
 20
-13.5877
 30
0.0
 70
    32
  0
VERTEX
  5
31BB
  8
241
 10
19.005800000000001
 20
-13.579000000000001
 30
0.0
 70
    32
  0
VERTEX
  5
31BC
  8
241
 10
19.009499999999999
 20
-13.5703
 30
0.0
 70
    32
  0
VERTEX
  5
31BD
  8
241
 10
19.013100000000001
 20
-13.561500000000001
 30
0.0
 70
    32
  0
VERTEX
  5
31BE
  8
241
 10
19.0167
 20
-13.5528
 30
0.0
 70
    32
  0
VERTEX
  5
31BF
  8
241
 10
19.020199999999999
 20
-13.544
 30
0.0
 70
    32
  0
VERTEX
  5
31C0
  8
241
 10
19.023700000000002
 20
-13.5352
 30
0.0
 70
    32
  0
VERTEX
  5
31C1
  8
241
 10
19.027200000000001
 20
-13.5265
 30
0.0
 70
    32
  0
VERTEX
  5
31C2
  8
241
 10
19.0306
 20
-13.5177
 30
0.0
 70
    32
  0
VERTEX
  5
31C3
  8
241
 10
19.034099999999999
 20
-13.508900000000001
 30
0.0
 70
    32
  0
VERTEX
  5
31C4
  8
241
 10
19.037400000000002
 20
-13.5
 30
0.0
 70
    32
  0
VERTEX
  5
31C5
  8
241
 10
19.040800000000001
 20
-13.491199999999999
 30
0.0
 70
    32
  0
VERTEX
  5
31C6
  8
241
 10
19.0441
 20
-13.4824
 30
0.0
 70
    32
  0
VERTEX
  5
31C7
  8
241
 10
19.0474
 20
-13.473599999999999
 30
0.0
 70
    32
  0
VERTEX
  5
31C8
  8
241
 10
19.050599999999999
 20
-13.464700000000001
 30
0.0
 70
    32
  0
VERTEX
  5
31C9
  8
241
 10
19.053899999999999
 20
-13.4558
 30
0.0
 70
    32
  0
VERTEX
  5
31CA
  8
241
 10
19.056999999999999
 20
-13.446999999999999
 30
0.0
 70
    32
  0
VERTEX
  5
31CB
  8
241
 10
19.060199999999998
 20
-13.4381
 30
0.0
 70
    32
  0
VERTEX
  5
31CC
  8
241
 10
19.063300000000002
 20
-13.4292
 30
0.0
 70
    32
  0
VERTEX
  5
31CD
  8
241
 10
19.066400000000002
 20
-13.420299999999999
 30
0.0
 70
    32
  0
VERTEX
  5
31CE
  8
241
 10
19.069400000000002
 20
-13.4114
 30
0.0
 70
    32
  0
VERTEX
  5
31CF
  8
241
 10
19.072500000000002
 20
-13.4025
 30
0.0
 70
    32
  0
VERTEX
  5
31D0
  8
241
 10
19.075500000000002
 20
-13.3935
 30
0.0
 70
    32
  0
VERTEX
  5
31D1
  8
241
 10
19.078399999999998
 20
-13.384600000000001
 30
0.0
 70
    32
  0
VERTEX
  5
31D2
  8
241
 10
19.081299999999999
 20
-13.3757
 30
0.0
 70
    32
  0
VERTEX
  5
31D3
  8
241
 10
19.084199999999999
 20
-13.3667
 30
0.0
 70
    32
  0
VERTEX
  5
31D4
  8
241
 10
19.0871
 20
-13.357699999999999
 30
0.0
 70
    32
  0
VERTEX
  5
31D5
  8
241
 10
19.0899
 20
-13.348800000000001
 30
0.0
 70
    32
  0
VERTEX
  5
31D6
  8
241
 10
19.092700000000001
 20
-13.3398
 30
0.0
 70
    32
  0
VERTEX
  5
31D7
  8
241
 10
19.095400000000001
 20
-13.3308
 30
0.0
 70
    32
  0
VERTEX
  5
31D8
  8
241
 10
19.098099999999999
 20
-13.3218
 30
0.0
 70
    32
  0
VERTEX
  5
31D9
  8
241
 10
19.1008
 20
-13.312799999999999
 30
0.0
 70
    32
  0
VERTEX
  5
31DA
  8
241
 10
19.1035
 20
-13.303800000000001
 30
0.0
 70
    32
  0
VERTEX
  5
31DB
  8
241
 10
19.106100000000001
 20
-13.2948
 30
0.0
 70
    32
  0
VERTEX
  5
31DC
  8
241
 10
19.108699999999999
 20
-13.2857
 30
0.0
 70
    32
  0
VERTEX
  5
31DD
  8
241
 10
19.1112
 20
-13.2767
 30
0.0
 70
    32
  0
VERTEX
  5
31DE
  8
241
 10
19.113800000000001
 20
-13.2676
 30
0.0
 70
    32
  0
VERTEX
  5
31DF
  8
241
 10
19.116299999999999
 20
-13.258599999999999
 30
0.0
 70
    32
  0
VERTEX
  5
31E0
  8
241
 10
19.1187
 20
-13.249499999999999
 30
0.0
 70
    32
  0
VERTEX
  5
31E1
  8
241
 10
19.121099999999998
 20
-13.240399999999999
 30
0.0
 70
    32
  0
VERTEX
  5
31E2
  8
241
 10
19.1235
 20
-13.231299999999999
 30
0.0
 70
    32
  0
VERTEX
  5
31E3
  8
241
 10
19.125900000000001
 20
-13.222300000000001
 30
0.0
 70
    32
  0
VERTEX
  5
31E4
  8
241
 10
19.1282
 20
-13.213200000000001
 30
0.0
 70
    32
  0
VERTEX
  5
31E5
  8
241
 10
19.130500000000001
 20
-13.204000000000001
 30
0.0
 70
    32
  0
VERTEX
  5
31E6
  8
241
 10
19.1327
 20
-13.194900000000001
 30
0.0
 70
    32
  0
SEQEND
  5
31E7
  8
241
  0
POLYLINE
  5
31E8
  8
241
 66
     1
 10
0.0
 20
0.0
 30
0.0
 70
     8
  0
VERTEX
  5
31E9
  8
241
 10
16.300000000000001
 20
-22.629100000000001
 30
0.0
 70
    32
  0
VERTEX
  5
31EA
  8
241
 10
16.322099999999999
 20
-22.6004
 30
0.0
 70
    32
  0
VERTEX
  5
31EB
  8
241
 10
16.344200000000001
 20
-22.5717
 30
0.0
 70
    32
  0
VERTEX
  5
31EC
  8
241
 10
16.366199999999999
 20
-22.542999999999999
 30
0.0
 70
    32
  0
VERTEX
  5
31ED
  8
241
 10
16.388200000000001
 20
-22.514299999999999
 30
0.0
 70
    32
  0
VERTEX
  5
31EE
  8
241
 10
16.4101
 20
-22.485600000000002
 30
0.0
 70
    32
  0
VERTEX
  5
31EF
  8
241
 10
16.431899999999999
 20
-22.457000000000001
 30
0.0
 70
    32
  0
VERTEX
  5
31F0
  8
241
 10
16.453700000000001
 20
-22.4284
 30
0.0
 70
    32
  0
VERTEX
  5
31F1
  8
241
 10
16.4754
 20
-22.399699999999999
 30
0.0
 70
    32
  0
VERTEX
  5
31F2
  8
241
 10
16.4971
 20
-22.371099999999998
 30
0.0
 70
    32
  0
VERTEX
  5
31F3
  8
241
 10
16.518699999999999
 20
-22.342500000000001
 30
0.0
 70
    32
  0
VERTEX
  5
31F4
  8
241
 10
16.540199999999999
 20
-22.3139
 30
0.0
 70
    32
  0
VERTEX
  5
31F5
  8
241
 10
16.561699999999998
 20
-22.285299999999999
 30
0.0
 70
    32
  0
VERTEX
  5
31F6
  8
241
 10
16.583100000000002
 20
-22.256699999999999
 30
0.0
 70
    32
  0
VERTEX
  5
31F7
  8
241
 10
16.604500000000002
 20
-22.228200000000001
 30
0.0
 70
    32
  0
VERTEX
  5
31F8
  8
241
 10
16.625800000000002
 20
-22.1996
 30
0.0
 70
    32
  0
VERTEX
  5
31F9
  8
241
 10
16.647099999999998
 20
-22.171099999999999
 30
0.0
 70
    32
  0
VERTEX
  5
31FA
  8
241
 10
16.668299999999999
 20
-22.142499999999998
 30
0.0
 70
    32
  0
VERTEX
  5
31FB
  8
241
 10
16.689399999999999
 20
-22.114000000000001
 30
0.0
 70
    32
  0
VERTEX
  5
31FC
  8
241
 10
16.7105
 20
-22.0854
 30
0.0
 70
    32
  0
VERTEX
  5
31FD
  8
241
 10
16.7315
 20
-22.056899999999999
 30
0.0
 70
    32
  0
VERTEX
  5
31FE
  8
241
 10
16.752400000000002
 20
-22.028400000000001
 30
0.0
 70
    32
  0
VERTEX
  5
31FF
  8
241
 10
16.773299999999999
 20
-21.9999
 30
0.0
 70
    32
  0
VERTEX
  5
3200
  8
241
 10
16.7942
 20
-21.971399999999999
 30
0.0
 70
    32
  0
VERTEX
  5
3201
  8
241
 10
16.815000000000001
 20
-21.942900000000002
 30
0.0
 70
    32
  0
VERTEX
  5
3202
  8
241
 10
16.835699999999999
 20
-21.914400000000001
 30
0.0
 70
    32
  0
VERTEX
  5
3203
  8
241
 10
16.856300000000001
 20
-21.885999999999999
 30
0.0
 70
    32
  0
VERTEX
  5
3204
  8
241
 10
16.876999999999999
 20
-21.857500000000002
 30
0.0
 70
    32
  0
VERTEX
  5
3205
  8
241
 10
16.897500000000001
 20
-21.829000000000001
 30
0.0
 70
    32
  0
VERTEX
  5
3206
  8
241
 10
16.917999999999999
 20
-21.800599999999999
 30
0.0
 70
    32
  0
VERTEX
  5
3207
  8
241
 10
16.938400000000001
 20
-21.772099999999998
 30
0.0
 70
    32
  0
VERTEX
  5
3208
  8
241
 10
16.9588
 20
-21.7437
 30
0.0
 70
    32
  0
VERTEX
  5
3209
  8
241
 10
16.979099999999999
 20
-21.715199999999999
 30
0.0
 70
    32
  0
VERTEX
  5
320A
  8
241
 10
16.999400000000001
 20
-21.686800000000002
 30
0.0
 70
    32
  0
VERTEX
  5
320B
  8
241
 10
17.019600000000001
 20
-21.6584
 30
0.0
 70
    32
  0
VERTEX
  5
320C
  8
241
 10
17.0397
 20
-21.629999999999999
 30
0.0
 70
    32
  0
VERTEX
  5
320D
  8
241
 10
17.059799999999999
 20
-21.601500000000001
 30
0.0
 70
    32
  0
VERTEX
  5
320E
  8
241
 10
17.079899999999999
 20
-21.5731
 30
0.0
 70
    32
  0
VERTEX
  5
320F
  8
241
 10
17.099799999999998
 20
-21.544699999999999
 30
0.0
 70
    32
  0
VERTEX
  5
3210
  8
241
 10
17.119700000000002
 20
-21.516300000000001
 30
0.0
 70
    32
  0
VERTEX
  5
3211
  8
241
 10
17.139600000000002
 20
-21.4879
 30
0.0
 70
    32
  0
VERTEX
  5
3212
  8
241
 10
17.159400000000002
 20
-21.459499999999998
 30
0.0
 70
    32
  0
VERTEX
  5
3213
  8
241
 10
17.179099999999998
 20
-21.431100000000001
 30
0.0
 70
    32
  0
VERTEX
  5
3214
  8
241
 10
17.198799999999999
 20
-21.402699999999999
 30
0.0
 70
    32
  0
VERTEX
  5
3215
  8
241
 10
17.218499999999999
 20
-21.374300000000002
 30
0.0
 70
    32
  0
VERTEX
  5
3216
  8
241
 10
17.238
 20
-21.3459
 30
0.0
 70
    32
  0
VERTEX
  5
3217
  8
241
 10
17.2576
 20
-21.317499999999999
 30
0.0
 70
    32
  0
VERTEX
  5
3218
  8
241
 10
17.277000000000001
 20
-21.289100000000001
 30
0.0
 70
    32
  0
VERTEX
  5
3219
  8
241
 10
17.296399999999998
 20
-21.2608
 30
0.0
 70
    32
  0
VERTEX
  5
321A
  8
241
 10
17.315799999999999
 20
-21.232399999999998
 30
0.0
 70
    32
  0
VERTEX
  5
321B
  8
241
 10
17.335000000000001
 20
-21.204000000000001
 30
0.0
 70
    32
  0
VERTEX
  5
321C
  8
241
 10
17.354299999999999
 20
-21.175599999999999
 30
0.0
 70
    32
  0
VERTEX
  5
321D
  8
241
 10
17.3735
 20
-21.147200000000002
 30
0.0
 70
    32
  0
VERTEX
  5
321E
  8
241
 10
17.392600000000002
 20
-21.1189
 30
0.0
 70
    32
  0
VERTEX
  5
321F
  8
241
 10
17.4116
 20
-21.090499999999999
 30
0.0
 70
    32
  0
VERTEX
  5
3220
  8
241
 10
17.430599999999998
 20
-21.062100000000001
 30
0.0
 70
    32
  0
VERTEX
  5
3221
  8
241
 10
17.4496
 20
-21.0337
 30
0.0
 70
    32
  0
VERTEX
  5
3222
  8
241
 10
17.468499999999999
 20
-21.005400000000002
 30
0.0
 70
    32
  0
VERTEX
  5
3223
  8
241
 10
17.487300000000001
 20
-20.977
 30
0.0
 70
    32
  0
VERTEX
  5
3224
  8
241
 10
17.5061
 20
-20.948599999999999
 30
0.0
 70
    32
  0
VERTEX
  5
3225
  8
241
 10
17.524799999999999
 20
-20.920200000000001
 30
0.0
 70
    32
  0
VERTEX
  5
3226
  8
241
 10
17.543500000000002
 20
-20.8918
 30
0.0
 70
    32
  0
VERTEX
  5
3227
  8
241
 10
17.562100000000001
 20
-20.863499999999998
 30
0.0
 70
    32
  0
VERTEX
  5
3228
  8
241
 10
17.5807
 20
-20.835100000000001
 30
0.0
 70
    32
  0
VERTEX
  5
3229
  8
241
 10
17.5992
 20
-20.806699999999999
 30
0.0
 70
    32
  0
VERTEX
  5
322A
  8
241
 10
17.617599999999999
 20
-20.778300000000002
 30
0.0
 70
    32
  0
VERTEX
  5
322B
  8
241
 10
17.635999999999999
 20
-20.7499
 30
0.0
 70
    32
  0
VERTEX
  5
322C
  8
241
 10
17.654299999999999
 20
-20.721499999999999
 30
0.0
 70
    32
  0
VERTEX
  5
322D
  8
241
 10
17.672599999999999
 20
-20.693100000000001
 30
0.0
 70
    32
  0
VERTEX
  5
322E
  8
241
 10
17.690799999999999
 20
-20.6647
 30
0.0
 70
    32
  0
VERTEX
  5
322F
  8
241
 10
17.709
 20
-20.636299999999999
 30
0.0
 70
    32
  0
VERTEX
  5
3230
  8
241
 10
17.7271
 20
-20.607900000000001
 30
0.0
 70
    32
  0
VERTEX
  5
3231
  8
241
 10
17.745100000000001
 20
-20.579499999999999
 30
0.0
 70
    32
  0
VERTEX
  5
3232
  8
241
 10
17.763100000000001
 20
-20.551100000000002
 30
0.0
 70
    32
  0
VERTEX
  5
3233
  8
241
 10
17.781099999999999
 20
-20.5227
 30
0.0
 70
    32
  0
VERTEX
  5
3234
  8
241
 10
17.798999999999999
 20
-20.494299999999999
 30
0.0
 70
    32
  0
VERTEX
  5
3235
  8
241
 10
17.816800000000001
 20
-20.465900000000001
 30
0.0
 70
    32
  0
VERTEX
  5
3236
  8
241
 10
17.834599999999991
 20
-20.4375
 30
0.0
 70
    32
  0
VERTEX
  5
3237
  8
241
 10
17.8523
 20
-20.408999999999999
 30
0.0
 70
    32
  0
VERTEX
  5
3238
  8
241
 10
17.870000000000001
 20
-20.380600000000001
 30
0.0
 70
    32
  0
VERTEX
  5
3239
  8
241
 10
17.887599999999999
 20
-20.3522
 30
0.0
 70
    32
  0
VERTEX
  5
323A
  8
241
 10
17.905100000000001
 20
-20.323699999999999
 30
0.0
 70
    32
  0
VERTEX
  5
323B
  8
241
 10
17.922599999999999
 20
-20.295300000000001
 30
0.0
 70
    32
  0
VERTEX
  5
323C
  8
241
 10
17.940100000000001
 20
-20.2668
 30
0.0
 70
    32
  0
VERTEX
  5
323D
  8
241
 10
17.9575
 20
-20.238399999999999
 30
0.0
 70
    32
  0
VERTEX
  5
323E
  8
241
 10
17.974799999999991
 20
-20.209900000000001
 30
0.0
 70
    32
  0
VERTEX
  5
323F
  8
241
 10
17.992100000000001
 20
-20.1814
 30
0.0
 70
    32
  0
VERTEX
  5
3240
  8
241
 10
18.0093
 20
-20.152899999999999
 30
0.0
 70
    32
  0
VERTEX
  5
3241
  8
241
 10
18.026499999999999
 20
-20.124400000000001
 30
0.0
 70
    32
  0
VERTEX
  5
3242
  8
241
 10
18.043600000000001
 20
-20.096
 30
0.0
 70
    32
  0
VERTEX
  5
3243
  8
241
 10
18.060700000000001
 20
-20.067499999999999
 30
0.0
 70
    32
  0
VERTEX
  5
3244
  8
241
 10
18.0777
 20
-20.038900000000002
 30
0.0
 70
    32
  0
VERTEX
  5
3245
  8
241
 10
18.0946
 20
-20.010400000000001
 30
0.0
 70
    32
  0
VERTEX
  5
3246
  8
241
 10
18.111499999999999
 20
-19.9819
 30
0.0
 70
    32
  0
VERTEX
  5
3247
  8
241
 10
18.128399999999999
 20
-19.953399999999998
 30
0.0
 70
    32
  0
VERTEX
  5
3248
  8
241
 10
18.145099999999999
 20
-19.924800000000001
 30
0.0
 70
    32
  0
VERTEX
  5
3249
  8
241
 10
18.161899999999999
 20
-19.8963
 30
0.0
 70
    32
  0
VERTEX
  5
324A
  8
241
 10
18.178599999999999
 20
-19.867699999999999
 30
0.0
 70
    32
  0
VERTEX
  5
324B
  8
241
 10
18.1952
 20
-19.839099999999998
 30
0.0
 70
    32
  0
VERTEX
  5
324C
  8
241
 10
18.2118
 20
-19.810600000000001
 30
0.0
 70
    32
  0
VERTEX
  5
324D
  8
241
 10
18.228300000000001
 20
-19.782
 30
0.0
 70
    32
  0
VERTEX
  5
324E
  8
241
 10
18.244700000000002
 20
-19.753399999999999
 30
0.0
 70
    32
  0
VERTEX
  5
324F
  8
241
 10
18.261199999999999
 20
-19.724799999999998
 30
0.0
 70
    32
  0
VERTEX
  5
3250
  8
241
 10
18.2775
 20
-19.696100000000001
 30
0.0
 70
    32
  0
VERTEX
  5
3251
  8
241
 10
18.293800000000001
 20
-19.6675
 30
0.0
 70
    32
  0
VERTEX
  5
3252
  8
241
 10
18.309999999999999
 20
-19.6389
 30
0.0
 70
    32
  0
VERTEX
  5
3253
  8
241
 10
18.3262
 20
-19.610199999999999
 30
0.0
 70
    32
  0
VERTEX
  5
3254
  8
241
 10
18.342400000000001
 20
-19.581499999999998
 30
0.0
 70
    32
  0
VERTEX
  5
3255
  8
241
 10
18.358499999999999
 20
-19.552800000000001
 30
0.0
 70
    32
  0
VERTEX
  5
3256
  8
241
 10
18.374500000000001
 20
-19.5242
 30
0.0
 70
    32
  0
VERTEX
  5
3257
  8
241
 10
18.3904
 20
-19.4955
 30
0.0
 70
    32
  0
VERTEX
  5
3258
  8
241
 10
18.406400000000001
 20
-19.466699999999999
 30
0.0
 70
    32
  0
VERTEX
  5
3259
  8
241
 10
18.4222
 20
-19.437999999999999
 30
0.0
 70
    32
  0
VERTEX
  5
325A
  8
241
 10
18.437999999999999
 20
-19.409300000000002
 30
0.0
 70
    32
  0
VERTEX
  5
325B
  8
241
 10
18.453800000000001
 20
-19.380500000000001
 30
0.0
 70
    32
  0
VERTEX
  5
325C
  8
241
 10
18.4695
 20
-19.351800000000001
 30
0.0
 70
    32
  0
VERTEX
  5
325D
  8
241
 10
18.485099999999999
 20
-19.323
 30
0.0
 70
    32
  0
VERTEX
  5
325E
  8
241
 10
18.500699999999998
 20
-19.2942
 30
0.0
 70
    32
  0
VERTEX
  5
325F
  8
241
 10
18.516200000000001
 20
-19.2654
 30
0.0
 70
    32
  0
VERTEX
  5
3260
  8
241
 10
18.531700000000001
 20
-19.236599999999999
 30
0.0
 70
    32
  0
VERTEX
  5
3261
  8
241
 10
18.5471
 20
-19.207799999999999
 30
0.0
 70
    32
  0
VERTEX
  5
3262
  8
241
 10
18.5625
 20
-19.178999999999998
 30
0.0
 70
    32
  0
VERTEX
  5
3263
  8
241
 10
18.5778
 20
-19.150200000000002
 30
0.0
 70
    32
  0
VERTEX
  5
3264
  8
241
 10
18.5931
 20
-19.121300000000002
 30
0.0
 70
    32
  0
VERTEX
  5
3265
  8
241
 10
18.6083
 20
-19.092400000000001
 30
0.0
 70
    32
  0
VERTEX
  5
3266
  8
241
 10
18.6234
 20
-19.063600000000001
 30
0.0
 70
    32
  0
VERTEX
  5
3267
  8
241
 10
18.638500000000001
 20
-19.034700000000001
 30
0.0
 70
    32
  0
VERTEX
  5
3268
  8
241
 10
18.653500000000001
 20
-19.005800000000001
 30
0.0
 70
    32
  0
VERTEX
  5
3269
  8
241
 10
18.668500000000002
 20
-18.976900000000001
 30
0.0
 70
    32
  0
VERTEX
  5
326A
  8
241
 10
18.683499999999999
 20
-18.948
 30
0.0
 70
    32
  0
VERTEX
  5
326B
  8
241
 10
18.6983
 20
-18.919
 30
0.0
 70
    32
  0
VERTEX
  5
326C
  8
241
 10
18.713100000000001
 20
-18.8901
 30
0.0
 70
    32
  0
VERTEX
  5
326D
  8
241
 10
18.727900000000002
 20
-18.8611
 30
0.0
 70
    32
  0
VERTEX
  5
326E
  8
241
 10
18.742599999999999
 20
-18.8322
 30
0.0
 70
    32
  0
VERTEX
  5
326F
  8
241
 10
18.757200000000001
 20
-18.8032
 30
0.0
 70
    32
  0
VERTEX
  5
3270
  8
241
 10
18.771799999999999
 20
-18.7742
 30
0.0
 70
    32
  0
VERTEX
  5
3271
  8
241
 10
18.7864
 20
-18.745200000000001
 30
0.0
 70
    32
  0
VERTEX
  5
3272
  8
241
 10
18.800899999999999
 20
-18.716200000000001
 30
0.0
 70
    32
  0
VERTEX
  5
3273
  8
241
 10
18.815300000000001
 20
-18.687100000000001
 30
0.0
 70
    32
  0
VERTEX
  5
3274
  8
241
 10
18.829699999999999
 20
-18.658100000000001
 30
0.0
 70
    32
  0
VERTEX
  5
3275
  8
241
 10
18.844000000000001
 20
-18.629000000000001
 30
0.0
 70
    32
  0
VERTEX
  5
3276
  8
241
 10
18.8582
 20
-18.600000000000001
 30
0.0
 70
    32
  0
VERTEX
  5
3277
  8
241
 10
18.872399999999999
 20
-18.570900000000002
 30
0.0
 70
    32
  0
VERTEX
  5
3278
  8
241
 10
18.886600000000001
 20
-18.541799999999999
 30
0.0
 70
    32
  0
VERTEX
  5
3279
  8
241
 10
18.900700000000001
 20
-18.512699999999999
 30
0.0
 70
    32
  0
VERTEX
  5
327A
  8
241
 10
18.9147
 20
-18.483599999999999
 30
0.0
 70
    32
  0
VERTEX
  5
327B
  8
241
 10
18.928699999999999
 20
-18.4544
 30
0.0
 70
    32
  0
VERTEX
  5
327C
  8
241
 10
18.942599999999999
 20
-18.4253
 30
0.0
 70
    32
  0
VERTEX
  5
327D
  8
241
 10
18.956499999999998
 20
-18.396100000000001
 30
0.0
 70
    32
  0
VERTEX
  5
327E
  8
241
 10
18.970300000000002
 20
-18.367000000000001
 30
0.0
 70
    32
  0
VERTEX
  5
327F
  8
241
 10
18.984100000000002
 20
-18.337800000000001
 30
0.0
 70
    32
  0
VERTEX
  5
3280
  8
241
 10
18.997800000000002
 20
-18.308599999999998
 30
0.0
 70
    32
  0
VERTEX
  5
3281
  8
241
 10
19.011399999999998
 20
-18.279399999999999
 30
0.0
 70
    32
  0
VERTEX
  5
3282
  8
241
 10
19.024999999999999
 20
-18.2502
 30
0.0
 70
    32
  0
VERTEX
  5
3283
  8
241
 10
19.038599999999999
 20
-18.221
 30
0.0
 70
    32
  0
VERTEX
  5
3284
  8
241
 10
19.052
 20
-18.191700000000001
 30
0.0
 70
    32
  0
VERTEX
  5
3285
  8
241
 10
19.0655
 20
-18.162500000000001
 30
0.0
 70
    32
  0
VERTEX
  5
3286
  8
241
 10
19.078800000000001
 20
-18.133199999999999
 30
0.0
 70
    32
  0
VERTEX
  5
3287
  8
241
 10
19.092199999999998
 20
-18.103899999999999
 30
0.0
 70
    32
  0
VERTEX
  5
3288
  8
241
 10
19.105399999999999
 20
-18.0746
 30
0.0
 70
    32
  0
VERTEX
  5
3289
  8
241
 10
19.118600000000001
 20
-18.045300000000001
 30
0.0
 70
    32
  0
VERTEX
  5
328A
  8
241
 10
19.131799999999998
 20
-18.015999999999998
 30
0.0
 70
    32
  0
VERTEX
  5
328B
  8
241
 10
19.1449
 20
-17.986599999999999
 30
0.0
 70
    32
  0
VERTEX
  5
328C
  8
241
 10
19.157900000000001
 20
-17.9573
 30
0.0
 70
    32
  0
VERTEX
  5
328D
  8
241
 10
19.1709
 20
-17.927900000000001
 30
0.0
 70
    32
  0
VERTEX
  5
328E
  8
241
 10
19.183800000000002
 20
-17.898499999999999
 30
0.0
 70
    32
  0
VERTEX
  5
328F
  8
241
 10
19.1967
 20
-17.869199999999999
 30
0.0
 70
    32
  0
VERTEX
  5
3290
  8
241
 10
19.209499999999998
 20
-17.839700000000001
 30
0.0
 70
    32
  0
VERTEX
  5
3291
  8
241
 10
19.222200000000001
 20
-17.810300000000002
 30
0.0
 70
    32
  0
VERTEX
  5
3292
  8
241
 10
19.2349
 20
-17.780899999999999
 30
0.0
 70
    32
  0
VERTEX
  5
3293
  8
241
 10
19.247599999999998
 20
-17.7515
 30
0.0
 70
    32
  0
VERTEX
  5
3294
  8
241
 10
19.260100000000001
 20
-17.722000000000001
 30
0.0
 70
    32
  0
VERTEX
  5
3295
  8
241
 10
19.2727
 20
-17.692499999999999
 30
0.0
 70
    32
  0
VERTEX
  5
3296
  8
241
 10
19.2851
 20
-17.663
 30
0.0
 70
    32
  0
VERTEX
  5
3297
  8
241
 10
19.297599999999999
 20
-17.633500000000002
 30
0.0
 70
    32
  0
VERTEX
  5
3298
  8
241
 10
19.309899999999999
 20
-17.603999999999999
 30
0.0
 70
    32
  0
VERTEX
  5
3299
  8
241
 10
19.322199999999999
 20
-17.5745
 30
0.0
 70
    32
  0
VERTEX
  5
329A
  8
241
 10
19.334499999999998
 20
-17.545000000000002
 30
0.0
 70
    32
  0
VERTEX
  5
329B
  8
241
 10
19.346699999999998
 20
-17.5154
 30
0.0
 70
    32
  0
VERTEX
  5
329C
  8
241
 10
19.358799999999999
 20
-17.485900000000001
 30
0.0
 70
    32
  0
VERTEX
  5
329D
  8
241
 10
19.370899999999999
 20
-17.456299999999999
 30
0.0
 70
    32
  0
VERTEX
  5
329E
  8
241
 10
19.382899999999999
 20
-17.4267
 30
0.0
 70
    32
  0
VERTEX
  5
329F
  8
241
 10
19.3949
 20
-17.397099999999998
 30
0.0
 70
    32
  0
VERTEX
  5
32A0
  8
241
 10
19.4068
 20
-17.3674
 30
0.0
 70
    32
  0
VERTEX
  5
32A1
  8
241
 10
19.418600000000001
 20
-17.337800000000001
 30
0.0
 70
    32
  0
VERTEX
  5
32A2
  8
241
 10
19.430399999999999
 20
-17.308199999999999
 30
0.0
 70
    32
  0
VERTEX
  5
32A3
  8
241
 10
19.4422
 20
-17.278500000000001
 30
0.0
 70
    32
  0
VERTEX
  5
32A4
  8
241
 10
19.453800000000001
 20
-17.248799999999999
 30
0.0
 70
    32
  0
VERTEX
  5
32A5
  8
241
 10
19.465499999999999
 20
-17.219100000000001
 30
0.0
 70
    32
  0
VERTEX
  5
32A6
  8
241
 10
19.477
 20
-17.189399999999999
 30
0.0
 70
    32
  0
VERTEX
  5
32A7
  8
241
 10
19.488499999999998
 20
-17.159700000000001
 30
0.0
 70
    32
  0
VERTEX
  5
32A8
  8
241
 10
19.5
 20
-17.129899999999999
 30
0.0
 70
    32
  0
SEQEND
  5
32A9
  8
241
  0
LINE
  5
32AA
  8
240
 10
19.963961443863809
 20
-19.211161881685278
 30
0.0
 11
19.963961443863809
 21
-20.62537521123889
 31
0.0
  0
LINE
  5
32AB
  8
240
 10
19.500000402331349
 20
-18.74720118939879
 30
0.0
 11
19.500000402331349
 21
-11.84370662236342
 31
0.0
  0
LINE
  5
32AC
  8
240
 10
19.500000402331349
 20
-18.74720118939879
 30
0.0
 11
19.963961443863809
 21
-19.211161881685278
 31
0.0
  0
POLYLINE
  5
32AD
  8
241
 66
     1
 10
0.0
 20
0.0
 30
0.0
 70
     8
  0
VERTEX
  5
32AE
  8
241
 10
16.300000000000001
 20
-15.0518
 30
0.0
 70
    32
  0
VERTEX
  5
32AF
  8
241
 10
16.312799999999999
 20
-15.047800000000001
 30
0.0
 70
    32
  0
VERTEX
  5
32B0
  8
241
 10
16.325600000000001
 20
-15.043799999999999
 30
0.0
 70
    32
  0
VERTEX
  5
32B1
  8
241
 10
16.3383
 20
-15.0398
 30
0.0
 70
    32
  0
VERTEX
  5
32B2
  8
241
 10
16.351099999999999
 20
-15.0358
 30
0.0
 70
    32
  0
VERTEX
  5
32B3
  8
241
 10
16.363800000000001
 20
-15.031700000000001
 30
0.0
 70
    32
  0
VERTEX
  5
32B4
  8
241
 10
16.3765
 20
-15.027699999999999
 30
0.0
 70
    32
  0
VERTEX
  5
32B5
  8
241
 10
16.389299999999999
 20
-15.0237
 30
0.0
 70
    32
  0
VERTEX
  5
32B6
  8
241
 10
16.402000000000001
 20
-15.0197
 30
0.0
 70
    32
  0
VERTEX
  5
32B7
  8
241
 10
16.4147
 20
-15.015599999999999
 30
0.0
 70
    32
  0
VERTEX
  5
32B8
  8
241
 10
16.427299999999999
 20
-15.0116
 30
0.0
 70
    32
  0
VERTEX
  5
32B9
  8
241
 10
16.440000000000001
 20
-15.0076
 30
0.0
 70
    32
  0
VERTEX
  5
32BA
  8
241
 10
16.4527
 20
-15.0036
 30
0.0
 70
    32
  0
VERTEX
  5
32BB
  8
241
 10
16.465399999999999
 20
-14.999499999999999
 30
0.0
 70
    32
  0
VERTEX
  5
32BC
  8
241
 10
16.478000000000002
 20
-14.9955
 30
0.0
 70
    32
  0
VERTEX
  5
32BD
  8
241
 10
16.490600000000001
 20
-14.991400000000001
 30
0.0
 70
    32
  0
VERTEX
  5
32BE
  8
241
 10
16.503299999999999
 20
-14.987399999999999
 30
0.0
 70
    32
  0
VERTEX
  5
32BF
  8
241
 10
16.515899999999998
 20
-14.9834
 30
0.0
 70
    32
  0
VERTEX
  5
32C0
  8
241
 10
16.528500000000001
 20
-14.9793
 30
0.0
 70
    32
  0
VERTEX
  5
32C1
  8
241
 10
16.5411
 20
-14.975300000000001
 30
0.0
 70
    32
  0
VERTEX
  5
32C2
  8
241
 10
16.553699999999999
 20
-14.9712
 30
0.0
 70
    32
  0
VERTEX
  5
32C3
  8
241
 10
16.566199999999998
 20
-14.9672
 30
0.0
 70
    32
  0
VERTEX
  5
32C4
  8
241
 10
16.578800000000001
 20
-14.963100000000001
 30
0.0
 70
    32
  0
VERTEX
  5
32C5
  8
241
 10
16.5914
 20
-14.959099999999999
 30
0.0
 70
    32
  0
VERTEX
  5
32C6
  8
241
 10
16.603899999999999
 20
-14.955
 30
0.0
 70
    32
  0
VERTEX
  5
32C7
  8
241
 10
16.616499999999998
 20
-14.950900000000001
 30
0.0
 70
    32
  0
VERTEX
  5
32C8
  8
241
 10
16.629000000000001
 20
-14.946899999999999
 30
0.0
 70
    32
  0
VERTEX
  5
32C9
  8
241
 10
16.641500000000001
 20
-14.9428
 30
0.0
 70
    32
  0
VERTEX
  5
32CA
  8
241
 10
16.654
 20
-14.938800000000001
 30
0.0
 70
    32
  0
VERTEX
  5
32CB
  8
241
 10
16.666499999999999
 20
-14.934699999999999
 30
0.0
 70
    32
  0
VERTEX
  5
32CC
  8
241
 10
16.678999999999998
 20
-14.9306
 30
0.0
 70
    32
  0
VERTEX
  5
32CD
  8
241
 10
16.691500000000001
 20
-14.926500000000001
 30
0.0
 70
    32
  0
VERTEX
  5
32CE
  8
241
 10
16.703900000000001
 20
-14.922499999999999
 30
0.0
 70
    32
  0
VERTEX
  5
32CF
  8
241
 10
16.7164
 20
-14.9184
 30
0.0
 70
    32
  0
VERTEX
  5
32D0
  8
241
 10
16.7288
 20
-14.914300000000001
 30
0.0
 70
    32
  0
VERTEX
  5
32D1
  8
241
 10
16.741299999999999
 20
-14.910299999999999
 30
0.0
 70
    32
  0
VERTEX
  5
32D2
  8
241
 10
16.753699999999998
 20
-14.9062
 30
0.0
 70
    32
  0
VERTEX
  5
32D3
  8
241
 10
16.766100000000002
 20
-14.902100000000001
 30
0.0
 70
    32
  0
VERTEX
  5
32D4
  8
241
 10
16.778500000000001
 20
-14.898
 30
0.0
 70
    32
  0
VERTEX
  5
32D5
  8
241
 10
16.791
 20
-14.8939
 30
0.0
 70
    32
  0
VERTEX
  5
32D6
  8
241
 10
16.8033
 20
-14.889900000000001
 30
0.0
 70
    32
  0
VERTEX
  5
32D7
  8
241
 10
16.8157
 20
-14.8858
 30
0.0
 70
    32
  0
VERTEX
  5
32D8
  8
241
 10
16.828099999999999
 20
-14.8817
 30
0.0
 70
    32
  0
VERTEX
  5
32D9
  8
241
 10
16.840499999999999
 20
-14.877599999999999
 30
0.0
 70
    32
  0
VERTEX
  5
32DA
  8
241
 10
16.852799999999998
 20
-14.8735
 30
0.0
 70
    32
  0
VERTEX
  5
32DB
  8
241
 10
16.865200000000002
 20
-14.869400000000001
 30
0.0
 70
    32
  0
VERTEX
  5
32DC
  8
241
 10
16.877500000000001
 20
-14.8653
 30
0.0
 70
    32
  0
VERTEX
  5
32DD
  8
241
 10
16.889800000000001
 20
-14.8612
 30
0.0
 70
    32
  0
VERTEX
  5
32DE
  8
241
 10
16.902200000000001
 20
-14.857200000000001
 30
0.0
 70
    32
  0
VERTEX
  5
32DF
  8
241
 10
16.9145
 20
-14.8531
 30
0.0
 70
    32
  0
VERTEX
  5
32E0
  8
241
 10
16.9268
 20
-14.849
 30
0.0
 70
    32
  0
VERTEX
  5
32E1
  8
241
 10
16.9391
 20
-14.844900000000001
 30
0.0
 70
    32
  0
VERTEX
  5
32E2
  8
241
 10
16.9513
 20
-14.8408
 30
0.0
 70
    32
  0
VERTEX
  5
32E3
  8
241
 10
16.9636
 20
-14.8367
 30
0.0
 70
    32
  0
VERTEX
  5
32E4
  8
241
 10
16.975899999999999
 20
-14.832599999999999
 30
0.0
 70
    32
  0
VERTEX
  5
32E5
  8
241
 10
16.988099999999999
 20
-14.8285
 30
0.0
 70
    32
  0
VERTEX
  5
32E6
  8
241
 10
17.000399999999999
 20
-14.824400000000001
 30
0.0
 70
    32
  0
VERTEX
  5
32E7
  8
241
 10
17.012599999999999
 20
-14.8203
 30
0.0
 70
    32
  0
VERTEX
  5
32E8
  8
241
 10
17.024799999999999
 20
-14.8162
 30
0.0
 70
    32
  0
VERTEX
  5
32E9
  8
241
 10
17.037099999999999
 20
-14.812099999999999
 30
0.0
 70
    32
  0
VERTEX
  5
32EA
  8
241
 10
17.049299999999999
 20
-14.808
 30
0.0
 70
    32
  0
VERTEX
  5
32EB
  8
241
 10
17.061499999999999
 20
-14.803900000000001
 30
0.0
 70
    32
  0
VERTEX
  5
32EC
  8
241
 10
17.073699999999999
 20
-14.799799999999999
 30
0.0
 70
    32
  0
VERTEX
  5
32ED
  8
241
 10
17.085899999999999
 20
-14.7957
 30
0.0
 70
    32
  0
VERTEX
  5
32EE
  8
241
 10
17.097999999999999
 20
-14.791600000000001
 30
0.0
 70
    32
  0
VERTEX
  5
32EF
  8
241
 10
17.110199999999999
 20
-14.7875
 30
0.0
 70
    32
  0
VERTEX
  5
32F0
  8
241
 10
17.122399999999999
 20
-14.7834
 30
0.0
 70
    32
  0
VERTEX
  5
32F1
  8
241
 10
17.134499999999999
 20
-14.779299999999999
 30
0.0
 70
    32
  0
VERTEX
  5
32F2
  8
241
 10
17.146699999999999
 20
-14.7752
 30
0.0
 70
    32
  0
VERTEX
  5
32F3
  8
241
 10
17.158799999999999
 20
-14.771000000000001
 30
0.0
 70
    32
  0
VERTEX
  5
32F4
  8
241
 10
17.1709
 20
-14.7669
 30
0.0
 70
    32
  0
VERTEX
  5
32F5
  8
241
 10
17.183
 20
-14.7628
 30
0.0
 70
    32
  0
VERTEX
  5
32F6
  8
241
 10
17.1952
 20
-14.758699999999999
 30
0.0
 70
    32
  0
VERTEX
  5
32F7
  8
241
 10
17.2073
 20
-14.7546
 30
0.0
 70
    32
  0
VERTEX
  5
32F8
  8
241
 10
17.2194
 20
-14.750500000000001
 30
0.0
 70
    32
  0
VERTEX
  5
32F9
  8
241
 10
17.231400000000001
 20
-14.7464
 30
0.0
 70
    32
  0
VERTEX
  5
32FA
  8
241
 10
17.243500000000001
 20
-14.7423
 30
0.0
 70
    32
  0
VERTEX
  5
32FB
  8
241
 10
17.255600000000001
 20
-14.738200000000001
 30
0.0
 70
    32
  0
VERTEX
  5
32FC
  8
241
 10
17.267600000000002
 20
-14.7341
 30
0.0
 70
    32
  0
VERTEX
  5
32FD
  8
241
 10
17.279699999999998
 20
-14.73
 30
0.0
 70
    32
  0
VERTEX
  5
32FE
  8
241
 10
17.291699999999999
 20
-14.725899999999999
 30
0.0
 70
    32
  0
VERTEX
  5
32FF
  8
241
 10
17.303799999999999
 20
-14.7218
 30
0.0
 70
    32
  0
VERTEX
  5
3300
  8
241
 10
17.315799999999999
 20
-14.717599999999999
 30
0.0
 70
    32
  0
VERTEX
  5
3301
  8
241
 10
17.3278
 20
-14.7135
 30
0.0
 70
    32
  0
VERTEX
  5
3302
  8
241
 10
17.3398
 20
-14.7094
 30
0.0
 70
    32
  0
VERTEX
  5
3303
  8
241
 10
17.351800000000001
 20
-14.705299999999999
 30
0.0
 70
    32
  0
VERTEX
  5
3304
  8
241
 10
17.363800000000001
 20
-14.7012
 30
0.0
 70
    32
  0
VERTEX
  5
3305
  8
241
 10
17.375800000000002
 20
-14.697100000000001
 30
0.0
 70
    32
  0
VERTEX
  5
3306
  8
241
 10
17.387799999999999
 20
-14.693
 30
0.0
 70
    32
  0
VERTEX
  5
3307
  8
241
 10
17.399799999999999
 20
-14.6889
 30
0.0
 70
    32
  0
VERTEX
  5
3308
  8
241
 10
17.4117
 20
-14.684799999999999
 30
0.0
 70
    32
  0
VERTEX
  5
3309
  8
241
 10
17.4237
 20
-14.6807
 30
0.0
 70
    32
  0
VERTEX
  5
330A
  8
241
 10
17.435600000000001
 20
-14.676600000000001
 30
0.0
 70
    32
  0
VERTEX
  5
330B
  8
241
 10
17.447600000000001
 20
-14.672499999999999
 30
0.0
 70
    32
  0
VERTEX
  5
330C
  8
241
 10
17.459499999999998
 20
-14.6684
 30
0.0
 70
    32
  0
VERTEX
  5
330D
  8
241
 10
17.471399999999999
 20
-14.664300000000001
 30
0.0
 70
    32
  0
VERTEX
  5
330E
  8
241
 10
17.4834
 20
-14.6601
 30
0.0
 70
    32
  0
VERTEX
  5
330F
  8
241
 10
17.4953
 20
-14.656000000000001
 30
0.0
 70
    32
  0
VERTEX
  5
3310
  8
241
 10
17.507200000000001
 20
-14.651899999999999
 30
0.0
 70
    32
  0
VERTEX
  5
3311
  8
241
 10
17.519100000000002
 20
-14.6478
 30
0.0
 70
    32
  0
VERTEX
  5
3312
  8
241
 10
17.530999999999999
 20
-14.643700000000001
 30
0.0
 70
    32
  0
VERTEX
  5
3313
  8
241
 10
17.542899999999999
 20
-14.6396
 30
0.0
 70
    32
  0
VERTEX
  5
3314
  8
241
 10
17.5547
 20
-14.6355
 30
0.0
 70
    32
  0
VERTEX
  5
3315
  8
241
 10
17.566600000000001
 20
-14.631399999999999
 30
0.0
 70
    32
  0
VERTEX
  5
3316
  8
241
 10
17.578499999999998
 20
-14.6273
 30
0.0
 70
    32
  0
VERTEX
  5
3317
  8
241
 10
17.590299999999999
 20
-14.623200000000001
 30
0.0
 70
    32
  0
VERTEX
  5
3318
  8
241
 10
17.6022
 20
-14.6191
 30
0.0
 70
    32
  0
VERTEX
  5
3319
  8
241
 10
17.614000000000001
 20
-14.615
 30
0.0
 70
    32
  0
VERTEX
  5
331A
  8
241
 10
17.625900000000001
 20
-14.610900000000001
 30
0.0
 70
    32
  0
VERTEX
  5
331B
  8
241
 10
17.637699999999999
 20
-14.6068
 30
0.0
 70
    32
  0
VERTEX
  5
331C
  8
241
 10
17.6496
 20
-14.6027
 30
0.0
 70
    32
  0
VERTEX
  5
331D
  8
241
 10
17.6614
 20
-14.598599999999999
 30
0.0
 70
    32
  0
VERTEX
  5
331E
  8
241
 10
17.673200000000001
 20
-14.5945
 30
0.0
 70
    32
  0
VERTEX
  5
331F
  8
241
 10
17.684999999999999
 20
-14.590400000000001
 30
0.0
 70
    32
  0
VERTEX
  5
3320
  8
241
 10
17.6968
 20
-14.5863
 30
0.0
 70
    32
  0
VERTEX
  5
3321
  8
241
 10
17.708600000000001
 20
-14.5822
 30
0.0
 70
    32
  0
VERTEX
  5
3322
  8
241
 10
17.720400000000001
 20
-14.578099999999999
 30
0.0
 70
    32
  0
VERTEX
  5
3323
  8
241
 10
17.732099999999999
 20
-14.574
 30
0.0
 70
    32
  0
VERTEX
  5
3324
  8
241
 10
17.7439
 20
-14.569900000000001
 30
0.0
 70
    32
  0
VERTEX
  5
3325
  8
241
 10
17.755700000000001
 20
-14.565799999999999
 30
0.0
 70
    32
  0
VERTEX
  5
3326
  8
241
 10
17.767399999999999
 20
-14.5617
 30
0.0
 70
    32
  0
VERTEX
  5
3327
  8
241
 10
17.779199999999999
 20
-14.557700000000001
 30
0.0
 70
    32
  0
VERTEX
  5
3328
  8
241
 10
17.790900000000001
 20
-14.553599999999999
 30
0.0
 70
    32
  0
VERTEX
  5
3329
  8
241
 10
17.802600000000002
 20
-14.5495
 30
0.0
 70
    32
  0
VERTEX
  5
332A
  8
241
 10
17.814399999999999
 20
-14.545400000000001
 30
0.0
 70
    32
  0
VERTEX
  5
332B
  8
241
 10
17.8261
 20
-14.5413
 30
0.0
 70
    32
  0
VERTEX
  5
332C
  8
241
 10
17.837800000000001
 20
-14.5372
 30
0.0
 70
    32
  0
VERTEX
  5
332D
  8
241
 10
17.849499999999999
 20
-14.533200000000001
 30
0.0
 70
    32
  0
VERTEX
  5
332E
  8
241
 10
17.8612
 20
-14.5291
 30
0.0
 70
    32
  0
VERTEX
  5
332F
  8
241
 10
17.872900000000001
 20
-14.525
 30
0.0
 70
    32
  0
VERTEX
  5
3330
  8
241
 10
17.884499999999999
 20
-14.520899999999999
 30
0.0
 70
    32
  0
VERTEX
  5
3331
  8
241
 10
17.8962
 20
-14.5169
 30
0.0
 70
    32
  0
VERTEX
  5
3332
  8
241
 10
17.907900000000001
 20
-14.5128
 30
0.0
 70
    32
  0
VERTEX
  5
3333
  8
241
 10
17.919499999999999
 20
-14.508699999999999
 30
0.0
 70
    32
  0
VERTEX
  5
3334
  8
241
 10
17.9312
 20
-14.5047
 30
0.0
 70
    32
  0
VERTEX
  5
3335
  8
241
 10
17.942799999999991
 20
-14.5006
 30
0.0
 70
    32
  0
VERTEX
  5
3336
  8
241
 10
17.9544
 20
-14.496499999999999
 30
0.0
 70
    32
  0
VERTEX
  5
3337
  8
241
 10
17.966000000000001
 20
-14.4925
 30
0.0
 70
    32
  0
VERTEX
  5
3338
  8
241
 10
17.977699999999999
 20
-14.4884
 30
0.0
 70
    32
  0
VERTEX
  5
3339
  8
241
 10
17.9893
 20
-14.484400000000001
 30
0.0
 70
    32
  0
VERTEX
  5
333A
  8
241
 10
18.000800000000002
 20
-14.4803
 30
0.0
 70
    32
  0
VERTEX
  5
333B
  8
241
 10
18.0124
 20
-14.4763
 30
0.0
 70
    32
  0
VERTEX
  5
333C
  8
241
 10
18.024000000000001
 20
-14.472200000000001
 30
0.0
 70
    32
  0
VERTEX
  5
333D
  8
241
 10
18.035599999999999
 20
-14.4682
 30
0.0
 70
    32
  0
VERTEX
  5
333E
  8
241
 10
18.0471
 20
-14.4641
 30
0.0
 70
    32
  0
VERTEX
  5
333F
  8
241
 10
18.058700000000002
 20
-14.460100000000001
 30
0.0
 70
    32
  0
VERTEX
  5
3340
  8
241
 10
18.0702
 20
-14.456099999999999
 30
0.0
 70
    32
  0
VERTEX
  5
3341
  8
241
 10
18.081700000000001
 20
-14.452
 30
0.0
 70
    32
  0
VERTEX
  5
3342
  8
241
 10
18.093299999999999
 20
-14.448
 30
0.0
 70
    32
  0
VERTEX
  5
3343
  8
241
 10
18.104800000000001
 20
-14.444000000000001
 30
0.0
 70
    32
  0
VERTEX
  5
3344
  8
241
 10
18.116299999999999
 20
-14.4399
 30
0.0
 70
    32
  0
VERTEX
  5
3345
  8
241
 10
18.127800000000001
 20
-14.4359
 30
0.0
 70
    32
  0
VERTEX
  5
3346
  8
241
 10
18.139299999999999
 20
-14.431900000000001
 30
0.0
 70
    32
  0
VERTEX
  5
3347
  8
241
 10
18.150700000000001
 20
-14.427899999999999
 30
0.0
 70
    32
  0
VERTEX
  5
3348
  8
241
 10
18.162199999999999
 20
-14.4239
 30
0.0
 70
    32
  0
VERTEX
  5
3349
  8
241
 10
18.1736
 20
-14.4199
 30
0.0
 70
    32
  0
VERTEX
  5
334A
  8
241
 10
18.185099999999998
 20
-14.415900000000001
 30
0.0
 70
    32
  0
VERTEX
  5
334B
  8
241
 10
18.1965
 20
-14.411899999999999
 30
0.0
 70
    32
  0
VERTEX
  5
334C
  8
241
 10
18.207999999999998
 20
-14.4079
 30
0.0
 70
    32
  0
VERTEX
  5
334D
  8
241
 10
18.2194
 20
-14.4039
 30
0.0
 70
    32
  0
VERTEX
  5
334E
  8
241
 10
18.230799999999999
 20
-14.399900000000001
 30
0.0
 70
    32
  0
VERTEX
  5
334F
  8
241
 10
18.2422
 20
-14.395899999999999
 30
0.0
 70
    32
  0
VERTEX
  5
3350
  8
241
 10
18.253599999999999
 20
-14.3919
 30
0.0
 70
    32
  0
VERTEX
  5
3351
  8
241
 10
18.264900000000001
 20
-14.388
 30
0.0
 70
    32
  0
VERTEX
  5
3352
  8
241
 10
18.276299999999999
 20
-14.384
 30
0.0
 70
    32
  0
VERTEX
  5
3353
  8
241
 10
18.287700000000001
 20
-14.380000000000001
 30
0.0
 70
    32
  0
VERTEX
  5
3354
  8
241
 10
18.298999999999999
 20
-14.376099999999999
 30
0.0
 70
    32
  0
VERTEX
  5
3355
  8
241
 10
18.310400000000001
 20
-14.3721
 30
0.0
 70
    32
  0
VERTEX
  5
3356
  8
241
 10
18.3217
 20
-14.3681
 30
0.0
 70
    32
  0
VERTEX
  5
3357
  8
241
 10
18.332999999999998
 20
-14.3642
 30
0.0
 70
    32
  0
VERTEX
  5
3358
  8
241
 10
18.3443
 20
-14.360200000000001
 30
0.0
 70
    32
  0
VERTEX
  5
3359
  8
241
 10
18.355599999999999
 20
-14.356299999999999
 30
0.0
 70
    32
  0
VERTEX
  5
335A
  8
241
 10
18.366900000000001
 20
-14.352399999999999
 30
0.0
 70
    32
  0
VERTEX
  5
335B
  8
241
 10
18.3782
 20
-14.3484
 30
0.0
 70
    32
  0
VERTEX
  5
335C
  8
241
 10
18.389399999999998
 20
-14.3445
 30
0.0
 70
    32
  0
VERTEX
  5
335D
  8
241
 10
18.400700000000001
 20
-14.3406
 30
0.0
 70
    32
  0
VERTEX
  5
335E
  8
241
 10
18.411899999999999
 20
-14.3367
 30
0.0
 70
    32
  0
VERTEX
  5
335F
  8
241
 10
18.423100000000002
 20
-14.332700000000001
 30
0.0
 70
    32
  0
VERTEX
  5
3360
  8
241
 10
18.4344
 20
-14.328799999999999
 30
0.0
 70
    32
  0
VERTEX
  5
3361
  8
241
 10
18.445599999999999
 20
-14.3249
 30
0.0
 70
    32
  0
VERTEX
  5
3362
  8
241
 10
18.456800000000001
 20
-14.321
 30
0.0
 70
    32
  0
VERTEX
  5
3363
  8
241
 10
18.468
 20
-14.3171
 30
0.0
 70
    32
  0
VERTEX
  5
3364
  8
241
 10
18.479099999999999
 20
-14.3132
 30
0.0
 70
    32
  0
VERTEX
  5
3365
  8
241
 10
18.490300000000001
 20
-14.3094
 30
0.0
 70
    32
  0
VERTEX
  5
3366
  8
241
 10
18.5015
 20
-14.3055
 30
0.0
 70
    32
  0
VERTEX
  5
3367
  8
241
 10
18.512599999999999
 20
-14.301600000000001
 30
0.0
 70
    32
  0
VERTEX
  5
3368
  8
241
 10
18.523700000000002
 20
-14.297700000000001
 30
0.0
 70
    32
  0
VERTEX
  5
3369
  8
241
 10
18.5349
 20
-14.293900000000001
 30
0.0
 70
    32
  0
VERTEX
  5
336A
  8
241
 10
18.545999999999999
 20
-14.289999999999999
 30
0.0
 70
    32
  0
VERTEX
  5
336B
  8
241
 10
18.557099999999998
 20
-14.286199999999999
 30
0.0
 70
    32
  0
VERTEX
  5
336C
  8
241
 10
18.568200000000001
 20
-14.282299999999999
 30
0.0
 70
    32
  0
VERTEX
  5
336D
  8
241
 10
18.5792
 20
-14.278499999999999
 30
0.0
 70
    32
  0
SEQEND
  5
336E
  8
241
  0
POLYLINE
  5
336F
  8
241
 66
     1
 10
0.0
 20
0.0
 30
0.0
 70
     8
  0
VERTEX
  5
3370
  8
241
 10
19.5
 20
-15.744400000000001
 30
0.0
 70
    32
  0
VERTEX
  5
3371
  8
241
 10
19.492999999999999
 20
-15.7311
 30
0.0
 70
    32
  0
VERTEX
  5
3372
  8
241
 10
19.4861
 20
-15.717700000000001
 30
0.0
 70
    32
  0
VERTEX
  5
3373
  8
241
 10
19.479099999999999
 20
-15.704499999999999
 30
0.0
 70
    32
  0
VERTEX
  5
3374
  8
241
 10
19.472100000000001
 20
-15.6912
 30
0.0
 70
    32
  0
VERTEX
  5
3375
  8
241
 10
19.4651
 20
-15.678000000000001
 30
0.0
 70
    32
  0
VERTEX
  5
3376
  8
241
 10
19.458200000000001
 20
-15.6648
 30
0.0
 70
    32
  0
VERTEX
  5
3377
  8
241
 10
19.4512
 20
-15.6516
 30
0.0
 70
    32
  0
VERTEX
  5
3378
  8
241
 10
19.444199999999999
 20
-15.638500000000001
 30
0.0
 70
    32
  0
VERTEX
  5
3379
  8
241
 10
19.437200000000001
 20
-15.625400000000001
 30
0.0
 70
    32
  0
VERTEX
  5
337A
  8
241
 10
19.430199999999999
 20
-15.612299999999999
 30
0.0
 70
    32
  0
VERTEX
  5
337B
  8
241
 10
19.423200000000001
 20
-15.599299999999999
 30
0.0
 70
    32
  0
VERTEX
  5
337C
  8
241
 10
19.4162
 20
-15.5862
 30
0.0
 70
    32
  0
VERTEX
  5
337D
  8
241
 10
19.409199999999998
 20
-15.5732
 30
0.0
 70
    32
  0
VERTEX
  5
337E
  8
241
 10
19.402200000000001
 20
-15.5603
 30
0.0
 70
    32
  0
VERTEX
  5
337F
  8
241
 10
19.395099999999999
 20
-15.5474
 30
0.0
 70
    32
  0
VERTEX
  5
3380
  8
241
 10
19.388100000000001
 20
-15.5345
 30
0.0
 70
    32
  0
VERTEX
  5
3381
  8
241
 10
19.3811
 20
-15.521599999999999
 30
0.0
 70
    32
  0
VERTEX
  5
3382
  8
241
 10
19.374099999999999
 20
-15.508699999999999
 30
0.0
 70
    32
  0
VERTEX
  5
3383
  8
241
 10
19.367000000000001
 20
-15.495900000000001
 30
0.0
 70
    32
  0
VERTEX
  5
3384
  8
241
 10
19.359999999999999
 20
-15.4831
 30
0.0
 70
    32
  0
VERTEX
  5
3385
  8
241
 10
19.352900000000002
 20
-15.4704
 30
0.0
 70
    32
  0
VERTEX
  5
3386
  8
241
 10
19.3459
 20
-15.457700000000001
 30
0.0
 70
    32
  0
VERTEX
  5
3387
  8
241
 10
19.338799999999999
 20
-15.445
 30
0.0
 70
    32
  0
VERTEX
  5
3388
  8
241
 10
19.331800000000001
 20
-15.4323
 30
0.0
 70
    32
  0
VERTEX
  5
3389
  8
241
 10
19.3247
 20
-15.419700000000001
 30
0.0
 70
    32
  0
VERTEX
  5
338A
  8
241
 10
19.317699999999999
 20
-15.4071
 30
0.0
 70
    32
  0
VERTEX
  5
338B
  8
241
 10
19.310600000000001
 20
-15.394500000000001
 30
0.0
 70
    32
  0
VERTEX
  5
338C
  8
241
 10
19.3035
 20
-15.3819
 30
0.0
 70
    32
  0
VERTEX
  5
338D
  8
241
 10
19.296500000000002
 20
-15.369400000000001
 30
0.0
 70
    32
  0
VERTEX
  5
338E
  8
241
 10
19.289400000000001
 20
-15.3569
 30
0.0
 70
    32
  0
VERTEX
  5
338F
  8
241
 10
19.282299999999999
 20
-15.3445
 30
0.0
 70
    32
  0
VERTEX
  5
3390
  8
241
 10
19.275200000000002
 20
-15.332000000000001
 30
0.0
 70
    32
  0
VERTEX
  5
3391
  8
241
 10
19.2681
 20
-15.319599999999999
 30
0.0
 70
    32
  0
VERTEX
  5
3392
  8
241
 10
19.261099999999999
 20
-15.3073
 30
0.0
 70
    32
  0
VERTEX
  5
3393
  8
241
 10
19.254000000000001
 20
-15.2949
 30
0.0
 70
    32
  0
VERTEX
  5
3394
  8
241
 10
19.2469
 20
-15.2826
 30
0.0
 70
    32
  0
VERTEX
  5
3395
  8
241
 10
19.239799999999999
 20
-15.270300000000001
 30
0.0
 70
    32
  0
VERTEX
  5
3396
  8
241
 10
19.232700000000001
 20
-15.258100000000001
 30
0.0
 70
    32
  0
VERTEX
  5
3397
  8
241
 10
19.2255
 20
-15.245799999999999
 30
0.0
 70
    32
  0
VERTEX
  5
3398
  8
241
 10
19.218399999999999
 20
-15.233599999999999
 30
0.0
 70
    32
  0
VERTEX
  5
3399
  8
241
 10
19.211300000000001
 20
-15.221500000000001
 30
0.0
 70
    32
  0
VERTEX
  5
339A
  8
241
 10
19.2042
 20
-15.209300000000001
 30
0.0
 70
    32
  0
VERTEX
  5
339B
  8
241
 10
19.197099999999999
 20
-15.1972
 30
0.0
 70
    32
  0
VERTEX
  5
339C
  8
241
 10
19.189900000000002
 20
-15.1852
 30
0.0
 70
    32
  0
VERTEX
  5
339D
  8
241
 10
19.1828
 20
-15.1731
 30
0.0
 70
    32
  0
VERTEX
  5
339E
  8
241
 10
19.175699999999999
 20
-15.161099999999999
 30
0.0
 70
    32
  0
VERTEX
  5
339F
  8
241
 10
19.168500000000002
 20
-15.149100000000001
 30
0.0
 70
    32
  0
VERTEX
  5
33A0
  8
241
 10
19.1614
 20
-15.1372
 30
0.0
 70
    32
  0
VERTEX
  5
33A1
  8
241
 10
19.154299999999999
 20
-15.1252
 30
0.0
 70
    32
  0
VERTEX
  5
33A2
  8
241
 10
19.147099999999998
 20
-15.113300000000001
 30
0.0
 70
    32
  0
VERTEX
  5
33A3
  8
241
 10
19.140000000000001
 20
-15.1015
 30
0.0
 70
    32
  0
VERTEX
  5
33A4
  8
241
 10
19.1328
 20
-15.089600000000001
 30
0.0
 70
    32
  0
VERTEX
  5
33A5
  8
241
 10
19.125599999999999
 20
-15.0778
 30
0.0
 70
    32
  0
VERTEX
  5
33A6
  8
241
 10
19.118500000000001
 20
-15.0661
 30
0.0
 70
    32
  0
VERTEX
  5
33A7
  8
241
 10
19.1113
 20
-15.0543
 30
0.0
 70
    32
  0
VERTEX
  5
33A8
  8
241
 10
19.104099999999999
 20
-15.0426
 30
0.0
 70
    32
  0
VERTEX
  5
33A9
  8
241
 10
19.097000000000001
 20
-15.030900000000001
 30
0.0
 70
    32
  0
VERTEX
  5
33AA
  8
241
 10
19.0898
 20
-15.0192
 30
0.0
 70
    32
  0
VERTEX
  5
33AB
  8
241
 10
19.082599999999999
 20
-15.0076
 30
0.0
 70
    32
  0
VERTEX
  5
33AC
  8
241
 10
19.075399999999998
 20
-14.996
 30
0.0
 70
    32
  0
VERTEX
  5
33AD
  8
241
 10
19.068200000000001
 20
-14.984500000000001
 30
0.0
 70
    32
  0
VERTEX
  5
33AE
  8
241
 10
19.061
 20
-14.972899999999999
 30
0.0
 70
    32
  0
VERTEX
  5
33AF
  8
241
 10
19.053799999999999
 20
-14.961399999999999
 30
0.0
 70
    32
  0
VERTEX
  5
33B0
  8
241
 10
19.046600000000002
 20
-14.9499
 30
0.0
 70
    32
  0
VERTEX
  5
33B1
  8
241
 10
19.039400000000001
 20
-14.938499999999999
 30
0.0
 70
    32
  0
VERTEX
  5
33B2
  8
241
 10
19.0322
 20
-14.927099999999999
 30
0.0
 70
    32
  0
VERTEX
  5
33B3
  8
241
 10
19.024999999999999
 20
-14.915699999999999
 30
0.0
 70
    32
  0
VERTEX
  5
33B4
  8
241
 10
19.017800000000001
 20
-14.904299999999999
 30
0.0
 70
    32
  0
VERTEX
  5
33B5
  8
241
 10
19.0106
 20
-14.893000000000001
 30
0.0
 70
    32
  0
VERTEX
  5
33B6
  8
241
 10
19.003399999999999
 20
-14.8817
 30
0.0
 70
    32
  0
VERTEX
  5
33B7
  8
241
 10
18.996200000000002
 20
-14.8704
 30
0.0
 70
    32
  0
VERTEX
  5
33B8
  8
241
 10
18.988900000000001
 20
-14.8592
 30
0.0
 70
    32
  0
VERTEX
  5
33B9
  8
241
 10
18.9817
 20
-14.848000000000001
 30
0.0
 70
    32
  0
VERTEX
  5
33BA
  8
241
 10
18.974499999999999
 20
-14.8368
 30
0.0
 70
    32
  0
VERTEX
  5
33BB
  8
241
 10
18.967199999999998
 20
-14.825699999999999
 30
0.0
 70
    32
  0
VERTEX
  5
33BC
  8
241
 10
18.960000000000001
 20
-14.8146
 30
0.0
 70
    32
  0
VERTEX
  5
33BD
  8
241
 10
18.9528
 20
-14.8035
 30
0.0
 70
    32
  0
VERTEX
  5
33BE
  8
241
 10
18.945499999999999
 20
-14.792400000000001
 30
0.0
 70
    32
  0
VERTEX
  5
33BF
  8
241
 10
18.938300000000002
 20
-14.7814
 30
0.0
 70
    32
  0
VERTEX
  5
33C0
  8
241
 10
18.931000000000001
 20
-14.7704
 30
0.0
 70
    32
  0
VERTEX
  5
33C1
  8
241
 10
18.9238
 20
-14.759399999999999
 30
0.0
 70
    32
  0
VERTEX
  5
33C2
  8
241
 10
18.916499999999999
 20
-14.7485
 30
0.0
 70
    32
  0
VERTEX
  5
33C3
  8
241
 10
18.909199999999998
 20
-14.7376
 30
0.0
 70
    32
  0
VERTEX
  5
33C4
  8
241
 10
18.902000000000001
 20
-14.726699999999999
 30
0.0
 70
    32
  0
VERTEX
  5
33C5
  8
241
 10
18.8947
 20
-14.7159
 30
0.0
 70
    32
  0
VERTEX
  5
33C6
  8
241
 10
18.8874
 20
-14.7051
 30
0.0
 70
    32
  0
VERTEX
  5
33C7
  8
241
 10
18.880199999999999
 20
-14.6943
 30
0.0
 70
    32
  0
VERTEX
  5
33C8
  8
241
 10
18.872900000000001
 20
-14.6835
 30
0.0
 70
    32
  0
VERTEX
  5
33C9
  8
241
 10
18.865600000000001
 20
-14.672800000000001
 30
0.0
 70
    32
  0
VERTEX
  5
33CA
  8
241
 10
18.8583
 20
-14.662100000000001
 30
0.0
 70
    32
  0
VERTEX
  5
33CB
  8
241
 10
18.850999999999999
 20
-14.6515
 30
0.0
 70
    32
  0
VERTEX
  5
33CC
  8
241
 10
18.843699999999998
 20
-14.6408
 30
0.0
 70
    32
  0
VERTEX
  5
33CD
  8
241
 10
18.836500000000001
 20
-14.6302
 30
0.0
 70
    32
  0
VERTEX
  5
33CE
  8
241
 10
18.8292
 20
-14.6197
 30
0.0
 70
    32
  0
VERTEX
  5
33CF
  8
241
 10
18.821899999999999
 20
-14.6091
 30
0.0
 70
    32
  0
VERTEX
  5
33D0
  8
241
 10
18.814599999999999
 20
-14.598599999999999
 30
0.0
 70
    32
  0
VERTEX
  5
33D1
  8
241
 10
18.807200000000002
 20
-14.588100000000001
 30
0.0
 70
    32
  0
VERTEX
  5
33D2
  8
241
 10
18.799900000000001
 20
-14.5777
 30
0.0
 70
    32
  0
VERTEX
  5
33D3
  8
241
 10
18.7926
 20
-14.567299999999999
 30
0.0
 70
    32
  0
VERTEX
  5
33D4
  8
241
 10
18.785299999999999
 20
-14.556900000000001
 30
0.0
 70
    32
  0
VERTEX
  5
33D5
  8
241
 10
18.777999999999999
 20
-14.5465
 30
0.0
 70
    32
  0
VERTEX
  5
33D6
  8
241
 10
18.770700000000001
 20
-14.536199999999999
 30
0.0
 70
    32
  0
VERTEX
  5
33D7
  8
241
 10
18.763300000000001
 20
-14.5259
 30
0.0
 70
    32
  0
VERTEX
  5
33D8
  8
241
 10
18.756
 20
-14.515599999999999
 30
0.0
 70
    32
  0
VERTEX
  5
33D9
  8
241
 10
18.748699999999999
 20
-14.5054
 30
0.0
 70
    32
  0
VERTEX
  5
33DA
  8
241
 10
18.741299999999999
 20
-14.495200000000001
 30
0.0
 70
    32
  0
VERTEX
  5
33DB
  8
241
 10
18.734000000000002
 20
-14.484999999999999
 30
0.0
 70
    32
  0
VERTEX
  5
33DC
  8
241
 10
18.726700000000001
 20
-14.4749
 30
0.0
 70
    32
  0
VERTEX
  5
33DD
  8
241
 10
18.7193
 20
-14.4648
 30
0.0
 70
    32
  0
VERTEX
  5
33DE
  8
241
 10
18.712
 20
-14.454700000000001
 30
0.0
 70
    32
  0
VERTEX
  5
33DF
  8
241
 10
18.704599999999999
 20
-14.444599999999999
 30
0.0
 70
    32
  0
VERTEX
  5
33E0
  8
241
 10
18.697299999999998
 20
-14.4346
 30
0.0
 70
    32
  0
VERTEX
  5
33E1
  8
241
 10
18.689900000000002
 20
-14.4246
 30
0.0
 70
    32
  0
VERTEX
  5
33E2
  8
241
 10
18.682600000000001
 20
-14.4147
 30
0.0
 70
    32
  0
VERTEX
  5
33E3
  8
241
 10
18.6752
 20
-14.4047
 30
0.0
 70
    32
  0
VERTEX
  5
33E4
  8
241
 10
18.6678
 20
-14.3948
 30
0.0
 70
    32
  0
VERTEX
  5
33E5
  8
241
 10
18.660499999999999
 20
-14.385
 30
0.0
 70
    32
  0
VERTEX
  5
33E6
  8
241
 10
18.653099999999998
 20
-14.3751
 30
0.0
 70
    32
  0
VERTEX
  5
33E7
  8
241
 10
18.645700000000001
 20
-14.3653
 30
0.0
 70
    32
  0
VERTEX
  5
33E8
  8
241
 10
18.638400000000001
 20
-14.355600000000001
 30
0.0
 70
    32
  0
VERTEX
  5
33E9
  8
241
 10
18.631
 20
-14.345800000000001
 30
0.0
 70
    32
  0
VERTEX
  5
33EA
  8
241
 10
18.6236
 20
-14.3361
 30
0.0
 70
    32
  0
VERTEX
  5
33EB
  8
241
 10
18.616199999999999
 20
-14.3264
 30
0.0
 70
    32
  0
VERTEX
  5
33EC
  8
241
 10
18.608799999999999
 20
-14.316800000000001
 30
0.0
 70
    32
  0
VERTEX
  5
33ED
  8
241
 10
18.601400000000002
 20
-14.3072
 30
0.0
 70
    32
  0
VERTEX
  5
33EE
  8
241
 10
18.594000000000001
 20
-14.297599999999999
 30
0.0
 70
    32
  0
VERTEX
  5
33EF
  8
241
 10
18.586600000000001
 20
-14.288
 30
0.0
 70
    32
  0
VERTEX
  5
33F0
  8
241
 10
18.5792
 20
-14.278499999999999
 30
0.0
 70
    32
  0
SEQEND
  5
33F1
  8
241
  0
LINE
  5
33F2
  8
240
 10
19.963961443863809
 20
-10.90461947023871
 30
0.0
 11
19.57350652810419
 21
-8.1521579995751665
 31
0.0
  0
LINE
  5
33F3
  8
241
 10
19.86353678512387
 20
-10.903024114668399
 30
0.0
 11
19.963961443863809
 21
-11.611726135015511
 31
0.0
  0
POLYLINE
  5
33F4
  8
241
 66
     1
 10
0.0
 20
0.0
 30
0.0
 70
     8
  0
VERTEX
  5
33F5
  8
241
 10
19.1327
 20
-13.194900000000001
 30
0.0
 70
    32
  0
VERTEX
  5
33F6
  8
241
 10
19.134399999999999
 20
-13.1881
 30
0.0
 70
    32
  0
VERTEX
  5
33F7
  8
241
 10
19.136099999999999
 20
-13.1812
 30
0.0
 70
    32
  0
VERTEX
  5
33F8
  8
241
 10
19.137699999999999
 20
-13.1744
 30
0.0
 70
    32
  0
VERTEX
  5
33F9
  8
241
 10
19.139399999999998
 20
-13.1675
 30
0.0
 70
    32
  0
VERTEX
  5
33FA
  8
241
 10
19.141100000000002
 20
-13.1607
 30
0.0
 70
    32
  0
VERTEX
  5
33FB
  8
241
 10
19.142700000000001
 20
-13.1539
 30
0.0
 70
    32
  0
VERTEX
  5
33FC
  8
241
 10
19.144300000000001
 20
-13.147
 30
0.0
 70
    32
  0
VERTEX
  5
33FD
  8
241
 10
19.146000000000001
 20
-13.1402
 30
0.0
 70
    32
  0
VERTEX
  5
33FE
  8
241
 10
19.147600000000001
 20
-13.1333
 30
0.0
 70
    32
  0
VERTEX
  5
33FF
  8
241
 10
19.1492
 20
-13.1265
 30
0.0
 70
    32
  0
VERTEX
  5
3400
  8
241
 10
19.1509
 20
-13.1197
 30
0.0
 70
    32
  0
VERTEX
  5
3401
  8
241
 10
19.1525
 20
-13.1128
 30
0.0
 70
    32
  0
VERTEX
  5
3402
  8
241
 10
19.1541
 20
-13.106
 30
0.0
 70
    32
  0
VERTEX
  5
3403
  8
241
 10
19.1557
 20
-13.0991
 30
0.0
 70
    32
  0
VERTEX
  5
3404
  8
241
 10
19.157299999999999
 20
-13.0923
 30
0.0
 70
    32
  0
VERTEX
  5
3405
  8
241
 10
19.158899999999999
 20
-13.0855
 30
0.0
 70
    32
  0
VERTEX
  5
3406
  8
241
 10
19.160499999999999
 20
-13.0786
 30
0.0
 70
    32
  0
VERTEX
  5
3407
  8
241
 10
19.162099999999999
 20
-13.0718
 30
0.0
 70
    32
  0
VERTEX
  5
3408
  8
241
 10
19.163599999999999
 20
-13.065
 30
0.0
 70
    32
  0
VERTEX
  5
3409
  8
241
 10
19.165199999999999
 20
-13.0581
 30
0.0
 70
    32
  0
VERTEX
  5
340A
  8
241
 10
19.166799999999999
 20
-13.051299999999999
 30
0.0
 70
    32
  0
VERTEX
  5
340B
  8
241
 10
19.168299999999999
 20
-13.044499999999999
 30
0.0
 70
    32
  0
VERTEX
  5
340C
  8
241
 10
19.169899999999998
 20
-13.037699999999999
 30
0.0
 70
    32
  0
VERTEX
  5
340D
  8
241
 10
19.171399999999998
 20
-13.030799999999999
 30
0.0
 70
    32
  0
VERTEX
  5
340E
  8
241
 10
19.172999999999998
 20
-13.023999999999999
 30
0.0
 70
    32
  0
VERTEX
  5
340F
  8
241
 10
19.174499999999998
 20
-13.017200000000001
 30
0.0
 70
    32
  0
VERTEX
  5
3410
  8
241
 10
19.175999999999998
 20
-13.010400000000001
 30
0.0
 70
    32
  0
VERTEX
  5
3411
  8
241
 10
19.177600000000002
 20
-13.0036
 30
0.0
 70
    32
  0
VERTEX
  5
3412
  8
241
 10
19.179099999999998
 20
-12.9968
 30
0.0
 70
    32
  0
VERTEX
  5
3413
  8
241
 10
19.180599999999998
 20
-12.9899
 30
0.0
 70
    32
  0
VERTEX
  5
3414
  8
241
 10
19.182099999999998
 20
-12.9831
 30
0.0
 70
    32
  0
VERTEX
  5
3415
  8
241
 10
19.183599999999998
 20
-12.9763
 30
0.0
 70
    32
  0
VERTEX
  5
3416
  8
241
 10
19.185099999999998
 20
-12.9695
 30
0.0
 70
    32
  0
VERTEX
  5
3417
  8
241
 10
19.186599999999999
 20
-12.9627
 30
0.0
 70
    32
  0
VERTEX
  5
3418
  8
241
 10
19.188099999999999
 20
-12.9559
 30
0.0
 70
    32
  0
VERTEX
  5
3419
  8
241
 10
19.189599999999999
 20
-12.9491
 30
0.0
 70
    32
  0
VERTEX
  5
341A
  8
241
 10
19.190999999999999
 20
-12.942299999999999
 30
0.0
 70
    32
  0
VERTEX
  5
341B
  8
241
 10
19.192499999999999
 20
-12.935499999999999
 30
0.0
 70
    32
  0
VERTEX
  5
341C
  8
241
 10
19.193999999999999
 20
-12.928800000000001
 30
0.0
 70
    32
  0
VERTEX
  5
341D
  8
241
 10
19.195399999999999
 20
-12.922000000000001
 30
0.0
 70
    32
  0
VERTEX
  5
341E
  8
241
 10
19.196899999999999
 20
-12.9152
 30
0.0
 70
    32
  0
VERTEX
  5
341F
  8
241
 10
19.1983
 20
-12.9084
 30
0.0
 70
    32
  0
VERTEX
  5
3420
  8
241
 10
19.1998
 20
-12.9016
 30
0.0
 70
    32
  0
VERTEX
  5
3421
  8
241
 10
19.2012
 20
-12.8948
 30
0.0
 70
    32
  0
VERTEX
  5
3422
  8
241
 10
19.2026
 20
-12.8881
 30
0.0
 70
    32
  0
VERTEX
  5
3423
  8
241
 10
19.204000000000001
 20
-12.8813
 30
0.0
 70
    32
  0
VERTEX
  5
3424
  8
241
 10
19.205500000000001
 20
-12.874499999999999
 30
0.0
 70
    32
  0
VERTEX
  5
3425
  8
241
 10
19.206900000000001
 20
-12.867800000000001
 30
0.0
 70
    32
  0
VERTEX
  5
3426
  8
241
 10
19.208300000000001
 20
-12.861000000000001
 30
0.0
 70
    32
  0
VERTEX
  5
3427
  8
241
 10
19.209700000000002
 20
-12.8543
 30
0.0
 70
    32
  0
VERTEX
  5
3428
  8
241
 10
19.211099999999998
 20
-12.8475
 30
0.0
 70
    32
  0
VERTEX
  5
3429
  8
241
 10
19.212499999999999
 20
-12.8408
 30
0.0
 70
    32
  0
VERTEX
  5
342A
  8
241
 10
19.213799999999999
 20
-12.834
 30
0.0
 70
    32
  0
VERTEX
  5
342B
  8
241
 10
19.215199999999999
 20
-12.827299999999999
 30
0.0
 70
    32
  0
VERTEX
  5
342C
  8
241
 10
19.2166
 20
-12.820499999999999
 30
0.0
 70
    32
  0
VERTEX
  5
342D
  8
241
 10
19.2179
 20
-12.813800000000001
 30
0.0
 70
    32
  0
VERTEX
  5
342E
  8
241
 10
19.2193
 20
-12.8071
 30
0.0
 70
    32
  0
VERTEX
  5
342F
  8
241
 10
19.220700000000001
 20
-12.8003
 30
0.0
 70
    32
  0
VERTEX
  5
3430
  8
241
 10
19.222000000000001
 20
-12.7936
 30
0.0
 70
    32
  0
VERTEX
  5
3431
  8
241
 10
19.223299999999998
 20
-12.786899999999999
 30
0.0
 70
    32
  0
VERTEX
  5
3432
  8
241
 10
19.224699999999999
 20
-12.780200000000001
 30
0.0
 70
    32
  0
VERTEX
  5
3433
  8
241
 10
19.225999999999999
 20
-12.7735
 30
0.0
 70
    32
  0
VERTEX
  5
3434
  8
241
 10
19.2273
 20
-12.7668
 30
0.0
 70
    32
  0
VERTEX
  5
3435
  8
241
 10
19.2287
 20
-12.7601
 30
0.0
 70
    32
  0
VERTEX
  5
3436
  8
241
 10
19.23
 20
-12.753399999999999
 30
0.0
 70
    32
  0
VERTEX
  5
3437
  8
241
 10
19.231300000000001
 20
-12.746700000000001
 30
0.0
 70
    32
  0
VERTEX
  5
3438
  8
241
 10
19.232600000000001
 20
-12.74
 30
0.0
 70
    32
  0
VERTEX
  5
3439
  8
241
 10
19.233899999999998
 20
-12.7333
 30
0.0
 70
    32
  0
VERTEX
  5
343A
  8
241
 10
19.235199999999999
 20
-12.726599999999999
 30
0.0
 70
    32
  0
VERTEX
  5
343B
  8
241
 10
19.2364
 20
-12.720000000000001
 30
0.0
 70
    32
  0
VERTEX
  5
343C
  8
241
 10
19.2377
 20
-12.7133
 30
0.0
 70
    32
  0
VERTEX
  5
343D
  8
241
 10
19.239000000000001
 20
-12.7066
 30
0.0
 70
    32
  0
VERTEX
  5
343E
  8
241
 10
19.240200000000002
 20
-12.699999999999999
 30
0.0
 70
    32
  0
VERTEX
  5
343F
  8
241
 10
19.241499999999998
 20
-12.693300000000001
 30
0.0
 70
    32
  0
VERTEX
  5
3440
  8
241
 10
19.242799999999999
 20
-12.6867
 30
0.0
 70
    32
  0
VERTEX
  5
3441
  8
241
 10
19.244
 20
-12.68
 30
0.0
 70
    32
  0
VERTEX
  5
3442
  8
241
 10
19.245200000000001
 20
-12.673400000000001
 30
0.0
 70
    32
  0
VERTEX
  5
3443
  8
241
 10
19.246500000000001
 20
-12.6668
 30
0.0
 70
    32
  0
VERTEX
  5
3444
  8
241
 10
19.247699999999998
 20
-12.6601
 30
0.0
 70
    32
  0
VERTEX
  5
3445
  8
241
 10
19.248899999999999
 20
-12.653499999999999
 30
0.0
 70
    32
  0
VERTEX
  5
3446
  8
241
 10
19.2501
 20
-12.6469
 30
0.0
 70
    32
  0
VERTEX
  5
3447
  8
241
 10
19.2514
 20
-12.6403
 30
0.0
 70
    32
  0
VERTEX
  5
3448
  8
241
 10
19.252600000000001
 20
-12.633699999999999
 30
0.0
 70
    32
  0
VERTEX
  5
3449
  8
241
 10
19.253799999999998
 20
-12.6271
 30
0.0
 70
    32
  0
VERTEX
  5
344A
  8
241
 10
19.254899999999999
 20
-12.6205
 30
0.0
 70
    32
  0
VERTEX
  5
344B
  8
241
 10
19.2561
 20
-12.613899999999999
 30
0.0
 70
    32
  0
VERTEX
  5
344C
  8
241
 10
19.257300000000001
 20
-12.6073
 30
0.0
 70
    32
  0
VERTEX
  5
344D
  8
241
 10
19.258500000000002
 20
-12.6007
 30
0.0
 70
    32
  0
VERTEX
  5
344E
  8
241
 10
19.259699999999999
 20
-12.594200000000001
 30
0.0
 70
    32
  0
VERTEX
  5
344F
  8
241
 10
19.2608
 20
-12.5876
 30
0.0
 70
    32
  0
VERTEX
  5
3450
  8
241
 10
19.262
 20
-12.581
 30
0.0
 70
    32
  0
VERTEX
  5
3451
  8
241
 10
19.263100000000001
 20
-12.5745
 30
0.0
 70
    32
  0
VERTEX
  5
3452
  8
241
 10
19.264299999999999
 20
-12.5679
 30
0.0
 70
    32
  0
VERTEX
  5
3453
  8
241
 10
19.2654
 20
-12.561400000000001
 30
0.0
 70
    32
  0
VERTEX
  5
3454
  8
241
 10
19.266500000000001
 20
-12.5549
 30
0.0
 70
    32
  0
VERTEX
  5
3455
  8
241
 10
19.267700000000001
 20
-12.548299999999999
 30
0.0
 70
    32
  0
VERTEX
  5
3456
  8
241
 10
19.268799999999999
 20
-12.5418
 30
0.0
 70
    32
  0
VERTEX
  5
3457
  8
241
 10
19.2699
 20
-12.535299999999999
 30
0.0
 70
    32
  0
VERTEX
  5
3458
  8
241
 10
19.271000000000001
 20
-12.5288
 30
0.0
 70
    32
  0
VERTEX
  5
3459
  8
241
 10
19.272099999999998
 20
-12.5223
 30
0.0
 70
    32
  0
VERTEX
  5
345A
  8
241
 10
19.273199999999999
 20
-12.5158
 30
0.0
 70
    32
  0
VERTEX
  5
345B
  8
241
 10
19.2743
 20
-12.5093
 30
0.0
 70
    32
  0
VERTEX
  5
345C
  8
241
 10
19.275400000000001
 20
-12.502800000000001
 30
0.0
 70
    32
  0
VERTEX
  5
345D
  8
241
 10
19.276499999999999
 20
-12.4963
 30
0.0
 70
    32
  0
VERTEX
  5
345E
  8
241
 10
19.2775
 20
-12.489800000000001
 30
0.0
 70
    32
  0
VERTEX
  5
345F
  8
241
 10
19.278600000000001
 20
-12.4833
 30
0.0
 70
    32
  0
VERTEX
  5
3460
  8
241
 10
19.279699999999998
 20
-12.476800000000001
 30
0.0
 70
    32
  0
VERTEX
  5
3461
  8
241
 10
19.2807
 20
-12.4703
 30
0.0
 70
    32
  0
VERTEX
  5
3462
  8
241
 10
19.2818
 20
-12.463900000000001
 30
0.0
 70
    32
  0
VERTEX
  5
3463
  8
241
 10
19.282800000000002
 20
-12.4574
 30
0.0
 70
    32
  0
VERTEX
  5
3464
  8
241
 10
19.283899999999999
 20
-12.450900000000001
 30
0.0
 70
    32
  0
VERTEX
  5
3465
  8
241
 10
19.2849
 20
-12.4444
 30
0.0
 70
    32
  0
VERTEX
  5
3466
  8
241
 10
19.285900000000002
 20
-12.438000000000001
 30
0.0
 70
    32
  0
VERTEX
  5
3467
  8
241
 10
19.286999999999999
 20
-12.4315
 30
0.0
 70
    32
  0
VERTEX
  5
3468
  8
241
 10
19.288
 20
-12.425000000000001
 30
0.0
 70
    32
  0
VERTEX
  5
3469
  8
241
 10
19.289000000000001
 20
-12.4185
 30
0.0
 70
    32
  0
VERTEX
  5
346A
  8
241
 10
19.289999999999999
 20
-12.412100000000001
 30
0.0
 70
    32
  0
VERTEX
  5
346B
  8
241
 10
19.291
 20
-12.4056
 30
0.0
 70
    32
  0
VERTEX
  5
346C
  8
241
 10
19.292000000000002
 20
-12.399100000000001
 30
0.0
 70
    32
  0
VERTEX
  5
346D
  8
241
 10
19.292999999999999
 20
-12.3927
 30
0.0
 70
    32
  0
VERTEX
  5
346E
  8
241
 10
19.294
 20
-12.386200000000001
 30
0.0
 70
    32
  0
VERTEX
  5
346F
  8
241
 10
19.295000000000002
 20
-12.3797
 30
0.0
 70
    32
  0
VERTEX
  5
3470
  8
241
 10
19.295999999999999
 20
-12.373200000000001
 30
0.0
 70
    32
  0
VERTEX
  5
3471
  8
241
 10
19.296900000000001
 20
-12.3668
 30
0.0
 70
    32
  0
VERTEX
  5
3472
  8
241
 10
19.297899999999998
 20
-12.360300000000001
 30
0.0
 70
    32
  0
VERTEX
  5
3473
  8
241
 10
19.2989
 20
-12.3538
 30
0.0
 70
    32
  0
VERTEX
  5
3474
  8
241
 10
19.299800000000001
 20
-12.347300000000001
 30
0.0
 70
    32
  0
VERTEX
  5
3475
  8
241
 10
19.300799999999999
 20
-12.3408
 30
0.0
 70
    32
  0
VERTEX
  5
3476
  8
241
 10
19.3017
 20
-12.334300000000001
 30
0.0
 70
    32
  0
VERTEX
  5
3477
  8
241
 10
19.302700000000002
 20
-12.3279
 30
0.0
 70
    32
  0
VERTEX
  5
3478
  8
241
 10
19.303599999999999
 20
-12.321400000000001
 30
0.0
 70
    32
  0
VERTEX
  5
3479
  8
241
 10
19.304600000000001
 20
-12.3149
 30
0.0
 70
    32
  0
VERTEX
  5
347A
  8
241
 10
19.305499999999999
 20
-12.308400000000001
 30
0.0
 70
    32
  0
VERTEX
  5
347B
  8
241
 10
19.3064
 20
-12.3019
 30
0.0
 70
    32
  0
VERTEX
  5
347C
  8
241
 10
19.307300000000001
 20
-12.295400000000001
 30
0.0
 70
    32
  0
VERTEX
  5
347D
  8
241
 10
19.308299999999999
 20
-12.2889
 30
0.0
 70
    32
  0
VERTEX
  5
347E
  8
241
 10
19.309200000000001
 20
-12.282299999999999
 30
0.0
 70
    32
  0
VERTEX
  5
347F
  8
241
 10
19.310099999999998
 20
-12.2758
 30
0.0
 70
    32
  0
VERTEX
  5
3480
  8
241
 10
19.311
 20
-12.269299999999999
 30
0.0
 70
    32
  0
VERTEX
  5
3481
  8
241
 10
19.311900000000001
 20
-12.2628
 30
0.0
 70
    32
  0
VERTEX
  5
3482
  8
241
 10
19.312799999999999
 20
-12.2562
 30
0.0
 70
    32
  0
VERTEX
  5
3483
  8
241
 10
19.313600000000001
 20
-12.249700000000001
 30
0.0
 70
    32
  0
VERTEX
  5
3484
  8
241
 10
19.314499999999999
 20
-12.2432
 30
0.0
 70
    32
  0
VERTEX
  5
3485
  8
241
 10
19.3154
 20
-12.236599999999999
 30
0.0
 70
    32
  0
VERTEX
  5
3486
  8
241
 10
19.316299999999998
 20
-12.23
 30
0.0
 70
    32
  0
VERTEX
  5
3487
  8
241
 10
19.3171
 20
-12.2235
 30
0.0
 70
    32
  0
VERTEX
  5
3488
  8
241
 10
19.318000000000001
 20
-12.216900000000001
 30
0.0
 70
    32
  0
VERTEX
  5
3489
  8
241
 10
19.318899999999999
 20
-12.2103
 30
0.0
 70
    32
  0
VERTEX
  5
348A
  8
241
 10
19.319700000000001
 20
-12.203799999999999
 30
0.0
 70
    32
  0
VERTEX
  5
348B
  8
241
 10
19.320599999999999
 20
-12.1972
 30
0.0
 70
    32
  0
VERTEX
  5
348C
  8
241
 10
19.321400000000001
 20
-12.1906
 30
0.0
 70
    32
  0
VERTEX
  5
348D
  8
241
 10
19.322199999999999
 20
-12.183999999999999
 30
0.0
 70
    32
  0
VERTEX
  5
348E
  8
241
 10
19.3231
 20
-12.177300000000001
 30
0.0
 70
    32
  0
VERTEX
  5
348F
  8
241
 10
19.323899999999998
 20
-12.1707
 30
0.0
 70
    32
  0
VERTEX
  5
3490
  8
241
 10
19.3247
 20
-12.164099999999999
 30
0.0
 70
    32
  0
VERTEX
  5
3491
  8
241
 10
19.325600000000001
 20
-12.157500000000001
 30
0.0
 70
    32
  0
VERTEX
  5
3492
  8
241
 10
19.3264
 20
-12.1508
 30
0.0
 70
    32
  0
VERTEX
  5
3493
  8
241
 10
19.327200000000001
 20
-12.1442
 30
0.0
 70
    32
  0
VERTEX
  5
3494
  8
241
 10
19.327999999999999
 20
-12.137499999999999
 30
0.0
 70
    32
  0
VERTEX
  5
3495
  8
241
 10
19.328800000000001
 20
-12.130800000000001
 30
0.0
 70
    32
  0
VERTEX
  5
3496
  8
241
 10
19.329599999999999
 20
-12.1241
 30
0.0
 70
    32
  0
VERTEX
  5
3497
  8
241
 10
19.330400000000001
 20
-12.1174
 30
0.0
 70
    32
  0
VERTEX
  5
3498
  8
241
 10
19.331199999999999
 20
-12.1107
 30
0.0
 70
    32
  0
VERTEX
  5
3499
  8
241
 10
19.332000000000001
 20
-12.103999999999999
 30
0.0
 70
    32
  0
VERTEX
  5
349A
  8
241
 10
19.332799999999999
 20
-12.097300000000001
 30
0.0
 70
    32
  0
VERTEX
  5
349B
  8
241
 10
19.333600000000001
 20
-12.0905
 30
0.0
 70
    32
  0
VERTEX
  5
349C
  8
241
 10
19.334299999999999
 20
-12.0838
 30
0.0
 70
    32
  0
VERTEX
  5
349D
  8
241
 10
19.335100000000001
 20
-12.077
 30
0.0
 70
    32
  0
VERTEX
  5
349E
  8
241
 10
19.335899999999999
 20
-12.0703
 30
0.0
 70
    32
  0
VERTEX
  5
349F
  8
241
 10
19.336600000000001
 20
-12.063499999999999
 30
0.0
 70
    32
  0
VERTEX
  5
34A0
  8
241
 10
19.337399999999999
 20
-12.056699999999999
 30
0.0
 70
    32
  0
VERTEX
  5
34A1
  8
241
 10
19.338100000000001
 20
-12.049899999999999
 30
0.0
 70
    32
  0
VERTEX
  5
34A2
  8
241
 10
19.338899999999999
 20
-12.042999999999999
 30
0.0
 70
    32
  0
VERTEX
  5
34A3
  8
241
 10
19.339600000000001
 20
-12.036199999999999
 30
0.0
 70
    32
  0
VERTEX
  5
34A4
  8
241
 10
19.340399999999999
 20
-12.029400000000001
 30
0.0
 70
    32
  0
VERTEX
  5
34A5
  8
241
 10
19.341100000000001
 20
-12.022500000000001
 30
0.0
 70
    32
  0
VERTEX
  5
34A6
  8
241
 10
19.341899999999999
 20
-12.015599999999999
 30
0.0
 70
    32
  0
VERTEX
  5
34A7
  8
241
 10
19.342600000000001
 20
-12.008699999999999
 30
0.0
 70
    32
  0
VERTEX
  5
34A8
  8
241
 10
19.343299999999999
 20
-12.001799999999999
 30
0.0
 70
    32
  0
VERTEX
  5
34A9
  8
241
 10
19.344000000000001
 20
-11.994899999999999
 30
0.0
 70
    32
  0
VERTEX
  5
34AA
  8
241
 10
19.344799999999999
 20
-11.988
 30
0.0
 70
    32
  0
VERTEX
  5
34AB
  8
241
 10
19.345500000000001
 20
-11.981
 30
0.0
 70
    32
  0
VERTEX
  5
34AC
  8
241
 10
19.3462
 20
-11.9741
 30
0.0
 70
    32
  0
VERTEX
  5
34AD
  8
241
 10
19.346900000000002
 20
-11.9671
 30
0.0
 70
    32
  0
VERTEX
  5
34AE
  8
241
 10
19.3476
 20
-11.960100000000001
 30
0.0
 70
    32
  0
VERTEX
  5
34AF
  8
241
 10
19.348299999999998
 20
-11.953099999999999
 30
0.0
 70
    32
  0
VERTEX
  5
34B0
  8
241
 10
19.349
 20
-11.946099999999999
 30
0.0
 70
    32
  0
VERTEX
  5
34B1
  8
241
 10
19.349699999999999
 20
-11.939
 30
0.0
 70
    32
  0
VERTEX
  5
34B2
  8
241
 10
19.3504
 20
-11.932
 30
0.0
 70
    32
  0
VERTEX
  5
34B3
  8
241
 10
19.351099999999999
 20
-11.924899999999999
 30
0.0
 70
    32
  0
VERTEX
  5
34B4
  8
241
 10
19.351700000000001
 20
-11.9178
 30
0.0
 70
    32
  0
SEQEND
  5
34B5
  8
241
  0
LINE
  5
34B6
  8
241
 10
19.075420044828199
 20
-9.1053089126944808
 30
0.0
 11
19.86353678512387
 21
-10.903024114668399
 31
0.0
  0
LINE
  5
34B7
  8
240
 10
19.963961443863809
 20
-10.90461947023871
 30
0.0
 11
19.963961443863809
 21
-11.611726135015511
 31
0.0
  0
LINE
  5
34B8
  8
240
 10
19.500000402331349
 20
-8.1154052168131177
 30
0.0
 11
19.57350652810419
 21
-8.1521579995751665
 31
0.0
  0
LINE
  5
34B9
  8
240
 10
19.86353678512387
 20
9.7215808928012564
 30
0.0
 11
19.963961443863809
 21
9.0136500075459196
 31
0.0
  0
LINE
  5
34BA
  8
240
 10
19.963961443863809
 20
8.3065433427691175
 30
0.0
 11
19.963961443863809
 21
9.0136500075459196
 31
0.0
  0
LINE
  5
34BB
  8
240
 10
19.500000402331349
 20
11.222876678927699
 30
0.0
 11
19.500000402331349
 21
18.747201371340392
 31
0.0
  0
LINE
  5
34BC
  8
241
 10
19.075420044828199
 20
12.015154585242239
 30
0.0
 11
19.500000402331349
 21
11.222876678927699
 31
0.0
  0
LINE
  5
34BD
  8
240
 10
19.500000402331349
 20
11.222876678927699
 30
0.0
 11
19.57350652810419
 21
11.08571235090491
 31
0.0
  0
LINE
  5
34BE
  8
241
 10
19.075420044828199
 20
12.015154585242239
 30
0.0
 11
19.86353678512387
 21
9.7215808928012564
 31
0.0
  0
LINE
  5
34BF
  8
240
 10
19.57350652810419
 20
11.08571235090491
 30
0.0
 11
19.86353678512387
 21
9.7215808928012564
 31
0.0
  0
LINE
  5
34C0
  8
241
 10
18.997983250301331
 20
18.245184794068312
 30
0.0
 11
19.500000402331349
 21
18.747201371340392
 31
0.0
  0
LINE
  5
34C1
  8
240
 10
19.500000402331349
 20
18.747201371340392
 30
0.0
 11
19.963961443863809
 21
19.211161881685221
 31
0.0
  0
LINE
  5
34C2
  8
240
 10
19.963961443863809
 20
19.211161881685221
 30
0.0
 11
19.963961443863809
 21
20.625375211238829
 31
0.0
  0
ARC
  5
34C3
  8
241
 10
-3.4418799999999661
 20
12.47499999999993
 30
0.0
 40
0.8
 50
29.999999999999719
 51
90.0
  0
ARC
  5
34C4
  8
241
 10
-2.5499999999999821
 20
10.93021799999994
 30
0.0
 40
0.8
 50
5.0041160000005691
 51
29.999999999999719
  0
LINE
  5
34C5
  8
241
 10
-1.857178999999973
 20
11.33021799999997
 30
0.0
 11
-2.7490599999999841
 21
12.87499999999997
 31
0.0
  0
ARC
  5
34C6
  8
241
 10
-8.5581199999999704
 20
12.47499999999993
 30
0.0
 40
0.8
 50
90.0
 51
149.9999999999998
  0
ARC
  5
34C7
  8
241
 10
-9.4499999999999869
 20
10.93021799999994
 30
0.0
 40
0.8
 50
149.9999999999998
 51
174.99588399999939
  0
LINE
  5
34C8
  8
241
 10
-10.14281999999997
 20
11.33021799999997
 30
0.0
 11
-9.2509399999999822
 21
12.87499999999997
 31
0.0
  0
LINE
  5
34C9
  8
241
 10
-8.5581199999999704
 20
13.274999999999951
 30
0.0
 11
-3.4418799999999661
 21
13.274999999999951
 31
0.0
  0
LINE
  5
34CA
  8
240
 10
-21.641015999999979
 20
10.699099999999961
 30
0.0
 11
-23.29581099999999
 21
10.99088499999996
 31
0.0
  0
ARC
  5
34CB
  8
240
 10
-23.399999999999981
 20
10.399999999999951
 30
0.0
 40
0.6
 50
79.999999999999815
 51
120.0000000000008
  0
LINE
  5
34CC
  8
240
 10
-21.641015999999979
 20
10.699099999999961
 30
0.0
 11
-19.499999999999972
 21
10.99999999999997
 31
0.0
  0
LINE
  5
34CD
  8
240
 10
-19.499999999999972
 20
10.99999999999997
 30
0.0
 11
0.0
 21
10.99999999999997
 31
0.0
  0
LINE
  5
34CE
  8
240
 10
-23.999999999999972
 20
10.746409999999941
 30
0.0
 11
-23.699999999999989
 21
10.91961499999999
 31
0.0
  0
ARC
  5
34CF
  8
241
 10
-2.5499999999999821
 20
-10.93021800000005
 30
0.0
 40
0.8
 50
330.00000000000028
 51
354.99588399999948
  0
ARC
  5
34D0
  8
241
 10
-3.4418799999999661
 20
-12.475000000000049
 30
0.0
 40
0.8
 50
270.0
 51
330.00000000000028
  0
LINE
  5
34D1
  8
241
 10
-1.857178999999973
 20
-11.33021800000002
 30
0.0
 11
-2.7490599999999841
 21
-12.87500000000003
 31
0.0
  0
ARC
  5
34D2
  8
241
 10
-9.4499999999999869
 20
-10.93021800000005
 30
0.0
 40
0.8
 50
185.00411600000061
 51
209.99999999999969
  0
ARC
  5
34D3
  8
241
 10
-8.5581199999999704
 20
-12.475000000000049
 30
0.0
 40
0.8
 50
209.99999999999969
 51
270.0
  0
LINE
  5
34D4
  8
241
 10
-10.14281999999997
 20
-11.33021800000002
 30
0.0
 11
-9.2509399999999822
 21
-12.87500000000003
 31
0.0
  0
LINE
  5
34D5
  8
241
 10
-8.5581199999999704
 20
-13.275000000000009
 30
0.0
 11
-3.4418799999999661
 21
-13.275000000000009
 31
0.0
  0
ARC
  5
34D6
  8
240
 10
-23.399999999999981
 20
-10.4
 30
0.0
 40
0.6
 50
239.9999999999992
 51
280.00000000000028
  0
LINE
  5
34D7
  8
240
 10
-21.641015999999979
 20
-10.699100000000071
 30
0.0
 11
-23.29581099999999
 21
-10.990884000000021
 31
0.0
  0
LINE
  5
34D8
  8
240
 10
-21.641015999999979
 20
-10.699100000000071
 30
0.0
 11
-19.499999999999972
 21
-11.00000000000003
 31
0.0
  0
LINE
  5
34D9
  8
241
 10
-19.499999999999972
 20
-11.00000000000003
 30
0.0
 11
-19.499999999999371
 21
10.99999999999997
 31
0.0
  0
LINE
  5
34DA
  8
241
 10
-21.641015999999979
 20
-10.699100000000071
 30
0.0
 11
-21.64101599999961
 21
10.69910000000001
 31
0.0
  0
LINE
  5
34DB
  8
240
 10
-19.499999999999972
 20
-11.00000000000003
 30
0.0
 11
0.0
 21
-11.00000000000003
 31
0.0
  0
LINE
  5
34DC
  8
240
 10
-23.999999999999972
 20
-10.746410000000051
 30
0.0
 11
-23.699999999999989
 21
-10.91961500000005
 31
0.0
  0
LINE
  5
34DD
  8
245
 10
-10.0
 20
4.845667999999959
 30
0.0
 11
-10.0
 21
-5.0356900000000708
 31
0.0
  0
CIRCLE
  5
34DE
  8
241
 10
-10.0
 20
-0.0000000000000284
 30
0.0
 40
4.046999999999997
  0
CIRCLE
  5
34DF
  8
241
 10
-10.0
 20
-0.0000000000000284
 30
0.0
 40
3.0
  0
LINE
  5
34E0
  8
240
 10
-23.999999999999972
 20
10.746409999999941
 30
0.0
 11
-23.999999999999972
 21
-10.746410000000051
 31
0.0
  0
LINE
  5
34E1
  8
240
 10
6.5999999642372131
 20
19.50000040233132
 30
0.0
 11
7.2360392659902573
 21
20.17086564300098
 31
0.0
  0
LINE
  5
34E2
  8
241
 10
10.700000402331391
 20
17.699999999999989
 30
0.0
 11
16.53160241598199
 21
17.703744188065219
 31
0.0
  0
ARC
  5
34E3
  8
241
 10
10.734333430995511
 20
24.80662520212379
 30
0.0
 40
7.1067081352985628
 50
234.57996299558619
 51
269.72319880668931
  0
ARC
  5
34E4
  8
241
 10
16.282312810216609
 20
24.81694949456061
 30
0.0
 40
7.1175722714909524
 50
272.00716811937269
 51
296.87699217469549
  0
POLYLINE
  5
34E5
  8
241
 66
     1
 10
0.0
 20
0.0
 30
0.0
 70
     8
  0
VERTEX
  5
34E6
  8
241
 10
19.309799999999999
 20
7.9794399999999976
 30
0.0
 70
    32
  0
VERTEX
  5
34E7
  8
241
 10
19.311
 20
7.9568199999999978
 30
0.0
 70
    32
  0
VERTEX
  5
34E8
  8
241
 10
19.3123
 20
7.9341899999999983
 30
0.0
 70
    32
  0
VERTEX
  5
34E9
  8
241
 10
19.313500000000001
 20
7.9115699999999984
 30
0.0
 70
    32
  0
VERTEX
  5
34EA
  8
241
 10
19.314800000000002
 20
7.8889500000000004
 30
0.0
 70
    32
  0
VERTEX
  5
34EB
  8
241
 10
19.315999999999999
 20
7.8663299999999978
 30
0.0
 70
    32
  0
VERTEX
  5
34EC
  8
241
 10
19.317299999999999
 20
7.8437000000000001
 30
0.0
 70
    32
  0
VERTEX
  5
34ED
  8
241
 10
19.3185
 20
7.8210800000000003
 30
0.0
 70
    32
  0
VERTEX
  5
34EE
  8
241
 10
19.319800000000001
 20
7.7984499999999981
 30
0.0
 70
    32
  0
VERTEX
  5
34EF
  8
241
 10
19.321000000000002
 20
7.7758199999999977
 30
0.0
 70
    32
  0
VERTEX
  5
34F0
  8
241
 10
19.322299999999998
 20
7.7531899999999982
 30
0.0
 70
    32
  0
VERTEX
  5
34F1
  8
241
 10
19.323499999999999
 20
7.7305599999999979
 30
0.0
 70
    32
  0
VERTEX
  5
34F2
  8
241
 10
19.3247
 20
7.7079199999999988
 30
0.0
 70
    32
  0
VERTEX
  5
34F3
  8
241
 10
19.326000000000001
 20
7.6852799999999979
 30
0.0
 70
    32
  0
VERTEX
  5
34F4
  8
241
 10
19.327200000000001
 20
7.6626399999999988
 30
0.0
 70
    32
  0
VERTEX
  5
34F5
  8
241
 10
19.328399999999998
 20
7.6399999999999988
 30
0.0
 70
    32
  0
VERTEX
  5
34F6
  8
241
 10
19.329599999999999
 20
7.6173500000000001
 30
0.0
 70
    32
  0
VERTEX
  5
34F7
  8
241
 10
19.3308
 20
7.5946999999999978
 30
0.0
 70
    32
  0
VERTEX
  5
34F8
  8
241
 10
19.332000000000001
 20
7.5720499999999982
 30
0.0
 70
    32
  0
VERTEX
  5
34F9
  8
241
 10
19.333200000000001
 20
7.5493899999999989
 30
0.0
 70
    32
  0
VERTEX
  5
34FA
  8
241
 10
19.334399999999999
 20
7.5267299999999979
 30
0.0
 70
    32
  0
VERTEX
  5
34FB
  8
241
 10
19.335599999999999
 20
7.50406
 30
0.0
 70
    32
  0
VERTEX
  5
34FC
  8
241
 10
19.3367
 20
7.4813899999999984
 30
0.0
 70
    32
  0
VERTEX
  5
34FD
  8
241
 10
19.337900000000001
 20
7.4587199999999978
 30
0.0
 70
    32
  0
VERTEX
  5
34FE
  8
241
 10
19.339099999999998
 20
7.4360399999999984
 30
0.0
 70
    32
  0
VERTEX
  5
34FF
  8
241
 10
19.340199999999999
 20
7.4133500000000003
 30
0.0
 70
    32
  0
VERTEX
  5
3500
  8
241
 10
19.3413
 20
7.3906599999999978
 30
0.0
 70
    32
  0
VERTEX
  5
3501
  8
241
 10
19.342400000000001
 20
7.3679699999999988
 30
0.0
 70
    32
  0
VERTEX
  5
3502
  8
241
 10
19.343499999999999
 20
7.3452599999999979
 30
0.0
 70
    32
  0
VERTEX
  5
3503
  8
241
 10
19.3446
 20
7.3225600000000002
 30
0.0
 70
    32
  0
VERTEX
  5
3504
  8
241
 10
19.345700000000001
 20
7.2998399999999988
 30
0.0
 70
    32
  0
VERTEX
  5
3505
  8
241
 10
19.346800000000002
 20
7.27712
 30
0.0
 70
    32
  0
VERTEX
  5
3506
  8
241
 10
19.347899999999999
 20
7.2544000000000004
 30
0.0
 70
    32
  0
VERTEX
  5
3507
  8
241
 10
19.3489
 20
7.2316599999999989
 30
0.0
 70
    32
  0
VERTEX
  5
3508
  8
241
 10
19.349900000000002
 20
7.2089199999999982
 30
0.0
 70
    32
  0
VERTEX
  5
3509
  8
241
 10
19.350999999999999
 20
7.1861699999999979
 30
0.0
 70
    32
  0
VERTEX
  5
350A
  8
241
 10
19.352
 20
7.1634199999999986
 30
0.0
 70
    32
  0
VERTEX
  5
350B
  8
241
 10
19.353000000000002
 20
7.1406599999999987
 30
0.0
 70
    32
  0
VERTEX
  5
350C
  8
241
 10
19.353899999999999
 20
7.1178899999999992
 30
0.0
 70
    32
  0
VERTEX
  5
350D
  8
241
 10
19.354900000000001
 20
7.09511
 30
0.0
 70
    32
  0
VERTEX
  5
350E
  8
241
 10
19.355799999999999
 20
7.0723199999999986
 30
0.0
 70
    32
  0
VERTEX
  5
350F
  8
241
 10
19.3568
 20
7.0495199999999993
 30
0.0
 70
    32
  0
VERTEX
  5
3510
  8
241
 10
19.357700000000001
 20
7.0267200000000001
 30
0.0
 70
    32
  0
VERTEX
  5
3511
  8
241
 10
19.358599999999999
 20
7.0039100000000003
 30
0.0
 70
    32
  0
VERTEX
  5
3512
  8
241
 10
19.359500000000001
 20
6.9810800000000004
 30
0.0
 70
    32
  0
VERTEX
  5
3513
  8
241
 10
19.360299999999999
 20
6.9582499999999987
 30
0.0
 70
    32
  0
VERTEX
  5
3514
  8
241
 10
19.3612
 20
6.9354100000000001
 30
0.0
 70
    32
  0
VERTEX
  5
3515
  8
241
 10
19.361999999999998
 20
6.91256
 30
0.0
 70
    32
  0
VERTEX
  5
3516
  8
241
 10
19.3628
 20
6.8897000000000004
 30
0.0
 70
    32
  0
VERTEX
  5
3517
  8
241
 10
19.363600000000002
 20
6.8668300000000002
 30
0.0
 70
    32
  0
VERTEX
  5
3518
  8
241
 10
19.3644
 20
6.843939999999999
 30
0.0
 70
    32
  0
VERTEX
  5
3519
  8
241
 10
19.365100000000002
 20
6.8210499999999987
 30
0.0
 70
    32
  0
VERTEX
  5
351A
  8
241
 10
19.3658
 20
6.7981499999999979
 30
0.0
 70
    32
  0
VERTEX
  5
351B
  8
241
 10
19.366499999999998
 20
6.7752299999999988
 30
0.0
 70
    32
  0
VERTEX
  5
351C
  8
241
 10
19.3672
 20
6.7523099999999987
 30
0.0
 70
    32
  0
VERTEX
  5
351D
  8
241
 10
19.367899999999999
 20
6.7293700000000003
 30
0.0
 70
    32
  0
VERTEX
  5
351E
  8
241
 10
19.368500000000001
 20
6.7064199999999987
 30
0.0
 70
    32
  0
VERTEX
  5
351F
  8
241
 10
19.3691
 20
6.6834600000000002
 30
0.0
 70
    32
  0
VERTEX
  5
3520
  8
241
 10
19.369700000000002
 20
6.6604900000000002
 30
0.0
 70
    32
  0
VERTEX
  5
3521
  8
241
 10
19.3703
 20
6.6375000000000002
 30
0.0
 70
    32
  0
VERTEX
  5
3522
  8
241
 10
19.370899999999999
 20
6.6144999999999987
 30
0.0
 70
    32
  0
VERTEX
  5
3523
  8
241
 10
19.371400000000001
 20
6.5914900000000003
 30
0.0
 70
    32
  0
VERTEX
  5
3524
  8
241
 10
19.3719
 20
6.5684699999999987
 30
0.0
 70
    32
  0
VERTEX
  5
3525
  8
241
 10
19.372399999999999
 20
6.5454299999999987
 30
0.0
 70
    32
  0
VERTEX
  5
3526
  8
241
 10
19.372800000000002
 20
6.5223800000000001
 30
0.0
 70
    32
  0
VERTEX
  5
3527
  8
241
 10
19.373200000000001
 20
6.4993199999999991
 30
0.0
 70
    32
  0
VERTEX
  5
3528
  8
241
 10
19.3736
 20
6.476239999999998
 30
0.0
 70
    32
  0
VERTEX
  5
3529
  8
241
 10
19.373999999999999
 20
6.4531499999999991
 30
0.0
 70
    32
  0
VERTEX
  5
352A
  8
241
 10
19.374400000000001
 20
6.4300399999999991
 30
0.0
 70
    32
  0
VERTEX
  5
352B
  8
241
 10
19.374700000000001
 20
6.4069199999999986
 30
0.0
 70
    32
  0
VERTEX
  5
352C
  8
241
 10
19.375
 20
6.3837900000000003
 30
0.0
 70
    32
  0
VERTEX
  5
352D
  8
241
 10
19.3752
 20
6.3606400000000001
 30
0.0
 70
    32
  0
VERTEX
  5
352E
  8
241
 10
19.375499999999999
 20
6.3374699999999979
 30
0.0
 70
    32
  0
VERTEX
  5
352F
  8
241
 10
19.375699999999998
 20
6.314289999999998
 30
0.0
 70
    32
  0
VERTEX
  5
3530
  8
241
 10
19.375800000000002
 20
6.2910899999999987
 30
0.0
 70
    32
  0
VERTEX
  5
3531
  8
241
 10
19.376000000000001
 20
6.267879999999999
 30
0.0
 70
    32
  0
VERTEX
  5
3532
  8
241
 10
19.376100000000001
 20
6.2446599999999979
 30
0.0
 70
    32
  0
VERTEX
  5
3533
  8
241
 10
19.376200000000001
 20
6.2214099999999979
 30
0.0
 70
    32
  0
VERTEX
  5
3534
  8
241
 10
19.376200000000001
 20
6.19815
 30
0.0
 70
    32
  0
VERTEX
  5
3535
  8
241
 10
19.376300000000001
 20
6.1748700000000003
 30
0.0
 70
    32
  0
VERTEX
  5
3536
  8
241
 10
19.376200000000001
 20
6.15158
 30
0.0
 70
    32
  0
VERTEX
  5
3537
  8
241
 10
19.376200000000001
 20
6.1282699999999979
 30
0.0
 70
    32
  0
VERTEX
  5
3538
  8
241
 10
19.376100000000001
 20
6.1049499999999979
 30
0.0
 70
    32
  0
VERTEX
  5
3539
  8
241
 10
19.376000000000001
 20
6.0816099999999986
 30
0.0
 70
    32
  0
VERTEX
  5
353A
  8
241
 10
19.375800000000002
 20
6.058259999999998
 30
0.0
 70
    32
  0
VERTEX
  5
353B
  8
241
 10
19.375599999999999
 20
6.0349099999999991
 30
0.0
 70
    32
  0
VERTEX
  5
353C
  8
241
 10
19.375399999999999
 20
6.0115400000000001
 30
0.0
 70
    32
  0
VERTEX
  5
353D
  8
241
 10
19.3751
 20
5.9881699999999993
 30
0.0
 70
    32
  0
VERTEX
  5
353E
  8
241
 10
19.374700000000001
 20
5.9648000000000003
 30
0.0
 70
    32
  0
VERTEX
  5
353F
  8
241
 10
19.374300000000002
 20
5.9414300000000004
 30
0.0
 70
    32
  0
VERTEX
  5
3540
  8
241
 10
19.373799999999999
 20
5.91805
 30
0.0
 70
    32
  0
VERTEX
  5
3541
  8
241
 10
19.373200000000001
 20
5.8946800000000001
 30
0.0
 70
    32
  0
VERTEX
  5
3542
  8
241
 10
19.372599999999998
 20
5.8713100000000003
 30
0.0
 70
    32
  0
VERTEX
  5
3543
  8
241
 10
19.3719
 20
5.8479499999999991
 30
0.0
 70
    32
  0
VERTEX
  5
3544
  8
241
 10
19.371099999999998
 20
5.8245899999999979
 30
0.0
 70
    32
  0
VERTEX
  5
3545
  8
241
 10
19.3703
 20
5.8012399999999991
 30
0.0
 70
    32
  0
VERTEX
  5
3546
  8
241
 10
19.369299999999999
 20
5.777899999999998
 30
0.0
 70
    32
  0
VERTEX
  5
3547
  8
241
 10
19.368300000000001
 20
5.7545799999999989
 30
0.0
 70
    32
  0
VERTEX
  5
3548
  8
241
 10
19.3672
 20
5.7312700000000003
 30
0.0
 70
    32
  0
VERTEX
  5
3549
  8
241
 10
19.366
 20
5.7079800000000001
 30
0.0
 70
    32
  0
VERTEX
  5
354A
  8
241
 10
19.364699999999999
 20
5.6847000000000003
 30
0.0
 70
    32
  0
VERTEX
  5
354B
  8
241
 10
19.363299999999999
 20
5.661439999999998
 30
0.0
 70
    32
  0
VERTEX
  5
354C
  8
241
 10
19.361799999999999
 20
5.6382099999999991
 30
0.0
 70
    32
  0
VERTEX
  5
354D
  8
241
 10
19.360199999999999
 20
5.6150000000000002
 30
0.0
 70
    32
  0
VERTEX
  5
354E
  8
241
 10
19.358499999999999
 20
5.5918099999999979
 30
0.0
 70
    32
  0
VERTEX
  5
354F
  8
241
 10
19.3567
 20
5.5686499999999981
 30
0.0
 70
    32
  0
VERTEX
  5
3550
  8
241
 10
19.354800000000001
 20
5.545519999999998
 30
0.0
 70
    32
  0
VERTEX
  5
3551
  8
241
 10
19.352699999999999
 20
5.5224200000000003
 30
0.0
 70
    32
  0
VERTEX
  5
3552
  8
241
 10
19.3505
 20
5.499349999999998
 30
0.0
 70
    32
  0
VERTEX
  5
3553
  8
241
 10
19.348199999999999
 20
5.4763200000000003
 30
0.0
 70
    32
  0
VERTEX
  5
3554
  8
241
 10
19.345800000000001
 20
5.4533199999999979
 30
0.0
 70
    32
  0
VERTEX
  5
3555
  8
241
 10
19.3432
 20
5.4303600000000003
 30
0.0
 70
    32
  0
VERTEX
  5
3556
  8
241
 10
19.340599999999998
 20
5.4074299999999988
 30
0.0
 70
    32
  0
VERTEX
  5
3557
  8
241
 10
19.337700000000002
 20
5.3845499999999991
 30
0.0
 70
    32
  0
VERTEX
  5
3558
  8
241
 10
19.334800000000001
 20
5.36172
 30
0.0
 70
    32
  0
VERTEX
  5
3559
  8
241
 10
19.331600000000002
 20
5.3389199999999981
 30
0.0
 70
    32
  0
VERTEX
  5
355A
  8
241
 10
19.328399999999998
 20
5.3161800000000001
 30
0.0
 70
    32
  0
VERTEX
  5
355B
  8
241
 10
19.324999999999999
 20
5.2934799999999989
 30
0.0
 70
    32
  0
VERTEX
  5
355C
  8
241
 10
19.321400000000001
 20
5.2708300000000001
 30
0.0
 70
    32
  0
VERTEX
  5
355D
  8
241
 10
19.317699999999999
 20
5.24824
 30
0.0
 70
    32
  0
VERTEX
  5
355E
  8
241
 10
19.313800000000001
 20
5.2256900000000002
 30
0.0
 70
    32
  0
VERTEX
  5
355F
  8
241
 10
19.309799999999999
 20
5.2032099999999986
 30
0.0
 70
    32
  0
VERTEX
  5
3560
  8
241
 10
19.305499999999999
 20
5.1807800000000004
 30
0.0
 70
    32
  0
VERTEX
  5
3561
  8
241
 10
19.301200000000001
 20
5.1584099999999991
 30
0.0
 70
    32
  0
VERTEX
  5
3562
  8
241
 10
19.296600000000002
 20
5.1360999999999981
 30
0.0
 70
    32
  0
VERTEX
  5
3563
  8
241
 10
19.291899999999998
 20
5.1138500000000002
 30
0.0
 70
    32
  0
VERTEX
  5
3564
  8
241
 10
19.286999999999999
 20
5.0916699999999979
 30
0.0
 70
    32
  0
VERTEX
  5
3565
  8
241
 10
19.2819
 20
5.0695499999999987
 30
0.0
 70
    32
  0
VERTEX
  5
3566
  8
241
 10
19.276599999999998
 20
5.0475099999999991
 30
0.0
 70
    32
  0
VERTEX
  5
3567
  8
241
 10
19.271100000000001
 20
5.0255299999999989
 30
0.0
 70
    32
  0
VERTEX
  5
3568
  8
241
 10
19.2654
 20
5.003619999999998
 30
0.0
 70
    32
  0
VERTEX
  5
3569
  8
241
 10
19.259599999999999
 20
4.9817900000000002
 30
0.0
 70
    32
  0
VERTEX
  5
356A
  8
241
 10
19.253499999999999
 20
4.9600299999999988
 30
0.0
 70
    32
  0
VERTEX
  5
356B
  8
241
 10
19.247299999999999
 20
4.938349999999998
 30
0.0
 70
    32
  0
VERTEX
  5
356C
  8
241
 10
19.2408
 20
4.9167500000000004
 30
0.0
 70
    32
  0
VERTEX
  5
356D
  8
241
 10
19.234100000000002
 20
4.8952299999999989
 30
0.0
 70
    32
  0
VERTEX
  5
356E
  8
241
 10
19.2272
 20
4.8737899999999987
 30
0.0
 70
    32
  0
VERTEX
  5
356F
  8
241
 10
19.220099999999999
 20
4.85243
 30
0.0
 70
    32
  0
VERTEX
  5
3570
  8
241
 10
19.212800000000001
 20
4.8311599999999979
 30
0.0
 70
    32
  0
VERTEX
  5
3571
  8
241
 10
19.205200000000001
 20
4.8099800000000004
 30
0.0
 70
    32
  0
VERTEX
  5
3572
  8
241
 10
19.197500000000002
 20
4.7888900000000003
 30
0.0
 70
    32
  0
VERTEX
  5
3573
  8
241
 10
19.189499999999999
 20
4.7678900000000004
 30
0.0
 70
    32
  0
VERTEX
  5
3574
  8
241
 10
19.1812
 20
4.7469799999999989
 30
0.0
 70
    32
  0
VERTEX
  5
3575
  8
241
 10
19.172799999999999
 20
4.726169999999998
 30
0.0
 70
    32
  0
VERTEX
  5
3576
  8
241
 10
19.164100000000001
 20
4.705449999999999
 30
0.0
 70
    32
  0
VERTEX
  5
3577
  8
241
 10
19.155100000000001
 20
4.6848299999999989
 30
0.0
 70
    32
  0
VERTEX
  5
3578
  8
241
 10
19.146000000000001
 20
4.664299999999999
 30
0.0
 70
    32
  0
VERTEX
  5
3579
  8
241
 10
19.136600000000001
 20
4.6438600000000001
 30
0.0
 70
    32
  0
VERTEX
  5
357A
  8
241
 10
19.126999999999999
 20
4.6234999999999991
 30
0.0
 70
    32
  0
VERTEX
  5
357B
  8
241
 10
19.1172
 20
4.603229999999999
 30
0.0
 70
    32
  0
VERTEX
  5
357C
  8
241
 10
19.107199999999999
 20
4.5830500000000001
 30
0.0
 70
    32
  0
VERTEX
  5
357D
  8
241
 10
19.096900000000002
 20
4.5629499999999981
 30
0.0
 70
    32
  0
VERTEX
  5
357E
  8
241
 10
19.086500000000001
 20
4.5429199999999987
 30
0.0
 70
    32
  0
VERTEX
  5
357F
  8
241
 10
19.075900000000001
 20
4.5229799999999987
 30
0.0
 70
    32
  0
VERTEX
  5
3580
  8
241
 10
19.065100000000001
 20
4.5031099999999986
 30
0.0
 70
    32
  0
VERTEX
  5
3581
  8
241
 10
19.054099999999998
 20
4.4833099999999986
 30
0.0
 70
    32
  0
VERTEX
  5
3582
  8
241
 10
19.042999999999999
 20
4.4635899999999991
 30
0.0
 70
    32
  0
VERTEX
  5
3583
  8
241
 10
19.031700000000001
 20
4.443929999999999
 30
0.0
 70
    32
  0
VERTEX
  5
3584
  8
241
 10
19.020199999999999
 20
4.4243499999999987
 30
0.0
 70
    32
  0
VERTEX
  5
3585
  8
241
 10
19.008500000000002
 20
4.4048299999999987
 30
0.0
 70
    32
  0
VERTEX
  5
3586
  8
241
 10
18.996700000000001
 20
4.3853699999999991
 30
0.0
 70
    32
  0
VERTEX
  5
3587
  8
241
 10
18.9847
 20
4.3659800000000004
 30
0.0
 70
    32
  0
VERTEX
  5
3588
  8
241
 10
18.9726
 20
4.3466399999999981
 30
0.0
 70
    32
  0
VERTEX
  5
3589
  8
241
 10
18.9604
 20
4.3273599999999979
 30
0.0
 70
    32
  0
VERTEX
  5
358A
  8
241
 10
18.948
 20
4.3081399999999981
 30
0.0
 70
    32
  0
VERTEX
  5
358B
  8
241
 10
18.935400000000001
 20
4.2889699999999991
 30
0.0
 70
    32
  0
VERTEX
  5
358C
  8
241
 10
18.922799999999999
 20
4.2698599999999987
 30
0.0
 70
    32
  0
VERTEX
  5
358D
  8
241
 10
18.91
 20
4.2507900000000003
 30
0.0
 70
    32
  0
VERTEX
  5
358E
  8
241
 10
18.897099999999998
 20
4.23177
 30
0.0
 70
    32
  0
VERTEX
  5
358F
  8
241
 10
18.8841
 20
4.2127999999999979
 30
0.0
 70
    32
  0
VERTEX
  5
3590
  8
241
 10
18.870999999999999
 20
4.1938699999999987
 30
0.0
 70
    32
  0
VERTEX
  5
3591
  8
241
 10
18.857800000000001
 20
4.1749799999999988
 30
0.0
 70
    32
  0
VERTEX
  5
3592
  8
241
 10
18.8445
 20
4.1561399999999979
 30
0.0
 70
    32
  0
VERTEX
  5
3593
  8
241
 10
18.831
 20
4.1373300000000004
 30
0.0
 70
    32
  0
VERTEX
  5
3594
  8
241
 10
18.817499999999999
 20
4.1185599999999987
 30
0.0
 70
    32
  0
VERTEX
  5
3595
  8
241
 10
18.803999999999998
 20
4.0998200000000002
 30
0.0
 70
    32
  0
VERTEX
  5
3596
  8
241
 10
18.790299999999998
 20
4.081109999999998
 30
0.0
 70
    32
  0
VERTEX
  5
3597
  8
241
 10
18.776599999999998
 20
4.0624299999999991
 30
0.0
 70
    32
  0
VERTEX
  5
3598
  8
241
 10
18.762699999999999
 20
4.043779999999999
 30
0.0
 70
    32
  0
VERTEX
  5
3599
  8
241
 10
18.748899999999999
 20
4.0251599999999987
 30
0.0
 70
    32
  0
VERTEX
  5
359A
  8
241
 10
18.7349
 20
4.0065599999999986
 30
0.0
 70
    32
  0
VERTEX
  5
359B
  8
241
 10
18.721
 20
3.987979999999999
 30
0.0
 70
    32
  0
VERTEX
  5
359C
  8
241
 10
18.706900000000001
 20
3.9694199999999991
 30
0.0
 70
    32
  0
VERTEX
  5
359D
  8
241
 10
18.692900000000002
 20
3.9508800000000002
 30
0.0
 70
    32
  0
VERTEX
  5
359E
  8
241
 10
18.678699999999999
 20
3.9323599999999992
 30
0.0
 70
    32
  0
VERTEX
  5
359F
  8
241
 10
18.6646
 20
3.9138500000000001
 30
0.0
 70
    32
  0
VERTEX
  5
35A0
  8
241
 10
18.650400000000001
 20
3.8953500000000001
 30
0.0
 70
    32
  0
VERTEX
  5
35A1
  8
241
 10
18.636199999999999
 20
3.8768599999999989
 30
0.0
 70
    32
  0
VERTEX
  5
35A2
  8
241
 10
18.622
 20
3.8583799999999999
 30
0.0
 70
    32
  0
VERTEX
  5
35A3
  8
241
 10
18.607700000000001
 20
3.8399099999999988
 30
0.0
 70
    32
  0
VERTEX
  5
35A4
  8
241
 10
18.593499999999999
 20
3.8214399999999991
 30
0.0
 70
    32
  0
VERTEX
  5
35A5
  8
241
 10
18.5792
 20
3.8029699999999989
 30
0.0
 70
    32
  0
SEQEND
  5
35A6
  8
241
  0
ARC
  5
35A7
  8
241
 10
13.570083387556471
 20
-1.4266004926690381
 30
0.0
 40
7.2415496485275579
 50
35.027760865060991
 51
46.233275876951161
  0
ARC
  5
35A8
  8
241
 10
13.60503355102613
 20
11.09171697007965
 30
0.0
 40
8.8243127536593402
 50
217.62025362741539
 51
304.3115752447589
  0
ARC
  5
35A9
  8
241
 10
8.5445250092722969
 20
6.8426950792231134
 30
0.0
 40
2.23943821108716
 50
125.75298601928429
 51
210.52851397456101
  0
ARC
  5
35AA
  8
241
 10
-2.810116629263641
 20
8.6579190551561158
 30
0.0
 40
23.478294894214521
 50
316.42759723398058
 51
341.85001745975222
  0
ARC
  5
35AB
  8
241
 10
29.711698214382729
 20
8.6951460294708092
 30
0.0
 40
23.288910650604809
 50
187.37643907746011
 51
224.1448131134749
  0
LINE
  5
35AC
  8
241
 10
6.913636790364535
 20
-8.4162194404296145
 30
0.0
 11
6.913636790364535
 21
-11.450524923742201
 31
0.0
  0
LINE
  5
35AD
  8
241
 10
19.500000402339762
 20
-8.3950435604296274
 30
0.0
 11
19.075420044828199
 21
-9.1053089126944808
 31
0.0
  0
LINE
  5
35AE
  8
241
 10
19.075420044828199
 20
-9.1053089126944808
 30
0.0
 11
14.200000402331399
 21
-11.46780536180475
 31
0.0
  0
LINE
  5
35AF
  8
241
 10
19.500000402325892
 20
-20.489005221389959
 30
0.0
 11
14.20000055804848
 21
-25.845456868410139
 31
0.0
  0
LINE
  5
35B0
  8
240
 10
6.5999999642372131
 20
-19.500000402331381
 30
0.0
 11
7.2360392659902573
 21
-20.130619075501901
 31
0.0
  0
LINE
  5
35B1
  8
241
 10
7.2360392659902573
 20
-20.130619075501901
 30
0.0
 11
13.0000002682209
 21
-25.845456868410139
 31
0.0
  0
LINE
  5
35B2
  8
241
 10
19.500000402331349
 20
-18.74720118939879
 30
0.0
 11
19.500000402325892
 21
-20.489005221389959
 31
0.0
  0
LINE
  5
35B3
  8
241
 10
0.0
 20
10.99999999999997
 30
0.0
 11
0.0
 21
-11.00000000000003
 31
0.0
  0
TEXT
  5
3650
  8
247
 10
4.8918770883209373
 20
-10.40070831743304
 30
0.0
 40
3.0
  1
CKB4-C4252-45B-20
 50
90.0
 41
0.5
  7
YOKO
 11
4.8918770883209373
 21
-10.40070831743304
 31
0.0
 73
     1
  0
VIEWPORT
  5
22
 67
     1
  8
0
 10
261.51769911504419
 20
148.5
 30
0.0
 40
523.0353982300885
 41
297.0
 68
     1
 69
     1
1001
ACAD
1000
MVIEW
1002
{
1070
    16
1010
0.0
1020
0.0
1030
0.0
1010
0.0
1020
0.0
1030
1.0
1040
0.0
1040
297.0
1040
261.51769911504419
1040
148.5
1040
50.0
1040
0.0
1040
0.0
1070
     0
1070
   100
1070
     1
1070
     1
1070
     0
1070
     0
1070
     0
1070
     0
1040
0.0
1040
0.0
1040
0.0
1040
1.0
1040
1.0
1040
10.0
1040
10.0
1070
     0
1002
{
1002
}
1002
}
1001
GENIUS_GENODEF_13
1002
{
1000
HIER
1070
     0
1002
}
1002
{
1000
MANEDIT
1070
     0
1002
}
1002
{
1000
NOSEL
1070
     0
1002
}
1002
{
1000
BEHIND
1070
     0
1002
}
1002
{
1000
OTHER
1070
     0
1002
}
1002
{
1000
REACTOR
1002
}
1001
GENIUS_GENOBJ-N-SDF_13
1002
{
1000
OWNER
1000
GEN
1002
}
1001
GENIUS_GENSCREG_15
1000
PF
1040
1.0
1000
DF
1040
1.0
1000
MIN
1011
0.0
1021
0.0
1031
0.0
1021
0.0
1031
0.0
1000
MAX
1011
523.0353982300885
1021
0.0
1031
0.0
1021
297.0
1031
0.0
1000
FLAGS
1070
     2
  0
ENDSEC
  0
EOF
