  0
SECTION
  2
HEADER
  9
$ACADVER
  1
AC1009
  9
$INSBASE
 10
0.0
 20
0.0
 30
0.0
  9
$EXTMIN
 10
-45.810460627649832
 20
-31.2964301155302
 30
-0.0015258207003583
  9
$EXTMAX
 10
50.722345482141691
 20
68.001148762888533
 30
0.0000000349246037
  9
$LIMMIN
 10
0.0
 20
0.0
  9
$LIMMAX
 10
297.0
 20
210.0
  9
$ORTHOMODE
 70
     1
  9
$REGENMODE
 70
     1
  9
$FILLMODE
 70
     1
  9
$QTEXTMODE
 70
     0
  9
$MIRRTEXT
 70
     1
  9
$DRAGMODE
 70
     2
  9
$LTSCALE
 40
10.0
  9
$OSMODE
 70
    39
  9
$ATTMODE
 70
     1
  9
$TEXTSIZE
 40
3.0
  9
$TRACEWID
 40
1.0
  9
$TEXTSTYLE
  7
YOKO
  9
$CLAYER
  8
245
  9
$CELTYPE
  6
BYLAYER
  9
$CECOLOR
 62
   256
  9
$DIMSCALE
 40
1.0
  9
$DIMASZ
 40
2.2299999999999991
  9
$DIMEXO
 40
0.5
  9
$DIMDLI
 40
7.0
  9
$DIMRND
 40
0.0
  9
$DIMDLE
 40
0.0
  9
$DIMEXE
 40
1.0
  9
$DIMTP
 40
0.0
  9
$DIMTM
 40
0.01
  9
$DIMTXT
 40
2.799999999999998
  9
$DIMCEN
 40
0.0
  9
$DIMTSZ
 40
0.0
  9
$DIMTOL
 70
     0
  9
$DIMLIM
 70
     0
  9
$DIMTIH
 70
     0
  9
$DIMTOH
 70
     0
  9
$DIMSE1
 70
     0
  9
$DIMSE2
 70
     0
  9
$DIMTAD
 70
     3
  9
$DIMZIN
 70
     9
  9
$DIMBLK
  1
OPEN
  9
$DIMASO
 70
     1
  9
$DIMSHO
 70
     1
  9
$DIMPOST
  1

  9
$DIMAPOST
  1

  9
$DIMALT
 70
     0
  9
$DIMALTD
 70
     2
  9
$DIMALTF
 40
25.399999999999999
  9
$DIMLFAC
 40
1.0
  9
$DIMTOFL
 70
     1
  9
$DIMTVP
 40
0.0
  9
$DIMTIX
 70
     1
  9
$DIMSOXD
 70
     0
  9
$DIMSAH
 70
     0
  9
$DIMBLK1
  1

  9
$DIMBLK2
  1

  9
$DIMSTYLE
  2
BIGT
  9
$DIMCLRD
 70
   256
  9
$DIMCLRE
 70
   256
  9
$DIMCLRT
 70
    40
  9
$DIMTFAC
 40
1.0
  9
$DIMGAP
 40
1.0
  9
$LUNITS
 70
     2
  9
$LUPREC
 70
     3
  9
$SKETCHINC
 40
1.0
  9
$FILLETRAD
 40
0.0
  9
$AUNITS
 70
     0
  9
$AUPREC
 70
     3
  9
$MENU
  1
.
  9
$ELEVATION
 40
0.0
  9
$PELEVATION
 40
0.0
  9
$THICKNESS
 40
0.0
  9
$LIMCHECK
 70
     0
  9
$BLIPMODE
 70
     0
  9
$CHAMFERA
 40
0.25
  9
$CHAMFERB
 40
0.25
  9
$SKPOLY
 70
     0
  9
$TDCREATE
 40
2455933.6683330908
  9
$TDUPDATE
 40
2456330.4035297218
  9
$TDINDWG
 40
0.0016304167
  9
$TDUSRTIMER
 40
0.0016304167
  9
$USRTIMER
 70
     1
  9
$ANGBASE
 50
0.0
  9
$ANGDIR
 70
     0
  9
$PDMODE
 70
     1
  9
$PDSIZE
 40
0.0
  9
$PLINEWID
 40
0.0
  9
$COORDS
 70
     0
  9
$SPLFRAME
 70
     0
  9
$SPLINETYPE
 70
     6
  9
$SPLINESEGS
 70
     4
  9
$ATTDIA
 70
     1
  9
$ATTREQ
 70
     1
  9
$HANDLING
 70
     1
  9
$HANDSEED
  5
1AA9
  9
$SURFTAB1
 70
     6
  9
$SURFTAB2
 70
     6
  9
$SURFTYPE
 70
     6
  9
$SURFU
 70
     6
  9
$SURFV
 70
     6
  9
$UCSNAME
  2

  9
$UCSORG
 10
0.0
 20
0.0
 30
0.0
  9
$UCSXDIR
 10
1.0
 20
0.0
 30
0.0
  9
$UCSYDIR
 10
0.0
 20
1.0
 30
0.0
  9
$PUCSNAME
  2

  9
$PUCSORG
 10
0.0
 20
0.0
 30
0.0
  9
$PUCSXDIR
 10
1.0
 20
0.0
 30
0.0
  9
$PUCSYDIR
 10
0.0
 20
1.0
 30
0.0
  9
$USERI1
 70
     1
  9
$USERI2
 70
     0
  9
$USERI3
 70
     0
  9
$USERI4
 70
     0
  9
$USERI5
 70
     0
  9
$USERR1
 40
0.0
  9
$USERR2
 40
0.0
  9
$USERR3
 40
0.0
  9
$USERR4
 40
0.0
  9
$USERR5
 40
0.0
  9
$WORLDVIEW
 70
     1
  9
$SHADEDGE
 70
     3
  9
$SHADEDIF
 70
    70
  9
$TILEMODE
 70
     1
  9
$MAXACTVP
 70
    16
  9
$PLIMCHECK
 70
     0
  9
$PEXTMIN
 10
1.0000000000000000E+020
 20
1.0000000000000000E+020
 30
1.0000000000000000E+020
  9
$PEXTMAX
 10
-1.0000000000000000E+020
 20
-1.0000000000000000E+020
 30
-1.0000000000000000E+020
  9
$PLIMMIN
 10
0.0
 20
0.0
  9
$PLIMMAX
 10
420.0
 20
297.0
  9
$UNITMODE
 70
     0
  9
$VISRETAIN
 70
     1
  9
$PLINEGEN
 70
     0
  9
$PSLTSCALE
 70
     1
  0
ENDSEC
  0
SECTION
  2
TABLES
  0
TABLE
  2
VPORT
 70
     3
  0
VPORT
  2
*ACTIVE
 70
     0
 10
0.0
 20
0.0
 11
1.0
 21
1.0
 12
2.4559424272459358
 22
18.35235932367916
 13
0.0
 23
0.0
 14
7.0
 24
7.0
 15
7.0
 25
7.0
 16
0.0
 26
0.0
 36
1.0
 17
0.0
 27
0.0
 37
0.0
 40
99.940281654330818
 41
1.4600431965442759
 42
50.0
 43
0.0
 44
0.0
 50
0.0
 51
0.0
 71
     0
 72
  2000
 73
     1
 74
     0
 75
     0
 76
     0
 77
     0
 78
     0
  0
ENDTAB
  0
TABLE
  2
LTYPE
 70
    21
  0
LTYPE
  2
CONTINUOUS
 70
     0
  3
Solid line
 72
    65
 73
     0
 40
0.0
  0
LTYPE
  2
CENTER2
 70
     0
  3
___ _ ___ _ ___ _ ___ _ ___ _ ___ _ ___ _ ___ _
 72
    65
 73
     4
 40
1.125
 49
0.75
 49
-0.125
 49
0.125
 49
-0.125
  0
LTYPE
  2
HIDDEN2
 70
     0
  3
_ _ _ _ _ _ _ _ _ _ _ _ _ _ _ _ _ _ _ _ _ _ _ _
 72
    65
 73
     2
 40
0.1875
 49
0.125
 49
-0.0625
  0
LTYPE
  2
PHANTOM2
 70
     0
  3
___ _ _ ___ _ _ ___ _ _ ___ _ _ ___ _ _ ___ _ _
 72
    65
 73
     6
 40
1.25
 49
0.625
 49
-0.125
 49
0.125
 49
-0.125
 49
0.125
 49
-0.125
  0
LTYPE
  2
CENTER
 70
     0
  3
____ _ ____ _ ____ _ ____ _ ____ _ ____ _ ____ 
 72
    65
 73
     4
 40
2.0
 49
1.25
 49
-0.25
 49
0.25
 49
-0.25
  0
LTYPE
  2
AMCONSTR
 70
     0
  3
_______________________
 72
    65
 73
     2
 40
9999.0
 49
9999.0
 49
0.0
  0
LTYPE
  2
HIDDEN
 70
     0
  3
Hidden __ __ __ __ __ __ __ __ __ __ __ __ __ _
 72
    65
 73
     2
 40
9.5249999999999986
 49
6.3499999999999979
 49
-3.174999999999998
  0
LTYPE
  2
AMZIGZAG2
 70
     0
  3
/\/-/\/-/\/-/\/-/\/-/\/
 72
    65
 73
     2
 40
0.4401
 49
0.0001
 49
-0.4400000000000001
  0
LTYPE
  2
ACANSTGB
 70
     0
  3
__ . . __ . .
 72
    65
 73
     6
 40
0.35433070866
 49
0.15748031496
 49
-0.03937007874
 49
0.03937007874
 49
-0.03937007874
 49
0.03937007874
 49
-0.03937007874
  0
LTYPE
  2
ACANSTGL
 70
     0
  3
_ _ _ _ _
 72
    65
 73
     2
 40
0.11811023622
 49
0.07874015748
 49
-0.03937007874
  0
ENDTAB
  0
TABLE
  2
LAYER
 70
     7
  0
LAYER
  2
0
 70
     0
 62
     7
  6
CONTINUOUS
  0
LAYER
  2
245
 70
     0
 62
     2
  6
CENTER2
  0
LAYER
  2
DEFPOINTS
 70
     0
 62
     7
  6
CONTINUOUS
  0
LAYER
  2
240
 70
     0
 62
     4
  6
CONTINUOUS
  0
LAYER
  2
241
 70
     0
 62
   211
  6
CONTINUOUS
  0
LAYER
  2
247
 70
     0
 62
    60
  6
CONTINUOUS
  0
LAYER
  2
250
 70
     0
 62
     3
  6
CONTINUOUS
  0
ENDTAB
  0
TABLE
  2
STYLE
 70
     9
  0
STYLE
  2
STANDARD
 70
     0
 40
0.0
 41
1.0
 50
0.0
 71
     0
 42
3.0
  3
romans.shx
  4
extfont.shx
  0
STYLE
  2
YOKO
 70
     0
 40
0.0
 41
1.0
 50
0.0
 71
     0
 42
3.0
  3
romans.shx
  4
extfont.shx
  0
STYLE
  2

 70
     1
 40
0.0
 41
1.0
 50
0.0
 71
     0
 42
3.0
  3
ltypeshp.shx
  4

  0
STYLE
  2
ACANSTS
 70
     0
 40
1.0
 41
1.0
 50
0.0
 71
     0
 42
3.0
  3
romans.shx
  4
extfont.shx
  0
STYLE
  2
ACANSGDT
 70
     0
 40
0.0
 41
1.0
 50
0.0
 71
     0
 42
3.0
  3
amgdtans.shx
  4

  0
ENDTAB
  0
TABLE
  2
VIEW
 70
     0
  0
ENDTAB
  0
TABLE
  2
UCS
 70
     0
  0
ENDTAB
  0
TABLE
  2
APPID
 70
    31
  0
APPID
  2
ACAD
 70
     0
  0
APPID
  2
GLOBAL
 70
     0
  0
APPID
  2
DETAIL
 70
     0
  0
APPID
  2
GRPNAME
 70
     0
  0
APPID
  2
GPARA
 70
     0
  0
APPID
  2
MCAD_NO_VIS
 70
     0
  0
APPID
  2
ACAD_TEMP_GRAPHIC
 70
     0
  0
APPID
  2
ACATTRIBSERVICES
 70
     0
  0
APPID
  2
GENIUS_GENSCREG_15
 70
     0
  0
APPID
  2
GENIUS_GENODEF_13
 70
     0
  0
APPID
  2
GENIUS_GENOBJ-N-SDF_13
 70
     0
  0
APPID
  2
GENIUS_GENREC_14
 70
     0
  0
APPID
  2
GENIUS_GENOBJ-N-REC_13
 70
     0
  0
APPID
  2
GENIUS_GENDIMSH_14
 70
     0
  0
APPID
  2
GENIUS_GENOBJ-N-DIM_13
 70
     0
  0
APPID
  2
GENIUS_GENDIM_13
 70
     0
  0
APPID
  2
GENIUS_GENDTOL_13
 70
     0
  0
APPID
  2
GENIUS_GENOLIS_13
 70
     0
  0
APPID
  2
GENIUS_GENOENT_13
 70
     0
  0
APPID
  2
GENIUS_GENOBJ-F-FEM_13
 70
     0
  0
APPID
  2
GENIUS_GENOREF_13
 70
     0
  0
APPID
  2
GENIUS_GEFFEM_13
 70
     0
  0
APPID
  2
GENIUS_GEFFEMP_13
 70
     0
  0
APPID
  2
AD_DRAW
 70
     0
  0
APPID
  2
DESIGNERASSEMBLIES
 70
     0
  0
APPID
  2
ACADM_DIM_EDIT
 70
     0
  0
APPID
  2
AMDT_DM_ADJ
 70
     0
  0
APPID
  2
ITEMNAME
 70
     0
  0
APPID
  2
HATCH_TYPE
 70
     0
  0
APPID
  2
HATCH_DISPLAY
 70
     0
  0
APPID
  2
HATCH_DISTANCE
 70
     0
  0
ENDTAB
  0
TABLE
  2
DIMSTYLE
 70
    29
  0
DIMSTYLE
  2
BIGT
 70
     0
  3

  4

  5

  6

  7

 40
1.0
 41
2.2299999999999991
 42
0.5
 43
7.0
 44
1.0
 45
0.0
 46
0.0
 47
0.0
 48
0.01
140
2.799999999999998
141
0.0
142
0.0
143
25.399999999999999
144
1.0
145
0.0
146
1.0
147
1.0
 71
     0
 72
     0
 73
     0
 74
     0
 75
     0
 76
     0
 77
     3
 78
     9
170
     0
171
     2
172
     1
173
     0
174
     1
175
     0
176
   256
177
   256
178
    40
  0
DIMSTYLE
  2
AM_ANSI
 70
     0
  3

  4
mm
  5

  6

  7

 40
1.0
 41
0.1
 42
0.05
 43
0.5
 44
0.1
 45
0.0
 46
0.0
 47
0.1
 48
0.1
140
0.12
141
0.0
142
0.0
143
25.399999999999999
144
1.0
145
0.0
146
0.71
147
0.06
 71
     0
 72
     0
 73
     1
 74
     1
 75
     0
 76
     0
 77
     0
 78
     7
170
     0
171
     2
172
     0
173
     0
174
     0
175
     0
176
   256
177
   256
178
     2
  0
DIMSTYLE
  2
AM_ANSI$3
 70
     0
  3

  4
mm
  5

  6

  7

 40
1.0
 41
0.1
 42
0.05
 43
0.5
 44
0.1
 45
0.0
 46
0.0
 47
0.1
 48
0.1
140
0.12
141
0.0
142
0.0
143
25.399999999999999
144
1.0
145
0.0
146
0.71
147
0.06
 71
     0
 72
     0
 73
     1
 74
     1
 75
     0
 76
     0
 77
     0
 78
     7
170
     0
171
     2
172
     0
173
     0
174
     0
175
     0
176
   256
177
   256
178
     2
  0
DIMSTYLE
  2
AM_ANSI$4
 70
     0
  3

  4
mm
  5

  6

  7

 40
1.0
 41
0.1
 42
0.05
 43
0.5
 44
0.1
 45
0.0
 46
0.0
 47
0.1
 48
0.1
140
0.12
141
0.0
142
0.0
143
25.399999999999999
144
1.0
145
0.0
146
0.71
147
0.06
 71
     0
 72
     0
 73
     1
 74
     1
 75
     0
 76
     0
 77
     0
 78
     7
170
     0
171
     2
172
     0
173
     0
174
     0
175
     0
176
   256
177
   256
178
     2
  0
DIMSTYLE
  2
AM_ANSI$7
 70
     0
  3

  4
mm
  5

  6

  7

 40
1.0
 41
0.1
 42
0.05
 43
0.5
 44
0.1
 45
0.0
 46
0.0
 47
0.1
 48
0.1
140
0.24
141
0.0
142
0.0
143
25.399999999999999
144
1.0
145
0.0
146
0.71
147
0.06
 71
     0
 72
     0
 73
     1
 74
     1
 75
     0
 76
     0
 77
     0
 78
     7
170
     0
171
     2
172
     0
173
     0
174
     0
175
     0
176
   256
177
   256
178
     2
  0
DIMSTYLE
  2
AM_ANSI$SF
 70
     0
  3

  4
mm
  5

  6

  7

 40
1.0
 41
0.1
 42
0.05
 43
0.5
 44
0.1
 45
0.0
 46
0.0
 47
0.1
 48
0.1
140
0.12
141
0.0
142
0.0
143
25.399999999999999
144
1.0
145
0.0
146
0.71
147
0.06
 71
     0
 72
     0
 73
     1
 74
     1
 75
     1
 76
     1
 77
     0
 78
     7
170
     0
171
     2
172
     0
173
     0
174
     0
175
     0
176
   256
177
   256
178
     2
  0
DIMSTYLE
  2
AM_ANSI$SH
 70
     0
  3

  4
mm
  5

  6
GENAXEH
  7

 40
1.0
 41
0.1
 42
0.05
 43
0.5
 44
0.1
 45
0.0
 46
0.0
 47
0.1
 48
0.1
140
0.12
141
0.0
142
0.0
143
25.399999999999999
144
1.0
145
0.0
146
0.71
147
0.06
 71
     0
 72
     0
 73
     1
 74
     1
 75
     1
 76
     1
 77
     0
 78
     7
170
     0
171
     2
172
     0
173
     1
174
     0
175
     0
176
   256
177
   256
178
     2
  0
ENDTAB
  0
ENDSEC
  0
SECTION
  2
BLOCKS
  0
BLOCK
  8
0
  2
$MODEL_SPACE
 70
     0
 10
0.0
 20
0.0
 30
0.0
  3
$MODEL_SPACE
  1

  0
ENDBLK
  5
178E
  8
0
  0
BLOCK
 67
     1
  8
0
  2
$PAPER_SPACE
 70
     0
 10
0.0
 20
0.0
 30
0.0
  3
$PAPER_SPACE
  1

  0
ENDBLK
  5
178A
 67
     1
  8
0
  0
BLOCK
  8
0
  2
_OPEN
 70
     0
 10
0.0
 20
0.0
 30
0.0
  3
_OPEN
  1

  0
LINE
  5
15DF
  8
0
  6
BYBLOCK
 62
     0
 10
-1.0
 20
0.1666666666666666
 30
0.0
 11
0.0
 21
0.0
 31
0.0
  0
LINE
  5
15E0
  8
0
  6
BYBLOCK
 62
     0
 10
-1.0
 20
-0.1666666666666666
 30
0.0
 11
0.0
 21
0.0
 31
0.0
  0
LINE
  5
15E1
  8
0
  6
BYBLOCK
 62
     0
 10
0.0
 20
0.0
 30
0.0
 11
-1.0
 21
0.0
 31
0.0
  0
ENDBLK
  5
15E2
  8
0
  0
BLOCK
  8
0
  2
GENAXEH
 70
     0
 10
0.0
 20
0.0
 30
0.0
  3
GENAXEH
  1

  0
LINE
  5
160A
  8
0
 10
-1.0
 20
0.0
 30
0.0
 11
1.0
 21
0.0
 31
0.0
  0
ENDBLK
  5
160B
  8
0
  0
ENDSEC
  0
SECTION
  2
ENTITIES
  0
TEXT
  5
150E
  8
241
 10
-35.0
 20
63.0
 30
0.0
 40
5.0
  1
CKB3-C5262-45B-20
  7
YOKO
 11
-35.0
 21
63.0
 31
0.0
 73
     1
  0
LINE
  5
150F
  8
250
 10
-19.995582212357299
 20
-22.54652703841095
 30
0.0
 11
-33.995582212357313
 21
-22.54652703841095
 31
0.0
1001
ITEMNAME
1000
LNSP2
  0
LINE
  5
1510
  8
250
 10
-0.3875809745846952
 20
-15.500000000000011
 30
0.0
 11
-29.0
 21
-15.5
 31
0.0
  0
LINE
  5
1511
  8
250
 10
-0.3875809745846936
 20
15.50000000000003
 30
0.0
 11
-29.0
 21
15.500000000000041
 31
0.0
  0
LINE
  5
1512
  8
250
 10
-28.0
 20
-13.27000000000001
 30
0.0
 11
-28.0
 21
13.27000000000004
 31
0.0
  0
TEXT
  5
1513
  8
250
 10
-31.424153640928751
 20
-21.546527038410971
 30
0.0
 40
3.0
  1
CK3
  7
YOKO
1001
ITEMNAME
1000
LNSP3
1001
ACAD
1000
MTEXTBEGIN
1070
    73
1070
     1
1070
    44
1040
1.0
1070
    74
1070
     0
1000
MTEXTEND
  0
TEXT
  5
1514
  8
250
 10
-29.0
 20
-3.642857142857121
 30
0.0
 40
3.0
  1
\U+2205
 50
90.0
1001
ACAD
1000
MTEXTBEGIN
1070
    73
1070
     1
1070
    44
1040
1.0
1070
    74
1070
     0
1000
MTEXTEND
  0
TEXT
  5
1515
  8
250
 10
-29.0
 20
-0.9285714285714108
 30
0.0
 40
3.0
  1
31
 50
90.0
1001
ACAD
1000
MTEXTBEGIN
1070
    73
1070
     1
1070
    44
1040
1.0
1070
    74
1070
     0
1000
MTEXTEND
  0
LINE
  5
1516
  8
250
 10
-28.371666666666659
 20
13.27000000000004
 30
0.0
 11
-28.0
 21
15.500000000000041
 31
0.0
  0
LINE
  5
1517
  8
250
 10
-27.62833333333333
 20
13.27000000000004
 30
0.0
 11
-28.0
 21
15.500000000000041
 31
0.0
  0
LINE
  5
1518
  8
250
 10
-28.0
 20
15.500000000000041
 30
0.0
 11
-28.0
 21
13.27000000000004
 31
0.0
  0
LINE
  5
1519
  8
250
 10
-27.62833333333333
 20
-13.27000000000001
 30
0.0
 11
-28.0
 21
-15.5
 31
0.0
  0
LINE
  5
151A
  8
250
 10
-28.371666666666659
 20
-13.27000000000001
 30
0.0
 11
-28.0
 21
-15.5
 31
0.0
  0
LINE
  5
151B
  8
250
 10
-28.0
 20
-15.5
 30
0.0
 11
-28.0
 21
-13.27000000000001
 31
0.0
  0
LINE
  5
151C
  8
250
 10
-13.289491180146131
 20
-10.931236650439191
 30
0.0
 11
-19.995582212357299
 21
-22.54652703841095
 31
0.0
1001
ACAD
1000
DSTYLE
1002
{
1070
     5
1000
OPEN
1070
    78
1070
     8
1070
   140
1040
3.0
1002
}
  0
LINE
  5
151D
  8
250
 10
-13.611363955219341
 20
-10.745403317105851
 30
0.0
 11
-12.174491180146131
 21
-8.9999999999999005
 31
0.0
  0
LINE
  5
151E
  8
250
 10
-12.96761840507291
 20
-11.11706998377252
 30
0.0
 11
-12.174491180146131
 21
-8.9999999999999005
 31
0.0
  0
LINE
  5
151F
  8
250
 10
-12.174491180146131
 20
-8.9999999999999005
 30
0.0
 11
-13.289491180146131
 21
-10.931236650439191
 31
0.0
  0
LINE
  5
1520
  8
250
 10
12.10382644375821
 20
31.000000000000011
 30
0.0
 11
-42.999999999999851
 21
31.000000000000028
 31
0.0
  0
LINE
  5
1521
  8
250
 10
-41.999999999999837
 20
28.770000000000039
 30
0.0
 11
-41.999999999999851
 21
-4.533333333333851
 31
0.0
  0
LINE
  5
1522
  8
250
 10
7.1038272669387119
 20
26.000000000000011
 30
0.0
 11
-35.999999999999893
 21
26.000000000000021
 31
0.0
  0
LINE
  5
1523
  8
250
 10
-34.999999999999893
 20
23.770000000000021
 30
0.0
 11
-34.999999999999893
 21
-4.5333333333337711
 31
0.0
  0
LINE
  5
1524
  8
250
 10
15.09617437656237
 20
31.000000000000011
 30
0.0
 11
43.0
 21
31.0
 31
0.0
  0
LINE
  5
1525
  8
250
 10
42.000000000000007
 20
28.77
 30
0.0
 11
42.0
 21
-4.5333333333333261
 31
0.0
  0
LINE
  5
1526
  8
250
 10
20.096173450484251
 20
26.000000000000011
 30
0.0
 11
36.0
 21
26.000000000000011
 31
0.0
  0
LINE
  5
1527
  8
250
 10
35.0
 20
23.77000000000001
 30
0.0
 11
35.0
 21
-4.5333333333333252
 31
0.0
  0
LINE
  5
1528
  8
250
 10
14.80710731074217
 20
-31.289067119360009
 30
0.0
 11
50.0
 21
-31.28906711936002
 31
0.0
  0
LINE
  5
1529
  8
250
 10
14.80710731074217
 20
31.289067119359931
 30
0.0
 11
50.0
 21
31.289067119359931
 31
0.0
  0
LINE
  5
152A
  8
250
 10
48.999999999999993
 20
-29.05906711936003
 30
0.0
 11
49.000000000000007
 21
29.059067119359931
 31
0.0
  0
LINE
  5
152B
  8
250
 10
13.953553952890701
 20
31.64262054269507
 30
0.0
 11
7.5630702041554674
 21
38.033105475047847
 31
0.0
  0
ARC
  5
152C
  8
250
 10
19.963961443863841
 20
25.632211938500419
 30
0.0
 40
16.537510200819838
 50
97.73191294398309
 51
127.2680817499804
  0
LINE
  5
152D
  8
250
 10
0.0000000000000285
 20
15.99999974668024
 30
0.0
 11
0.0000000000000305
 21
50.0
 31
0.0
  0
LINE
  5
152E
  8
250
 10
19.963961443863781
 20
26.13221193850039
 30
0.0
 11
19.963961443863781
 21
50.0
 31
0.0
  0
LINE
  5
152F
  8
250
 10
2.2300000000000302
 20
49.0
 30
0.0
 11
17.73396144386378
 21
49.0
 31
0.0
  0
TEXT
  5
1530
  8
250
 10
-42.999999999999851
 20
-3.8000000000005212
 30
0.0
 40
2.799999999999998
  1
\U+220562
 50
90.0
  0
LINE
  5
1531
  8
250
 10
-42.371666666666492
 20
28.770000000000039
 30
0.0
 11
-41.999999999999837
 21
31.000000000000028
 31
0.0
  0
LINE
  5
1532
  8
250
 10
-41.628333333333167
 20
28.770000000000039
 30
0.0
 11
-41.999999999999837
 21
31.000000000000028
 31
0.0
  0
LINE
  5
1533
  8
250
 10
-41.999999999999837
 20
31.000000000000028
 30
0.0
 11
-41.999999999999837
 21
28.770000000000039
 31
0.0
  0
TEXT
  5
1534
  8
250
 10
-35.999999999999893
 20
-3.800000000000443
 30
0.0
 40
2.799999999999998
  1
\U+220552
 50
90.0
  0
LINE
  5
1535
  8
250
 10
-35.37166666666657
 20
23.770000000000021
 30
0.0
 11
-34.999999999999893
 21
26.000000000000021
 31
0.0
  0
LINE
  5
1536
  8
250
 10
-34.628333333333217
 20
23.770000000000021
 30
0.0
 11
-34.999999999999893
 21
26.000000000000021
 31
0.0
  0
LINE
  5
1537
  8
250
 10
-34.999999999999893
 20
26.000000000000021
 30
0.0
 11
-34.999999999999893
 21
23.770000000000021
 31
0.0
  0
TEXT
  5
1538
  8
250
 10
41.0
 20
-3.7999999999999829
 30
0.0
 40
2.799999999999998
  1
\U+220562
 50
90.0
  0
LINE
  5
1539
  8
250
 10
41.628333333333337
 20
28.77
 30
0.0
 11
42.000000000000007
 21
31.0
 31
0.0
  0
LINE
  5
153A
  8
250
 10
42.371666666666663
 20
28.77
 30
0.0
 11
42.000000000000007
 21
31.0
 31
0.0
  0
LINE
  5
153B
  8
250
 10
42.000000000000007
 20
31.0
 30
0.0
 11
42.000000000000007
 21
28.77
 31
0.0
  0
TEXT
  5
153C
  8
250
 10
33.999999999999993
 20
-3.7999999999999829
 30
0.0
 40
2.799999999999998
  1
\U+220552
 50
90.0
  0
LINE
  5
153D
  8
250
 10
34.62833333333333
 20
23.77000000000001
 30
0.0
 11
35.0
 21
26.000000000000011
 31
0.0
  0
LINE
  5
153E
  8
250
 10
35.37166666666667
 20
23.77000000000001
 30
0.0
 11
35.0
 21
26.000000000000011
 31
0.0
  0
LINE
  5
153F
  8
250
 10
35.0
 20
26.000000000000011
 30
0.0
 11
35.0
 21
23.77000000000001
 31
0.0
  0
TEXT
  5
1540
  8
250
 10
48.0
 20
-5.8952380952381374
 30
0.0
 40
3.0
  1
\U+2205
 50
90.0
  0
TEXT
  5
1541
  8
250
 10
47.899999999999999
 20
-3.1809523809524221
 30
0.0
 40
2.799999999999998
  1
62.7
 50
90.0
  0
LINE
  5
1542
  8
250
 10
48.628333333333337
 20
29.059067119359931
 30
0.0
 11
49.000000000000007
 21
31.289067119359931
 31
0.0
  0
LINE
  5
1543
  8
250
 10
49.371666666666677
 20
29.059067119359931
 30
0.0
 11
49.000000000000007
 21
31.289067119359931
 31
0.0
  0
LINE
  5
1544
  8
250
 10
49.000000000000007
 20
31.289067119359931
 30
0.0
 11
49.000000000000007
 21
29.059067119359931
 31
0.0
  0
LINE
  5
1545
  8
250
 10
49.371666666666663
 20
-29.05906711936003
 30
0.0
 11
48.999999999999993
 21
-31.28906711936002
 31
0.0
  0
LINE
  5
1546
  8
250
 10
48.628333333333323
 20
-29.05906711936003
 30
0.0
 11
48.999999999999993
 21
-31.28906711936002
 31
0.0
  0
LINE
  5
1547
  8
250
 10
48.999999999999993
 20
-31.28906711936002
 30
0.0
 11
48.999999999999993
 21
-29.05906711936003
 31
0.0
  0
TEXT
  5
1548
  8
250
 10
9.8266014718981882
 20
41.775984013907703
 30
0.0
 40
2.799999999999998
  1
45üï
 50
18.327789885020032
  0
LINE
  5
1549
  8
250
 10
10.194242909486199
 20
38.51301428904469
 30
0.0
 11
8.2701769198584003
 21
37.325998628377711
 31
0.0
  0
LINE
  5
154A
  8
250
 10
9.7052612903710873
 20
39.072872682401439
 30
0.0
 11
8.2701769198584003
 21
37.325998628377711
 31
0.0
  0
LINE
  5
154B
  8
250
 10
8.2701769198584003
 20
37.325998628377711
 30
0.0
 11
9.9497520999286468
 21
38.792943485723072
 31
0.0
  0
LINE
  5
154C
  8
250
 10
17.713977084837509
 20
42.390190947201049
 30
0.0
 11
19.963961443863749
 21
42.169722139320257
 31
0.0
  0
LINE
  5
154D
  8
250
 10
17.764094463850562
 20
41.648549057361151
 30
0.0
 11
19.963961443863749
 21
42.169722139320257
 31
0.0
  0
LINE
  5
154E
  8
250
 10
19.963961443863749
 20
42.169722139320257
 30
0.0
 11
17.739035774344028
 21
42.0193700022811
 31
0.0
  0
TEXT
  5
154F
  8
250
 10
7.3153140552652332
 20
50.0
 30
0.0
 40
2.799999999999998
  1
20
  0
LINE
  5
1550
  8
250
 10
17.73396144386378
 20
49.37166666666667
 30
0.0
 11
19.963961443863781
 21
49.0
 31
0.0
  0
LINE
  5
1551
  8
250
 10
17.73396144386378
 20
48.62833333333333
 30
0.0
 11
19.963961443863781
 21
49.0
 31
0.0
  0
LINE
  5
1552
  8
250
 10
19.963961443863781
 20
49.0
 30
0.0
 11
17.73396144386378
 21
49.0
 31
0.0
  0
LINE
  5
1553
  8
250
 10
2.2300000000000302
 20
48.62833333333333
 30
0.0
 11
0.0000000000000305
 21
49.0
 31
0.0
  0
LINE
  5
1554
  8
250
 10
2.2300000000000302
 20
49.37166666666667
 30
0.0
 11
0.0000000000000305
 21
49.0
 31
0.0
  0
LINE
  5
1555
  8
250
 10
0.0000000000000305
 20
49.0
 30
0.0
 11
2.2300000000000302
 21
49.0
 31
0.0
  0
LINE
  5
1882
  8
240
 10
-0.0000000000000284
 20
-15.49999974668027
 30
0.0
 11
-0.0000000000000165
 21
-9.0000000000000391
 31
0.0
  0
LINE
  5
1883
  8
240
 10
0.0000000000000165
 20
9.00000000000027
 30
0.0
 11
0.0000000000000284
 21
15.50000000202655
 31
0.0
  0
LINE
  5
1884
  8
241
 10
7.6999999582767202
 20
-11.31748501211406
 30
0.0
 11
7.6999999582767771
 21
3.0230926349758951
 31
0.0
  0
LINE
  5
1885
  8
241
 10
19.50000040233132
 20
-10.891511105000991
 30
0.0
 11
19.50000040233132
 21
-10.6188226491213
 31
0.0
  0
LINE
  5
1886
  8
240
 10
19.50000040233132
 20
-10.6188226491213
 30
0.0
 11
19.50000040233132
 21
10.577980287729419
 31
0.0
  0
LINE
  5
1887
  8
241
 10
19.50000040233132
 20
-25.50943568348886
 30
0.0
 11
19.50000040233132
 21
-23.75403605401517
 31
0.0
  0
LINE
  5
1888
  8
240
 10
19.50000040233132
 20
-23.75403605401517
 30
0.0
 11
19.50000040233132
 21
-14.3471240546716
 31
0.0
  0
LINE
  5
1889
  8
241
 10
7.6999999582767202
 20
-25.54481476545336
 30
0.0
 11
7.6999999582767202
 21
-23.75403605401517
 31
0.0
  0
LINE
  5
188A
  8
240
 10
7.6999999582767202
 20
-23.75403605401517
 30
0.0
 11
7.6999999582767202
 21
-20.503576844930659
 31
0.0
  0
LINE
  5
188B
  8
240
 10
12.89289351552722
 20
-31.289067119359991
 30
0.0
 11
7.2360392659902271
 21
-25.632211938500419
 31
0.0
  0
LINE
  5
188C
  8
240
 10
19.963961443863781
 20
-25.632211938500419
 30
0.0
 11
14.30710731074211
 21
-31.289067119359991
 31
0.0
  0
LINE
  5
188D
  8
240
 10
19.50000040233132
 20
-23.75403605401517
 30
0.0
 11
19.963961443863781
 21
-24.217998608946829
 31
0.0
  0
LINE
  5
188E
  8
240
 10
19.963961443863781
 20
-24.217998608946829
 30
0.0
 11
19.963961443863781
 21
-25.632211938500419
 31
0.0
  0
LINE
  5
188F
  8
241
 10
14.20000055804846
 20
-30.854295939207091
 30
0.0
 11
14.20000055804846
 21
-29.505990445613879
 31
0.0
  0
LINE
  5
1890
  8
241
 10
13.00000026822087
 20
-30.854295939207091
 30
0.0
 11
13.00000026822087
 21
-29.505990445613879
 31
0.0
  0
LINE
  5
1891
  8
240
 10
14.30710731074211
 20
-31.289067119359991
 30
0.0
 11
12.89289351552722
 21
-31.289067119359991
 31
0.0
  0
LINE
  5
1892
  8
241
 10
13.00000026822087
 20
-30.854295939207091
 30
0.0
 11
14.20000055804846
 21
-30.854295939207091
 31
0.0
  0
LINE
  5
1893
  8
241
 10
13.00000026822087
 20
-29.505990445613879
 30
0.0
 11
14.20000055804846
 21
-29.505990445613879
 31
0.0
  0
LINE
  5
1894
  8
240
 10
7.2360392659902271
 20
-24.217998608946829
 30
0.0
 11
7.6999999582767202
 21
-23.75403605401517
 31
0.0
  0
LINE
  5
1895
  8
240
 10
7.2360392659902271
 20
-25.632211938500419
 30
0.0
 11
7.2360392659902271
 21
-24.217998608946829
 31
0.0
  0
LINE
  5
1896
  8
241
 10
12.89289351552722
 20
-16.943570226430911
 30
0.0
 11
7.2360392659902271
 21
-14.115143567323701
 31
0.0
  0
LINE
  5
1897
  8
241
 10
13.00000026822087
 20
-13.97222559899093
 30
0.0
 11
13.00000026822087
 21
-6.8059908226132499
 31
0.0
  0
LINE
  5
1898
  8
241
 10
14.20000055804846
 20
-13.97222559899093
 30
0.0
 11
14.20000055804846
 21
-6.8059908226132499
 31
0.0
  0
LINE
  5
1899
  8
240
 10
19.963961443863781
 20
-14.115143567323701
 30
0.0
 11
19.50000040233132
 21
-14.3471240546716
 31
0.0
  0
LINE
  5
189A
  8
241
 10
19.50000040233132
 20
-14.3471240546716
 30
0.0
 11
14.30710731074211
 21
-16.943570226430911
 31
0.0
  0
LINE
  5
189B
  8
240
 10
19.963961443863781
 20
-13.4080369025469
 30
0.0
 11
19.573506528104161
 21
-10.655575431883349
 31
0.0
  0
LINE
  5
189C
  8
241
 10
19.04720365724706
 20
-11.544364016040671
 30
0.0
 11
19.863536785123841
 21
-13.406441546976581
 31
0.0
  0
LINE
  5
189D
  8
240
 10
19.963961443863781
 20
-13.4080369025469
 30
0.0
 11
19.963961443863781
 21
-14.115143567323701
 31
0.0
  0
LINE
  5
189E
  8
241
 10
19.863536785123841
 20
-13.406441546976581
 30
0.0
 11
19.963961443863781
 21
-14.115143567323701
 31
0.0
  0
LINE
  5
189F
  8
240
 10
19.50000040233132
 20
-10.6188226491213
 30
0.0
 11
19.573506528104161
 21
-10.655575431883349
 31
0.0
  0
LINE
  5
18A0
  8
241
 10
12.38091107995797
 20
-13.6622132078594
 30
0.0
 11
12.893665116280291
 21
-16.185041517019279
 31
0.0
  0
LINE
  5
18A1
  8
241
 10
14.30237116188712
 20
-13.92096402674164
 30
0.0
 11
12.893665116280291
 21
-16.185041517019279
 31
0.0
  0
LINE
  5
18A2
  8
241
 10
14.30710731074211
 20
-16.943570226430911
 30
0.0
 11
14.304032473553219
 21
-13.920132132469529
 31
0.0
  0
LINE
  5
18A3
  8
241
 10
12.893665116280291
 20
-16.185041517019279
 30
0.0
 11
12.89289351552722
 21
-16.943570226430911
 31
0.0
  0
LINE
  5
18A4
  8
241
 10
14.30710731074211
 20
-16.943570226430911
 30
0.0
 11
12.89289351552722
 21
-16.943570226430911
 31
0.0
  0
LINE
  5
18A5
  8
241
 10
13.00000026822087
 20
-13.97222559899093
 30
0.0
 11
14.20000055804846
 21
-13.97222559899093
 31
0.0
  0
LINE
  5
18A6
  8
241
 10
13.00000026822087
 20
-6.8059908226132499
 30
0.0
 11
14.20000055804846
 21
-6.8059908226132499
 31
0.0
  0
LINE
  5
18A7
  8
240
 10
7.6999999582767202
 20
-15.51316864788534
 30
0.0
 11
7.6999999582767202
 21
-16.453515738248839
 31
0.0
  0
LINE
  5
18A8
  8
240
 10
7.6999999582767202
 20
-16.453515738248839
 30
0.0
 11
7.6999999582767202
 21
-20.503576844930659
 31
0.0
  0
LINE
  5
18A9
  8
241
 10
7.2360392659902271
 20
-14.115143567323701
 30
0.0
 11
7.7000004023313124
 21
-11.31748508212344
 31
0.0
  0
LINE
  5
18AA
  8
241
 10
7.6999999582767202
 20
-14.347123913466939
 30
0.0
 11
7.6999999582767202
 21
-15.51316864788534
 31
0.0
  0
LINE
  5
18AB
  8
240
 10
19.963961443863781
 20
24.21799860894679
 30
0.0
 11
19.963961443863781
 21
25.63221193850039
 31
0.0
  0
LINE
  5
18AC
  8
240
 10
7.2360392659902839
 20
25.63221193850039
 30
0.0
 11
7.2360392659902839
 21
24.21799860894679
 31
0.0
  0
LINE
  5
18AD
  8
241
 10
12.39780616015198
 20
16.65518432855605
 30
0.0
 11
7.626494392752674
 21
14.26952891051768
 31
0.0
  0
LINE
  5
18AE
  8
241
 10
12.89289351552727
 20
14.34549503028391
 30
0.0
 11
7.2360392659902839
 21
11.517067439854131
 31
0.0
  0
LINE
  5
18AF
  8
241
 10
7.2360392659902839
 20
10.809960775077331
 30
0.0
 11
12.89289351552727
 21
7.9815341159701179
 31
0.0
  0
LINE
  5
18B0
  8
241
 10
19.075420044828181
 20
14.518572017550451
 30
0.0
 11
19.50000040233132
 21
13.726294040679919
 31
0.0
  0
LINE
  5
18B1
  8
240
 10
19.50000040233132
 20
13.726294040679919
 30
0.0
 11
19.573506528104161
 21
13.589129783213121
 31
0.0
  0
LINE
  5
18B2
  8
241
 10
19.075420044828181
 20
14.518572017550451
 30
0.0
 11
19.863536785123841
 21
12.224998325109469
 31
0.0
  0
LINE
  5
18B3
  8
241
 10
19.963961443863781
 20
11.517067439854131
 30
0.0
 11
14.30710731074217
 21
14.34549503028391
 31
0.0
  0
LINE
  5
18B4
  8
240
 10
19.50000040233132
 20
14.617924578487861
 30
0.0
 11
19.50000040233132
 21
13.726294040679919
 31
0.0
  0
LINE
  5
18B5
  8
241
 10
14.30710731074217
 20
7.9815341159701179
 30
0.0
 11
19.50000040233132
 21
10.577980287729419
 31
0.0
  0
LINE
  5
18B6
  8
240
 10
19.50000040233132
 20
10.577980287729419
 30
0.0
 11
19.963961443863781
 21
10.809960775077331
 31
0.0
  0
LINE
  5
18B7
  8
240
 10
19.963961443863781
 20
10.809960775077331
 30
0.0
 11
19.963961443863781
 21
11.517067439854131
 31
0.0
  0
LINE
  5
18B8
  8
240
 10
19.573506528104161
 20
13.589129783213121
 30
0.0
 11
19.863536785123841
 21
12.224998325109469
 31
0.0
  0
LINE
  5
18B9
  8
240
 10
19.863536785123841
 20
12.224998325109469
 30
0.0
 11
19.963961443863781
 21
11.517067439854131
 31
0.0
  0
LINE
  5
18BA
  8
241
 10
12.89289351552727
 20
7.9815341159701179
 30
0.0
 11
14.30710731074217
 21
7.9815341159701179
 31
0.0
  0
ARC
  5
18BB
  8
241
 10
16.626654995717761
 20
7.5928732495472211
 30
0.0
 40
1.3866059365416961
 50
116.57103680961851
 51
117.53853512844699
  0
ARC
  5
18BC
  8
241
 10
10.57259312344374
 20
7.5914270731430653
 30
0.0
 40
1.388236164051595
 50
62.46152321199385
 51
63.427868238997249
  0
LINE
  5
18BD
  8
241
 10
19.075420044828181
 20
14.518572017550451
 30
0.0
 11
14.304107986390621
 21
16.904227435588819
 31
0.0
  0
LINE
  5
18BE
  8
240
 10
19.50000040233132
 20
14.617924578487861
 30
0.0
 11
19.50000040233132
 21
23.474246263504011
 31
0.0
  0
LINE
  5
18BF
  8
241
 10
18.98489292943847
 20
23.238928988575921
 30
0.0
 11
19.50000040233132
 21
23.754036054015149
 31
0.0
  0
LINE
  5
18C0
  8
240
 10
19.50000040233132
 20
23.754036054015149
 30
0.0
 11
19.963961443863781
 21
24.21799860894679
 31
0.0
  0
LINE
  5
18C1
  8
240
 10
19.50000040233132
 20
23.467784747481328
 30
0.0
 11
19.50000040233132
 21
23.754036054015149
 31
0.0
  0
LINE
  5
18C2
  8
241
 10
13.00000026822093
 20
16.735862999988591
 30
0.0
 11
13.00000026822093
 21
22.700000554323179
 31
0.0
  0
LINE
  5
18C3
  8
241
 10
14.20000055804851
 20
16.88207127153872
 30
0.0
 11
14.20000055804851
 21
22.700000554323179
 31
0.0
  0
LINE
  5
18C4
  8
241
 10
12.39780616015198
 20
16.65518432855605
 30
0.0
 11
14.256690163165359
 21
16.904227435588819
 31
0.0
  0
LINE
  5
18C5
  8
241
 10
14.256690163165359
 20
16.904227435588819
 30
0.0
 11
12.89366511628034
 21
15.00359829515217
 31
0.0
  0
LINE
  5
18C6
  8
241
 10
14.30710731074217
 20
14.34549503028391
 30
0.0
 11
14.304107986390621
 21
16.904227435588819
 31
0.0
  0
LINE
  5
18C7
  8
241
 10
12.39780616015198
 20
16.65518432855605
 30
0.0
 11
12.89366511628034
 21
15.00359829515217
 31
0.0
  0
LINE
  5
18C8
  8
241
 10
12.89366511628034
 20
15.00359829515217
 30
0.0
 11
12.89289351552727
 21
14.34549503028391
 31
0.0
  0
LINE
  5
18C9
  8
241
 10
14.30710731074217
 20
14.34549503028391
 30
0.0
 11
12.89289351552727
 21
14.34549503028391
 31
0.0
  0
LINE
  5
18CA
  8
241
 10
14.256690163165359
 20
16.904227435588819
 30
0.0
 11
14.304107986390621
 21
16.904227435588819
 31
0.0
  0
LINE
  5
18CB
  8
241
 10
7.2360392659902839
 20
11.517067439854131
 30
0.0
 11
7.626494392752674
 21
14.26952891051768
 31
0.0
  0
LINE
  5
18CC
  8
241
 10
7.6999999582767771
 20
8.3374381065368528
 30
0.0
 11
7.6999999582767771
 21
7.073154207319007
 31
0.0
  0
LINE
  5
18CD
  8
241
 10
7.6999999582767771
 20
7.073154207319007
 30
0.0
 11
7.6999999582767771
 21
3.0230926349758951
 31
0.0
  0
LINE
  5
18CE
  8
241
 10
7.2360392659902839
 20
11.517067439854131
 30
0.0
 11
7.2360392659902839
 21
10.809960775077331
 31
0.0
  0
LINE
  5
18CF
  8
241
 10
7.6999999582767771
 20
10.579817928373799
 30
0.0
 11
7.6999999582767771
 21
8.3374381065368528
 31
0.0
  0
LINE
  5
18D0
  8
241
 10
7.6999999582767771
 20
14.306281693279731
 30
0.0
 11
7.6999999582767771
 21
15.49999974668024
 31
0.0
  0
LINE
  5
18D1
  8
240
 10
7.6999999582767771
 20
15.49999974668024
 30
0.0
 11
7.6999999582767771
 21
23.526670411229119
 31
0.0
  0
LINE
  5
18D2
  8
240
 10
7.2360392659902839
 20
24.21799860894679
 30
0.0
 11
7.6999999582767771
 21
23.75428192317484
 31
0.0
  0
LINE
  5
18D3
  8
241
 10
7.6999999582767771
 20
23.75428192317484
 30
0.0
 11
8.1333518028259544
 21
23.320686072111119
 31
0.0
  0
LINE
  5
18D4
  8
240
 10
7.6999999582767771
 20
23.75428192317484
 30
0.0
 11
7.6999999582767771
 21
23.526670411229119
 31
0.0
  0
LINE
  5
18D5
  8
240
 10
12.89289351552727
 20
31.289067119359959
 30
0.0
 11
7.2360392659902839
 21
25.63221193850039
 31
0.0
  0
LINE
  5
18D6
  8
240
 10
19.963961443863781
 20
25.63221193850039
 30
0.0
 11
14.30710731074217
 21
31.289067119359959
 31
0.0
  0
LINE
  5
18D7
  8
240
 10
14.30710731074217
 20
31.289067119359959
 30
0.0
 11
12.89289351552727
 21
31.289067119359959
 31
0.0
  0
LINE
  5
18D8
  8
245
 10
-23.492187944865609
 20
-0.0000000000000142
 30
0.0
 11
22.91005893935019
 21
0.0000000000000142
 31
0.0
  0
LINE
  5
18D9
  8
241
 10
19.50000040233132
 20
-10.891511105000991
 30
0.0
 11
19.05794515932828
 21
-11.53898205886072
 31
0.0
  0
LINE
  5
18DA
  8
245
 10
-7.9999999999999423
 20
4.0476130000000543
 30
0.0
 11
-7.9999999999999423
 21
-3.988156000000016
 31
0.0
  0
CIRCLE
  5
18DB
  8
241
 10
-7.9999999999999423
 20
-0.0000000000000142
 30
0.0
 40
2.9904999999999982
  0
CIRCLE
  5
18DC
  8
241
 10
-7.9999999999999423
 20
-0.0000000000000142
 30
0.0
 40
2.25
  0
LINE
  5
18DD
  8
241
 10
-17.603127999999991
 20
8.6732439999999968
 30
0.0
 11
-17.60312799999987
 21
-0.0000000000000426
 31
0.0
  0
LINE
  5
18DE
  8
241
 10
-15.75
 20
8.9999999999999876
 30
0.0
 11
-15.75
 21
-0.0000000000000426
 31
0.0
  0
LINE
  5
18DF
  8
240
 10
-20.0
 20
8.6339750000000031
 30
0.0
 11
-20.0
 21
-8.6339739999999772
 31
0.0
  0
LINE
  5
18E0
  8
240
 10
-1.506567121317089
 20
-8.9999999999998153
 30
0.0
 11
0.0
 21
-9.0000000000000391
 31
0.0
  0
LINE
  5
18E1
  8
240
 10
-15.75
 20
-9.0000000000000142
 30
0.0
 11
-8.4934328786828779
 21
-8.9999999999998153
 31
0.0
  0
LINE
  5
18E2
  8
241
 10
-17.603127999999991
 20
-8.6732429999999692
 30
0.0
 11
-17.60312799999998
 21
-0.0000000000000426
 31
0.0
  0
LINE
  5
18E3
  8
241
 10
-15.75
 20
-9.0000000000000142
 30
0.0
 11
-15.75
 21
-0.0000000000000426
 31
0.0
  0
LINE
  5
18E4
  8
240
 10
-17.603127999999991
 20
-8.6732429999999692
 30
0.0
 11
-19.413175999999989
 21
-8.9924039999999774
 31
0.0
  0
LINE
  5
18E5
  8
240
 10
-20.0
 20
-8.6339739999999772
 30
0.0
 11
-19.933011999999991
 21
-8.7500000000000142
 31
0.0
  0
ARC
  5
18E6
  8
240
 10
-19.5
 20
-8.5000000000000142
 30
0.0
 40
0.5
 50
209.99999999999969
 51
280.00000000000011
  0
LINE
  5
18E7
  8
240
 10
-17.603127999999991
 20
-8.6732429999999692
 30
0.0
 11
-15.75
 21
-9.0000000000000142
 31
0.0
  0
LINE
  5
18E8
  8
240
 10
-6.9481199999999852
 20
-11.000000000000011
 30
0.0
 11
-3.0518799999999802
 21
-11.000000000000011
 31
0.0
  0
LINE
  5
18E9
  8
241
 10
-8.4934328786828779
 20
-8.9999999999998401
 30
0.0
 11
-1.506567121317089
 21
-8.9999999999997851
 31
0.0
  0
ARC
  5
18EA
  8
240
 10
-6.9481199999999852
 20
-10.19999999999999
 30
0.0
 40
0.8
 50
209.99999999999969
 51
270.0
  0
ARC
  5
18EB
  8
240
 10
-7.699999999999986
 20
-8.8977049999999842
 30
0.0
 40
0.8
 50
187.34643399999879
 51
209.99999999999969
  0
LINE
  5
18EC
  8
240
 10
-8.3928200000000004
 20
-9.2977049999999597
 30
0.0
 11
-7.6409399999999961
 21
-10.599999999999961
 31
0.0
  0
ARC
  5
18ED
  8
240
 10
-2.2999999999999781
 20
-8.8977049999999842
 30
0.0
 40
0.8
 50
330.00000000000028
 51
352.6535295677532
  0
ARC
  5
18EE
  8
240
 10
-3.0518799999999802
 20
-10.19999999999999
 30
0.0
 40
0.8
 50
270.0
 51
330.00000000000028
  0
LINE
  5
18EF
  8
240
 10
-1.607178999999999
 20
-9.2977049999999597
 30
0.0
 11
-2.3590599999999702
 21
-10.599999999999961
 31
0.0
  0
LINE
  5
18F0
  8
240
 10
-1.506566992390697
 20
9.000000000000524
 30
0.0
 11
0.0
 21
9.00000000000027
 31
0.0
  0
LINE
  5
18F1
  8
240
 10
-15.75
 20
8.9999999999999876
 30
0.0
 11
-8.4934330076092692
 21
9.0000000000004121
 31
0.0
  0
LINE
  5
18F2
  8
240
 10
-17.603127999999991
 20
8.6732439999999968
 30
0.0
 11
-19.413175999999989
 21
8.9924040000000058
 31
0.0
  0
LINE
  5
18F3
  8
240
 10
-20.0
 20
8.6339750000000031
 30
0.0
 11
-19.933011999999991
 21
8.7499999999999876
 31
0.0
  0
ARC
  5
18F4
  8
240
 10
-19.5
 20
8.4999999999999876
 30
0.0
 40
0.5
 50
79.999999999999815
 51
149.9999999999998
  0
LINE
  5
18F5
  8
240
 10
-17.603127999999991
 20
8.6732439999999968
 30
0.0
 11
-15.75
 21
8.9999999999999876
 31
0.0
  0
LINE
  5
18F6
  8
240
 10
-6.9481199999999852
 20
11.00000000000003
 30
0.0
 11
-3.0518799999999802
 21
11.00000000000003
 31
0.0
  0
LINE
  5
18F7
  8
241
 10
-8.4934330076092692
 20
9.0000000000003801
 30
0.0
 11
-1.506566992390697
 21
9.000000000000524
 31
0.0
  0
ARC
  5
18F8
  8
240
 10
-6.9481199999999852
 20
10.200000000000021
 30
0.0
 40
0.8
 50
90.0
 51
149.9999999999998
  0
ARC
  5
18F9
  8
240
 10
-7.699999999999986
 20
8.8977060000000137
 30
0.0
 40
0.8
 50
149.9999999999998
 51
172.65356600000109
  0
LINE
  5
18FA
  8
240
 10
-8.3928200000000004
 20
9.2977059999999874
 30
0.0
 11
-7.6409399999999961
 21
10.60000000000006
 31
0.0
  0
ARC
  5
18FB
  8
240
 10
-2.2999999999999781
 20
8.8977060000000137
 30
0.0
 40
0.8
 50
7.3463806196974613
 51
29.999999999999719
  0
ARC
  5
18FC
  8
240
 10
-3.0518799999999802
 20
10.200000000000021
 30
0.0
 40
0.8
 50
29.999999999999719
 51
90.0
  0
LINE
  5
18FD
  8
240
 10
-1.607178999999999
 20
9.2977059999999874
 30
0.0
 11
-2.3590599999999702
 21
10.60000000000006
 31
0.0
  0
LINE
  5
18FE
  8
241
 10
0.0
 20
9.00000000000027
 30
0.0
 11
0.0
 21
-9.0000000000000391
 31
0.0
  0
TEXT
  5
18FF
  8
247
 10
4.6786664318371987
 20
-9.4590457399635532
 30
0.0
 40
2.0
  1
CKB3-C5262-45B-20
 50
90.0
 41
0.6
  7
YOKO
 11
4.6786664318371987
 21
-9.4590457399635532
 31
0.0
 73
     1
  0
LINE
  5
1965
  8
241
 10
10.7422
 20
22.704599999999999
 30
0.0
 11
16.393985719991569
 21
22.704599999999999
 31
0.0
  0
ARC
  5
1966
  8
241
 10
11.000074856999181
 20
29.698810497120061
 30
0.0
 40
6.998962774575733
 50
241.92064431517321
 51
267.88847484589593
  0
ARC
  5
1967
  8
241
 10
16.32660532926166
 20
29.628723489620452
 30
0.0
 40
6.9244513296411219
 50
270.55754207161999
 51
297.27671008891429
  0
ARC
  5
1968
  8
241
 10
13.81016874612984
 20
1.1741803037359471
 30
0.0
 40
6.930245806242155
 50
34.813536673780703
 51
47.716886320056147
  0
POLYLINE
  5
1969
  8
241
 66
     1
 10
0.0
 20
0.0
 30
0.0
 70
     8
  0
VERTEX
  5
196A
  8
241
 10
19.2074
 20
10.4335
 30
0.0
 70
    32
  0
VERTEX
  5
196B
  8
241
 10
19.212299999999999
 20
10.3786
 30
0.0
 70
    32
  0
VERTEX
  5
196C
  8
241
 10
19.217099999999999
 20
10.323700000000001
 30
0.0
 70
    32
  0
VERTEX
  5
196D
  8
241
 10
19.222000000000001
 20
10.268800000000001
 30
0.0
 70
    32
  0
VERTEX
  5
196E
  8
241
 10
19.226800000000001
 20
10.214
 30
0.0
 70
    32
  0
VERTEX
  5
196F
  8
241
 10
19.2315
 20
10.1591
 30
0.0
 70
    32
  0
VERTEX
  5
1970
  8
241
 10
19.2361
 20
10.104200000000001
 30
0.0
 70
    32
  0
VERTEX
  5
1971
  8
241
 10
19.2407
 20
10.049300000000001
 30
0.0
 70
    32
  0
VERTEX
  5
1972
  8
241
 10
19.245100000000001
 20
9.9943500000000007
 30
0.0
 70
    32
  0
VERTEX
  5
1973
  8
241
 10
19.249400000000001
 20
9.9394399999999994
 30
0.0
 70
    32
  0
VERTEX
  5
1974
  8
241
 10
19.253599999999999
 20
9.8845200000000002
 30
0.0
 70
    32
  0
VERTEX
  5
1975
  8
241
 10
19.2576
 20
9.8295899999999996
 30
0.0
 70
    32
  0
VERTEX
  5
1976
  8
241
 10
19.261399999999998
 20
9.7746499999999994
 30
0.0
 70
    32
  0
VERTEX
  5
1977
  8
241
 10
19.2651
 20
9.7197099999999992
 30
0.0
 70
    32
  0
VERTEX
  5
1978
  8
241
 10
19.2685
 20
9.6647499999999997
 30
0.0
 70
    32
  0
VERTEX
  5
1979
  8
241
 10
19.271699999999999
 20
9.6097800000000007
 30
0.0
 70
    32
  0
VERTEX
  5
197A
  8
241
 10
19.274699999999999
 20
9.5548000000000002
 30
0.0
 70
    32
  0
VERTEX
  5
197B
  8
241
 10
19.2774
 20
9.4998100000000001
 30
0.0
 70
    32
  0
VERTEX
  5
197C
  8
241
 10
19.279900000000001
 20
9.4448000000000008
 30
0.0
 70
    32
  0
VERTEX
  5
197D
  8
241
 10
19.282
 20
9.38978
 30
0.0
 70
    32
  0
VERTEX
  5
197E
  8
241
 10
19.283899999999999
 20
9.3347499999999997
 30
0.0
 70
    32
  0
VERTEX
  5
197F
  8
241
 10
19.285499999999999
 20
9.2796899999999987
 30
0.0
 70
    32
  0
VERTEX
  5
1980
  8
241
 10
19.2867
 20
9.2246299999999994
 30
0.0
 70
    32
  0
VERTEX
  5
1981
  8
241
 10
19.287600000000001
 20
9.1695399999999996
 30
0.0
 70
    32
  0
VERTEX
  5
1982
  8
241
 10
19.2881
 20
9.1144400000000001
 30
0.0
 70
    32
  0
VERTEX
  5
1983
  8
241
 10
19.2882
 20
9.0593099999999982
 30
0.0
 70
    32
  0
VERTEX
  5
1984
  8
241
 10
19.2879
 20
9.0041700000000002
 30
0.0
 70
    32
  0
VERTEX
  5
1985
  8
241
 10
19.287299999999998
 20
8.9490100000000012
 30
0.0
 70
    32
  0
VERTEX
  5
1986
  8
241
 10
19.286200000000001
 20
8.8938199999999998
 30
0.0
 70
    32
  0
VERTEX
  5
1987
  8
241
 10
19.284600000000001
 20
8.8386099999999992
 30
0.0
 70
    32
  0
VERTEX
  5
1988
  8
241
 10
19.282599999999999
 20
8.7833800000000011
 30
0.0
 70
    32
  0
VERTEX
  5
1989
  8
241
 10
19.280100000000001
 20
8.7281300000000002
 30
0.0
 70
    32
  0
VERTEX
  5
198A
  8
241
 10
19.277200000000001
 20
8.6728500000000004
 30
0.0
 70
    32
  0
VERTEX
  5
198B
  8
241
 10
19.273700000000002
 20
8.6175499999999996
 30
0.0
 70
    32
  0
VERTEX
  5
198C
  8
241
 10
19.2697
 20
8.5622199999999982
 30
0.0
 70
    32
  0
VERTEX
  5
198D
  8
241
 10
19.2652
 20
8.5068600000000014
 30
0.0
 70
    32
  0
VERTEX
  5
198E
  8
241
 10
19.260100000000001
 20
8.4514700000000005
 30
0.0
 70
    32
  0
VERTEX
  5
198F
  8
241
 10
19.2544
 20
8.3960600000000003
 30
0.0
 70
    32
  0
VERTEX
  5
1990
  8
241
 10
19.248200000000001
 20
8.3406199999999995
 30
0.0
 70
    32
  0
VERTEX
  5
1991
  8
241
 10
19.241299999999999
 20
8.2851400000000002
 30
0.0
 70
    32
  0
VERTEX
  5
1992
  8
241
 10
19.233799999999999
 20
8.2296399999999998
 30
0.0
 70
    32
  0
VERTEX
  5
1993
  8
241
 10
19.2258
 20
8.1741100000000007
 30
0.0
 70
    32
  0
VERTEX
  5
1994
  8
241
 10
19.216999999999999
 20
8.1185700000000001
 30
0.0
 70
    32
  0
VERTEX
  5
1995
  8
241
 10
19.207699999999999
 20
8.0630500000000005
 30
0.0
 70
    32
  0
VERTEX
  5
1996
  8
241
 10
19.197700000000001
 20
8.0075699999999994
 30
0.0
 70
    32
  0
VERTEX
  5
1997
  8
241
 10
19.187000000000001
 20
7.9521300000000004
 30
0.0
 70
    32
  0
VERTEX
  5
1998
  8
241
 10
19.175799999999999
 20
7.8967799999999997
 30
0.0
 70
    32
  0
VERTEX
  5
1999
  8
241
 10
19.163799999999998
 20
7.8415100000000004
 30
0.0
 70
    32
  0
VERTEX
  5
199A
  8
241
 10
19.151299999999999
 20
7.7863699999999989
 30
0.0
 70
    32
  0
VERTEX
  5
199B
  8
241
 10
19.138000000000002
 20
7.7313499999999991
 30
0.0
 70
    32
  0
VERTEX
  5
199C
  8
241
 10
19.124199999999998
 20
7.676499999999999
 30
0.0
 70
    32
  0
VERTEX
  5
199D
  8
241
 10
19.1096
 20
7.62181
 30
0.0
 70
    32
  0
VERTEX
  5
199E
  8
241
 10
19.0945
 20
7.5673300000000001
 30
0.0
 70
    32
  0
VERTEX
  5
199F
  8
241
 10
19.078600000000002
 20
7.5130600000000003
 30
0.0
 70
    32
  0
VERTEX
  5
19A0
  8
241
 10
19.062100000000001
 20
7.4590199999999989
 30
0.0
 70
    32
  0
VERTEX
  5
19A1
  8
241
 10
19.044899999999998
 20
7.4052399999999992
 30
0.0
 70
    32
  0
VERTEX
  5
19A2
  8
241
 10
19.027100000000001
 20
7.3517399999999986
 30
0.0
 70
    32
  0
VERTEX
  5
19A3
  8
241
 10
19.008600000000001
 20
7.2985399999999991
 30
0.0
 70
    32
  0
VERTEX
  5
19A4
  8
241
 10
18.9894
 20
7.2456500000000004
 30
0.0
 70
    32
  0
VERTEX
  5
19A5
  8
241
 10
18.9695
 20
7.1931000000000003
 30
0.0
 70
    32
  0
VERTEX
  5
19A6
  8
241
 10
18.949000000000002
 20
7.1409000000000002
 30
0.0
 70
    32
  0
VERTEX
  5
19A7
  8
241
 10
18.927700000000002
 20
7.08908
 30
0.0
 70
    32
  0
VERTEX
  5
19A8
  8
241
 10
18.905799999999999
 20
7.0376599999999998
 30
0.0
 70
    32
  0
VERTEX
  5
19A9
  8
241
 10
18.883199999999999
 20
6.9866599999999996
 30
0.0
 70
    32
  0
VERTEX
  5
19AA
  8
241
 10
18.8599
 20
6.9360899999999992
 30
0.0
 70
    32
  0
VERTEX
  5
19AB
  8
241
 10
18.835999999999999
 20
6.8859899999999987
 30
0.0
 70
    32
  0
VERTEX
  5
19AC
  8
241
 10
18.811299999999999
 20
6.83636
 30
0.0
 70
    32
  0
VERTEX
  5
19AD
  8
241
 10
18.785900000000002
 20
6.7872199999999987
 30
0.0
 70
    32
  0
VERTEX
  5
19AE
  8
241
 10
18.759899999999998
 20
6.7386100000000004
 30
0.0
 70
    32
  0
VERTEX
  5
19AF
  8
241
 10
18.7331
 20
6.690529999999999
 30
0.0
 70
    32
  0
VERTEX
  5
19B0
  8
241
 10
18.7056
 20
6.643019999999999
 30
0.0
 70
    32
  0
VERTEX
  5
19B1
  8
241
 10
18.677399999999999
 20
6.5960799999999997
 30
0.0
 70
    32
  0
VERTEX
  5
19B2
  8
241
 10
18.648499999999999
 20
6.549739999999999
 30
0.0
 70
    32
  0
VERTEX
  5
19B3
  8
241
 10
18.6189
 20
6.5040199999999988
 30
0.0
 70
    32
  0
VERTEX
  5
19B4
  8
241
 10
18.5886
 20
6.4589400000000001
 30
0.0
 70
    32
  0
VERTEX
  5
19B5
  8
241
 10
18.557600000000001
 20
6.4145199999999987
 30
0.0
 70
    32
  0
VERTEX
  5
19B6
  8
241
 10
18.5258
 20
6.370779999999999
 30
0.0
 70
    32
  0
VERTEX
  5
19B7
  8
241
 10
18.493300000000001
 20
6.3277400000000004
 30
0.0
 70
    32
  0
VERTEX
  5
19B8
  8
241
 10
18.460100000000001
 20
6.2854199999999993
 30
0.0
 70
    32
  0
VERTEX
  5
19B9
  8
241
 10
18.426200000000001
 20
6.2438199999999986
 30
0.0
 70
    32
  0
VERTEX
  5
19BA
  8
241
 10
18.391500000000001
 20
6.20296
 30
0.0
 70
    32
  0
VERTEX
  5
19BB
  8
241
 10
18.356200000000001
 20
6.1628099999999986
 30
0.0
 70
    32
  0
VERTEX
  5
19BC
  8
241
 10
18.3202
 20
6.1233699999999986
 30
0.0
 70
    32
  0
VERTEX
  5
19BD
  8
241
 10
18.2834
 20
6.0846400000000003
 30
0.0
 70
    32
  0
VERTEX
  5
19BE
  8
241
 10
18.245999999999999
 20
6.0466100000000003
 30
0.0
 70
    32
  0
VERTEX
  5
19BF
  8
241
 10
18.207999999999998
 20
6.0092800000000004
 30
0.0
 70
    32
  0
VERTEX
  5
19C0
  8
241
 10
18.1693
 20
5.9726400000000002
 30
0.0
 70
    32
  0
VERTEX
  5
19C1
  8
241
 10
18.129899999999999
 20
5.9366799999999991
 30
0.0
 70
    32
  0
VERTEX
  5
19C2
  8
241
 10
18.0899
 20
5.9013999999999989
 30
0.0
 70
    32
  0
VERTEX
  5
19C3
  8
241
 10
18.049299999999999
 20
5.8667999999999987
 30
0.0
 70
    32
  0
VERTEX
  5
19C4
  8
241
 10
18.008099999999999
 20
5.8328600000000002
 30
0.0
 70
    32
  0
VERTEX
  5
19C5
  8
241
 10
17.9663
 20
5.7995799999999997
 30
0.0
 70
    32
  0
VERTEX
  5
19C6
  8
241
 10
17.9239
 20
5.7669499999999987
 30
0.0
 70
    32
  0
VERTEX
  5
19C7
  8
241
 10
17.8809
 20
5.7349800000000002
 30
0.0
 70
    32
  0
VERTEX
  5
19C8
  8
241
 10
17.837299999999999
 20
5.7036499999999988
 30
0.0
 70
    32
  0
VERTEX
  5
19C9
  8
241
 10
17.793199999999999
 20
5.6729599999999989
 30
0.0
 70
    32
  0
VERTEX
  5
19CA
  8
241
 10
17.7485
 20
5.6429
 30
0.0
 70
    32
  0
VERTEX
  5
19CB
  8
241
 10
17.703199999999999
 20
5.6134699999999986
 30
0.0
 70
    32
  0
VERTEX
  5
19CC
  8
241
 10
17.657499999999999
 20
5.5846599999999986
 30
0.0
 70
    32
  0
VERTEX
  5
19CD
  8
241
 10
17.6112
 20
5.5564599999999986
 30
0.0
 70
    32
  0
VERTEX
  5
19CE
  8
241
 10
17.564399999999999
 20
5.5288699999999986
 30
0.0
 70
    32
  0
VERTEX
  5
19CF
  8
241
 10
17.517099999999999
 20
5.5018900000000004
 30
0.0
 70
    32
  0
VERTEX
  5
19D0
  8
241
 10
17.4693
 20
5.4755000000000003
 30
0.0
 70
    32
  0
VERTEX
  5
19D1
  8
241
 10
17.421099999999999
 20
5.4497099999999987
 30
0.0
 70
    32
  0
VERTEX
  5
19D2
  8
241
 10
17.372299999999999
 20
5.4245000000000001
 30
0.0
 70
    32
  0
VERTEX
  5
19D3
  8
241
 10
17.3231
 20
5.3998699999999991
 30
0.0
 70
    32
  0
VERTEX
  5
19D4
  8
241
 10
17.273499999999999
 20
5.37582
 30
0.0
 70
    32
  0
VERTEX
  5
19D5
  8
241
 10
17.223400000000002
 20
5.352339999999999
 30
0.0
 70
    32
  0
VERTEX
  5
19D6
  8
241
 10
17.172899999999998
 20
5.3294199999999989
 30
0.0
 70
    32
  0
VERTEX
  5
19D7
  8
241
 10
17.1219
 20
5.3070500000000003
 30
0.0
 70
    32
  0
VERTEX
  5
19D8
  8
241
 10
17.070599999999999
 20
5.285239999999999
 30
0.0
 70
    32
  0
VERTEX
  5
19D9
  8
241
 10
17.018799999999999
 20
5.2639800000000001
 30
0.0
 70
    32
  0
VERTEX
  5
19DA
  8
241
 10
16.966699999999999
 20
5.2432499999999989
 30
0.0
 70
    32
  0
VERTEX
  5
19DB
  8
241
 10
16.914200000000001
 20
5.2230600000000003
 30
0.0
 70
    32
  0
VERTEX
  5
19DC
  8
241
 10
16.8613
 20
5.2034000000000002
 30
0.0
 70
    32
  0
VERTEX
  5
19DD
  8
241
 10
16.808
 20
5.1842600000000001
 30
0.0
 70
    32
  0
VERTEX
  5
19DE
  8
241
 10
16.7544
 20
5.1656399999999989
 30
0.0
 70
    32
  0
VERTEX
  5
19DF
  8
241
 10
16.700500000000002
 20
5.1475299999999997
 30
0.0
 70
    32
  0
VERTEX
  5
19E0
  8
241
 10
16.6462
 20
5.129929999999999
 30
0.0
 70
    32
  0
VERTEX
  5
19E1
  8
241
 10
16.5916
 20
5.1128200000000001
 30
0.0
 70
    32
  0
VERTEX
  5
19E2
  8
241
 10
16.5367
 20
5.0962100000000001
 30
0.0
 70
    32
  0
VERTEX
  5
19E3
  8
241
 10
16.4815
 20
5.0800900000000002
 30
0.0
 70
    32
  0
VERTEX
  5
19E4
  8
241
 10
16.425999999999998
 20
5.064449999999999
 30
0.0
 70
    32
  0
VERTEX
  5
19E5
  8
241
 10
16.370200000000001
 20
5.0492900000000001
 30
0.0
 70
    32
  0
VERTEX
  5
19E6
  8
241
 10
16.3142
 20
5.0345899999999997
 30
0.0
 70
    32
  0
VERTEX
  5
19E7
  8
241
 10
16.257899999999999
 20
5.0203699999999989
 30
0.0
 70
    32
  0
VERTEX
  5
19E8
  8
241
 10
16.2013
 20
5.0065999999999988
 30
0.0
 70
    32
  0
VERTEX
  5
19E9
  8
241
 10
16.144500000000001
 20
4.99329
 30
0.0
 70
    32
  0
VERTEX
  5
19EA
  8
241
 10
16.087499999999999
 20
4.9804199999999987
 30
0.0
 70
    32
  0
VERTEX
  5
19EB
  8
241
 10
16.0303
 20
4.9679999999999991
 30
0.0
 70
    32
  0
VERTEX
  5
19EC
  8
241
 10
15.972799999999999
 20
4.95601
 30
0.0
 70
    32
  0
VERTEX
  5
19ED
  8
241
 10
15.9152
 20
4.9444599999999994
 30
0.0
 70
    32
  0
VERTEX
  5
19EE
  8
241
 10
15.8573
 20
4.9333299999999998
 30
0.0
 70
    32
  0
VERTEX
  5
19EF
  8
241
 10
15.799300000000001
 20
4.9226199999999993
 30
0.0
 70
    32
  0
VERTEX
  5
19F0
  8
241
 10
15.741099999999999
 20
4.9123199999999994
 30
0.0
 70
    32
  0
VERTEX
  5
19F1
  8
241
 10
15.6828
 20
4.9024299999999998
 30
0.0
 70
    32
  0
VERTEX
  5
19F2
  8
241
 10
15.6243
 20
4.8929400000000003
 30
0.0
 70
    32
  0
VERTEX
  5
19F3
  8
241
 10
15.5657
 20
4.8838499999999989
 30
0.0
 70
    32
  0
VERTEX
  5
19F4
  8
241
 10
15.5069
 20
4.8751499999999988
 30
0.0
 70
    32
  0
VERTEX
  5
19F5
  8
241
 10
15.448
 20
4.8668300000000002
 30
0.0
 70
    32
  0
VERTEX
  5
19F6
  8
241
 10
15.388999999999999
 20
4.8589000000000002
 30
0.0
 70
    32
  0
VERTEX
  5
19F7
  8
241
 10
15.33
 20
4.851329999999999
 30
0.0
 70
    32
  0
VERTEX
  5
19F8
  8
241
 10
15.270799999999999
 20
4.8441299999999998
 30
0.0
 70
    32
  0
VERTEX
  5
19F9
  8
241
 10
15.211499999999999
 20
4.837299999999999
 30
0.0
 70
    32
  0
VERTEX
  5
19FA
  8
241
 10
15.152200000000001
 20
4.8308200000000001
 30
0.0
 70
    32
  0
VERTEX
  5
19FB
  8
241
 10
15.0929
 20
4.8246900000000004
 30
0.0
 70
    32
  0
VERTEX
  5
19FC
  8
241
 10
15.0334
 20
4.8189000000000002
 30
0.0
 70
    32
  0
VERTEX
  5
19FD
  8
241
 10
14.974
 20
4.8134600000000001
 30
0.0
 70
    32
  0
VERTEX
  5
19FE
  8
241
 10
14.9145
 20
4.808349999999999
 30
0.0
 70
    32
  0
VERTEX
  5
19FF
  8
241
 10
14.855
 20
4.8035600000000001
 30
0.0
 70
    32
  0
VERTEX
  5
1A00
  8
241
 10
14.795500000000001
 20
4.7990899999999996
 30
0.0
 70
    32
  0
VERTEX
  5
1A01
  8
241
 10
14.736000000000001
 20
4.7949400000000004
 30
0.0
 70
    32
  0
VERTEX
  5
1A02
  8
241
 10
14.676500000000001
 20
4.7911000000000001
 30
0.0
 70
    32
  0
VERTEX
  5
1A03
  8
241
 10
14.617000000000001
 20
4.7875699999999988
 30
0.0
 70
    32
  0
VERTEX
  5
1A04
  8
241
 10
14.557600000000001
 20
4.7843299999999997
 30
0.0
 70
    32
  0
VERTEX
  5
1A05
  8
241
 10
14.498200000000001
 20
4.78139
 30
0.0
 70
    32
  0
VERTEX
  5
1A06
  8
241
 10
14.438800000000001
 20
4.7787300000000004
 30
0.0
 70
    32
  0
VERTEX
  5
1A07
  8
241
 10
14.3796
 20
4.776349999999999
 30
0.0
 70
    32
  0
VERTEX
  5
1A08
  8
241
 10
14.320399999999999
 20
4.7742500000000003
 30
0.0
 70
    32
  0
VERTEX
  5
1A09
  8
241
 10
14.261200000000001
 20
4.7724199999999994
 30
0.0
 70
    32
  0
VERTEX
  5
1A0A
  8
241
 10
14.202199999999999
 20
4.7708500000000003
 30
0.0
 70
    32
  0
VERTEX
  5
1A0B
  8
241
 10
14.1433
 20
4.7695400000000001
 30
0.0
 70
    32
  0
VERTEX
  5
1A0C
  8
241
 10
14.0845
 20
4.7684800000000003
 30
0.0
 70
    32
  0
VERTEX
  5
1A0D
  8
241
 10
14.0258
 20
4.767669999999999
 30
0.0
 70
    32
  0
VERTEX
  5
1A0E
  8
241
 10
13.9673
 20
4.7671000000000001
 30
0.0
 70
    32
  0
VERTEX
  5
1A0F
  8
241
 10
13.908799999999999
 20
4.7667599999999988
 30
0.0
 70
    32
  0
VERTEX
  5
1A10
  8
241
 10
13.8506
 20
4.7666500000000003
 30
0.0
 70
    32
  0
VERTEX
  5
1A11
  8
241
 10
13.7925
 20
4.7667699999999993
 30
0.0
 70
    32
  0
VERTEX
  5
1A12
  8
241
 10
13.7346
 20
4.7671000000000001
 30
0.0
 70
    32
  0
VERTEX
  5
1A13
  8
241
 10
13.6769
 20
4.7676499999999988
 30
0.0
 70
    32
  0
VERTEX
  5
1A14
  8
241
 10
13.619300000000001
 20
4.7683999999999989
 30
0.0
 70
    32
  0
VERTEX
  5
1A15
  8
241
 10
13.561999999999999
 20
4.7693599999999989
 30
0.0
 70
    32
  0
VERTEX
  5
1A16
  8
241
 10
13.504899999999999
 20
4.7705199999999994
 30
0.0
 70
    32
  0
VERTEX
  5
1A17
  8
241
 10
13.447900000000001
 20
4.7718999999999987
 30
0.0
 70
    32
  0
VERTEX
  5
1A18
  8
241
 10
13.3911
 20
4.7735000000000003
 30
0.0
 70
    32
  0
VERTEX
  5
1A19
  8
241
 10
13.3346
 20
4.7753199999999989
 30
0.0
 70
    32
  0
VERTEX
  5
1A1A
  8
241
 10
13.2782
 20
4.7773799999999991
 30
0.0
 70
    32
  0
VERTEX
  5
1A1B
  8
241
 10
13.2219
 20
4.7796699999999994
 30
0.0
 70
    32
  0
VERTEX
  5
1A1C
  8
241
 10
13.165900000000001
 20
4.7822100000000001
 30
0.0
 70
    32
  0
VERTEX
  5
1A1D
  8
241
 10
13.109999999999999
 20
4.7849899999999996
 30
0.0
 70
    32
  0
VERTEX
  5
1A1E
  8
241
 10
13.0543
 20
4.7880199999999986
 30
0.0
 70
    32
  0
VERTEX
  5
1A1F
  8
241
 10
12.998699999999999
 20
4.7913199999999989
 30
0.0
 70
    32
  0
VERTEX
  5
1A20
  8
241
 10
12.943199999999999
 20
4.7948699999999986
 30
0.0
 70
    32
  0
VERTEX
  5
1A21
  8
241
 10
12.888
 20
4.7987000000000002
 30
0.0
 70
    32
  0
VERTEX
  5
1A22
  8
241
 10
12.832800000000001
 20
4.80281
 30
0.0
 70
    32
  0
VERTEX
  5
1A23
  8
241
 10
12.777799999999999
 20
4.8071900000000003
 30
0.0
 70
    32
  0
VERTEX
  5
1A24
  8
241
 10
12.722899999999999
 20
4.8118600000000002
 30
0.0
 70
    32
  0
VERTEX
  5
1A25
  8
241
 10
12.668200000000001
 20
4.8168300000000004
 30
0.0
 70
    32
  0
VERTEX
  5
1A26
  8
241
 10
12.6135
 20
4.8220900000000002
 30
0.0
 70
    32
  0
VERTEX
  5
1A27
  8
241
 10
12.558999999999999
 20
4.8276500000000002
 30
0.0
 70
    32
  0
VERTEX
  5
1A28
  8
241
 10
12.5046
 20
4.8335299999999997
 30
0.0
 70
    32
  0
VERTEX
  5
1A29
  8
241
 10
12.4503
 20
4.8397199999999989
 30
0.0
 70
    32
  0
VERTEX
  5
1A2A
  8
241
 10
12.396100000000001
 20
4.8462300000000003
 30
0.0
 70
    32
  0
VERTEX
  5
1A2B
  8
241
 10
12.342000000000001
 20
4.8530600000000002
 30
0.0
 70
    32
  0
VERTEX
  5
1A2C
  8
241
 10
12.288
 20
4.8602299999999996
 30
0.0
 70
    32
  0
VERTEX
  5
1A2D
  8
241
 10
12.2341
 20
4.8677400000000004
 30
0.0
 70
    32
  0
VERTEX
  5
1A2E
  8
241
 10
12.180300000000001
 20
4.8755800000000002
 30
0.0
 70
    32
  0
VERTEX
  5
1A2F
  8
241
 10
12.1265
 20
4.8837799999999998
 30
0.0
 70
    32
  0
VERTEX
  5
1A30
  8
241
 10
12.072800000000001
 20
4.8923300000000003
 30
0.0
 70
    32
  0
VERTEX
  5
1A31
  8
241
 10
12.0192
 20
4.9012399999999996
 30
0.0
 70
    32
  0
VERTEX
  5
1A32
  8
241
 10
11.9657
 20
4.9105099999999986
 30
0.0
 70
    32
  0
VERTEX
  5
1A33
  8
241
 10
11.9122
 20
4.9201499999999987
 30
0.0
 70
    32
  0
VERTEX
  5
1A34
  8
241
 10
11.8588
 20
4.9301699999999986
 30
0.0
 70
    32
  0
VERTEX
  5
1A35
  8
241
 10
11.805400000000001
 20
4.9405700000000001
 30
0.0
 70
    32
  0
VERTEX
  5
1A36
  8
241
 10
11.7521
 20
4.9513600000000002
 30
0.0
 70
    32
  0
VERTEX
  5
1A37
  8
241
 10
11.6988
 20
4.9625500000000002
 30
0.0
 70
    32
  0
VERTEX
  5
1A38
  8
241
 10
11.6455
 20
4.9741299999999997
 30
0.0
 70
    32
  0
VERTEX
  5
1A39
  8
241
 10
11.5923
 20
4.98611
 30
0.0
 70
    32
  0
VERTEX
  5
1A3A
  8
241
 10
11.539099999999999
 20
4.9984999999999991
 30
0.0
 70
    32
  0
VERTEX
  5
1A3B
  8
241
 10
11.486000000000001
 20
5.011309999999999
 30
0.0
 70
    32
  0
VERTEX
  5
1A3C
  8
241
 10
11.4328
 20
5.0245300000000004
 30
0.0
 70
    32
  0
VERTEX
  5
1A3D
  8
241
 10
11.379799999999999
 20
5.038149999999999
 30
0.0
 70
    32
  0
VERTEX
  5
1A3E
  8
241
 10
11.326700000000001
 20
5.052179999999999
 30
0.0
 70
    32
  0
VERTEX
  5
1A3F
  8
241
 10
11.2737
 20
5.0666199999999986
 30
0.0
 70
    32
  0
VERTEX
  5
1A40
  8
241
 10
11.220800000000001
 20
5.081459999999999
 30
0.0
 70
    32
  0
VERTEX
  5
1A41
  8
241
 10
11.167899999999999
 20
5.0967000000000002
 30
0.0
 70
    32
  0
VERTEX
  5
1A42
  8
241
 10
11.1151
 20
5.1123399999999997
 30
0.0
 70
    32
  0
VERTEX
  5
1A43
  8
241
 10
11.0623
 20
5.1283699999999994
 30
0.0
 70
    32
  0
VERTEX
  5
1A44
  8
241
 10
11.009600000000001
 20
5.1448099999999988
 30
0.0
 70
    32
  0
VERTEX
  5
1A45
  8
241
 10
10.957100000000001
 20
5.1616299999999997
 30
0.0
 70
    32
  0
VERTEX
  5
1A46
  8
241
 10
10.9046
 20
5.1788499999999988
 30
0.0
 70
    32
  0
VERTEX
  5
1A47
  8
241
 10
10.8522
 20
5.1964600000000001
 30
0.0
 70
    32
  0
VERTEX
  5
1A48
  8
241
 10
10.799799999999999
 20
5.214459999999999
 30
0.0
 70
    32
  0
VERTEX
  5
1A49
  8
241
 10
10.7476
 20
5.2328400000000004
 30
0.0
 70
    32
  0
VERTEX
  5
1A4A
  8
241
 10
10.695600000000001
 20
5.2516099999999986
 30
0.0
 70
    32
  0
VERTEX
  5
1A4B
  8
241
 10
10.643599999999999
 20
5.2707600000000001
 30
0.0
 70
    32
  0
VERTEX
  5
1A4C
  8
241
 10
10.591699999999999
 20
5.2903000000000002
 30
0.0
 70
    32
  0
VERTEX
  5
1A4D
  8
241
 10
10.539999999999999
 20
5.3102099999999988
 30
0.0
 70
    32
  0
VERTEX
  5
1A4E
  8
241
 10
10.4884
 20
5.3304999999999989
 30
0.0
 70
    32
  0
VERTEX
  5
1A4F
  8
241
 10
10.4369
 20
5.3511600000000001
 30
0.0
 70
    32
  0
VERTEX
  5
1A50
  8
241
 10
10.3856
 20
5.3722000000000003
 30
0.0
 70
    32
  0
VERTEX
  5
1A51
  8
241
 10
10.3345
 20
5.3936199999999994
 30
0.0
 70
    32
  0
VERTEX
  5
1A52
  8
241
 10
10.2834
 20
5.4153999999999991
 30
0.0
 70
    32
  0
VERTEX
  5
1A53
  8
241
 10
10.2326
 20
5.437549999999999
 30
0.0
 70
    32
  0
VERTEX
  5
1A54
  8
241
 10
10.181900000000001
 20
5.4600599999999986
 30
0.0
 70
    32
  0
VERTEX
  5
1A55
  8
241
 10
10.131399999999999
 20
5.4829400000000001
 30
0.0
 70
    32
  0
VERTEX
  5
1A56
  8
241
 10
10.081
 20
5.5061900000000001
 30
0.0
 70
    32
  0
VERTEX
  5
1A57
  8
241
 10
10.030900000000001
 20
5.5297900000000002
 30
0.0
 70
    32
  0
VERTEX
  5
1A58
  8
241
 10
9.9809199999999993
 20
5.5537599999999987
 30
0.0
 70
    32
  0
VERTEX
  5
1A59
  8
241
 10
9.9311399999999992
 20
5.578079999999999
 30
0.0
 70
    32
  0
VERTEX
  5
1A5A
  8
241
 10
9.8815600000000003
 20
5.6027500000000003
 30
0.0
 70
    32
  0
VERTEX
  5
1A5B
  8
241
 10
9.8321899999999989
 20
5.6277900000000001
 30
0.0
 70
    32
  0
VERTEX
  5
1A5C
  8
241
 10
9.7830200000000005
 20
5.6531699999999994
 30
0.0
 70
    32
  0
VERTEX
  5
1A5D
  8
241
 10
9.7340699999999991
 20
5.6788999999999987
 30
0.0
 70
    32
  0
VERTEX
  5
1A5E
  8
241
 10
9.6853400000000001
 20
5.7049799999999991
 30
0.0
 70
    32
  0
VERTEX
  5
1A5F
  8
241
 10
9.6368399999999994
 20
5.7314099999999986
 30
0.0
 70
    32
  0
VERTEX
  5
1A60
  8
241
 10
9.5885499999999997
 20
5.7581699999999989
 30
0.0
 70
    32
  0
VERTEX
  5
1A61
  8
241
 10
9.5404699999999991
 20
5.7852600000000001
 30
0.0
 70
    32
  0
VERTEX
  5
1A62
  8
241
 10
9.4926100000000009
 20
5.8126699999999989
 30
0.0
 70
    32
  0
VERTEX
  5
1A63
  8
241
 10
9.444939999999999
 20
5.8403999999999989
 30
0.0
 70
    32
  0
VERTEX
  5
1A64
  8
241
 10
9.3974700000000002
 20
5.86843
 30
0.0
 70
    32
  0
VERTEX
  5
1A65
  8
241
 10
9.3501999999999992
 20
5.896749999999999
 30
0.0
 70
    32
  0
VERTEX
  5
1A66
  8
241
 10
9.3031100000000002
 20
5.92537
 30
0.0
 70
    32
  0
VERTEX
  5
1A67
  8
241
 10
9.2561999999999998
 20
5.9542599999999988
 30
0.0
 70
    32
  0
VERTEX
  5
1A68
  8
241
 10
9.2094699999999996
 20
5.9834300000000002
 30
0.0
 70
    32
  0
VERTEX
  5
1A69
  8
241
 10
9.1629100000000001
 20
6.012859999999999
 30
0.0
 70
    32
  0
VERTEX
  5
1A6A
  8
241
 10
9.1165099999999981
 20
6.0425500000000003
 30
0.0
 70
    32
  0
VERTEX
  5
1A6B
  8
241
 10
9.0702800000000003
 20
6.0724900000000002
 30
0.0
 70
    32
  0
VERTEX
  5
1A6C
  8
241
 10
9.0242100000000001
 20
6.1026699999999989
 30
0.0
 70
    32
  0
VERTEX
  5
1A6D
  8
241
 10
8.9782799999999998
 20
6.1330799999999996
 30
0.0
 70
    32
  0
VERTEX
  5
1A6E
  8
241
 10
8.9324999999999992
 20
6.16371
 30
0.0
 70
    32
  0
VERTEX
  5
1A6F
  8
241
 10
8.8868600000000004
 20
6.1945600000000001
 30
0.0
 70
    32
  0
VERTEX
  5
1A70
  8
241
 10
8.8413500000000003
 20
6.2256199999999993
 30
0.0
 70
    32
  0
VERTEX
  5
1A71
  8
241
 10
8.7959800000000001
 20
6.2568799999999998
 30
0.0
 70
    32
  0
VERTEX
  5
1A72
  8
241
 10
8.7507199999999994
 20
6.2883399999999989
 30
0.0
 70
    32
  0
VERTEX
  5
1A73
  8
241
 10
8.7055899999999991
 20
6.3199699999999988
 30
0.0
 70
    32
  0
VERTEX
  5
1A74
  8
241
 10
8.6605799999999995
 20
6.3517900000000003
 30
0.0
 70
    32
  0
VERTEX
  5
1A75
  8
241
 10
8.6156699999999997
 20
6.3837699999999993
 30
0.0
 70
    32
  0
VERTEX
  5
1A76
  8
241
 10
8.5708599999999997
 20
6.4159100000000002
 30
0.0
 70
    32
  0
VERTEX
  5
1A77
  8
241
 10
8.5261600000000008
 20
6.4482099999999987
 30
0.0
 70
    32
  0
VERTEX
  5
1A78
  8
241
 10
8.4815399999999972
 20
6.4806499999999989
 30
0.0
 70
    32
  0
VERTEX
  5
1A79
  8
241
 10
8.4370200000000004
 20
6.5132199999999987
 30
0.0
 70
    32
  0
VERTEX
  5
1A7A
  8
241
 10
8.3925800000000006
 20
6.5459300000000002
 30
0.0
 70
    32
  0
VERTEX
  5
1A7B
  8
241
 10
8.3482199999999995
 20
6.5787500000000003
 30
0.0
 70
    32
  0
VERTEX
  5
1A7C
  8
241
 10
8.3039199999999997
 20
6.6116899999999994
 30
0.0
 70
    32
  0
VERTEX
  5
1A7D
  8
241
 10
8.2597000000000005
 20
6.64473
 30
0.0
 70
    32
  0
VERTEX
  5
1A7E
  8
241
 10
8.2155399999999972
 20
6.6778599999999999
 30
0.0
 70
    32
  0
VERTEX
  5
1A7F
  8
241
 10
8.1714399999999987
 20
6.7110899999999987
 30
0.0
 70
    32
  0
VERTEX
  5
1A80
  8
241
 10
8.1273900000000001
 20
6.7443899999999992
 30
0.0
 70
    32
  0
VERTEX
  5
1A81
  8
241
 10
8.08338
 20
6.7777699999999994
 30
0.0
 70
    32
  0
VERTEX
  5
1A82
  8
241
 10
8.0394199999999998
 20
6.81121
 30
0.0
 70
    32
  0
VERTEX
  5
1A83
  8
241
 10
7.9954899999999993
 20
6.8447100000000001
 30
0.0
 70
    32
  0
VERTEX
  5
1A84
  8
241
 10
7.9515899999999986
 20
6.87826
 30
0.0
 70
    32
  0
VERTEX
  5
1A85
  8
241
 10
7.9077199999999994
 20
6.9118399999999989
 30
0.0
 70
    32
  0
VERTEX
  5
1A86
  8
241
 10
7.8638699999999986
 20
6.9454599999999997
 30
0.0
 70
    32
  0
VERTEX
  5
1A87
  8
241
 10
7.8200399999999988
 20
6.979099999999999
 30
0.0
 70
    32
  0
VERTEX
  5
1A88
  8
241
 10
7.7762199999999986
 20
7.0127600000000001
 30
0.0
 70
    32
  0
VERTEX
  5
1A89
  8
241
 10
7.7324000000000002
 20
7.0464199999999986
 30
0.0
 70
    32
  0
SEQEND
  5
1A8A
  8
241
  0
ARC
  5
1A8B
  8
241
 10
31.565892936887021
 20
9.5460053934232256
 30
0.0
 40
24.740253653382439
 50
195.57744930369111
 51
221.37213577702661
  0
ARC
  5
1A8C
  8
241
 10
-4.4635461311835023
 20
9.6902320541375122
 30
0.0
 40
24.908900903503891
 50
318.52737187448662
 51
344.02232826119638
  0
LINE
  5
1A8D
  8
241
 10
7.7000000000000002
 20
-11.317500000000001
 30
0.0
 11
13.00000026822087
 21
-13.97222559899093
 31
0.0
  0
LINE
  5
1A8E
  8
241
 10
14.199999999999999
 20
-13.972200000000001
 30
0.0
 11
19.05794515932828
 21
-11.53898205886072
 31
0.0
  0
ARC
  5
1A8F
  8
241
 10
15.107626434158769
 20
-14.36486393065733
 30
0.0
 40
4.1214785009192116
 50
324.73562142885828
 51
358.35191348333842
  0
ARC
  5
1A90
  8
241
 10
11.132821400248799
 20
-22.588701118787569
 30
0.0
 40
9.3824912156562785
 50
26.901396747699501
 51
38.527807430469679
  0
ARC
  5
1A91
  8
241
 10
13.3675759545481
 20
-6.443696178464589
 30
0.0
 40
11.49642604348214
 50
240.6219228981833
 51
296.36388708619171
  0
ARC
  5
1A92
  8
241
 10
36.147349046619851
 20
-9.8171051977537473
 30
0.0
 40
30.38835873192188
 50
200.58908604970711
 51
220.38414344802629
  0
ARC
  5
1A93
  8
241
 10
-7.734753174749418
 20
-10.44254128321346
 30
0.0
 40
29.061116896738771
 50
319.00616215520279
 51
339.5790358363052
  0
LINE
  5
1A94
  8
240
 10
7.6999999582767771
 20
15.49999974668024
 30
0.0
 11
0.0000000000000284
 21
15.50000000202655
 31
0.0
  0
LINE
  5
1A95
  8
240
 10
7.7000000000000002
 20
-15.5
 30
0.0
 11
-0.0000000000000284
 21
-15.49999974668027
 31
0.0
  0
LINE
  5
1A96
  8
241
 10
13.0
 20
-30.854299999999999
 30
0.0
 11
7.6999999582767202
 21
-25.544799958206731
 31
0.0
  0
LINE
  5
1A97
  8
241
 10
14.219150000000001
 20
-30.835149999999999
 30
0.0
 11
19.50000040233132
 21
-25.50943568348886
 31
0.0
  0
VIEWPORT
  5
22
 67
     1
  8
0
 10
261.51769911504419
 20
148.5
 30
0.0
 40
523.0353982300885
 41
297.0
 68
     1
 69
     1
1001
ACAD
1000
MVIEW
1002
{
1070
    16
1010
0.0
1020
0.0
1030
0.0
1010
0.0
1020
0.0
1030
1.0
1040
0.0
1040
297.0
1040
261.51769911504419
1040
148.5
1040
50.0
1040
0.0
1040
0.0
1070
     0
1070
   100
1070
     1
1070
     1
1070
     0
1070
     0
1070
     0
1070
     0
1040
0.0
1040
0.0
1040
0.0
1040
1.0
1040
1.0
1040
10.0
1040
10.0
1070
     0
1002
{
1002
}
1002
}
1001
GENIUS_GENODEF_13
1002
{
1000
HIER
1070
     0
1002
}
1002
{
1000
MANEDIT
1070
     0
1002
}
1002
{
1000
NOSEL
1070
     0
1002
}
1002
{
1000
BEHIND
1070
     0
1002
}
1002
{
1000
OTHER
1070
     0
1002
}
1002
{
1000
REACTOR
1002
}
1001
GENIUS_GENOBJ-N-SDF_13
1002
{
1000
OWNER
1000
GEN
1002
}
1001
GENIUS_GENSCREG_15
1000
PF
1040
1.0
1000
DF
1040
1.0
1000
MIN
1011
0.0
1021
0.0
1031
1.3929640959480478E+268
1021
0.0
1031
0.0
1000
MAX
1011
523.0353982300885
1021
0.0
1031
1.3929640959480478E+268
1021
297.0
1031
0.0
1000
FLAGS
1070
     2
  0
ENDSEC
  0
EOF
