  0
SECTION
  2
HEADER
  9
$ACADVER
  1
AC1009
  9
$INSBASE
 10
0.0
 20
0.0
 30
0.0
  9
$EXTMIN
 10
-45.810460627649938
 20
-22.935819329205739
 30
-0.0015258207003583
  9
$EXTMAX
 10
50.016199241085239
 20
54.012828605089737
 30
0.0000000349246037
  9
$LIMMIN
 10
0.0
 20
0.0
  9
$LIMMAX
 10
297.0
 20
210.0
  9
$ORTHOMODE
 70
     1
  9
$REGENMODE
 70
     1
  9
$FILLMODE
 70
     1
  9
$QTEXTMODE
 70
     0
  9
$MIRRTEXT
 70
     1
  9
$DRAGMODE
 70
     2
  9
$LTSCALE
 40
10.0
  9
$OSMODE
 70
    39
  9
$ATTMODE
 70
     1
  9
$TEXTSIZE
 40
3.0
  9
$TRACEWID
 40
1.0
  9
$TEXTSTYLE
  7
YOKO
  9
$CLAYER
  8
245
  9
$CELTYPE
  6
BYLAYER
  9
$CECOLOR
 62
   256
  9
$DIMSCALE
 40
1.0
  9
$DIMASZ
 40
2.2299999999999991
  9
$DIMEXO
 40
0.5
  9
$DIMDLI
 40
7.0
  9
$DIMRND
 40
0.0
  9
$DIMDLE
 40
0.0
  9
$DIMEXE
 40
1.0
  9
$DIMTP
 40
0.0
  9
$DIMTM
 40
0.01
  9
$DIMTXT
 40
2.799999999999998
  9
$DIMCEN
 40
0.0
  9
$DIMTSZ
 40
0.0
  9
$DIMTOL
 70
     0
  9
$DIMLIM
 70
     0
  9
$DIMTIH
 70
     0
  9
$DIMTOH
 70
     0
  9
$DIMSE1
 70
     0
  9
$DIMSE2
 70
     0
  9
$DIMTAD
 70
     3
  9
$DIMZIN
 70
     9
  9
$DIMBLK
  1
OPEN
  9
$DIMASO
 70
     1
  9
$DIMSHO
 70
     1
  9
$DIMPOST
  1

  9
$DIMAPOST
  1

  9
$DIMALT
 70
     0
  9
$DIMALTD
 70
     2
  9
$DIMALTF
 40
25.399999999999999
  9
$DIMLFAC
 40
1.0
  9
$DIMTOFL
 70
     1
  9
$DIMTVP
 40
0.0
  9
$DIMTIX
 70
     1
  9
$DIMSOXD
 70
     0
  9
$DIMSAH
 70
     0
  9
$DIMBLK1
  1

  9
$DIMBLK2
  1

  9
$DIMSTYLE
  2
BIGT
  9
$DIMCLRD
 70
   256
  9
$DIMCLRE
 70
   256
  9
$DIMCLRT
 70
    40
  9
$DIMTFAC
 40
1.0
  9
$DIMGAP
 40
1.0
  9
$LUNITS
 70
     2
  9
$LUPREC
 70
     3
  9
$SKETCHINC
 40
1.0
  9
$FILLETRAD
 40
0.0
  9
$AUNITS
 70
     0
  9
$AUPREC
 70
     3
  9
$MENU
  1
.
  9
$ELEVATION
 40
0.0
  9
$PELEVATION
 40
0.0
  9
$THICKNESS
 40
0.0
  9
$LIMCHECK
 70
     0
  9
$BLIPMODE
 70
     0
  9
$CHAMFERA
 40
0.25
  9
$CHAMFERB
 40
0.25
  9
$SKPOLY
 70
     0
  9
$TDCREATE
 40
2455933.6575683099
  9
$TDUPDATE
 40
2456330.4038711572
  9
$TDINDWG
 40
0.0021466667
  9
$TDUSRTIMER
 40
0.0021464815
  9
$USRTIMER
 70
     1
  9
$ANGBASE
 50
0.0
  9
$ANGDIR
 70
     0
  9
$PDMODE
 70
     1
  9
$PDSIZE
 40
0.0
  9
$PLINEWID
 40
0.0
  9
$COORDS
 70
     0
  9
$SPLFRAME
 70
     0
  9
$SPLINETYPE
 70
     6
  9
$SPLINESEGS
 70
     4
  9
$ATTDIA
 70
     1
  9
$ATTREQ
 70
     1
  9
$HANDLING
 70
     1
  9
$HANDSEED
  5
21C9
  9
$SURFTAB1
 70
     6
  9
$SURFTAB2
 70
     6
  9
$SURFTYPE
 70
     6
  9
$SURFU
 70
     6
  9
$SURFV
 70
     6
  9
$UCSNAME
  2

  9
$UCSORG
 10
0.0
 20
0.0
 30
0.0
  9
$UCSXDIR
 10
1.0
 20
0.0
 30
0.0
  9
$UCSYDIR
 10
0.0
 20
1.0
 30
0.0
  9
$PUCSNAME
  2

  9
$PUCSORG
 10
0.0
 20
0.0
 30
0.0
  9
$PUCSXDIR
 10
1.0
 20
0.0
 30
0.0
  9
$PUCSYDIR
 10
0.0
 20
1.0
 30
0.0
  9
$USERI1
 70
     1
  9
$USERI2
 70
     0
  9
$USERI3
 70
     0
  9
$USERI4
 70
     0
  9
$USERI5
 70
     0
  9
$USERR1
 40
0.0
  9
$USERR2
 40
0.0
  9
$USERR3
 40
0.0
  9
$USERR4
 40
0.0
  9
$USERR5
 40
0.0
  9
$WORLDVIEW
 70
     1
  9
$SHADEDGE
 70
     3
  9
$SHADEDIF
 70
    70
  9
$TILEMODE
 70
     1
  9
$MAXACTVP
 70
    16
  9
$PLIMCHECK
 70
     0
  9
$PEXTMIN
 10
1.0000000000000000E+020
 20
1.0000000000000000E+020
 30
1.0000000000000000E+020
  9
$PEXTMAX
 10
-1.0000000000000000E+020
 20
-1.0000000000000000E+020
 30
-1.0000000000000000E+020
  9
$PLIMMIN
 10
0.0
 20
0.0
  9
$PLIMMAX
 10
420.0
 20
297.0
  9
$UNITMODE
 70
     0
  9
$VISRETAIN
 70
     1
  9
$PLINEGEN
 70
     0
  9
$PSLTSCALE
 70
     1
  0
ENDSEC
  0
SECTION
  2
TABLES
  0
TABLE
  2
VPORT
 70
     3
  0
VPORT
  2
*ACTIVE
 70
     0
 10
0.0
 20
0.0
 11
1.0
 21
1.0
 12
2.1028693067176549
 22
15.538504637941999
 13
0.0
 23
0.0
 14
7.0
 24
7.0
 15
7.0
 25
7.0
 16
0.0
 26
0.0
 36
1.0
 17
0.0
 27
0.0
 37
0.0
 40
77.446697435488332
 41
1.4600431965442759
 42
50.0
 43
0.0
 44
0.0
 50
0.0
 51
0.0
 71
     0
 72
  2000
 73
     1
 74
     0
 75
     0
 76
     0
 77
     0
 78
     0
  0
ENDTAB
  0
TABLE
  2
LTYPE
 70
    16
  0
LTYPE
  2
CONTINUOUS
 70
     0
  3
Solid line
 72
    65
 73
     0
 40
0.0
  0
LTYPE
  2
CENTER2
 70
     0
  3
___ _ ___ _ ___ _ ___ _ ___ _ ___ _ ___ _ ___ _
 72
    65
 73
     4
 40
1.125
 49
0.75
 49
-0.125
 49
0.125
 49
-0.125
  0
LTYPE
  2
HIDDEN2
 70
     0
  3
_ _ _ _ _ _ _ _ _ _ _ _ _ _ _ _ _ _ _ _ _ _ _ _
 72
    65
 73
     2
 40
0.1875
 49
0.125
 49
-0.0625
  0
LTYPE
  2
PHANTOM2
 70
     0
  3
___ _ _ ___ _ _ ___ _ _ ___ _ _ ___ _ _ ___ _ _
 72
    65
 73
     6
 40
1.25
 49
0.625
 49
-0.125
 49
0.125
 49
-0.125
 49
0.125
 49
-0.125
  0
LTYPE
  2
CENTER
 70
     0
  3
____ _ ____ _ ____ _ ____ _ ____ _ ____ _ ____ 
 72
    65
 73
     4
 40
2.0
 49
1.25
 49
-0.25
 49
0.25
 49
-0.25
  0
LTYPE
  2
AMCONSTR
 70
     0
  3
_______________________
 72
    65
 73
     2
 40
9999.0
 49
9999.0
 49
0.0
  0
LTYPE
  2
HIDDEN
 70
     0
  3
Hidden __ __ __ __ __ __ __ __ __ __ __ __ __ _
 72
    65
 73
     2
 40
9.5249999999999986
 49
6.349999999999997
 49
-3.174999999999998
  0
LTYPE
  2
AMZIGZAG2
 70
     0
  3
/\/-/\/-/\/-/\/-/\/-/\/
 72
    65
 73
     2
 40
0.4401
 49
0.0001
 49
-0.4400000000000002
  0
LTYPE
  2
ACANSTGB
 70
     0
  3
__ . . __ . .
 72
    65
 73
     6
 40
0.35433070866
 49
0.15748031496
 49
-0.03937007874
 49
0.03937007874
 49
-0.03937007874
 49
0.03937007874
 49
-0.03937007874
  0
LTYPE
  2
ACANSTGL
 70
     0
  3
_ _ _ _ _
 72
    65
 73
     2
 40
0.11811023622
 49
0.07874015748
 49
-0.03937007874
  0
ENDTAB
  0
TABLE
  2
LAYER
 70
     8
  0
LAYER
  2
0
 70
     0
 62
     7
  6
CONTINUOUS
  0
LAYER
  2
245
 70
     0
 62
     2
  6
CENTER2
  0
LAYER
  2
DEFPOINTS
 70
     0
 62
     7
  6
CONTINUOUS
  0
LAYER
  2
240
 70
     0
 62
     4
  6
CONTINUOUS
  0
LAYER
  2
241
 70
     0
 62
   211
  6
CONTINUOUS
  0
LAYER
  2
246
 70
     0
 62
     3
  6
PHANTOM2
  0
LAYER
  2
247
 70
     0
 62
    60
  6
CONTINUOUS
  0
LAYER
  2
250
 70
     0
 62
     3
  6
CONTINUOUS
  0
ENDTAB
  0
TABLE
  2
STYLE
 70
     5
  0
STYLE
  2
STANDARD
 70
     0
 40
0.0
 41
1.0
 50
0.0
 71
     0
 42
3.0
  3
romans.shx
  4
extfont.shx
  0
STYLE
  2
YOKO
 70
     0
 40
0.0
 41
1.0
 50
0.0
 71
     0
 42
3.0
  3
romans.shx
  4
extfont.shx
  0
STYLE
  2
ACANSTS
 70
     0
 40
1.0
 41
1.0
 50
0.0
 71
     0
 42
3.0
  3
romans.shx
  4
extfont.shx
  0
STYLE
  2
ACANSGDT
 70
     0
 40
0.0
 41
1.0
 50
0.0
 71
     0
 42
3.0
  3
amgdtans.shx
  4

  0
ENDTAB
  0
TABLE
  2
VIEW
 70
     0
  0
ENDTAB
  0
TABLE
  2
UCS
 70
     0
  0
ENDTAB
  0
TABLE
  2
APPID
 70
    31
  0
APPID
  2
ACAD
 70
     0
  0
APPID
  2
GLOBAL
 70
     0
  0
APPID
  2
DETAIL
 70
     0
  0
APPID
  2
GRPNAME
 70
     0
  0
APPID
  2
GPARA
 70
     0
  0
APPID
  2
MCAD_NO_VIS
 70
     0
  0
APPID
  2
ACAD_TEMP_GRAPHIC
 70
     0
  0
APPID
  2
ACATTRIBSERVICES
 70
     0
  0
APPID
  2
GENIUS_GENSCREG_15
 70
     0
  0
APPID
  2
GENIUS_GENODEF_13
 70
     0
  0
APPID
  2
GENIUS_GENOBJ-N-SDF_13
 70
     0
  0
APPID
  2
GENIUS_GENREC_14
 70
     0
  0
APPID
  2
GENIUS_GENOBJ-N-REC_13
 70
     0
  0
APPID
  2
GENIUS_GENDIMSH_14
 70
     0
  0
APPID
  2
GENIUS_GENOBJ-N-DIM_13
 70
     0
  0
APPID
  2
GENIUS_GENDIM_13
 70
     0
  0
APPID
  2
GENIUS_GENDTOL_13
 70
     0
  0
APPID
  2
GENIUS_GENOLIS_13
 70
     0
  0
APPID
  2
GENIUS_GENOENT_13
 70
     0
  0
APPID
  2
GENIUS_GENOBJ-F-FEM_13
 70
     0
  0
APPID
  2
GENIUS_GENOREF_13
 70
     0
  0
APPID
  2
GENIUS_GEFFEM_13
 70
     0
  0
APPID
  2
GENIUS_GEFFEMP_13
 70
     0
  0
APPID
  2
AD_DRAW
 70
     0
  0
APPID
  2
DESIGNERASSEMBLIES
 70
     0
  0
APPID
  2
ACADM_DIM_EDIT
 70
     0
  0
APPID
  2
AMDT_DM_ADJ
 70
     0
  0
APPID
  2
ITEMNAME
 70
     0
  0
APPID
  2
HATCH_TYPE
 70
     0
  0
APPID
  2
HATCH_DISPLAY
 70
     0
  0
APPID
  2
HATCH_DISTANCE
 70
     0
  0
ENDTAB
  0
TABLE
  2
DIMSTYLE
 70
     7
  0
DIMSTYLE
  2
BIGT
 70
     0
  3

  4

  5

  6

  7

 40
1.0
 41
2.2299999999999991
 42
0.5
 43
7.0
 44
1.0
 45
0.0
 46
0.0
 47
0.0
 48
0.01
140
2.799999999999998
141
0.0
142
0.0
143
25.399999999999999
144
1.0
145
0.0
146
1.0
147
1.0
 71
     0
 72
     0
 73
     0
 74
     0
 75
     0
 76
     0
 77
     3
 78
     9
170
     0
171
     2
172
     1
173
     0
174
     1
175
     0
176
   256
177
   256
178
    40
  0
DIMSTYLE
  2
AM_ANSI
 70
     0
  3

  4
mm
  5

  6

  7

 40
1.0
 41
0.1
 42
0.05
 43
0.5
 44
0.1
 45
0.0
 46
0.0
 47
0.1
 48
0.1
140
0.12
141
0.0
142
0.0
143
25.399999999999999
144
1.0
145
0.0
146
0.71
147
0.06
 71
     0
 72
     0
 73
     1
 74
     1
 75
     0
 76
     0
 77
     0
 78
     7
170
     0
171
     2
172
     0
173
     0
174
     0
175
     0
176
   256
177
   256
178
     2
  0
DIMSTYLE
  2
AM_ANSI$3
 70
     0
  3

  4
mm
  5

  6

  7

 40
1.0
 41
0.1
 42
0.05
 43
0.5
 44
0.1
 45
0.0
 46
0.0
 47
0.1
 48
0.1
140
0.12
141
0.0
142
0.0
143
25.399999999999999
144
1.0
145
0.0
146
0.71
147
0.06
 71
     0
 72
     0
 73
     1
 74
     1
 75
     0
 76
     0
 77
     0
 78
     7
170
     0
171
     2
172
     0
173
     0
174
     0
175
     0
176
   256
177
   256
178
     2
  0
DIMSTYLE
  2
AM_ANSI$4
 70
     0
  3

  4
mm
  5

  6

  7

 40
1.0
 41
0.1
 42
0.05
 43
0.5
 44
0.1
 45
0.0
 46
0.0
 47
0.1
 48
0.1
140
0.12
141
0.0
142
0.0
143
25.399999999999999
144
1.0
145
0.0
146
0.71
147
0.06
 71
     0
 72
     0
 73
     1
 74
     1
 75
     0
 76
     0
 77
     0
 78
     7
170
     0
171
     2
172
     0
173
     0
174
     0
175
     0
176
   256
177
   256
178
     2
  0
DIMSTYLE
  2
AM_ANSI$7
 70
     0
  3

  4
mm
  5

  6

  7

 40
1.0
 41
0.1
 42
0.05
 43
0.5
 44
0.1
 45
0.0
 46
0.0
 47
0.1
 48
0.1
140
0.24
141
0.0
142
0.0
143
25.399999999999999
144
1.0
145
0.0
146
0.71
147
0.06
 71
     0
 72
     0
 73
     1
 74
     1
 75
     0
 76
     0
 77
     0
 78
     7
170
     0
171
     2
172
     0
173
     0
174
     0
175
     0
176
   256
177
   256
178
     2
  0
DIMSTYLE
  2
AM_ANSI$SF
 70
     0
  3

  4
mm
  5

  6

  7

 40
1.0
 41
0.1
 42
0.05
 43
0.5
 44
0.1
 45
0.0
 46
0.0
 47
0.1
 48
0.1
140
0.12
141
0.0
142
0.0
143
25.399999999999999
144
1.0
145
0.0
146
0.71
147
0.06
 71
     0
 72
     0
 73
     1
 74
     1
 75
     1
 76
     1
 77
     0
 78
     7
170
     0
171
     2
172
     0
173
     0
174
     0
175
     0
176
   256
177
   256
178
     2
  0
DIMSTYLE
  2
AM_ANSI$SH
 70
     0
  3

  4
mm
  5

  6

  7

 40
1.0
 41
0.1
 42
0.05
 43
0.5
 44
0.1
 45
0.0
 46
0.0
 47
0.1
 48
0.1
140
0.12
141
0.0
142
0.0
143
25.399999999999999
144
1.0
145
0.0
146
0.71
147
0.06
 71
     0
 72
     0
 73
     1
 74
     1
 75
     1
 76
     1
 77
     0
 78
     7
170
     0
171
     2
172
     0
173
     1
174
     0
175
     0
176
   256
177
   256
178
     2
  0
ENDTAB
  0
ENDSEC
  0
SECTION
  2
BLOCKS
  0
BLOCK
  8
0
  2
$MODEL_SPACE
 70
     0
 10
0.0
 20
0.0
 30
0.0
  3
$MODEL_SPACE
  1

  0
ENDBLK
  5
1BBF
  8
0
  0
BLOCK
 67
     1
  8
0
  2
$PAPER_SPACE
 70
     0
 10
0.0
 20
0.0
 30
0.0
  3
$PAPER_SPACE
  1

  0
ENDBLK
  5
1BBB
 67
     1
  8
0
  0
BLOCK
  8
0
  2
_OPEN
 70
     0
 10
0.0
 20
0.0
 30
0.0
  3
_OPEN
  1

  0
LINE
  5
1A0B
  8
0
  6
BYBLOCK
 62
     0
 10
-1.0
 20
0.1666666666666666
 30
0.0
 11
0.0
 21
0.0
 31
0.0
  0
LINE
  5
1A0C
  8
0
  6
BYBLOCK
 62
     0
 10
-1.0
 20
-0.1666666666666666
 30
0.0
 11
0.0
 21
0.0
 31
0.0
  0
LINE
  5
1A0D
  8
0
  6
BYBLOCK
 62
     0
 10
0.0
 20
0.0
 30
0.0
 11
-1.0
 21
0.0
 31
0.0
  0
ENDBLK
  5
1A0E
  8
0
  0
ENDSEC
  0
SECTION
  2
ENTITIES
  0
LINE
  5
193A
  8
250
 10
-20.40841178011004
 20
-22.928711451377598
 30
0.0
 11
-34.408411780110029
 21
-22.928711451377598
 31
0.0
1001
ITEMNAME
1000
LNSP2
  0
LINE
  5
193B
  8
250
 10
-0.3423105293401249
 20
-15.50000008146718
 30
0.0
 11
-28.999999999999989
 21
-15.499999999999989
 31
0.0
  0
LINE
  5
193C
  8
250
 10
-0.3423105293401231
 20
15.5
 30
0.0
 11
-28.999999999999979
 21
15.5
 31
0.0
  0
LINE
  5
193D
  8
250
 10
-27.999999999999989
 20
-13.269999999999991
 30
0.0
 11
-27.999999999999979
 21
13.27
 31
0.0
  0
TEXT
  5
193E
  8
250
 10
-31.83698320868147
 20
-21.928711451377598
 30
0.0
 40
3.0
  1
CK3
  7
YOKO
1001
ITEMNAME
1000
LNSP3
1001
ACAD
1000
MTEXTBEGIN
1070
    73
1070
     1
1070
    44
1040
1.0
1070
    74
1070
     0
1000
MTEXTEND
  0
TEXT
  5
193F
  8
250
 10
-28.999999999999979
 20
-3.6428571428571361
 30
0.0
 40
3.0
  1
\U+2205
 50
90.0
1001
ACAD
1000
MTEXTBEGIN
1070
    73
1070
     1
1070
    44
1040
1.0
1070
    74
1070
     0
1000
MTEXTEND
  0
TEXT
  5
1940
  8
250
 10
-28.999999999999979
 20
-0.9285714285714251
 30
0.0
 40
3.0
  1
31
 50
90.0
1001
ACAD
1000
MTEXTBEGIN
1070
    73
1070
     1
1070
    44
1040
1.0
1070
    74
1070
     0
1000
MTEXTEND
  0
LINE
  5
1941
  8
250
 10
-28.371666666666648
 20
13.27
 30
0.0
 11
-27.999999999999979
 21
15.5
 31
0.0
  0
LINE
  5
1942
  8
250
 10
-27.62833333333332
 20
13.27
 30
0.0
 11
-27.999999999999979
 21
15.5
 31
0.0
  0
LINE
  5
1943
  8
250
 10
-27.999999999999979
 20
15.5
 30
0.0
 11
-27.999999999999979
 21
13.27
 31
0.0
  0
LINE
  5
1944
  8
250
 10
-27.62833333333333
 20
-13.269999999999991
 30
0.0
 11
-27.999999999999989
 21
-15.499999999999989
 31
0.0
  0
LINE
  5
1945
  8
250
 10
-28.371666666666659
 20
-13.269999999999991
 30
0.0
 11
-27.999999999999989
 21
-15.499999999999989
 31
0.0
  0
LINE
  5
1946
  8
250
 10
-27.999999999999989
 20
-15.499999999999989
 30
0.0
 11
-27.999999999999989
 21
-13.269999999999991
 31
0.0
  0
LINE
  5
1947
  8
250
 10
-13.481666474192579
 20
-10.931236650439351
 30
0.0
 11
-20.40841178011004
 21
-22.928711451377598
 31
0.0
1001
ACAD
1000
DSTYLE
1002
{
1070
     5
1000
OPEN
1070
    78
1070
     8
1070
   140
1040
3.0
1002
}
  0
LINE
  5
1948
  8
250
 10
-13.803539249265789
 20
-10.745403317106019
 30
0.0
 11
-12.366666474192581
 21
-9.0000000000000568
 31
0.0
  0
LINE
  5
1949
  8
250
 10
-13.15979369911936
 20
-11.11706998377268
 30
0.0
 11
-12.366666474192581
 21
-9.0000000000000568
 31
0.0
  0
LINE
  5
194A
  8
250
 10
-12.366666474192581
 20
-9.0000000000000568
 30
0.0
 11
-13.481666474192579
 21
-10.931236650439351
 31
0.0
  0
LINE
  5
194B
  8
250
 10
13.952508689916099
 20
21.703553390593271
 30
0.0
 11
9.138756393261664
 21
26.517305687247688
 31
0.0
  0
ARC
  5
194C
  8
250
 10
19.96395923197267
 20
15.692102848536701
 30
0.0
 40
14.30914866994482
 50
98.938284575628813
 51
126.061715424371
  0
LINE
  5
194D
  8
250
 10
0.0
 20
16.0
 30
0.0
 11
0.0000000000000013
 21
36.0
 31
0.0
  0
LINE
  5
194E
  8
250
 10
19.96291621363099
 20
16.19314481914045
 30
0.0
 11
19.96291621363099
 21
36.0
 31
0.0
  0
LINE
  5
194F
  8
250
 10
2.2299999999999991
 20
35.0
 30
0.0
 11
17.73291621363099
 21
35.0
 31
0.0
  0
LINE
  5
1950
  8
250
 10
15.156062015683871
 20
21.000000000000011
 30
0.0
 11
43.0
 21
21.0
 31
0.0
  0
LINE
  5
1951
  8
250
 10
42.000000000000007
 20
18.77
 30
0.0
 11
42.000000000000007
 21
-4.5333333333333341
 31
0.0
  0
LINE
  5
1952
  8
250
 10
20.15606108960581
 20
16.0
 30
0.0
 11
36.000000000000007
 21
15.99999999999998
 31
0.0
  0
LINE
  5
1953
  8
250
 10
35.000000000000021
 20
13.77
 30
0.0
 11
35.000000000000021
 21
-4.5333333333333341
 31
0.0
  0
LINE
  5
1954
  8
250
 10
14.806062080509321
 20
-21.349999999999991
 30
0.0
 11
50.0
 21
-21.350000000000001
 31
0.0
  0
LINE
  5
1955
  8
250
 10
14.806062080509321
 20
21.350000000000019
 30
0.0
 11
50.0
 21
21.350000000000019
 31
0.0
  0
LINE
  5
1956
  8
250
 10
49.0
 20
-19.120000000000001
 30
0.0
 11
49.000000000000021
 21
19.120000000000001
 31
0.0
  0
LINE
  5
1957
  8
250
 10
12.04184834291704
 20
21.000000000000011
 30
0.0
 11
-43.0
 21
21.000000000000028
 31
0.0
  0
LINE
  5
1958
  8
250
 10
-42.0
 20
18.770000000000021
 30
0.0
 11
-42.000000000000007
 21
-4.5333251770590381
 31
0.0
  0
LINE
  5
1959
  8
250
 10
7.0418491660975331
 20
16.0
 30
0.0
 11
-36.0
 21
16.000000000000011
 31
0.0
  0
LINE
  5
195A
  8
250
 10
-35.000000000000007
 20
13.77000000000001
 30
0.0
 11
-35.000000000000007
 21
-4.5333263534325523
 31
0.0
  0
TEXT
  5
195B
  8
250
 10
-43.0
 20
-3.799991843725711
 30
0.0
 40
2.799999999999998
  1
\U+220542
 50
90.0
  0
LINE
  5
195C
  8
250
 10
-42.371666666666663
 20
18.770000000000021
 30
0.0
 11
-42.0
 21
21.000000000000028
 31
0.0
  0
LINE
  5
195D
  8
250
 10
-41.62833333333333
 20
18.770000000000021
 30
0.0
 11
-42.0
 21
21.000000000000028
 31
0.0
  0
LINE
  5
195E
  8
250
 10
-42.0
 20
21.000000000000028
 30
0.0
 11
-42.0
 21
18.770000000000021
 31
0.0
  0
TEXT
  5
195F
  8
250
 10
-36.000000000000007
 20
-3.7999930200992229
 30
0.0
 40
2.799999999999998
  1
\U+220532
 50
90.0
  0
LINE
  5
1960
  8
250
 10
-35.37166666666667
 20
13.77000000000001
 30
0.0
 11
-35.0
 21
16.000000000000011
 31
0.0
  0
LINE
  5
1961
  8
250
 10
-34.62833333333333
 20
13.77000000000001
 30
0.0
 11
-35.0
 21
16.000000000000011
 31
0.0
  0
LINE
  5
1962
  8
250
 10
-35.0
 20
16.000000000000011
 30
0.0
 11
-35.0
 21
13.77000000000001
 31
0.0
  0
TEXT
  5
1963
  8
250
 10
10.632781150169389
 20
28.652478089320631
 30
0.0
 40
2.799999999999998
  1
45üï
 50
19.21213486684789
  0
LINE
  5
1964
  8
250
 10
11.78231860469225
 20
26.976893586682209
 30
0.0
 11
9.8458631744482101
 21
25.810198906061149
 31
0.0
  0
LINE
  5
1965
  8
250
 10
11.29925787420736
 20
27.541868608349411
 30
0.0
 11
9.8458631744482101
 21
25.810198906061149
 31
0.0
  0
LINE
  5
1966
  8
250
 10
9.8458631744482101
 20
25.810198906061149
 30
0.0
 11
11.54078823944981
 21
27.25938109751581
 31
0.0
  0
LINE
  5
1967
  8
250
 10
17.711778594769111
 20
30.19802165980456
 30
0.0
 11
19.963959231972702
 21
30.001251518481521
 31
0.0
  0
LINE
  5
1968
  8
250
 10
17.769700745540199
 20
29.456948472531881
 30
0.0
 11
19.963959231972702
 21
30.001251518481521
 31
0.0
  0
LINE
  5
1969
  8
250
 10
19.963959231972702
 20
30.001251518481521
 30
0.0
 11
17.74073967015466
 21
29.827485066168212
 31
0.0
  0
TEXT
  5
196A
  8
250
 10
7.3147914401488281
 20
36.0
 30
0.0
 40
2.799999999999998
  1
20
  0
LINE
  5
196B
  8
250
 10
17.73291621363099
 20
35.37166666666667
 30
0.0
 11
19.96291621363099
 21
35.0
 31
0.0
  0
LINE
  5
196C
  8
250
 10
17.73291621363099
 20
34.62833333333333
 30
0.0
 11
19.96291621363099
 21
35.0
 31
0.0
  0
LINE
  5
196D
  8
250
 10
19.96291621363099
 20
35.0
 30
0.0
 11
17.73291621363099
 21
35.0
 31
0.0
  0
LINE
  5
196E
  8
250
 10
2.2299999999999991
 20
34.62833333333333
 30
0.0
 11
0.0000000000000012
 21
35.0
 31
0.0
  0
LINE
  5
196F
  8
250
 10
2.2299999999999991
 20
35.37166666666667
 30
0.0
 11
0.0000000000000012
 21
35.0
 31
0.0
  0
LINE
  5
1970
  8
250
 10
0.0000000000000012
 20
35.0
 30
0.0
 11
2.2299999999999991
 21
35.0
 31
0.0
  0
TEXT
  5
1971
  8
250
 10
41.0
 20
-3.7999999999999909
 30
0.0
 40
2.799999999999998
  1
\U+220542
 50
90.0
  0
LINE
  5
1972
  8
250
 10
41.628333333333337
 20
18.77
 30
0.0
 11
42.000000000000007
 21
21.0
 31
0.0
  0
LINE
  5
1973
  8
250
 10
42.371666666666663
 20
18.77
 30
0.0
 11
42.000000000000007
 21
21.0
 31
0.0
  0
LINE
  5
1974
  8
250
 10
42.000000000000007
 20
21.0
 30
0.0
 11
42.000000000000007
 21
18.77
 31
0.0
  0
TEXT
  5
1975
  8
250
 10
34.000000000000007
 20
-3.7999999999999909
 30
0.0
 40
2.799999999999998
  1
\U+220532
 50
90.0
  0
LINE
  5
1976
  8
250
 10
34.628333333333337
 20
13.77
 30
0.0
 11
35.000000000000021
 21
15.99999999999998
 31
0.0
  0
LINE
  5
1977
  8
250
 10
35.371666666666691
 20
13.77
 30
0.0
 11
35.000000000000021
 21
15.99999999999998
 31
0.0
  0
LINE
  5
1978
  8
250
 10
35.000000000000021
 20
15.99999999999998
 30
0.0
 11
35.000000000000021
 21
13.77
 31
0.0
  0
TEXT
  5
1979
  8
250
 10
48.0
 20
-5.8952380952380787
 30
0.0
 40
3.0
  1
\U+2205
 50
90.0
  0
TEXT
  5
197A
  8
250
 10
47.899999999999999
 20
-3.1809523809523621
 30
0.0
 40
2.799999999999998
  1
42.7
 50
90.0
  0
LINE
  5
197B
  8
250
 10
48.628333333333337
 20
19.120000000000001
 30
0.0
 11
49.000000000000021
 21
21.350000000000019
 31
0.0
  0
LINE
  5
197C
  8
250
 10
49.371666666666677
 20
19.120000000000001
 30
0.0
 11
49.000000000000021
 21
21.350000000000019
 31
0.0
  0
LINE
  5
197D
  8
250
 10
49.000000000000021
 20
21.350000000000019
 30
0.0
 11
49.000000000000021
 21
19.120000000000001
 31
0.0
  0
LINE
  5
197E
  8
250
 10
49.37166666666667
 20
-19.120000000000001
 30
0.0
 11
49.0
 21
-21.350000000000001
 31
0.0
  0
LINE
  5
197F
  8
250
 10
48.62833333333333
 20
-19.120000000000001
 30
0.0
 11
49.0
 21
-21.350000000000001
 31
0.0
  0
LINE
  5
1980
  8
250
 10
49.0
 20
-21.350000000000001
 30
0.0
 11
49.0
 21
-19.120000000000001
 31
0.0
  0
TEXT
  5
1981
  8
241
 10
-42.0
 20
49.0
 30
0.0
 40
5.0
  1
CKB3-C3242-45B-20
  7
YOKO
 11
-42.0
 21
49.0
 31
0.0
 73
     1
  0
LINE
  5
1C93
  8
241
 10
7.2360392659902839
 20
9.98104231469142
 30
0.0
 11
7.626494392752674
 21
12.22752136533822
 31
0.0
  0
LINE
  5
1C94
  8
240
 10
19.863536785123902
 20
10.55883486033434
 30
0.0
 11
19.963961443863841
 21
9.98104231469142
 31
0.0
  0
LINE
  5
1C95
  8
241
 10
19.963961443863841
 20
9.98104231469142
 30
0.0
 11
14.30710731074217
 21
13.98104165617843
 31
0.0
  0
LINE
  5
1C96
  8
241
 10
12.89289351552727
 20
13.98104165617843
 30
0.0
 11
7.2360392659902839
 21
9.98104231469142
 31
0.0
  0
LINE
  5
1C97
  8
240
 10
0.0
 20
-15.500000082440289
 30
0.0
 11
0.0
 21
-9.0000000000000036
 31
0.0
  0
LINE
  5
1C98
  8
240
 10
0.0
 20
9.0
 30
0.0
 11
0.0
 21
15.500000082440319
 31
0.0
  0
LINE
  5
1C99
  8
240
 10
19.963961443863809
 20
-12.102362676690349
 30
0.0
 11
19.500000418857582
 21
-12.43043261641786
 31
0.0
  0
LINE
  5
1C9A
  8
241
 10
19.500000402331349
 20
-12.43043262810367
 30
0.0
 11
14.30710731074214
 21
-16.102362018177359
 31
0.0
  0
LINE
  5
1C9B
  8
241
 10
14.30710731074214
 20
4.981042479288134
 30
0.0
 11
19.500000402331381
 21
8.6529723160095955
 31
0.0
  0
LINE
  5
1C9C
  8
240
 10
19.500000402331381
 20
8.6529724738941862
 30
0.0
 11
19.963961443863841
 21
8.9810424793196812
 31
0.0
  0
LINE
  5
1C9D
  8
240
 10
19.500000402331349
 20
-15.50147983194972
 30
0.0
 11
19.500000402331349
 21
-12.43043259304625
 31
0.0
  0
LINE
  5
1C9E
  8
241
 10
19.500000402331349
 20
-9.4011928875959239
 30
0.0
 11
19.500000402331349
 21
-8.8039068482902376
 31
0.0
  0
LINE
  5
1C9F
  8
240
 10
19.500000402331349
 20
-8.8039068482902376
 30
0.0
 11
19.500000402331349
 21
8.6529724738941631
 31
0.0
  0
LINE
  5
1CA0
  8
240
 10
19.57350652810419
 20
-8.8894129257512304
 30
0.0
 11
19.86353678512387
 21
-11.523479581342199
 31
0.0
  0
LINE
  5
1CA1
  8
241
 10
19.023800058227948
 20
-10.117409305167779
 30
0.0
 11
19.86353678512387
 21
-11.523479581342199
 31
0.0
  0
LINE
  5
1CA2
  8
240
 10
19.86353678512387
 20
-11.523479581342199
 30
0.0
 11
19.963961443863809
 21
-12.102362676690349
 31
0.0
  0
LINE
  5
1CA3
  8
241
 10
19.500000402331349
 20
-9.0833931374780832
 30
0.0
 11
19.57350652810419
 21
-8.8894129257512304
 31
0.0
  0
LINE
  5
1CA4
  8
240
 10
19.57350652810419
 20
-8.8894129257512304
 30
0.0
 11
19.57350652810419
 21
-8.8558837906717827
 31
0.0
  0
LINE
  5
1CA5
  8
240
 10
19.500000402331349
 20
-8.8039068482902376
 30
0.0
 11
19.57350652810419
 21
-8.8558837906717827
 31
0.0
  0
LINE
  5
1CA6
  8
240
 10
19.963961443863841
 20
8.9810424793196812
 30
0.0
 11
19.963961443863841
 21
9.98104231469142
 31
0.0
  0
LINE
  5
1CA7
  8
241
 10
12.89289351552725
 20
-16.102362018177359
 30
0.0
 11
7.2360392659902573
 21
-12.102362676690319
 31
0.0
  0
LINE
  5
1CA8
  8
241
 10
14.20000055804848
 20
-13.54277007867614
 30
0.0
 11
14.20000055804848
 21
-4.91743481771499
 31
0.0
  0
LINE
  5
1CA9
  8
241
 10
13.0000002682209
 20
-13.54277007867614
 30
0.0
 11
13.0000002682209
 21
-4.91743481771499
 31
0.0
  0
LINE
  5
1CAA
  8
240
 10
13.0000002682209
 20
-20.31326764697155
 30
0.0
 11
14.20000055804848
 21
-20.31326764697155
 31
0.0
  0
LINE
  5
1CAB
  8
241
 10
12.89366511628031
 20
-15.453013343386059
 30
0.0
 11
12.89289351552725
 21
-16.102362018177359
 31
0.0
  0
LINE
  5
1CAC
  8
241
 10
14.30710731074214
 20
-16.102362018177359
 30
0.0
 11
14.304107986390591
 21
-13.57767030342117
 31
0.0
  0
LINE
  5
1CAD
  8
241
 10
14.30710731074214
 20
-16.102362018177359
 30
0.0
 11
12.89289351552725
 21
-16.102362018177359
 31
0.0
  0
LINE
  5
1CAE
  8
241
 10
12.39780616015196
 20
-13.225468846750861
 30
0.0
 11
12.89366511628031
 21
-15.453013343386059
 31
0.0
  0
LINE
  5
1CAF
  8
241
 10
14.0724922530353
 20
-13.54277007867614
 30
0.0
 11
14.256690163165331
 21
-13.57767030342117
 31
0.0
  0
LINE
  5
1CB0
  8
241
 10
14.256690163165331
 20
-13.57767030342117
 30
0.0
 11
14.304107986390591
 21
-13.57767030342117
 31
0.0
  0
LINE
  5
1CB1
  8
241
 10
14.256690163165331
 20
-13.57767030342117
 30
0.0
 11
12.89366511628031
 21
-15.453013343386059
 31
0.0
  0
LINE
  5
1CB2
  8
241
 10
13.0000002682209
 20
-13.54277007867614
 30
0.0
 11
14.20000055804848
 21
-13.54277007867614
 31
0.0
  0
LINE
  5
1CB3
  8
241
 10
7.6000001281499854
 20
-9.7076465743856488
 30
0.0
 11
7.6000001281499854
 21
3.0458164231691272
 31
0.0
  0
LINE
  5
1CB4
  8
241
 10
13.0000002682209
 20
-4.91743481771499
 30
0.0
 11
14.20000055804848
 21
-4.91743481771499
 31
0.0
  0
LINE
  5
1CB5
  8
241
 10
7.2360392659902573
 20
-12.102362676690319
 30
0.0
 11
7.645820825195325
 21
-9.7402382752287835
 31
0.0
  0
LINE
  5
1CB6
  8
241
 10
7.2360392659902839
 20
8.9810424793196812
 30
0.0
 11
12.89289351552725
 21
4.981042479288134
 31
0.0
  0
POLYLINE
  5
1CB7
  8
241
 66
     1
 10
0.0
 20
0.0
 30
0.0
 70
     8
  0
VERTEX
  5
1CB8
  8
241
 10
16.001799999999999
 20
6.20608
 30
0.0
 70
    32
  0
VERTEX
  5
1CB9
  8
241
 10
16.0017
 20
6.2059499999999987
 30
0.0
 70
    32
  0
VERTEX
  5
1CBA
  8
241
 10
16.0017
 20
6.2058200000000001
 30
0.0
 70
    32
  0
VERTEX
  5
1CBB
  8
241
 10
16.0017
 20
6.205689999999997
 30
0.0
 70
    32
  0
VERTEX
  5
1CBC
  8
241
 10
16.0016
 20
6.205549999999997
 30
0.0
 70
    32
  0
VERTEX
  5
1CBD
  8
241
 10
16.0016
 20
6.2054199999999993
 30
0.0
 70
    32
  0
VERTEX
  5
1CBE
  8
241
 10
16.0015
 20
6.2052899999999971
 30
0.0
 70
    32
  0
VERTEX
  5
1CBF
  8
241
 10
16.0015
 20
6.2051600000000002
 30
0.0
 70
    32
  0
VERTEX
  5
1CC0
  8
241
 10
16.0015
 20
6.2050199999999993
 30
0.0
 70
    32
  0
VERTEX
  5
1CC1
  8
241
 10
16.0014
 20
6.204889999999998
 30
0.0
 70
    32
  0
VERTEX
  5
1CC2
  8
241
 10
16.0014
 20
6.2047600000000003
 30
0.0
 70
    32
  0
VERTEX
  5
1CC3
  8
241
 10
16.001300000000001
 20
6.2046299999999981
 30
0.0
 70
    32
  0
VERTEX
  5
1CC4
  8
241
 10
16.001300000000001
 20
6.2045000000000003
 30
0.0
 70
    32
  0
VERTEX
  5
1CC5
  8
241
 10
16.001300000000001
 20
6.2043600000000003
 30
0.0
 70
    32
  0
VERTEX
  5
1CC6
  8
241
 10
16.001200000000001
 20
6.204229999999999
 30
0.0
 70
    32
  0
VERTEX
  5
1CC7
  8
241
 10
16.001200000000001
 20
6.2041000000000004
 30
0.0
 70
    32
  0
VERTEX
  5
1CC8
  8
241
 10
16.001200000000001
 20
6.2039699999999991
 30
0.0
 70
    32
  0
VERTEX
  5
1CC9
  8
241
 10
16.001100000000001
 20
6.2038399999999987
 30
0.0
 70
    32
  0
VERTEX
  5
1CCA
  8
241
 10
16.001100000000001
 20
6.2037000000000004
 30
0.0
 70
    32
  0
VERTEX
  5
1CCB
  8
241
 10
16.001000000000001
 20
6.20357
 30
0.0
 70
    32
  0
VERTEX
  5
1CCC
  8
241
 10
16.001000000000001
 20
6.2034399999999987
 30
0.0
 70
    32
  0
VERTEX
  5
1CCD
  8
241
 10
16.001000000000001
 20
6.2033100000000001
 30
0.0
 70
    32
  0
VERTEX
  5
1CCE
  8
241
 10
16.000900000000001
 20
6.203179999999997
 30
0.0
 70
    32
  0
VERTEX
  5
1CCF
  8
241
 10
16.000900000000001
 20
6.203039999999997
 30
0.0
 70
    32
  0
VERTEX
  5
1CD0
  8
241
 10
16.000800000000002
 20
6.2029100000000001
 30
0.0
 70
    32
  0
VERTEX
  5
1CD1
  8
241
 10
16.000800000000002
 20
6.2027799999999971
 30
0.0
 70
    32
  0
VERTEX
  5
1CD2
  8
241
 10
16.000800000000002
 20
6.2026500000000002
 30
0.0
 70
    32
  0
VERTEX
  5
1CD3
  8
241
 10
16.000699999999998
 20
6.202519999999998
 30
0.0
 70
    32
  0
VERTEX
  5
1CD4
  8
241
 10
16.000699999999998
 20
6.2023900000000003
 30
0.0
 70
    32
  0
VERTEX
  5
1CD5
  8
241
 10
16.000699999999998
 20
6.2022500000000003
 30
0.0
 70
    32
  0
VERTEX
  5
1CD6
  8
241
 10
16.000599999999999
 20
6.2021199999999981
 30
0.0
 70
    32
  0
VERTEX
  5
1CD7
  8
241
 10
16.000599999999999
 20
6.2019900000000003
 30
0.0
 70
    32
  0
VERTEX
  5
1CD8
  8
241
 10
16.000499999999999
 20
6.201859999999999
 30
0.0
 70
    32
  0
VERTEX
  5
1CD9
  8
241
 10
16.000499999999999
 20
6.2017300000000004
 30
0.0
 70
    32
  0
VERTEX
  5
1CDA
  8
241
 10
16.000499999999999
 20
6.2015900000000004
 30
0.0
 70
    32
  0
VERTEX
  5
1CDB
  8
241
 10
16.000399999999999
 20
6.2014599999999991
 30
0.0
 70
    32
  0
VERTEX
  5
1CDC
  8
241
 10
16.000399999999999
 20
6.2013299999999987
 30
0.0
 70
    32
  0
VERTEX
  5
1CDD
  8
241
 10
16.000299999999999
 20
6.2012
 30
0.0
 70
    32
  0
VERTEX
  5
1CDE
  8
241
 10
16.000299999999999
 20
6.2010699999999987
 30
0.0
 70
    32
  0
VERTEX
  5
1CDF
  8
241
 10
16.000299999999999
 20
6.2009299999999987
 30
0.0
 70
    32
  0
VERTEX
  5
1CE0
  8
241
 10
16.0002
 20
6.2008000000000001
 30
0.0
 70
    32
  0
VERTEX
  5
1CE1
  8
241
 10
16.0002
 20
6.200669999999997
 30
0.0
 70
    32
  0
VERTEX
  5
1CE2
  8
241
 10
16.0002
 20
6.2005400000000002
 30
0.0
 70
    32
  0
VERTEX
  5
1CE3
  8
241
 10
16.0001
 20
6.2004099999999971
 30
0.0
 70
    32
  0
VERTEX
  5
1CE4
  8
241
 10
16.0001
 20
6.2002699999999971
 30
0.0
 70
    32
  0
VERTEX
  5
1CE5
  8
241
 10
16.0
 20
6.2001400000000002
 30
0.0
 70
    32
  0
VERTEX
  5
1CE6
  8
241
 10
16.0
 20
6.200009999999998
 30
0.0
 70
    32
  0
VERTEX
  5
1CE7
  8
241
 10
16.0
 20
6.1998800000000003
 30
0.0
 70
    32
  0
VERTEX
  5
1CE8
  8
241
 10
15.9999
 20
6.1997499999999981
 30
0.0
 70
    32
  0
VERTEX
  5
1CE9
  8
241
 10
15.9999
 20
6.1996099999999981
 30
0.0
 70
    32
  0
VERTEX
  5
1CEA
  8
241
 10
15.9998
 20
6.1994800000000003
 30
0.0
 70
    32
  0
VERTEX
  5
1CEB
  8
241
 10
15.9998
 20
6.199349999999999
 30
0.0
 70
    32
  0
VERTEX
  5
1CEC
  8
241
 10
15.9998
 20
6.1992199999999986
 30
0.0
 70
    32
  0
VERTEX
  5
1CED
  8
241
 10
15.999700000000001
 20
6.1990899999999991
 30
0.0
 70
    32
  0
VERTEX
  5
1CEE
  8
241
 10
15.999700000000001
 20
6.1989499999999991
 30
0.0
 70
    32
  0
VERTEX
  5
1CEF
  8
241
 10
15.999700000000001
 20
6.1988199999999987
 30
0.0
 70
    32
  0
VERTEX
  5
1CF0
  8
241
 10
15.999599999999999
 20
6.19869
 30
0.0
 70
    32
  0
VERTEX
  5
1CF1
  8
241
 10
15.999599999999999
 20
6.1985599999999987
 30
0.0
 70
    32
  0
VERTEX
  5
1CF2
  8
241
 10
15.999499999999999
 20
6.1984300000000001
 30
0.0
 70
    32
  0
VERTEX
  5
1CF3
  8
241
 10
15.999499999999999
 20
6.1982900000000001
 30
0.0
 70
    32
  0
VERTEX
  5
1CF4
  8
241
 10
15.999499999999999
 20
6.198159999999997
 30
0.0
 70
    32
  0
VERTEX
  5
1CF5
  8
241
 10
15.9994
 20
6.1980300000000002
 30
0.0
 70
    32
  0
VERTEX
  5
1CF6
  8
241
 10
15.9994
 20
6.1978999999999971
 30
0.0
 70
    32
  0
VERTEX
  5
1CF7
  8
241
 10
15.9993
 20
6.1977699999999993
 30
0.0
 70
    32
  0
VERTEX
  5
1CF8
  8
241
 10
15.9993
 20
6.197639999999998
 30
0.0
 70
    32
  0
VERTEX
  5
1CF9
  8
241
 10
15.9993
 20
6.197499999999998
 30
0.0
 70
    32
  0
VERTEX
  5
1CFA
  8
241
 10
15.9992
 20
6.1973700000000003
 30
0.0
 70
    32
  0
VERTEX
  5
1CFB
  8
241
 10
15.9992
 20
6.1972399999999981
 30
0.0
 70
    32
  0
VERTEX
  5
1CFC
  8
241
 10
15.9992
 20
6.1971099999999986
 30
0.0
 70
    32
  0
VERTEX
  5
1CFD
  8
241
 10
15.9991
 20
6.196979999999999
 30
0.0
 70
    32
  0
VERTEX
  5
1CFE
  8
241
 10
15.9991
 20
6.196839999999999
 30
0.0
 70
    32
  0
VERTEX
  5
1CFF
  8
241
 10
15.999000000000001
 20
6.1967099999999986
 30
0.0
 70
    32
  0
VERTEX
  5
1D00
  8
241
 10
15.999000000000001
 20
6.1965799999999991
 30
0.0
 70
    32
  0
VERTEX
  5
1D01
  8
241
 10
15.999000000000001
 20
6.1964499999999987
 30
0.0
 70
    32
  0
VERTEX
  5
1D02
  8
241
 10
15.998900000000001
 20
6.1963200000000001
 30
0.0
 70
    32
  0
VERTEX
  5
1D03
  8
241
 10
15.998900000000001
 20
6.19618
 30
0.0
 70
    32
  0
VERTEX
  5
1D04
  8
241
 10
15.998799999999999
 20
6.1960499999999987
 30
0.0
 70
    32
  0
VERTEX
  5
1D05
  8
241
 10
15.998799999999999
 20
6.1959200000000001
 30
0.0
 70
    32
  0
VERTEX
  5
1D06
  8
241
 10
15.998799999999999
 20
6.195789999999997
 30
0.0
 70
    32
  0
VERTEX
  5
1D07
  8
241
 10
15.998699999999999
 20
6.1956600000000002
 30
0.0
 70
    32
  0
VERTEX
  5
1D08
  8
241
 10
15.998699999999999
 20
6.1955299999999971
 30
0.0
 70
    32
  0
VERTEX
  5
1D09
  8
241
 10
15.998699999999999
 20
6.1953899999999971
 30
0.0
 70
    32
  0
VERTEX
  5
1D0A
  8
241
 10
15.9986
 20
6.1952600000000002
 30
0.0
 70
    32
  0
VERTEX
  5
1D0B
  8
241
 10
15.9986
 20
6.195129999999998
 30
0.0
 70
    32
  0
VERTEX
  5
1D0C
  8
241
 10
15.9985
 20
6.1950000000000003
 30
0.0
 70
    32
  0
VERTEX
  5
1D0D
  8
241
 10
15.9985
 20
6.1948699999999981
 30
0.0
 70
    32
  0
VERTEX
  5
1D0E
  8
241
 10
15.9985
 20
6.1947299999999981
 30
0.0
 70
    32
  0
VERTEX
  5
1D0F
  8
241
 10
15.9984
 20
6.1946000000000003
 30
0.0
 70
    32
  0
VERTEX
  5
1D10
  8
241
 10
15.9984
 20
6.194469999999999
 30
0.0
 70
    32
  0
VERTEX
  5
1D11
  8
241
 10
15.9983
 20
6.1943400000000004
 30
0.0
 70
    32
  0
VERTEX
  5
1D12
  8
241
 10
15.9983
 20
6.1942099999999991
 30
0.0
 70
    32
  0
VERTEX
  5
1D13
  8
241
 10
15.9983
 20
6.1940799999999987
 30
0.0
 70
    32
  0
VERTEX
  5
1D14
  8
241
 10
15.998200000000001
 20
6.1939399999999987
 30
0.0
 70
    32
  0
VERTEX
  5
1D15
  8
241
 10
15.998200000000001
 20
6.19381
 30
0.0
 70
    32
  0
VERTEX
  5
1D16
  8
241
 10
15.998100000000001
 20
6.1936799999999987
 30
0.0
 70
    32
  0
VERTEX
  5
1D17
  8
241
 10
15.998100000000001
 20
6.1935500000000001
 30
0.0
 70
    32
  0
VERTEX
  5
1D18
  8
241
 10
15.998100000000001
 20
6.193419999999997
 30
0.0
 70
    32
  0
VERTEX
  5
1D19
  8
241
 10
15.997999999999999
 20
6.193279999999997
 30
0.0
 70
    32
  0
VERTEX
  5
1D1A
  8
241
 10
15.997999999999999
 20
6.1931500000000002
 30
0.0
 70
    32
  0
VERTEX
  5
1D1B
  8
241
 10
15.997999999999999
 20
6.1930199999999971
 30
0.0
 70
    32
  0
VERTEX
  5
1D1C
  8
241
 10
15.9979
 20
6.1928900000000002
 30
0.0
 70
    32
  0
VERTEX
  5
1D1D
  8
241
 10
15.9979
 20
6.192759999999998
 30
0.0
 70
    32
  0
VERTEX
  5
1D1E
  8
241
 10
15.9978
 20
6.1926300000000003
 30
0.0
 70
    32
  0
VERTEX
  5
1D1F
  8
241
 10
15.9978
 20
6.1924900000000003
 30
0.0
 70
    32
  0
VERTEX
  5
1D20
  8
241
 10
15.9978
 20
6.1923599999999981
 30
0.0
 70
    32
  0
VERTEX
  5
1D21
  8
241
 10
15.9977
 20
6.1922300000000003
 30
0.0
 70
    32
  0
VERTEX
  5
1D22
  8
241
 10
15.9977
 20
6.192099999999999
 30
0.0
 70
    32
  0
VERTEX
  5
1D23
  8
241
 10
15.9976
 20
6.1919699999999986
 30
0.0
 70
    32
  0
VERTEX
  5
1D24
  8
241
 10
15.9976
 20
6.1918300000000004
 30
0.0
 70
    32
  0
VERTEX
  5
1D25
  8
241
 10
15.9976
 20
6.1916999999999991
 30
0.0
 70
    32
  0
VERTEX
  5
1D26
  8
241
 10
15.9975
 20
6.1915699999999987
 30
0.0
 70
    32
  0
VERTEX
  5
1D27
  8
241
 10
15.9975
 20
6.1914400000000001
 30
0.0
 70
    32
  0
VERTEX
  5
1D28
  8
241
 10
15.997400000000001
 20
6.191309999999997
 30
0.0
 70
    32
  0
VERTEX
  5
1D29
  8
241
 10
15.997400000000001
 20
6.1911800000000001
 30
0.0
 70
    32
  0
VERTEX
  5
1D2A
  8
241
 10
15.997400000000001
 20
6.1910400000000001
 30
0.0
 70
    32
  0
VERTEX
  5
1D2B
  8
241
 10
15.997299999999999
 20
6.190909999999997
 30
0.0
 70
    32
  0
VERTEX
  5
1D2C
  8
241
 10
15.997299999999999
 20
6.1907800000000002
 30
0.0
 70
    32
  0
VERTEX
  5
1D2D
  8
241
 10
15.997299999999999
 20
6.1906499999999971
 30
0.0
 70
    32
  0
VERTEX
  5
1D2E
  8
241
 10
15.997199999999999
 20
6.1905200000000002
 30
0.0
 70
    32
  0
VERTEX
  5
1D2F
  8
241
 10
15.997199999999999
 20
6.1903800000000002
 30
0.0
 70
    32
  0
VERTEX
  5
1D30
  8
241
 10
15.9971
 20
6.190249999999998
 30
0.0
 70
    32
  0
VERTEX
  5
1D31
  8
241
 10
15.9971
 20
6.1901200000000003
 30
0.0
 70
    32
  0
VERTEX
  5
1D32
  8
241
 10
15.9971
 20
6.1899899999999981
 30
0.0
 70
    32
  0
VERTEX
  5
1D33
  8
241
 10
15.997
 20
6.1898599999999986
 30
0.0
 70
    32
  0
VERTEX
  5
1D34
  8
241
 10
15.997
 20
6.1897299999999991
 30
0.0
 70
    32
  0
VERTEX
  5
1D35
  8
241
 10
15.9969
 20
6.189589999999999
 30
0.0
 70
    32
  0
VERTEX
  5
1D36
  8
241
 10
15.9969
 20
6.1894599999999986
 30
0.0
 70
    32
  0
VERTEX
  5
1D37
  8
241
 10
15.9969
 20
6.1893299999999991
 30
0.0
 70
    32
  0
SEQEND
  5
1D38
  8
241
  0
LINE
  5
1D39
  8
241
 10
12.89289351552725
 20
4.981042479288134
 30
0.0
 11
14.30710731074214
 21
4.981042479288134
 31
0.0
  0
POLYLINE
  5
1D3A
  8
241
 66
     1
 10
0.0
 20
0.0
 30
0.0
 70
     8
  0
VERTEX
  5
1D3B
  8
241
 10
11.203099999999999
 20
6.1893299999999991
 30
0.0
 70
    32
  0
VERTEX
  5
1D3C
  8
241
 10
11.203099999999999
 20
6.1894599999999986
 30
0.0
 70
    32
  0
VERTEX
  5
1D3D
  8
241
 10
11.203099999999999
 20
6.189589999999999
 30
0.0
 70
    32
  0
VERTEX
  5
1D3E
  8
241
 10
11.202999999999999
 20
6.1897299999999991
 30
0.0
 70
    32
  0
VERTEX
  5
1D3F
  8
241
 10
11.202999999999999
 20
6.1898599999999986
 30
0.0
 70
    32
  0
VERTEX
  5
1D40
  8
241
 10
11.2029
 20
6.1899899999999981
 30
0.0
 70
    32
  0
VERTEX
  5
1D41
  8
241
 10
11.2029
 20
6.1901200000000003
 30
0.0
 70
    32
  0
VERTEX
  5
1D42
  8
241
 10
11.2029
 20
6.190249999999998
 30
0.0
 70
    32
  0
VERTEX
  5
1D43
  8
241
 10
11.2028
 20
6.1903899999999981
 30
0.0
 70
    32
  0
VERTEX
  5
1D44
  8
241
 10
11.2028
 20
6.1905200000000002
 30
0.0
 70
    32
  0
VERTEX
  5
1D45
  8
241
 10
11.2027
 20
6.1906499999999971
 30
0.0
 70
    32
  0
VERTEX
  5
1D46
  8
241
 10
11.2027
 20
6.1907800000000002
 30
0.0
 70
    32
  0
VERTEX
  5
1D47
  8
241
 10
11.2027
 20
6.190909999999997
 30
0.0
 70
    32
  0
VERTEX
  5
1D48
  8
241
 10
11.2026
 20
6.1910400000000001
 30
0.0
 70
    32
  0
VERTEX
  5
1D49
  8
241
 10
11.2026
 20
6.1911800000000001
 30
0.0
 70
    32
  0
VERTEX
  5
1D4A
  8
241
 10
11.2026
 20
6.191309999999997
 30
0.0
 70
    32
  0
VERTEX
  5
1D4B
  8
241
 10
11.202500000000001
 20
6.1914400000000001
 30
0.0
 70
    32
  0
VERTEX
  5
1D4C
  8
241
 10
11.202500000000001
 20
6.1915699999999987
 30
0.0
 70
    32
  0
VERTEX
  5
1D4D
  8
241
 10
11.202400000000001
 20
6.1916999999999991
 30
0.0
 70
    32
  0
VERTEX
  5
1D4E
  8
241
 10
11.202400000000001
 20
6.19184
 30
0.0
 70
    32
  0
VERTEX
  5
1D4F
  8
241
 10
11.202400000000001
 20
6.1919699999999986
 30
0.0
 70
    32
  0
VERTEX
  5
1D50
  8
241
 10
11.202299999999999
 20
6.192099999999999
 30
0.0
 70
    32
  0
VERTEX
  5
1D51
  8
241
 10
11.202299999999999
 20
6.1922300000000003
 30
0.0
 70
    32
  0
VERTEX
  5
1D52
  8
241
 10
11.202199999999999
 20
6.1923599999999981
 30
0.0
 70
    32
  0
VERTEX
  5
1D53
  8
241
 10
11.202199999999999
 20
6.1924900000000003
 30
0.0
 70
    32
  0
VERTEX
  5
1D54
  8
241
 10
11.202199999999999
 20
6.1926300000000003
 30
0.0
 70
    32
  0
VERTEX
  5
1D55
  8
241
 10
11.2021
 20
6.192759999999998
 30
0.0
 70
    32
  0
VERTEX
  5
1D56
  8
241
 10
11.2021
 20
6.1928900000000002
 30
0.0
 70
    32
  0
VERTEX
  5
1D57
  8
241
 10
11.202
 20
6.1930199999999971
 30
0.0
 70
    32
  0
VERTEX
  5
1D58
  8
241
 10
11.202
 20
6.1931500000000002
 30
0.0
 70
    32
  0
VERTEX
  5
1D59
  8
241
 10
11.202
 20
6.1932900000000002
 30
0.0
 70
    32
  0
VERTEX
  5
1D5A
  8
241
 10
11.2019
 20
6.193419999999997
 30
0.0
 70
    32
  0
VERTEX
  5
1D5B
  8
241
 10
11.2019
 20
6.1935500000000001
 30
0.0
 70
    32
  0
VERTEX
  5
1D5C
  8
241
 10
11.2019
 20
6.1936799999999987
 30
0.0
 70
    32
  0
VERTEX
  5
1D5D
  8
241
 10
11.2018
 20
6.19381
 30
0.0
 70
    32
  0
VERTEX
  5
1D5E
  8
241
 10
11.2018
 20
6.1939399999999987
 30
0.0
 70
    32
  0
VERTEX
  5
1D5F
  8
241
 10
11.201700000000001
 20
6.1940799999999987
 30
0.0
 70
    32
  0
VERTEX
  5
1D60
  8
241
 10
11.201700000000001
 20
6.1942099999999991
 30
0.0
 70
    32
  0
VERTEX
  5
1D61
  8
241
 10
11.201700000000001
 20
6.1943400000000004
 30
0.0
 70
    32
  0
VERTEX
  5
1D62
  8
241
 10
11.201599999999999
 20
6.194469999999999
 30
0.0
 70
    32
  0
VERTEX
  5
1D63
  8
241
 10
11.201599999999999
 20
6.1946000000000003
 30
0.0
 70
    32
  0
VERTEX
  5
1D64
  8
241
 10
11.201499999999999
 20
6.1947400000000004
 30
0.0
 70
    32
  0
VERTEX
  5
1D65
  8
241
 10
11.201499999999999
 20
6.1948699999999981
 30
0.0
 70
    32
  0
VERTEX
  5
1D66
  8
241
 10
11.201499999999999
 20
6.1950000000000003
 30
0.0
 70
    32
  0
VERTEX
  5
1D67
  8
241
 10
11.2014
 20
6.195129999999998
 30
0.0
 70
    32
  0
VERTEX
  5
1D68
  8
241
 10
11.2014
 20
6.1952600000000002
 30
0.0
 70
    32
  0
VERTEX
  5
1D69
  8
241
 10
11.2013
 20
6.1954000000000002
 30
0.0
 70
    32
  0
VERTEX
  5
1D6A
  8
241
 10
11.2013
 20
6.1955299999999971
 30
0.0
 70
    32
  0
VERTEX
  5
1D6B
  8
241
 10
11.2013
 20
6.1956600000000002
 30
0.0
 70
    32
  0
VERTEX
  5
1D6C
  8
241
 10
11.2012
 20
6.195789999999997
 30
0.0
 70
    32
  0
VERTEX
  5
1D6D
  8
241
 10
11.2012
 20
6.1959200000000001
 30
0.0
 70
    32
  0
VERTEX
  5
1D6E
  8
241
 10
11.2012
 20
6.1960499999999987
 30
0.0
 70
    32
  0
VERTEX
  5
1D6F
  8
241
 10
11.2011
 20
6.1961899999999988
 30
0.0
 70
    32
  0
VERTEX
  5
1D70
  8
241
 10
11.2011
 20
6.1963200000000001
 30
0.0
 70
    32
  0
VERTEX
  5
1D71
  8
241
 10
11.201000000000001
 20
6.1964499999999987
 30
0.0
 70
    32
  0
VERTEX
  5
1D72
  8
241
 10
11.201000000000001
 20
6.1965799999999991
 30
0.0
 70
    32
  0
VERTEX
  5
1D73
  8
241
 10
11.201000000000001
 20
6.1967099999999986
 30
0.0
 70
    32
  0
VERTEX
  5
1D74
  8
241
 10
11.200900000000001
 20
6.1968500000000004
 30
0.0
 70
    32
  0
VERTEX
  5
1D75
  8
241
 10
11.200900000000001
 20
6.196979999999999
 30
0.0
 70
    32
  0
VERTEX
  5
1D76
  8
241
 10
11.200799999999999
 20
6.1971099999999986
 30
0.0
 70
    32
  0
VERTEX
  5
1D77
  8
241
 10
11.200799999999999
 20
6.1972399999999981
 30
0.0
 70
    32
  0
VERTEX
  5
1D78
  8
241
 10
11.200799999999999
 20
6.1973700000000003
 30
0.0
 70
    32
  0
VERTEX
  5
1D79
  8
241
 10
11.200699999999999
 20
6.1975100000000003
 30
0.0
 70
    32
  0
VERTEX
  5
1D7A
  8
241
 10
11.200699999999999
 20
6.197639999999998
 30
0.0
 70
    32
  0
VERTEX
  5
1D7B
  8
241
 10
11.200699999999999
 20
6.1977699999999993
 30
0.0
 70
    32
  0
VERTEX
  5
1D7C
  8
241
 10
11.2006
 20
6.1978999999999971
 30
0.0
 70
    32
  0
VERTEX
  5
1D7D
  8
241
 10
11.2006
 20
6.1980300000000002
 30
0.0
 70
    32
  0
VERTEX
  5
1D7E
  8
241
 10
11.2005
 20
6.1981699999999993
 30
0.0
 70
    32
  0
VERTEX
  5
1D7F
  8
241
 10
11.2005
 20
6.198299999999997
 30
0.0
 70
    32
  0
VERTEX
  5
1D80
  8
241
 10
11.2005
 20
6.1984300000000001
 30
0.0
 70
    32
  0
VERTEX
  5
1D81
  8
241
 10
11.2004
 20
6.1985599999999987
 30
0.0
 70
    32
  0
VERTEX
  5
1D82
  8
241
 10
11.2004
 20
6.19869
 30
0.0
 70
    32
  0
VERTEX
  5
1D83
  8
241
 10
11.2003
 20
6.1988199999999987
 30
0.0
 70
    32
  0
VERTEX
  5
1D84
  8
241
 10
11.2003
 20
6.1989599999999987
 30
0.0
 70
    32
  0
VERTEX
  5
1D85
  8
241
 10
11.2003
 20
6.1990899999999991
 30
0.0
 70
    32
  0
VERTEX
  5
1D86
  8
241
 10
11.200200000000001
 20
6.1992199999999986
 30
0.0
 70
    32
  0
VERTEX
  5
1D87
  8
241
 10
11.200200000000001
 20
6.199349999999999
 30
0.0
 70
    32
  0
VERTEX
  5
1D88
  8
241
 10
11.200200000000001
 20
6.1994800000000003
 30
0.0
 70
    32
  0
VERTEX
  5
1D89
  8
241
 10
11.200100000000001
 20
6.1996199999999986
 30
0.0
 70
    32
  0
VERTEX
  5
1D8A
  8
241
 10
11.200100000000001
 20
6.1997499999999981
 30
0.0
 70
    32
  0
VERTEX
  5
1D8B
  8
241
 10
11.199999999999999
 20
6.1998800000000003
 30
0.0
 70
    32
  0
VERTEX
  5
1D8C
  8
241
 10
11.199999999999999
 20
6.200009999999998
 30
0.0
 70
    32
  0
VERTEX
  5
1D8D
  8
241
 10
11.199999999999999
 20
6.2001400000000002
 30
0.0
 70
    32
  0
VERTEX
  5
1D8E
  8
241
 10
11.1999
 20
6.2002800000000002
 30
0.0
 70
    32
  0
VERTEX
  5
1D8F
  8
241
 10
11.1999
 20
6.2004099999999971
 30
0.0
 70
    32
  0
VERTEX
  5
1D90
  8
241
 10
11.1998
 20
6.2005400000000002
 30
0.0
 70
    32
  0
VERTEX
  5
1D91
  8
241
 10
11.1998
 20
6.200669999999997
 30
0.0
 70
    32
  0
VERTEX
  5
1D92
  8
241
 10
11.1998
 20
6.2008000000000001
 30
0.0
 70
    32
  0
VERTEX
  5
1D93
  8
241
 10
11.1997
 20
6.2009400000000001
 30
0.0
 70
    32
  0
VERTEX
  5
1D94
  8
241
 10
11.1997
 20
6.2010699999999987
 30
0.0
 70
    32
  0
VERTEX
  5
1D95
  8
241
 10
11.1997
 20
6.2012
 30
0.0
 70
    32
  0
VERTEX
  5
1D96
  8
241
 10
11.1996
 20
6.2013299999999987
 30
0.0
 70
    32
  0
VERTEX
  5
1D97
  8
241
 10
11.1996
 20
6.2014599999999991
 30
0.0
 70
    32
  0
VERTEX
  5
1D98
  8
241
 10
11.1995
 20
6.2015900000000004
 30
0.0
 70
    32
  0
VERTEX
  5
1D99
  8
241
 10
11.1995
 20
6.2017300000000004
 30
0.0
 70
    32
  0
VERTEX
  5
1D9A
  8
241
 10
11.1995
 20
6.201859999999999
 30
0.0
 70
    32
  0
VERTEX
  5
1D9B
  8
241
 10
11.199400000000001
 20
6.2019900000000003
 30
0.0
 70
    32
  0
VERTEX
  5
1D9C
  8
241
 10
11.199400000000001
 20
6.2021199999999981
 30
0.0
 70
    32
  0
VERTEX
  5
1D9D
  8
241
 10
11.199299999999999
 20
6.2022500000000003
 30
0.0
 70
    32
  0
VERTEX
  5
1D9E
  8
241
 10
11.199299999999999
 20
6.2023900000000003
 30
0.0
 70
    32
  0
VERTEX
  5
1D9F
  8
241
 10
11.199299999999999
 20
6.202519999999998
 30
0.0
 70
    32
  0
VERTEX
  5
1DA0
  8
241
 10
11.199199999999999
 20
6.2026500000000002
 30
0.0
 70
    32
  0
VERTEX
  5
1DA1
  8
241
 10
11.199199999999999
 20
6.2027799999999971
 30
0.0
 70
    32
  0
VERTEX
  5
1DA2
  8
241
 10
11.199199999999999
 20
6.2029100000000001
 30
0.0
 70
    32
  0
VERTEX
  5
1DA3
  8
241
 10
11.1991
 20
6.2030500000000002
 30
0.0
 70
    32
  0
VERTEX
  5
1DA4
  8
241
 10
11.1991
 20
6.203179999999997
 30
0.0
 70
    32
  0
VERTEX
  5
1DA5
  8
241
 10
11.199
 20
6.2033100000000001
 30
0.0
 70
    32
  0
VERTEX
  5
1DA6
  8
241
 10
11.199
 20
6.2034399999999987
 30
0.0
 70
    32
  0
VERTEX
  5
1DA7
  8
241
 10
11.199
 20
6.20357
 30
0.0
 70
    32
  0
VERTEX
  5
1DA8
  8
241
 10
11.1989
 20
6.2037100000000001
 30
0.0
 70
    32
  0
VERTEX
  5
1DA9
  8
241
 10
11.1989
 20
6.2038399999999987
 30
0.0
 70
    32
  0
VERTEX
  5
1DAA
  8
241
 10
11.1988
 20
6.2039699999999991
 30
0.0
 70
    32
  0
VERTEX
  5
1DAB
  8
241
 10
11.1988
 20
6.2041000000000004
 30
0.0
 70
    32
  0
VERTEX
  5
1DAC
  8
241
 10
11.1988
 20
6.204229999999999
 30
0.0
 70
    32
  0
VERTEX
  5
1DAD
  8
241
 10
11.198700000000001
 20
6.2043699999999991
 30
0.0
 70
    32
  0
VERTEX
  5
1DAE
  8
241
 10
11.198700000000001
 20
6.2045000000000003
 30
0.0
 70
    32
  0
VERTEX
  5
1DAF
  8
241
 10
11.198700000000001
 20
6.2046299999999981
 30
0.0
 70
    32
  0
VERTEX
  5
1DB0
  8
241
 10
11.198600000000001
 20
6.2047600000000003
 30
0.0
 70
    32
  0
VERTEX
  5
1DB1
  8
241
 10
11.198600000000001
 20
6.204889999999998
 30
0.0
 70
    32
  0
VERTEX
  5
1DB2
  8
241
 10
11.198499999999999
 20
6.205029999999998
 30
0.0
 70
    32
  0
VERTEX
  5
1DB3
  8
241
 10
11.198499999999999
 20
6.2051600000000002
 30
0.0
 70
    32
  0
VERTEX
  5
1DB4
  8
241
 10
11.198499999999999
 20
6.2052899999999971
 30
0.0
 70
    32
  0
VERTEX
  5
1DB5
  8
241
 10
11.198399999999999
 20
6.2054199999999993
 30
0.0
 70
    32
  0
VERTEX
  5
1DB6
  8
241
 10
11.198399999999999
 20
6.205549999999997
 30
0.0
 70
    32
  0
VERTEX
  5
1DB7
  8
241
 10
11.1983
 20
6.205689999999997
 30
0.0
 70
    32
  0
VERTEX
  5
1DB8
  8
241
 10
11.1983
 20
6.2058200000000001
 30
0.0
 70
    32
  0
VERTEX
  5
1DB9
  8
241
 10
11.1983
 20
6.2059499999999987
 30
0.0
 70
    32
  0
VERTEX
  5
1DBA
  8
241
 10
11.1982
 20
6.20608
 30
0.0
 70
    32
  0
SEQEND
  5
1DBB
  8
241
  0
LINE
  5
1DBC
  8
241
 10
7.2360392659902839
 20
9.98104231469142
 30
0.0
 11
7.2360392659902839
 21
8.9810424793196812
 31
0.0
  0
LINE
  5
1DBD
  8
241
 10
19.075420044828231
 20
12.579721504919521
 30
0.0
 11
14.304107986390621
 21
15.95354906934722
 31
0.0
  0
LINE
  5
1DBE
  8
240
 10
19.500000402331381
 20
11.49101358405278
 30
0.0
 11
19.500000402331381
 21
15.60000006597749
 31
0.0
  0
LINE
  5
1DBF
  8
241
 10
19.075420044828231
 20
12.579721504919521
 30
0.0
 11
19.500000402331381
 21
11.49101358405278
 31
0.0
  0
LINE
  5
1DC0
  8
240
 10
19.500000402331381
 20
11.49101358405278
 30
0.0
 11
19.863536785123902
 21
10.55883486033434
 31
0.0
  0
LINE
  5
1DC1
  8
241
 10
12.39780616015198
 20
15.60134761267693
 30
0.0
 11
7.626494392752674
 21
12.22752136533822
 31
0.0
  0
LINE
  5
1DC2
  8
241
 10
13.00000026822093
 20
15.71544491068817
 30
0.0
 11
13.00000026822093
 21
20.31326764697155
 31
0.0
  0
LINE
  5
1DC3
  8
241
 10
14.20000055804851
 20
15.91864884460216
 30
0.0
 11
14.20000055804851
 21
20.31326764697155
 31
0.0
  0
LINE
  5
1DC4
  8
241
 10
12.39780616015198
 20
15.60134761267693
 30
0.0
 11
14.256690163165359
 21
15.95354906934722
 31
0.0
  0
LINE
  5
1DC5
  8
241
 10
12.39780616015198
 20
15.60134761267693
 30
0.0
 11
12.89366511628034
 21
14.48836862237823
 31
0.0
  0
LINE
  5
1DC6
  8
241
 10
14.256690163165359
 20
15.95354906934722
 30
0.0
 11
14.304107986390621
 21
15.95354906934722
 31
0.0
  0
LINE
  5
1DC7
  8
241
 10
14.256690163165359
 20
15.95354906934722
 30
0.0
 11
12.89366511628034
 21
14.48836862237823
 31
0.0
  0
LINE
  5
1DC8
  8
241
 10
12.89366511628034
 20
14.48836862237823
 30
0.0
 11
12.89289351552727
 21
13.98104165617843
 31
0.0
  0
LINE
  5
1DC9
  8
241
 10
14.30710731074217
 20
13.98104165617843
 30
0.0
 11
14.304107986390621
 21
15.95354906934722
 31
0.0
  0
LINE
  5
1DCA
  8
241
 10
14.30710731074217
 20
13.98104165617843
 30
0.0
 11
12.89289351552727
 21
13.98104165617843
 31
0.0
  0
LINE
  5
1DCB
  8
240
 10
13.00000026822093
 20
20.31326764697155
 30
0.0
 11
14.20000055804851
 21
20.31326764697155
 31
0.0
  0
LINE
  5
1DCC
  8
241
 10
7.600000128150012
 20
12.08352534031172
 30
0.0
 11
7.600000128150012
 21
15.500000082440319
 31
0.0
  0
LINE
  5
1DCD
  8
245
 10
-22.125175507943851
 20
0.0
 30
0.0
 11
22.32319817825962
 21
0.0
 31
0.0
  0
LINE
  5
1DCE
  8
246
 10
19.96291621363099
 20
14.278931489586849
 30
0.0
 11
19.53948248973089
 21
13.855498250474881
 31
0.0
  0
LINE
  5
1DCF
  8
246
 10
19.96291621363099
 20
14.278931489586849
 30
0.0
 11
19.96291621363099
 21
15.693144819140461
 31
0.0
  0
LINE
  5
1DD0
  8
246
 10
19.96291621363099
 20
15.693144819140461
 30
0.0
 11
14.306062080509321
 21
21.350000000000019
 31
0.0
  0
LINE
  5
1DD1
  8
246
 10
14.306062080509321
 20
21.350000000000019
 30
0.0
 11
12.891848285294429
 21
21.350000000000019
 31
0.0
  0
LINE
  5
1DD2
  8
246
 10
12.891848285294429
 20
21.350000000000019
 30
0.0
 11
7.2349940357574383
 21
15.693144819140461
 31
0.0
  0
LINE
  5
1DD3
  8
246
 10
7.2349940357574383
 20
15.693144819140461
 30
0.0
 11
7.2349940357574383
 21
15.500000082440319
 31
0.0
  0
LINE
  5
1DD4
  8
246
 10
7.2349940357574383
 20
-15.69314481914043
 30
0.0
 11
7.2349940357574383
 21
-15.500000082440289
 31
0.0
  0
LINE
  5
1DD5
  8
246
 10
19.96291621363099
 20
-14.278931489586819
 30
0.0
 11
19.53948248973089
 21
-13.855498250474851
 31
0.0
  0
LINE
  5
1DD6
  8
246
 10
19.96291621363099
 20
-14.278931489586819
 30
0.0
 11
19.96291621363099
 21
-15.69314481914043
 31
0.0
  0
LINE
  5
1DD7
  8
246
 10
19.96291621363099
 20
-15.69314481914043
 30
0.0
 11
14.306062080509321
 21
-21.349999999999991
 31
0.0
  0
LINE
  5
1DD8
  8
246
 10
14.306062080509321
 20
-21.349999999999991
 30
0.0
 11
12.891848285294429
 21
-21.349999999999991
 31
0.0
  0
LINE
  5
1DD9
  8
246
 10
12.891848285294429
 20
-21.349999999999991
 30
0.0
 11
7.2349940357574383
 21
-15.69314481914043
 31
0.0
  0
LINE
  5
1DDA
  8
241
 10
-15.75
 20
9.0
 30
0.0
 11
-15.75
 21
-0.0000000000000142
 31
0.0
  0
LINE
  5
1DDB
  8
241
 10
-17.60312799999998
 20
8.6732439999999542
 30
0.0
 11
-17.603127999999892
 21
-0.0000000000000142
 31
0.0
  0
CIRCLE
  5
1DDC
  8
241
 10
-8.0
 20
0.0
 30
0.0
 40
2.9904999999999982
  0
CIRCLE
  5
1DDD
  8
241
 10
-8.0
 20
0.0
 30
0.0
 40
2.25
  0
LINE
  5
1DDE
  8
245
 10
-8.0
 20
4.047613000000009
 30
0.0
 11
-8.0
 21
-3.98815600000006
 31
0.0
  0
LINE
  5
1DDF
  8
240
 10
-20.0
 20
8.6339750000000191
 30
0.0
 11
-20.0
 21
-8.6339740000000216
 31
0.0
  0
LINE
  5
1DE0
  8
240
 10
0.0
 20
-9.0
 30
0.0
 11
-1.5065671213171461
 21
-9.0
 31
0.0
  0
LINE
  5
1DE1
  8
240
 10
-15.75
 20
-9.0
 30
0.0
 11
-8.493432878682853
 21
-9.0000000000001439
 31
0.0
  0
LINE
  5
1DE2
  8
241
 10
-15.75
 20
-9.0
 30
0.0
 11
-15.75
 21
-0.0000000000000142
 31
0.0
  0
LINE
  5
1DE3
  8
241
 10
-17.60312799999998
 20
-8.6732430000000704
 30
0.0
 11
-17.603128000000041
 21
-0.0000000000000142
 31
0.0
  0
LINE
  5
1DE4
  8
240
 10
-17.60312799999998
 20
-8.6732430000000704
 30
0.0
 11
-19.413175999999989
 21
-8.9924040000000218
 31
0.0
  0
LINE
  5
1DE5
  8
240
 10
-20.0
 20
-8.6339740000000216
 30
0.0
 11
-19.933011999999991
 21
-8.75
 31
0.0
  0
ARC
  5
1DE6
  8
240
 10
-19.5
 20
-8.5
 30
0.0
 40
0.5
 50
209.99999999999969
 51
280.00000000000011
  0
LINE
  5
1DE7
  8
240
 10
-17.60312799999998
 20
-8.6732430000000704
 30
0.0
 11
-15.75
 21
-9.0
 31
0.0
  0
LINE
  5
1DE8
  8
240
 10
-6.9481199999999852
 20
-11.0
 30
0.0
 11
-3.0518799999999802
 21
-11.0
 31
0.0
  0
LINE
  5
1DE9
  8
241
 10
-8.493432878682853
 20
-9.0000000000001439
 30
0.0
 11
-1.506567121317115
 21
-9.0000000000002558
 31
0.0
  0
ARC
  5
1DEA
  8
240
 10
-6.9481199999999852
 20
-10.19999999999998
 30
0.0
 40
0.8
 50
209.99999999999969
 51
270.0
  0
LINE
  5
1DEB
  8
240
 10
-8.3928200000000004
 20
-9.2977050000000645
 30
0.0
 11
-7.6409399999999961
 21
-10.600000000000019
 31
0.0
  0
ARC
  5
1DEC
  8
240
 10
-7.699999999999986
 20
-8.897705000000089
 30
0.0
 40
0.8
 50
187.34643399999879
 51
209.99999999999969
  0
ARC
  5
1DED
  8
240
 10
-2.2999999999999781
 20
-8.897705000000089
 30
0.0
 40
0.8
 50
330.00000000000028
 51
352.65354716781189
  0
LINE
  5
1DEE
  8
240
 10
-1.607178999999999
 20
-9.2977050000000645
 30
0.0
 11
-2.3590599999999702
 21
-10.600000000000019
 31
0.0
  0
ARC
  5
1DEF
  8
240
 10
-3.0518799999999802
 20
-10.19999999999998
 30
0.0
 40
0.8
 50
270.0
 51
330.00000000000028
  0
LINE
  5
1DF0
  8
240
 10
-1.506566992390844
 20
9.0
 30
0.0
 11
0.0
 21
9.0
 31
0.0
  0
LINE
  5
1DF1
  8
240
 10
-15.75
 20
9.0
 30
0.0
 11
-8.4934330076093811
 21
9.0
 31
0.0
  0
LINE
  5
1DF2
  8
240
 10
-17.60312799999998
 20
8.6732439999999542
 30
0.0
 11
-19.413175999999989
 21
8.9924040000000218
 31
0.0
  0
LINE
  5
1DF3
  8
240
 10
-20.0
 20
8.6339750000000191
 30
0.0
 11
-19.933011999999991
 21
8.75
 31
0.0
  0
ARC
  5
1DF4
  8
240
 10
-19.5
 20
8.5
 30
0.0
 40
0.5
 50
79.999999999999815
 51
149.9999999999998
  0
LINE
  5
1DF5
  8
240
 10
-17.60312799999998
 20
8.6732439999999542
 30
0.0
 11
-15.75
 21
9.0
 31
0.0
  0
LINE
  5
1DF6
  8
240
 10
-6.9481199999999852
 20
11.0
 30
0.0
 11
-3.0518799999999802
 21
11.0
 31
0.0
  0
LINE
  5
1DF7
  8
241
 10
-8.4934330076093811
 20
9.0
 30
0.0
 11
-1.5999999999999941
 21
9.0
 31
0.0
  0
LINE
  5
1DF8
  8
240
 10
-8.3928200000000004
 20
9.2977059999999483
 30
0.0
 11
-7.6409399999999961
 21
10.600000000000019
 31
0.0
  0
ARC
  5
1DF9
  8
240
 10
-7.699999999999986
 20
8.897705999999971
 30
0.0
 40
0.8
 50
149.9999999999998
 51
172.65356600000109
  0
ARC
  5
1DFA
  8
240
 10
-6.9481199999999852
 20
10.19999999999998
 30
0.0
 40
0.8
 50
90.0
 51
149.9999999999998
  0
LINE
  5
1DFB
  8
240
 10
-1.607178999999999
 20
9.2977059999999483
 30
0.0
 11
-2.3590599999999702
 21
10.600000000000019
 31
0.0
  0
ARC
  5
1DFC
  8
240
 10
-2.2999999999999781
 20
8.897705999999971
 30
0.0
 40
0.8
 50
7.3463806197712938
 51
29.999999999999719
  0
LINE
  5
1DFD
  8
241
 10
-1.5999999999999941
 20
9.0
 30
0.0
 11
-1.506566992390844
 21
9.0
 31
0.0
  0
ARC
  5
1DFE
  8
240
 10
-3.0518799999999802
 20
10.19999999999998
 30
0.0
 40
0.8
 50
29.999999999999719
 51
90.0
  0
LINE
  5
1DFF
  8
241
 10
0.0
 20
9.0
 30
0.0
 11
0.0
 21
-9.0
 31
0.0
  0
TEXT
  5
1E00
  8
247
 10
4.6786664318372004
 20
-11.2323295894815
 30
0.0
 40
2.0
  1
CKB3-C3242-45B-20
 50
90.0
 41
0.6
  7
YOKO
 11
4.6786664318372004
 21
-11.2323295894815
 31
0.0
 73
     1
  0
POLYLINE
  5
1E66
  8
241
 66
     1
 10
0.0
 20
0.0
 30
0.0
 70
     8
  0
VERTEX
  5
1E67
  8
241
 10
13.0
 20
-4.9174300000000004
 30
0.0
 70
    32
  0
VERTEX
  5
1E68
  8
241
 10
12.946400000000001
 20
-4.8658299999999981
 30
0.0
 70
    32
  0
VERTEX
  5
1E69
  8
241
 10
12.892799999999999
 20
-4.8142300000000002
 30
0.0
 70
    32
  0
VERTEX
  5
1E6A
  8
241
 10
12.8392
 20
-4.7626200000000001
 30
0.0
 70
    32
  0
VERTEX
  5
1E6B
  8
241
 10
12.7857
 20
-4.7110000000000003
 30
0.0
 70
    32
  0
VERTEX
  5
1E6C
  8
241
 10
12.732100000000001
 20
-4.6593599999999986
 30
0.0
 70
    32
  0
VERTEX
  5
1E6D
  8
241
 10
12.678599999999999
 20
-4.6077099999999991
 30
0.0
 70
    32
  0
VERTEX
  5
1E6E
  8
241
 10
12.6251
 20
-4.5560400000000003
 30
0.0
 70
    32
  0
VERTEX
  5
1E6F
  8
241
 10
12.5717
 20
-4.5043300000000004
 30
0.0
 70
    32
  0
VERTEX
  5
1E70
  8
241
 10
12.5183
 20
-4.4526099999999991
 30
0.0
 70
    32
  0
VERTEX
  5
1E71
  8
241
 10
12.4649
 20
-4.4008399999999988
 30
0.0
 70
    32
  0
VERTEX
  5
1E72
  8
241
 10
12.4116
 20
-4.3490399999999987
 30
0.0
 70
    32
  0
VERTEX
  5
1E73
  8
241
 10
12.3583
 20
-4.2972099999999971
 30
0.0
 70
    32
  0
VERTEX
  5
1E74
  8
241
 10
12.305099999999999
 20
-4.2453199999999987
 30
0.0
 70
    32
  0
VERTEX
  5
1E75
  8
241
 10
12.252000000000001
 20
-4.1933899999999991
 30
0.0
 70
    32
  0
VERTEX
  5
1E76
  8
241
 10
12.199
 20
-4.1414099999999987
 30
0.0
 70
    32
  0
VERTEX
  5
1E77
  8
241
 10
12.146000000000001
 20
-4.0893800000000002
 30
0.0
 70
    32
  0
VERTEX
  5
1E78
  8
241
 10
12.0931
 20
-4.0372799999999991
 30
0.0
 70
    32
  0
VERTEX
  5
1E79
  8
241
 10
12.0403
 20
-3.9851299999999981
 30
0.0
 70
    32
  0
VERTEX
  5
1E7A
  8
241
 10
11.9876
 20
-3.9329099999999988
 30
0.0
 70
    32
  0
VERTEX
  5
1E7B
  8
241
 10
11.935
 20
-3.8806199999999982
 30
0.0
 70
    32
  0
VERTEX
  5
1E7C
  8
241
 10
11.8825
 20
-3.8282599999999989
 30
0.0
 70
    32
  0
VERTEX
  5
1E7D
  8
241
 10
11.8301
 20
-3.7758199999999991
 30
0.0
 70
    32
  0
VERTEX
  5
1E7E
  8
241
 10
11.777799999999999
 20
-3.7233000000000001
 30
0.0
 70
    32
  0
VERTEX
  5
1E7F
  8
241
 10
11.7256
 20
-3.6707000000000001
 30
0.0
 70
    32
  0
VERTEX
  5
1E80
  8
241
 10
11.6736
 20
-3.6180099999999991
 30
0.0
 70
    32
  0
VERTEX
  5
1E81
  8
241
 10
11.621700000000001
 20
-3.5652300000000001
 30
0.0
 70
    32
  0
VERTEX
  5
1E82
  8
241
 10
11.569900000000001
 20
-3.5123500000000001
 30
0.0
 70
    32
  0
VERTEX
  5
1E83
  8
241
 10
11.5183
 20
-3.459379999999999
 30
0.0
 70
    32
  0
VERTEX
  5
1E84
  8
241
 10
11.466799999999999
 20
-3.4062999999999981
 30
0.0
 70
    32
  0
VERTEX
  5
1E85
  8
241
 10
11.4155
 20
-3.3531199999999992
 30
0.0
 70
    32
  0
VERTEX
  5
1E86
  8
241
 10
11.3643
 20
-3.29983
 30
0.0
 70
    32
  0
VERTEX
  5
1E87
  8
241
 10
11.3133
 20
-3.2464300000000001
 30
0.0
 70
    32
  0
VERTEX
  5
1E88
  8
241
 10
11.2624
 20
-3.192909999999999
 30
0.0
 70
    32
  0
VERTEX
  5
1E89
  8
241
 10
11.2117
 20
-3.139269999999998
 30
0.0
 70
    32
  0
VERTEX
  5
1E8A
  8
241
 10
11.161199999999999
 20
-3.085509999999998
 30
0.0
 70
    32
  0
VERTEX
  5
1E8B
  8
241
 10
11.110900000000001
 20
-3.0316200000000002
 30
0.0
 70
    32
  0
VERTEX
  5
1E8C
  8
241
 10
11.0608
 20
-2.977599999999998
 30
0.0
 70
    32
  0
VERTEX
  5
1E8D
  8
241
 10
11.0108
 20
-2.9234399999999989
 30
0.0
 70
    32
  0
VERTEX
  5
1E8E
  8
241
 10
10.9611
 20
-2.869149999999999
 30
0.0
 70
    32
  0
VERTEX
  5
1E8F
  8
241
 10
10.9116
 20
-2.814709999999998
 30
0.0
 70
    32
  0
VERTEX
  5
1E90
  8
241
 10
10.8622
 20
-2.760129999999998
 30
0.0
 70
    32
  0
VERTEX
  5
1E91
  8
241
 10
10.8131
 20
-2.7054
 30
0.0
 70
    32
  0
VERTEX
  5
1E92
  8
241
 10
10.764200000000001
 20
-2.6505200000000002
 30
0.0
 70
    32
  0
VERTEX
  5
1E93
  8
241
 10
10.7155
 20
-2.595479999999998
 30
0.0
 70
    32
  0
VERTEX
  5
1E94
  8
241
 10
10.6671
 20
-2.5402800000000001
 30
0.0
 70
    32
  0
VERTEX
  5
1E95
  8
241
 10
10.6189
 20
-2.484919999999998
 30
0.0
 70
    32
  0
VERTEX
  5
1E96
  8
241
 10
10.5709
 20
-2.4293900000000002
 30
0.0
 70
    32
  0
VERTEX
  5
1E97
  8
241
 10
10.523199999999999
 20
-2.3736899999999981
 30
0.0
 70
    32
  0
VERTEX
  5
1E98
  8
241
 10
10.4757
 20
-2.317809999999997
 30
0.0
 70
    32
  0
VERTEX
  5
1E99
  8
241
 10
10.4285
 20
-2.2617599999999971
 30
0.0
 70
    32
  0
VERTEX
  5
1E9A
  8
241
 10
10.381500000000001
 20
-2.205519999999999
 30
0.0
 70
    32
  0
VERTEX
  5
1E9B
  8
241
 10
10.3348
 20
-2.149099999999998
 30
0.0
 70
    32
  0
VERTEX
  5
1E9C
  8
241
 10
10.288399999999999
 20
-2.0924900000000002
 30
0.0
 70
    32
  0
VERTEX
  5
1E9D
  8
241
 10
10.2422
 20
-2.0356900000000002
 30
0.0
 70
    32
  0
VERTEX
  5
1E9E
  8
241
 10
10.196300000000001
 20
-1.9786900000000001
 30
0.0
 70
    32
  0
VERTEX
  5
1E9F
  8
241
 10
10.150700000000001
 20
-1.9214899999999999
 30
0.0
 70
    32
  0
VERTEX
  5
1EA0
  8
241
 10
10.105399999999999
 20
-1.86409
 30
0.0
 70
    32
  0
VERTEX
  5
1EA1
  8
241
 10
10.0604
 20
-1.806479999999999
 30
0.0
 70
    32
  0
VERTEX
  5
1EA2
  8
241
 10
10.015700000000001
 20
-1.748659999999999
 30
0.0
 70
    32
  0
VERTEX
  5
1EA3
  8
241
 10
9.9713499999999993
 20
-1.69062
 30
0.0
 70
    32
  0
VERTEX
  5
1EA4
  8
241
 10
9.92727
 20
-1.6323700000000001
 30
0.0
 70
    32
  0
VERTEX
  5
1EA5
  8
241
 10
9.8835099999999994
 20
-1.57389
 30
0.0
 70
    32
  0
VERTEX
  5
1EA6
  8
241
 10
9.8400699999999972
 20
-1.51519
 30
0.0
 70
    32
  0
VERTEX
  5
1EA7
  8
241
 10
9.7969500000000007
 20
-1.4562600000000001
 30
0.0
 70
    32
  0
VERTEX
  5
1EA8
  8
241
 10
9.7541700000000002
 20
-1.3971
 30
0.0
 70
    32
  0
VERTEX
  5
1EA9
  8
241
 10
9.7117299999999993
 20
-1.337699999999999
 30
0.0
 70
    32
  0
VERTEX
  5
1EAA
  8
241
 10
9.6696299999999997
 20
-1.2780599999999991
 30
0.0
 70
    32
  0
VERTEX
  5
1EAB
  8
241
 10
9.6278799999999993
 20
-1.2181699999999991
 30
0.0
 70
    32
  0
VERTEX
  5
1EAC
  8
241
 10
9.5864799999999981
 20
-1.1580399999999991
 30
0.0
 70
    32
  0
VERTEX
  5
1EAD
  8
241
 10
9.5454399999999993
 20
-1.0976600000000001
 30
0.0
 70
    32
  0
VERTEX
  5
1EAE
  8
241
 10
9.5047599999999992
 20
-1.037029999999999
 30
0.0
 70
    32
  0
VERTEX
  5
1EAF
  8
241
 10
9.4644399999999997
 20
-0.9761499999999999
 30
0.0
 70
    32
  0
VERTEX
  5
1EB0
  8
241
 10
9.4244699999999995
 20
-0.915024
 30
0.0
 70
    32
  0
VERTEX
  5
1EB1
  8
241
 10
9.3848599999999998
 20
-0.8536550000000001
 30
0.0
 70
    32
  0
VERTEX
  5
1EB2
  8
241
 10
9.3455899999999996
 20
-0.7920460000000003
 30
0.0
 70
    32
  0
VERTEX
  5
1EB3
  8
241
 10
9.3066700000000004
 20
-0.7301989999999999
 30
0.0
 70
    32
  0
VERTEX
  5
1EB4
  8
241
 10
9.2681000000000004
 20
-0.668116
 30
0.0
 70
    32
  0
VERTEX
  5
1EB5
  8
241
 10
9.2298600000000004
 20
-0.6058020000000001
 30
0.0
 70
    32
  0
VERTEX
  5
1EB6
  8
241
 10
9.1919699999999995
 20
-0.5432570000000001
 30
0.0
 70
    32
  0
VERTEX
  5
1EB7
  8
241
 10
9.1544100000000004
 20
-0.480485
 30
0.0
 70
    32
  0
VERTEX
  5
1EB8
  8
241
 10
9.1171900000000008
 20
-0.4174890000000003
 30
0.0
 70
    32
  0
VERTEX
  5
1EB9
  8
241
 10
9.0802999999999994
 20
-0.35427
 30
0.0
 70
    32
  0
VERTEX
  5
1EBA
  8
241
 10
9.0437399999999997
 20
-0.290832
 30
0.0
 70
    32
  0
VERTEX
  5
1EBB
  8
241
 10
9.0075099999999981
 20
-0.227177
 30
0.0
 70
    32
  0
VERTEX
  5
1EBC
  8
241
 10
8.9716000000000005
 20
-0.163308
 30
0.0
 70
    32
  0
VERTEX
  5
1EBD
  8
241
 10
8.9360199999999992
 20
-0.0992267
 30
0.0
 70
    32
  0
VERTEX
  5
1EBE
  8
241
 10
8.9007500000000004
 20
-0.0349369
 30
0.0
 70
    32
  0
VERTEX
  5
1EBF
  8
241
 10
8.8658000000000001
 20
0.0295593
 30
0.0
 70
    32
  0
VERTEX
  5
1EC0
  8
241
 10
8.8311700000000002
 20
0.0942593
 30
0.0
 70
    32
  0
VERTEX
  5
1EC1
  8
241
 10
8.7968499999999992
 20
0.15916
 30
0.0
 70
    32
  0
VERTEX
  5
1EC2
  8
241
 10
8.7628400000000006
 20
0.22426
 30
0.0
 70
    32
  0
VERTEX
  5
1EC3
  8
241
 10
8.7291299999999961
 20
0.289556
 30
0.0
 70
    32
  0
VERTEX
  5
1EC4
  8
241
 10
8.6957300000000011
 20
0.355045
 30
0.0
 70
    32
  0
VERTEX
  5
1EC5
  8
241
 10
8.6626399999999961
 20
0.420724
 30
0.0
 70
    32
  0
VERTEX
  5
1EC6
  8
241
 10
8.6298399999999962
 20
0.486592
 30
0.0
 70
    32
  0
VERTEX
  5
1EC7
  8
241
 10
8.5973399999999991
 20
0.5526450000000001
 30
0.0
 70
    32
  0
VERTEX
  5
1EC8
  8
241
 10
8.5651399999999942
 20
0.6188810000000001
 30
0.0
 70
    32
  0
VERTEX
  5
1EC9
  8
241
 10
8.53322
 20
0.6852970000000001
 30
0.0
 70
    32
  0
VERTEX
  5
1ECA
  8
241
 10
8.5015999999999998
 20
0.751891
 30
0.0
 70
    32
  0
VERTEX
  5
1ECB
  8
241
 10
8.4702699999999975
 20
0.8186600000000001
 30
0.0
 70
    32
  0
VERTEX
  5
1ECC
  8
241
 10
8.4392200000000006
 20
0.8856009999999998
 30
0.0
 70
    32
  0
VERTEX
  5
1ECD
  8
241
 10
8.4084500000000002
 20
0.9527120000000001
 30
0.0
 70
    32
  0
VERTEX
  5
1ECE
  8
241
 10
8.3779599999999999
 20
1.0199899999999991
 30
0.0
 70
    32
  0
VERTEX
  5
1ECF
  8
241
 10
8.347749999999996
 20
1.087429999999999
 30
0.0
 70
    32
  0
VERTEX
  5
1ED0
  8
241
 10
8.3178199999999975
 20
1.1550400000000001
 30
0.0
 70
    32
  0
VERTEX
  5
1ED1
  8
241
 10
8.2881600000000013
 20
1.2228000000000001
 30
0.0
 70
    32
  0
VERTEX
  5
1ED2
  8
241
 10
8.2587700000000002
 20
1.2907200000000001
 30
0.0
 70
    32
  0
VERTEX
  5
1ED3
  8
241
 10
8.2296399999999998
 20
1.3588
 30
0.0
 70
    32
  0
VERTEX
  5
1ED4
  8
241
 10
8.2007799999999982
 20
1.42702
 30
0.0
 70
    32
  0
VERTEX
  5
1ED5
  8
241
 10
8.1721899999999987
 20
1.4954000000000001
 30
0.0
 70
    32
  0
VERTEX
  5
1ED6
  8
241
 10
8.1438500000000005
 20
1.5639199999999991
 30
0.0
 70
    32
  0
VERTEX
  5
1ED7
  8
241
 10
8.1157699999999942
 20
1.632579999999999
 30
0.0
 70
    32
  0
VERTEX
  5
1ED8
  8
241
 10
8.0879499999999975
 20
1.70139
 30
0.0
 70
    32
  0
VERTEX
  5
1ED9
  8
241
 10
8.0603800000000003
 20
1.7703299999999991
 30
0.0
 70
    32
  0
VERTEX
  5
1EDA
  8
241
 10
8.0330600000000008
 20
1.8394099999999991
 30
0.0
 70
    32
  0
VERTEX
  5
1EDB
  8
241
 10
8.0059900000000006
 20
1.9086299999999981
 30
0.0
 70
    32
  0
VERTEX
  5
1EDC
  8
241
 10
7.9791699999999981
 20
1.97797
 30
0.0
 70
    32
  0
VERTEX
  5
1EDD
  8
241
 10
7.9525800000000002
 20
2.047439999999999
 30
0.0
 70
    32
  0
VERTEX
  5
1EDE
  8
241
 10
7.9262399999999982
 20
2.117039999999998
 30
0.0
 70
    32
  0
VERTEX
  5
1EDF
  8
241
 10
7.9001299999999981
 20
2.18676
 30
0.0
 70
    32
  0
VERTEX
  5
1EE0
  8
241
 10
7.8742700000000001
 20
2.2566000000000002
 30
0.0
 70
    32
  0
VERTEX
  5
1EE1
  8
241
 10
7.8486299999999982
 20
2.3265599999999971
 30
0.0
 70
    32
  0
VERTEX
  5
1EE2
  8
241
 10
7.8232200000000001
 20
2.39663
 30
0.0
 70
    32
  0
VERTEX
  5
1EE3
  8
241
 10
7.7980399999999959
 20
2.4668099999999971
 30
0.0
 70
    32
  0
VERTEX
  5
1EE4
  8
241
 10
7.7730899999999989
 20
2.5371099999999971
 30
0.0
 70
    32
  0
VERTEX
  5
1EE5
  8
241
 10
7.748359999999999
 20
2.6075099999999991
 30
0.0
 70
    32
  0
VERTEX
  5
1EE6
  8
241
 10
7.7238499999999988
 20
2.67801
 30
0.0
 70
    32
  0
VERTEX
  5
1EE7
  8
241
 10
7.69956
 20
2.7486199999999981
 30
0.0
 70
    32
  0
VERTEX
  5
1EE8
  8
241
 10
7.675489999999999
 20
2.819329999999999
 30
0.0
 70
    32
  0
VERTEX
  5
1EE9
  8
241
 10
7.651629999999999
 20
2.8901300000000001
 30
0.0
 70
    32
  0
VERTEX
  5
1EEA
  8
241
 10
7.6279699999999959
 20
2.9610300000000001
 30
0.0
 70
    32
  0
VERTEX
  5
1EEB
  8
241
 10
7.604529999999996
 20
3.0320099999999992
 30
0.0
 70
    32
  0
VERTEX
  5
1EEC
  8
241
 10
7.5812999999999988
 20
3.103089999999999
 30
0.0
 70
    32
  0
VERTEX
  5
1EED
  8
241
 10
7.5582699999999958
 20
3.174249999999998
 30
0.0
 70
    32
  0
VERTEX
  5
1EEE
  8
241
 10
7.5354700000000001
 20
3.2454999999999981
 30
0.0
 70
    32
  0
VERTEX
  5
1EEF
  8
241
 10
7.5128899999999961
 20
3.3168299999999991
 30
0.0
 70
    32
  0
VERTEX
  5
1EF0
  8
241
 10
7.4905600000000003
 20
3.3882500000000002
 30
0.0
 70
    32
  0
VERTEX
  5
1EF1
  8
241
 10
7.4684699999999982
 20
3.45974
 30
0.0
 70
    32
  0
VERTEX
  5
1EF2
  8
241
 10
7.4466299999999981
 20
3.5313099999999991
 30
0.0
 70
    32
  0
VERTEX
  5
1EF3
  8
241
 10
7.4250600000000002
 20
3.6029499999999981
 30
0.0
 70
    32
  0
VERTEX
  5
1EF4
  8
241
 10
7.403760000000001
 20
3.6746699999999981
 30
0.0
 70
    32
  0
VERTEX
  5
1EF5
  8
241
 10
7.3827499999999988
 20
3.746459999999999
 30
0.0
 70
    32
  0
VERTEX
  5
1EF6
  8
241
 10
7.3620199999999958
 20
3.8183099999999981
 30
0.0
 70
    32
  0
VERTEX
  5
1EF7
  8
241
 10
7.3415899999999983
 20
3.8902399999999999
 30
0.0
 70
    32
  0
VERTEX
  5
1EF8
  8
241
 10
7.3214600000000001
 20
3.9622299999999981
 30
0.0
 70
    32
  0
VERTEX
  5
1EF9
  8
241
 10
7.30166
 20
4.0342900000000004
 30
0.0
 70
    32
  0
VERTEX
  5
1EFA
  8
241
 10
7.2821699999999989
 20
4.1064099999999986
 30
0.0
 70
    32
  0
VERTEX
  5
1EFB
  8
241
 10
7.26302
 20
4.178589999999998
 30
0.0
 70
    32
  0
VERTEX
  5
1EFC
  8
241
 10
7.2442099999999989
 20
4.25082
 30
0.0
 70
    32
  0
VERTEX
  5
1EFD
  8
241
 10
7.2257499999999988
 20
4.323109999999998
 30
0.0
 70
    32
  0
VERTEX
  5
1EFE
  8
241
 10
7.207639999999996
 20
4.395459999999999
 30
0.0
 70
    32
  0
VERTEX
  5
1EFF
  8
241
 10
7.1899100000000002
 20
4.4678599999999991
 30
0.0
 70
    32
  0
VERTEX
  5
1F00
  8
241
 10
7.1725500000000002
 20
4.5403099999999981
 30
0.0
 70
    32
  0
VERTEX
  5
1F01
  8
241
 10
7.1555699999999991
 20
4.6128099999999987
 30
0.0
 70
    32
  0
VERTEX
  5
1F02
  8
241
 10
7.1389899999999971
 20
4.6853600000000002
 30
0.0
 70
    32
  0
VERTEX
  5
1F03
  8
241
 10
7.122799999999998
 20
4.7579500000000001
 30
0.0
 70
    32
  0
VERTEX
  5
1F04
  8
241
 10
7.1070299999999991
 20
4.8305899999999991
 30
0.0
 70
    32
  0
VERTEX
  5
1F05
  8
241
 10
7.0916800000000002
 20
4.9032599999999986
 30
0.0
 70
    32
  0
VERTEX
  5
1F06
  8
241
 10
7.076749999999997
 20
4.9759799999999981
 30
0.0
 70
    32
  0
VERTEX
  5
1F07
  8
241
 10
7.0622600000000002
 20
5.0487299999999991
 30
0.0
 70
    32
  0
VERTEX
  5
1F08
  8
241
 10
7.0482100000000001
 20
5.1215200000000003
 30
0.0
 70
    32
  0
VERTEX
  5
1F09
  8
241
 10
7.0346200000000003
 20
5.1943400000000004
 30
0.0
 70
    32
  0
VERTEX
  5
1F0A
  8
241
 10
7.0214800000000004
 20
5.2671999999999981
 30
0.0
 70
    32
  0
VERTEX
  5
1F0B
  8
241
 10
7.0088200000000001
 20
5.3400800000000004
 30
0.0
 70
    32
  0
VERTEX
  5
1F0C
  8
241
 10
6.9966399999999993
 20
5.4129899999999971
 30
0.0
 70
    32
  0
VERTEX
  5
1F0D
  8
241
 10
6.984939999999999
 20
5.485929999999998
 30
0.0
 70
    32
  0
VERTEX
  5
1F0E
  8
241
 10
6.9737400000000003
 20
5.5588899999999981
 30
0.0
 70
    32
  0
VERTEX
  5
1F0F
  8
241
 10
6.9630399999999986
 20
5.631879999999998
 30
0.0
 70
    32
  0
VERTEX
  5
1F10
  8
241
 10
6.9528600000000003
 20
5.7048800000000002
 30
0.0
 70
    32
  0
VERTEX
  5
1F11
  8
241
 10
6.9431899999999986
 20
5.7779100000000003
 30
0.0
 70
    32
  0
VERTEX
  5
1F12
  8
241
 10
6.9340599999999979
 20
5.8509500000000001
 30
0.0
 70
    32
  0
VERTEX
  5
1F13
  8
241
 10
6.925469999999998
 20
5.9240000000000004
 30
0.0
 70
    32
  0
VERTEX
  5
1F14
  8
241
 10
6.917419999999999
 20
5.997069999999999
 30
0.0
 70
    32
  0
VERTEX
  5
1F15
  8
241
 10
6.9099300000000001
 20
6.070149999999999
 30
0.0
 70
    32
  0
VERTEX
  5
1F16
  8
241
 10
6.9029999999999987
 20
6.1432399999999987
 30
0.0
 70
    32
  0
VERTEX
  5
1F17
  8
241
 10
6.8966500000000002
 20
6.2163300000000001
 30
0.0
 70
    32
  0
VERTEX
  5
1F18
  8
241
 10
6.8908800000000001
 20
6.2894300000000003
 30
0.0
 70
    32
  0
VERTEX
  5
1F19
  8
241
 10
6.885699999999999
 20
6.3625400000000001
 30
0.0
 70
    32
  0
VERTEX
  5
1F1A
  8
241
 10
6.8811200000000001
 20
6.4356400000000002
 30
0.0
 70
    32
  0
VERTEX
  5
1F1B
  8
241
 10
6.877139999999998
 20
6.50875
 30
0.0
 70
    32
  0
VERTEX
  5
1F1C
  8
241
 10
6.87378
 20
6.5818500000000002
 30
0.0
 70
    32
  0
VERTEX
  5
1F1D
  8
241
 10
6.8710500000000003
 20
6.6549500000000004
 30
0.0
 70
    32
  0
VERTEX
  5
1F1E
  8
241
 10
6.868949999999999
 20
6.7280499999999988
 30
0.0
 70
    32
  0
VERTEX
  5
1F1F
  8
241
 10
6.8674899999999992
 20
6.8011299999999979
 30
0.0
 70
    32
  0
VERTEX
  5
1F20
  8
241
 10
6.8666799999999979
 20
6.8742099999999979
 30
0.0
 70
    32
  0
VERTEX
  5
1F21
  8
241
 10
6.8665399999999988
 20
6.9472699999999987
 30
0.0
 70
    32
  0
VERTEX
  5
1F22
  8
241
 10
6.8670600000000004
 20
7.020319999999999
 30
0.0
 70
    32
  0
VERTEX
  5
1F23
  8
241
 10
6.8682499999999971
 20
7.09335
 30
0.0
 70
    32
  0
VERTEX
  5
1F24
  8
241
 10
6.8701299999999987
 20
7.166369999999997
 30
0.0
 70
    32
  0
VERTEX
  5
1F25
  8
241
 10
6.8727
 20
7.2393700000000001
 30
0.0
 70
    32
  0
VERTEX
  5
1F26
  8
241
 10
6.8759800000000002
 20
7.3123500000000003
 30
0.0
 70
    32
  0
VERTEX
  5
1F27
  8
241
 10
6.8799599999999987
 20
7.3852999999999982
 30
0.0
 70
    32
  0
VERTEX
  5
1F28
  8
241
 10
6.8846399999999992
 20
7.4582300000000004
 30
0.0
 70
    32
  0
VERTEX
  5
1F29
  8
241
 10
6.8899800000000004
 20
7.5311399999999988
 30
0.0
 70
    32
  0
VERTEX
  5
1F2A
  8
241
 10
6.895979999999998
 20
7.6040299999999981
 30
0.0
 70
    32
  0
VERTEX
  5
1F2B
  8
241
 10
6.9025999999999987
 20
7.6768999999999989
 30
0.0
 70
    32
  0
VERTEX
  5
1F2C
  8
241
 10
6.9098199999999981
 20
7.7497499999999988
 30
0.0
 70
    32
  0
VERTEX
  5
1F2D
  8
241
 10
6.9176200000000003
 20
7.8225800000000003
 30
0.0
 70
    32
  0
VERTEX
  5
1F2E
  8
241
 10
6.92598
 20
7.895389999999999
 30
0.0
 70
    32
  0
VERTEX
  5
1F2F
  8
241
 10
6.9348700000000001
 20
7.9681800000000003
 30
0.0
 70
    32
  0
VERTEX
  5
1F30
  8
241
 10
6.94428
 20
8.0409600000000001
 30
0.0
 70
    32
  0
VERTEX
  5
1F31
  8
241
 10
6.95418
 20
8.1137199999999972
 30
0.0
 70
    32
  0
VERTEX
  5
1F32
  8
241
 10
6.96455
 20
8.1864600000000003
 30
0.0
 70
    32
  0
VERTEX
  5
1F33
  8
241
 10
6.9753699999999981
 20
8.2591900000000003
 30
0.0
 70
    32
  0
VERTEX
  5
1F34
  8
241
 10
6.986609999999998
 20
8.3319100000000006
 30
0.0
 70
    32
  0
VERTEX
  5
1F35
  8
241
 10
6.9982499999999987
 20
8.4046099999999981
 30
0.0
 70
    32
  0
VERTEX
  5
1F36
  8
241
 10
7.0102799999999981
 20
8.4772999999999961
 30
0.0
 70
    32
  0
VERTEX
  5
1F37
  8
241
 10
7.022660000000001
 20
8.5499799999999961
 30
0.0
 70
    32
  0
VERTEX
  5
1F38
  8
241
 10
7.0353699999999986
 20
8.6226500000000001
 30
0.0
 70
    32
  0
VERTEX
  5
1F39
  8
241
 10
7.0483999999999991
 20
8.6953099999999992
 30
0.0
 70
    32
  0
VERTEX
  5
1F3A
  8
241
 10
7.0617099999999979
 20
8.7679600000000004
 30
0.0
 70
    32
  0
VERTEX
  5
1F3B
  8
241
 10
7.0753000000000004
 20
8.8406000000000002
 30
0.0
 70
    32
  0
VERTEX
  5
1F3C
  8
241
 10
7.089129999999999
 20
8.9132300000000004
 30
0.0
 70
    32
  0
VERTEX
  5
1F3D
  8
241
 10
7.103189999999997
 20
8.9858600000000006
 30
0.0
 70
    32
  0
VERTEX
  5
1F3E
  8
241
 10
7.1174399999999993
 20
9.0584699999999998
 30
0.0
 70
    32
  0
VERTEX
  5
1F3F
  8
241
 10
7.1318699999999993
 20
9.1310899999999986
 30
0.0
 70
    32
  0
VERTEX
  5
1F40
  8
241
 10
7.1464699999999981
 20
9.2036899999999982
 30
0.0
 70
    32
  0
VERTEX
  5
1F41
  8
241
 10
7.1611899999999986
 20
9.2763000000000009
 30
0.0
 70
    32
  0
VERTEX
  5
1F42
  8
241
 10
7.176029999999999
 20
9.3488900000000008
 30
0.0
 70
    32
  0
VERTEX
  5
1F43
  8
241
 10
7.1909499999999991
 20
9.4214899999999986
 30
0.0
 70
    32
  0
VERTEX
  5
1F44
  8
241
 10
7.2059399999999982
 20
9.4940800000000003
 30
0.0
 70
    32
  0
VERTEX
  5
1F45
  8
241
 10
7.2209799999999982
 20
9.5666799999999999
 30
0.0
 70
    32
  0
VERTEX
  5
1F46
  8
241
 10
7.2360399999999983
 20
9.6392699999999998
 30
0.0
 70
    32
  0
SEQEND
  5
1F47
  8
241
  0
POLYLINE
  5
1F48
  8
241
 66
     1
 10
0.0
 20
0.0
 30
0.0
 70
     8
  0
VERTEX
  5
1F49
  8
241
 10
14.199999999999999
 20
-4.9174300000000004
 30
0.0
 70
    32
  0
VERTEX
  5
1F4A
  8
241
 10
14.236800000000001
 20
-4.8825399999999979
 30
0.0
 70
    32
  0
VERTEX
  5
1F4B
  8
241
 10
14.2736
 20
-4.847649999999998
 30
0.0
 70
    32
  0
VERTEX
  5
1F4C
  8
241
 10
14.3103
 20
-4.8127500000000003
 30
0.0
 70
    32
  0
VERTEX
  5
1F4D
  8
241
 10
14.347099999999999
 20
-4.777849999999999
 30
0.0
 70
    32
  0
VERTEX
  5
1F4E
  8
241
 10
14.383900000000001
 20
-4.7429500000000004
 30
0.0
 70
    32
  0
VERTEX
  5
1F4F
  8
241
 10
14.4207
 20
-4.7080399999999987
 30
0.0
 70
    32
  0
VERTEX
  5
1F50
  8
241
 10
14.4574
 20
-4.6731199999999991
 30
0.0
 70
    32
  0
VERTEX
  5
1F51
  8
241
 10
14.494199999999999
 20
-4.638189999999998
 30
0.0
 70
    32
  0
VERTEX
  5
1F52
  8
241
 10
14.531000000000001
 20
-4.6032500000000001
 30
0.0
 70
    32
  0
VERTEX
  5
1F53
  8
241
 10
14.5677
 20
-4.568299999999998
 30
0.0
 70
    32
  0
VERTEX
  5
1F54
  8
241
 10
14.6045
 20
-4.533339999999999
 30
0.0
 70
    32
  0
VERTEX
  5
1F55
  8
241
 10
14.6412
 20
-4.4983699999999986
 30
0.0
 70
    32
  0
VERTEX
  5
1F56
  8
241
 10
14.677899999999999
 20
-4.463379999999999
 30
0.0
 70
    32
  0
VERTEX
  5
1F57
  8
241
 10
14.714600000000001
 20
-4.4283700000000001
 30
0.0
 70
    32
  0
VERTEX
  5
1F58
  8
241
 10
14.751300000000001
 20
-4.3933499999999981
 30
0.0
 70
    32
  0
VERTEX
  5
1F59
  8
241
 10
14.788
 20
-4.3582999999999981
 30
0.0
 70
    32
  0
VERTEX
  5
1F5A
  8
241
 10
14.8247
 20
-4.3232400000000002
 30
0.0
 70
    32
  0
VERTEX
  5
1F5B
  8
241
 10
14.8614
 20
-4.288149999999999
 30
0.0
 70
    32
  0
VERTEX
  5
1F5C
  8
241
 10
14.898
 20
-4.2530499999999991
 30
0.0
 70
    32
  0
VERTEX
  5
1F5D
  8
241
 10
14.9346
 20
-4.217909999999998
 30
0.0
 70
    32
  0
VERTEX
  5
1F5E
  8
241
 10
14.971299999999999
 20
-4.18276
 30
0.0
 70
    32
  0
VERTEX
  5
1F5F
  8
241
 10
15.007899999999999
 20
-4.1475699999999991
 30
0.0
 70
    32
  0
VERTEX
  5
1F60
  8
241
 10
15.044499999999999
 20
-4.112359999999998
 30
0.0
 70
    32
  0
VERTEX
  5
1F61
  8
241
 10
15.081
 20
-4.0771199999999981
 30
0.0
 70
    32
  0
VERTEX
  5
1F62
  8
241
 10
15.117599999999999
 20
-4.0418500000000002
 30
0.0
 70
    32
  0
VERTEX
  5
1F63
  8
241
 10
15.1541
 20
-4.0065499999999981
 30
0.0
 70
    32
  0
VERTEX
  5
1F64
  8
241
 10
15.1906
 20
-3.9712199999999989
 30
0.0
 70
    32
  0
VERTEX
  5
1F65
  8
241
 10
15.2271
 20
-3.9358499999999981
 30
0.0
 70
    32
  0
VERTEX
  5
1F66
  8
241
 10
15.2636
 20
-3.9004400000000001
 30
0.0
 70
    32
  0
VERTEX
  5
1F67
  8
241
 10
15.300000000000001
 20
-3.8650000000000002
 30
0.0
 70
    32
  0
VERTEX
  5
1F68
  8
241
 10
15.336499999999999
 20
-3.8295300000000001
 30
0.0
 70
    32
  0
VERTEX
  5
1F69
  8
241
 10
15.3729
 20
-3.7940099999999992
 30
0.0
 70
    32
  0
VERTEX
  5
1F6A
  8
241
 10
15.4092
 20
-3.7584499999999981
 30
0.0
 70
    32
  0
VERTEX
  5
1F6B
  8
241
 10
15.445600000000001
 20
-3.7228500000000002
 30
0.0
 70
    32
  0
VERTEX
  5
1F6C
  8
241
 10
15.4819
 20
-3.6872099999999981
 30
0.0
 70
    32
  0
VERTEX
  5
1F6D
  8
241
 10
15.5182
 20
-3.6515300000000002
 30
0.0
 70
    32
  0
VERTEX
  5
1F6E
  8
241
 10
15.554500000000001
 20
-3.6157900000000001
 30
0.0
 70
    32
  0
VERTEX
  5
1F6F
  8
241
 10
15.5907
 20
-3.580019999999998
 30
0.0
 70
    32
  0
VERTEX
  5
1F70
  8
241
 10
15.626899999999999
 20
-3.5441899999999991
 30
0.0
 70
    32
  0
VERTEX
  5
1F71
  8
241
 10
15.6631
 20
-3.5083199999999981
 30
0.0
 70
    32
  0
VERTEX
  5
1F72
  8
241
 10
15.699199999999999
 20
-3.4723899999999981
 30
0.0
 70
    32
  0
VERTEX
  5
1F73
  8
241
 10
15.7354
 20
-3.4364099999999991
 30
0.0
 70
    32
  0
VERTEX
  5
1F74
  8
241
 10
15.7714
 20
-3.4003800000000002
 30
0.0
 70
    32
  0
VERTEX
  5
1F75
  8
241
 10
15.807499999999999
 20
-3.3643000000000001
 30
0.0
 70
    32
  0
VERTEX
  5
1F76
  8
241
 10
15.843500000000001
 20
-3.32816
 30
0.0
 70
    32
  0
VERTEX
  5
1F77
  8
241
 10
15.8795
 20
-3.2919699999999992
 30
0.0
 70
    32
  0
VERTEX
  5
1F78
  8
241
 10
15.9154
 20
-3.2557099999999992
 30
0.0
 70
    32
  0
VERTEX
  5
1F79
  8
241
 10
15.9514
 20
-3.219399999999998
 30
0.0
 70
    32
  0
VERTEX
  5
1F7A
  8
241
 10
15.9872
 20
-3.1830199999999991
 30
0.0
 70
    32
  0
VERTEX
  5
1F7B
  8
241
 10
16.023099999999999
 20
-3.1465900000000002
 30
0.0
 70
    32
  0
VERTEX
  5
1F7C
  8
241
 10
16.058900000000001
 20
-3.11009
 30
0.0
 70
    32
  0
VERTEX
  5
1F7D
  8
241
 10
16.0946
 20
-3.0735299999999981
 30
0.0
 70
    32
  0
VERTEX
  5
1F7E
  8
241
 10
16.130299999999998
 20
-3.0369000000000002
 30
0.0
 70
    32
  0
VERTEX
  5
1F7F
  8
241
 10
16.166
 20
-3.00021
 30
0.0
 70
    32
  0
VERTEX
  5
1F80
  8
241
 10
16.201599999999999
 20
-2.9634399999999981
 30
0.0
 70
    32
  0
VERTEX
  5
1F81
  8
241
 10
16.237200000000001
 20
-2.926609999999997
 30
0.0
 70
    32
  0
VERTEX
  5
1F82
  8
241
 10
16.2728
 20
-2.88971
 30
0.0
 70
    32
  0
VERTEX
  5
1F83
  8
241
 10
16.308299999999999
 20
-2.852729999999998
 30
0.0
 70
    32
  0
VERTEX
  5
1F84
  8
241
 10
16.343699999999998
 20
-2.81569
 30
0.0
 70
    32
  0
VERTEX
  5
1F85
  8
241
 10
16.379200000000001
 20
-2.778559999999997
 30
0.0
 70
    32
  0
VERTEX
  5
1F86
  8
241
 10
16.4145
 20
-2.7413699999999981
 30
0.0
 70
    32
  0
VERTEX
  5
1F87
  8
241
 10
16.4498
 20
-2.7040899999999981
 30
0.0
 70
    32
  0
VERTEX
  5
1F88
  8
241
 10
16.485099999999999
 20
-2.666739999999999
 30
0.0
 70
    32
  0
VERTEX
  5
1F89
  8
241
 10
16.520299999999999
 20
-2.629309999999998
 30
0.0
 70
    32
  0
VERTEX
  5
1F8A
  8
241
 10
16.555499999999999
 20
-2.5918000000000001
 30
0.0
 70
    32
  0
VERTEX
  5
1F8B
  8
241
 10
16.590599999999998
 20
-2.554199999999998
 30
0.0
 70
    32
  0
VERTEX
  5
1F8C
  8
241
 10
16.625699999999998
 20
-2.516529999999999
 30
0.0
 70
    32
  0
VERTEX
  5
1F8D
  8
241
 10
16.660699999999999
 20
-2.4787599999999981
 30
0.0
 70
    32
  0
VERTEX
  5
1F8E
  8
241
 10
16.695699999999999
 20
-2.4409200000000002
 30
0.0
 70
    32
  0
VERTEX
  5
1F8F
  8
241
 10
16.730599999999999
 20
-2.402979999999999
 30
0.0
 70
    32
  0
VERTEX
  5
1F90
  8
241
 10
16.765499999999999
 20
-2.3649599999999991
 30
0.0
 70
    32
  0
VERTEX
  5
1F91
  8
241
 10
16.8003
 20
-2.3268499999999981
 30
0.0
 70
    32
  0
VERTEX
  5
1F92
  8
241
 10
16.835000000000001
 20
-2.2886500000000001
 30
0.0
 70
    32
  0
VERTEX
  5
1F93
  8
241
 10
16.869700000000002
 20
-2.2503500000000001
 30
0.0
 70
    32
  0
VERTEX
  5
1F94
  8
241
 10
16.904399999999999
 20
-2.211959999999999
 30
0.0
 70
    32
  0
VERTEX
  5
1F95
  8
241
 10
16.9389
 20
-2.1734800000000001
 30
0.0
 70
    32
  0
VERTEX
  5
1F96
  8
241
 10
16.973400000000002
 20
-2.1349
 30
0.0
 70
    32
  0
VERTEX
  5
1F97
  8
241
 10
17.007899999999999
 20
-2.096229999999998
 30
0.0
 70
    32
  0
VERTEX
  5
1F98
  8
241
 10
17.042300000000001
 20
-2.0574599999999981
 30
0.0
 70
    32
  0
VERTEX
  5
1F99
  8
241
 10
17.076599999999999
 20
-2.0186000000000002
 30
0.0
 70
    32
  0
VERTEX
  5
1F9A
  8
241
 10
17.110800000000001
 20
-1.97963
 30
0.0
 70
    32
  0
VERTEX
  5
1F9B
  8
241
 10
17.1449
 20
-1.940569999999999
 30
0.0
 70
    32
  0
VERTEX
  5
1F9C
  8
241
 10
17.178999999999998
 20
-1.9014099999999969
 30
0.0
 70
    32
  0
VERTEX
  5
1F9D
  8
241
 10
17.212900000000001
 20
-1.8621499999999991
 30
0.0
 70
    32
  0
VERTEX
  5
1F9E
  8
241
 10
17.2468
 20
-1.822779999999999
 30
0.0
 70
    32
  0
VERTEX
  5
1F9F
  8
241
 10
17.2805
 20
-1.783319999999998
 30
0.0
 70
    32
  0
VERTEX
  5
1FA0
  8
241
 10
17.3142
 20
-1.7437599999999991
 30
0.0
 70
    32
  0
VERTEX
  5
1FA1
  8
241
 10
17.3477
 20
-1.7040900000000001
 30
0.0
 70
    32
  0
VERTEX
  5
1FA2
  8
241
 10
17.3811
 20
-1.66432
 30
0.0
 70
    32
  0
VERTEX
  5
1FA3
  8
241
 10
17.414400000000001
 20
-1.6244499999999991
 30
0.0
 70
    32
  0
VERTEX
  5
1FA4
  8
241
 10
17.447600000000001
 20
-1.58447
 30
0.0
 70
    32
  0
VERTEX
  5
1FA5
  8
241
 10
17.480599999999999
 20
-1.544389999999999
 30
0.0
 70
    32
  0
VERTEX
  5
1FA6
  8
241
 10
17.513500000000001
 20
-1.5041999999999991
 30
0.0
 70
    32
  0
VERTEX
  5
1FA7
  8
241
 10
17.546299999999999
 20
-1.46391
 30
0.0
 70
    32
  0
VERTEX
  5
1FA8
  8
241
 10
17.578900000000001
 20
-1.4234999999999991
 30
0.0
 70
    32
  0
VERTEX
  5
1FA9
  8
241
 10
17.6114
 20
-1.383
 30
0.0
 70
    32
  0
VERTEX
  5
1FAA
  8
241
 10
17.643799999999999
 20
-1.342379999999999
 30
0.0
 70
    32
  0
VERTEX
  5
1FAB
  8
241
 10
17.675899999999999
 20
-1.3016499999999991
 30
0.0
 70
    32
  0
VERTEX
  5
1FAC
  8
241
 10
17.707899999999999
 20
-1.2608200000000001
 30
0.0
 70
    32
  0
VERTEX
  5
1FAD
  8
241
 10
17.739799999999999
 20
-1.21987
 30
0.0
 70
    32
  0
VERTEX
  5
1FAE
  8
241
 10
17.7715
 20
-1.178809999999999
 30
0.0
 70
    32
  0
VERTEX
  5
1FAF
  8
241
 10
17.803000000000001
 20
-1.1376500000000001
 30
0.0
 70
    32
  0
VERTEX
  5
1FB0
  8
241
 10
17.834299999999999
 20
-1.0963700000000001
 30
0.0
 70
    32
  0
VERTEX
  5
1FB1
  8
241
 10
17.865500000000001
 20
-1.0549699999999991
 30
0.0
 70
    32
  0
VERTEX
  5
1FB2
  8
241
 10
17.8964
 20
-1.0134700000000001
 30
0.0
 70
    32
  0
VERTEX
  5
1FB3
  8
241
 10
17.927199999999999
 20
-0.971845
 30
0.0
 70
    32
  0
VERTEX
  5
1FB4
  8
241
 10
17.957799999999999
 20
-0.930109
 30
0.0
 70
    32
  0
VERTEX
  5
1FB5
  8
241
 10
17.988099999999999
 20
-0.888258
 30
0.0
 70
    32
  0
VERTEX
  5
1FB6
  8
241
 10
18.0183
 20
-0.846291
 30
0.0
 70
    32
  0
VERTEX
  5
1FB7
  8
241
 10
18.048300000000001
 20
-0.804207
 30
0.0
 70
    32
  0
VERTEX
  5
1FB8
  8
241
 10
18.077999999999999
 20
-0.7620060000000001
 30
0.0
 70
    32
  0
VERTEX
  5
1FB9
  8
241
 10
18.107600000000001
 20
-0.719687
 30
0.0
 70
    32
  0
VERTEX
  5
1FBA
  8
241
 10
18.136900000000001
 20
-0.677248
 30
0.0
 70
    32
  0
VERTEX
  5
1FBB
  8
241
 10
18.165900000000001
 20
-0.6346910000000002
 30
0.0
 70
    32
  0
VERTEX
  5
1FBC
  8
241
 10
18.194800000000001
 20
-0.5920130000000003
 30
0.0
 70
    32
  0
VERTEX
  5
1FBD
  8
241
 10
18.223400000000002
 20
-0.5492150000000003
 30
0.0
 70
    32
  0
VERTEX
  5
1FBE
  8
241
 10
18.251799999999999
 20
-0.5062949999999999
 30
0.0
 70
    32
  0
VERTEX
  5
1FBF
  8
241
 10
18.279900000000001
 20
-0.463253
 30
0.0
 70
    32
  0
VERTEX
  5
1FC0
  8
241
 10
18.3078
 20
-0.4200890000000002
 30
0.0
 70
    32
  0
VERTEX
  5
1FC1
  8
241
 10
18.3354
 20
-0.376801
 30
0.0
 70
    32
  0
VERTEX
  5
1FC2
  8
241
 10
18.3628
 20
-0.333389
 30
0.0
 70
    32
  0
VERTEX
  5
1FC3
  8
241
 10
18.389900000000001
 20
-0.289853
 30
0.0
 70
    32
  0
VERTEX
  5
1FC4
  8
241
 10
18.416699999999999
 20
-0.246191
 30
0.0
 70
    32
  0
VERTEX
  5
1FC5
  8
241
 10
18.443300000000001
 20
-0.202404
 30
0.0
 70
    32
  0
VERTEX
  5
1FC6
  8
241
 10
18.4696
 20
-0.158489
 30
0.0
 70
    32
  0
VERTEX
  5
1FC7
  8
241
 10
18.4956
 20
-0.114448
 30
0.0
 70
    32
  0
VERTEX
  5
1FC8
  8
241
 10
18.5214
 20
-0.0702783
 30
0.0
 70
    32
  0
VERTEX
  5
1FC9
  8
241
 10
18.546800000000001
 20
-0.0259803
 30
0.0
 70
    32
  0
VERTEX
  5
1FCA
  8
241
 10
18.571999999999999
 20
0.0184471
 30
0.0
 70
    32
  0
VERTEX
  5
1FCB
  8
241
 10
18.596800000000002
 20
0.0630043
 30
0.0
 70
    32
  0
VERTEX
  5
1FCC
  8
241
 10
18.621400000000001
 20
0.107692
 30
0.0
 70
    32
  0
VERTEX
  5
1FCD
  8
241
 10
18.645600000000002
 20
0.152511
 30
0.0
 70
    32
  0
VERTEX
  5
1FCE
  8
241
 10
18.669499999999999
 20
0.197462
 30
0.0
 70
    32
  0
VERTEX
  5
1FCF
  8
241
 10
18.693200000000001
 20
0.242545
 30
0.0
 70
    32
  0
VERTEX
  5
1FD0
  8
241
 10
18.7164
 20
0.2877619999999999
 30
0.0
 70
    32
  0
VERTEX
  5
1FD1
  8
241
 10
18.7394
 20
0.3331119999999999
 30
0.0
 70
    32
  0
VERTEX
  5
1FD2
  8
241
 10
18.7621
 20
0.378597
 30
0.0
 70
    32
  0
VERTEX
  5
1FD3
  8
241
 10
18.784400000000002
 20
0.424217
 30
0.0
 70
    32
  0
VERTEX
  5
1FD4
  8
241
 10
18.8064
 20
0.469973
 30
0.0
 70
    32
  0
VERTEX
  5
1FD5
  8
241
 10
18.827999999999999
 20
0.5158660000000001
 30
0.0
 70
    32
  0
VERTEX
  5
1FD6
  8
241
 10
18.849299999999999
 20
0.561895
 30
0.0
 70
    32
  0
VERTEX
  5
1FD7
  8
241
 10
18.870200000000001
 20
0.608062
 30
0.0
 70
    32
  0
VERTEX
  5
1FD8
  8
241
 10
18.890799999999999
 20
0.6543680000000001
 30
0.0
 70
    32
  0
VERTEX
  5
1FD9
  8
241
 10
18.911000000000001
 20
0.7008130000000004
 30
0.0
 70
    32
  0
VERTEX
  5
1FDA
  8
241
 10
18.930900000000001
 20
0.747397
 30
0.0
 70
    32
  0
VERTEX
  5
1FDB
  8
241
 10
18.950399999999998
 20
0.794122
 30
0.0
 70
    32
  0
VERTEX
  5
1FDC
  8
241
 10
18.9695
 20
0.8409879999999997
 30
0.0
 70
    32
  0
VERTEX
  5
1FDD
  8
241
 10
18.988199999999999
 20
0.8879959999999995
 30
0.0
 70
    32
  0
VERTEX
  5
1FDE
  8
241
 10
19.006599999999999
 20
0.9351459999999999
 30
0.0
 70
    32
  0
VERTEX
  5
1FDF
  8
241
 10
19.0245
 20
0.982439
 30
0.0
 70
    32
  0
VERTEX
  5
1FE0
  8
241
 10
19.042100000000001
 20
1.029879999999999
 30
0.0
 70
    32
  0
VERTEX
  5
1FE1
  8
241
 10
19.0593
 20
1.0774600000000001
 30
0.0
 70
    32
  0
VERTEX
  5
1FE2
  8
241
 10
19.0761
 20
1.1251799999999981
 30
0.0
 70
    32
  0
VERTEX
  5
1FE3
  8
241
 10
19.092500000000001
 20
1.1730599999999991
 30
0.0
 70
    32
  0
VERTEX
  5
1FE4
  8
241
 10
19.108499999999999
 20
1.2210700000000001
 30
0.0
 70
    32
  0
VERTEX
  5
1FE5
  8
241
 10
19.123999999999999
 20
1.269239999999999
 30
0.0
 70
    32
  0
VERTEX
  5
1FE6
  8
241
 10
19.139199999999999
 20
1.317539999999999
 30
0.0
 70
    32
  0
VERTEX
  5
1FE7
  8
241
 10
19.154
 20
1.3659799999999991
 30
0.0
 70
    32
  0
VERTEX
  5
1FE8
  8
241
 10
19.168399999999998
 20
1.4145599999999969
 30
0.0
 70
    32
  0
VERTEX
  5
1FE9
  8
241
 10
19.182400000000001
 20
1.46326
 30
0.0
 70
    32
  0
VERTEX
  5
1FEA
  8
241
 10
19.196100000000001
 20
1.512089999999999
 30
0.0
 70
    32
  0
VERTEX
  5
1FEB
  8
241
 10
19.209499999999998
 20
1.56105
 30
0.0
 70
    32
  0
VERTEX
  5
1FEC
  8
241
 10
19.2225
 20
1.610109999999997
 30
0.0
 70
    32
  0
VERTEX
  5
1FED
  8
241
 10
19.235199999999999
 20
1.6592999999999991
 30
0.0
 70
    32
  0
VERTEX
  5
1FEE
  8
241
 10
19.247599999999998
 20
1.7085900000000001
 30
0.0
 70
    32
  0
VERTEX
  5
1FEF
  8
241
 10
19.259799999999998
 20
1.757979999999999
 30
0.0
 70
    32
  0
VERTEX
  5
1FF0
  8
241
 10
19.271599999999999
 20
1.8074799999999991
 30
0.0
 70
    32
  0
VERTEX
  5
1FF1
  8
241
 10
19.283100000000001
 20
1.85707
 30
0.0
 70
    32
  0
VERTEX
  5
1FF2
  8
241
 10
19.2944
 20
1.906759999999998
 30
0.0
 70
    32
  0
VERTEX
  5
1FF3
  8
241
 10
19.305499999999999
 20
1.9565399999999999
 30
0.0
 70
    32
  0
VERTEX
  5
1FF4
  8
241
 10
19.316299999999998
 20
2.0064000000000002
 30
0.0
 70
    32
  0
VERTEX
  5
1FF5
  8
241
 10
19.326899999999998
 20
2.0563400000000001
 30
0.0
 70
    32
  0
VERTEX
  5
1FF6
  8
241
 10
19.337299999999999
 20
2.10636
 30
0.0
 70
    32
  0
VERTEX
  5
1FF7
  8
241
 10
19.3474
 20
2.1564499999999991
 30
0.0
 70
    32
  0
VERTEX
  5
1FF8
  8
241
 10
19.357399999999998
 20
2.2066099999999991
 30
0.0
 70
    32
  0
VERTEX
  5
1FF9
  8
241
 10
19.3672
 20
2.256829999999999
 30
0.0
 70
    32
  0
VERTEX
  5
1FFA
  8
241
 10
19.376799999999999
 20
2.3071099999999971
 30
0.0
 70
    32
  0
VERTEX
  5
1FFB
  8
241
 10
19.386299999999999
 20
2.357459999999997
 30
0.0
 70
    32
  0
VERTEX
  5
1FFC
  8
241
 10
19.395600000000002
 20
2.407849999999998
 30
0.0
 70
    32
  0
VERTEX
  5
1FFD
  8
241
 10
19.404800000000002
 20
2.4582899999999981
 30
0.0
 70
    32
  0
VERTEX
  5
1FFE
  8
241
 10
19.413799999999998
 20
2.508779999999998
 30
0.0
 70
    32
  0
VERTEX
  5
1FFF
  8
241
 10
19.422799999999999
 20
2.5593099999999991
 30
0.0
 70
    32
  0
VERTEX
  5
2000
  8
241
 10
19.4316
 20
2.609869999999999
 30
0.0
 70
    32
  0
VERTEX
  5
2001
  8
241
 10
19.440300000000001
 20
2.6604700000000001
 30
0.0
 70
    32
  0
VERTEX
  5
2002
  8
241
 10
19.449000000000002
 20
2.7110899999999991
 30
0.0
 70
    32
  0
VERTEX
  5
2003
  8
241
 10
19.457599999999999
 20
2.7617400000000001
 30
0.0
 70
    32
  0
VERTEX
  5
2004
  8
241
 10
19.466200000000001
 20
2.8124099999999981
 30
0.0
 70
    32
  0
VERTEX
  5
2005
  8
241
 10
19.474699999999999
 20
2.8630900000000001
 30
0.0
 70
    32
  0
VERTEX
  5
2006
  8
241
 10
19.4831
 20
2.9137900000000001
 30
0.0
 70
    32
  0
VERTEX
  5
2007
  8
241
 10
19.491599999999998
 20
2.9644899999999992
 30
0.0
 70
    32
  0
VERTEX
  5
2008
  8
241
 10
19.5
 20
3.0152000000000001
 30
0.0
 70
    32
  0
SEQEND
  5
2009
  8
241
  0
POLYLINE
  5
200A
  8
241
 66
     1
 10
0.0
 20
0.0
 30
0.0
 70
     8
  0
VERTEX
  5
200B
  8
241
 10
7.2360399999999983
 20
9.6392699999999998
 30
0.0
 70
    32
  0
VERTEX
  5
200C
  8
241
 10
7.2267899999999958
 20
9.5670899999999985
 30
0.0
 70
    32
  0
VERTEX
  5
200D
  8
241
 10
7.217589999999996
 20
9.4949100000000008
 30
0.0
 70
    32
  0
VERTEX
  5
200E
  8
241
 10
7.208499999999999
 20
9.4227199999999982
 30
0.0
 70
    32
  0
VERTEX
  5
200F
  8
241
 10
7.19956
 20
9.3505399999999987
 30
0.0
 70
    32
  0
VERTEX
  5
2010
  8
241
 10
7.1908300000000001
 20
9.2783599999999993
 30
0.0
 70
    32
  0
VERTEX
  5
2011
  8
241
 10
7.182369999999997
 20
9.2061700000000002
 30
0.0
 70
    32
  0
VERTEX
  5
2012
  8
241
 10
7.17422
 20
9.1339899999999972
 30
0.0
 70
    32
  0
VERTEX
  5
2013
  8
241
 10
7.166439999999997
 20
9.0617999999999999
 30
0.0
 70
    32
  0
VERTEX
  5
2014
  8
241
 10
7.1590800000000003
 20
8.9896100000000008
 30
0.0
 70
    32
  0
VERTEX
  5
2015
  8
241
 10
7.1521899999999992
 20
8.9174199999999981
 30
0.0
 70
    32
  0
VERTEX
  5
2016
  8
241
 10
7.1458199999999987
 20
8.8452199999999976
 30
0.0
 70
    32
  0
VERTEX
  5
2017
  8
241
 10
7.1400300000000003
 20
8.7730300000000003
 30
0.0
 70
    32
  0
VERTEX
  5
2018
  8
241
 10
7.134879999999999
 20
8.7008299999999998
 30
0.0
 70
    32
  0
VERTEX
  5
2019
  8
241
 10
7.1303999999999981
 20
8.6286300000000011
 30
0.0
 70
    32
  0
VERTEX
  5
201A
  8
241
 10
7.1266600000000002
 20
8.5564199999999992
 30
0.0
 70
    32
  0
VERTEX
  5
201B
  8
241
 10
7.12371
 20
8.4842099999999991
 30
0.0
 70
    32
  0
VERTEX
  5
201C
  8
241
 10
7.1215900000000003
 20
8.4120000000000008
 30
0.0
 70
    32
  0
VERTEX
  5
201D
  8
241
 10
7.1203700000000003
 20
8.3397800000000011
 30
0.0
 70
    32
  0
VERTEX
  5
201E
  8
241
 10
7.1200900000000003
 20
8.2675600000000014
 30
0.0
 70
    32
  0
VERTEX
  5
201F
  8
241
 10
7.1208200000000001
 20
8.1953399999999998
 30
0.0
 70
    32
  0
VERTEX
  5
2020
  8
241
 10
7.1225899999999971
 20
8.1231100000000005
 30
0.0
 70
    32
  0
VERTEX
  5
2021
  8
241
 10
7.1254499999999981
 20
8.0508800000000011
 30
0.0
 70
    32
  0
VERTEX
  5
2022
  8
241
 10
7.129419999999997
 20
7.97865
 30
0.0
 70
    32
  0
VERTEX
  5
2023
  8
241
 10
7.1344899999999987
 20
7.9064300000000003
 30
0.0
 70
    32
  0
VERTEX
  5
2024
  8
241
 10
7.1406400000000003
 20
7.8342399999999959
 30
0.0
 70
    32
  0
VERTEX
  5
2025
  8
241
 10
7.1478599999999979
 20
7.762069999999996
 30
0.0
 70
    32
  0
VERTEX
  5
2026
  8
241
 10
7.1561599999999981
 20
7.6899399999999982
 30
0.0
 70
    32
  0
VERTEX
  5
2027
  8
241
 10
7.165519999999999
 20
7.617869999999999
 30
0.0
 70
    32
  0
VERTEX
  5
2028
  8
241
 10
7.1759300000000001
 20
7.5458399999999983
 30
0.0
 70
    32
  0
VERTEX
  5
2029
  8
241
 10
7.1873800000000001
 20
7.473889999999999
 30
0.0
 70
    32
  0
VERTEX
  5
202A
  8
241
 10
7.1998600000000001
 20
7.4020099999999989
 30
0.0
 70
    32
  0
VERTEX
  5
202B
  8
241
 10
7.2133699999999958
 20
7.330210000000001
 30
0.0
 70
    32
  0
VERTEX
  5
202C
  8
241
 10
7.2278899999999959
 20
7.2585100000000002
 30
0.0
 70
    32
  0
VERTEX
  5
202D
  8
241
 10
7.24343
 20
7.186910000000001
 30
0.0
 70
    32
  0
VERTEX
  5
202E
  8
241
 10
7.2599600000000004
 20
7.1154200000000003
 30
0.0
 70
    32
  0
VERTEX
  5
202F
  8
241
 10
7.2774799999999971
 20
7.0440500000000004
 30
0.0
 70
    32
  0
VERTEX
  5
2030
  8
241
 10
7.2959800000000001
 20
6.97281
 30
0.0
 70
    32
  0
VERTEX
  5
2031
  8
241
 10
7.3154599999999981
 20
6.9017200000000001
 30
0.0
 70
    32
  0
VERTEX
  5
2032
  8
241
 10
7.3358999999999988
 20
6.8307599999999979
 30
0.0
 70
    32
  0
VERTEX
  5
2033
  8
241
 10
7.3572899999999981
 20
6.75997
 30
0.0
 70
    32
  0
VERTEX
  5
2034
  8
241
 10
7.3796299999999979
 20
6.6893399999999987
 30
0.0
 70
    32
  0
VERTEX
  5
2035
  8
241
 10
7.4029100000000003
 20
6.6188899999999986
 30
0.0
 70
    32
  0
VERTEX
  5
2036
  8
241
 10
7.4271199999999959
 20
6.548619999999997
 30
0.0
 70
    32
  0
VERTEX
  5
2037
  8
241
 10
7.4522500000000003
 20
6.4785399999999971
 30
0.0
 70
    32
  0
VERTEX
  5
2038
  8
241
 10
7.4782899999999959
 20
6.4086600000000002
 30
0.0
 70
    32
  0
VERTEX
  5
2039
  8
241
 10
7.5052300000000001
 20
6.3390000000000004
 30
0.0
 70
    32
  0
VERTEX
  5
203A
  8
241
 10
7.5330599999999981
 20
6.2695600000000002
 30
0.0
 70
    32
  0
VERTEX
  5
203B
  8
241
 10
7.5617799999999979
 20
6.2003399999999971
 30
0.0
 70
    32
  0
VERTEX
  5
203C
  8
241
 10
7.59138
 20
6.1313699999999987
 30
0.0
 70
    32
  0
VERTEX
  5
203D
  8
241
 10
7.6218399999999988
 20
6.06264
 30
0.0
 70
    32
  0
VERTEX
  5
203E
  8
241
 10
7.6531699999999958
 20
5.9941699999999987
 30
0.0
 70
    32
  0
VERTEX
  5
203F
  8
241
 10
7.6853399999999983
 20
5.925959999999999
 30
0.0
 70
    32
  0
VERTEX
  5
2040
  8
241
 10
7.7183599999999979
 20
5.8580300000000003
 30
0.0
 70
    32
  0
VERTEX
  5
2041
  8
241
 10
7.7522099999999989
 20
5.7903900000000004
 30
0.0
 70
    32
  0
VERTEX
  5
2042
  8
241
 10
7.78688
 20
5.7230299999999987
 30
0.0
 70
    32
  0
VERTEX
  5
2043
  8
241
 10
7.8223699999999958
 20
5.6559799999999987
 30
0.0
 70
    32
  0
VERTEX
  5
2044
  8
241
 10
7.8586600000000004
 20
5.5892400000000002
 30
0.0
 70
    32
  0
VERTEX
  5
2045
  8
241
 10
7.895749999999996
 20
5.5228099999999971
 30
0.0
 70
    32
  0
VERTEX
  5
2046
  8
241
 10
7.9336299999999982
 20
5.456719999999998
 30
0.0
 70
    32
  0
VERTEX
  5
2047
  8
241
 10
7.9722999999999988
 20
5.3909700000000003
 30
0.0
 70
    32
  0
VERTEX
  5
2048
  8
241
 10
8.01173
 20
5.3255600000000003
 30
0.0
 70
    32
  0
VERTEX
  5
2049
  8
241
 10
8.0519199999999991
 20
5.26051
 30
0.0
 70
    32
  0
VERTEX
  5
204A
  8
241
 10
8.092869999999996
 20
5.1958200000000003
 30
0.0
 70
    32
  0
VERTEX
  5
204B
  8
241
 10
8.1345700000000001
 20
5.1315099999999987
 30
0.0
 70
    32
  0
VERTEX
  5
204C
  8
241
 10
8.176999999999996
 20
5.0675800000000004
 30
0.0
 70
    32
  0
VERTEX
  5
204D
  8
241
 10
8.2201599999999981
 20
5.004039999999998
 30
0.0
 70
    32
  0
VERTEX
  5
204E
  8
241
 10
8.2640399999999961
 20
4.940909999999997
 30
0.0
 70
    32
  0
VERTEX
  5
204F
  8
241
 10
8.3086300000000008
 20
4.8781800000000004
 30
0.0
 70
    32
  0
VERTEX
  5
2050
  8
241
 10
8.3539200000000005
 20
4.8158799999999991
 30
0.0
 70
    32
  0
VERTEX
  5
2051
  8
241
 10
8.3999100000000002
 20
4.7539999999999987
 30
0.0
 70
    32
  0
VERTEX
  5
2052
  8
241
 10
8.4465800000000009
 20
4.6925600000000003
 30
0.0
 70
    32
  0
VERTEX
  5
2053
  8
241
 10
8.4939199999999992
 20
4.6315699999999991
 30
0.0
 70
    32
  0
VERTEX
  5
2054
  8
241
 10
8.5419300000000007
 20
4.5710300000000004
 30
0.0
 70
    32
  0
VERTEX
  5
2055
  8
241
 10
8.5906000000000002
 20
4.5109599999999981
 30
0.0
 70
    32
  0
VERTEX
  5
2056
  8
241
 10
8.63992
 20
4.4513600000000002
 30
0.0
 70
    32
  0
VERTEX
  5
2057
  8
241
 10
8.6898800000000005
 20
4.3922499999999971
 30
0.0
 70
    32
  0
VERTEX
  5
2058
  8
241
 10
8.7404700000000002
 20
4.3336300000000003
 30
0.0
 70
    32
  0
VERTEX
  5
2059
  8
241
 10
8.7916899999999991
 20
4.275509999999997
 30
0.0
 70
    32
  0
VERTEX
  5
205A
  8
241
 10
8.8435100000000002
 20
4.2178899999999979
 30
0.0
 70
    32
  0
VERTEX
  5
205B
  8
241
 10
8.8959499999999991
 20
4.1608000000000001
 30
0.0
 70
    32
  0
VERTEX
  5
205C
  8
241
 10
8.9489800000000006
 20
4.104239999999999
 30
0.0
 70
    32
  0
VERTEX
  5
205D
  8
241
 10
9.0025999999999993
 20
4.0482100000000001
 30
0.0
 70
    32
  0
VERTEX
  5
205E
  8
241
 10
9.0568000000000008
 20
3.992729999999999
 30
0.0
 70
    32
  0
VERTEX
  5
205F
  8
241
 10
9.1115700000000004
 20
3.9378099999999989
 30
0.0
 70
    32
  0
VERTEX
  5
2060
  8
241
 10
9.1669
 20
3.8834499999999981
 30
0.0
 70
    32
  0
VERTEX
  5
2061
  8
241
 10
9.2227800000000002
 20
3.8296600000000001
 30
0.0
 70
    32
  0
VERTEX
  5
2062
  8
241
 10
9.2792100000000008
 20
3.7764599999999988
 30
0.0
 70
    32
  0
VERTEX
  5
2063
  8
241
 10
9.3361800000000006
 20
3.7238500000000001
 30
0.0
 70
    32
  0
VERTEX
  5
2064
  8
241
 10
9.3936700000000002
 20
3.6718399999999991
 30
0.0
 70
    32
  0
VERTEX
  5
2065
  8
241
 10
9.4516799999999996
 20
3.6204399999999981
 30
0.0
 70
    32
  0
VERTEX
  5
2066
  8
241
 10
9.5101999999999993
 20
3.5696500000000002
 30
0.0
 70
    32
  0
VERTEX
  5
2067
  8
241
 10
9.5692199999999996
 20
3.5194999999999981
 30
0.0
 70
    32
  0
VERTEX
  5
2068
  8
241
 10
9.6287299999999991
 20
3.4699800000000001
 30
0.0
 70
    32
  0
VERTEX
  5
2069
  8
241
 10
9.6887299999999996
 20
3.4211099999999992
 30
0.0
 70
    32
  0
VERTEX
  5
206A
  8
241
 10
9.7492000000000001
 20
3.3729
 30
0.0
 70
    32
  0
VERTEX
  5
206B
  8
241
 10
9.8101299999999991
 20
3.3253400000000002
 30
0.0
 70
    32
  0
VERTEX
  5
206C
  8
241
 10
9.8715299999999981
 20
3.2784599999999982
 30
0.0
 70
    32
  0
VERTEX
  5
206D
  8
241
 10
9.93337
 20
3.2322700000000002
 30
0.0
 70
    32
  0
VERTEX
  5
206E
  8
241
 10
9.9956499999999995
 20
3.18676
 30
0.0
 70
    32
  0
VERTEX
  5
206F
  8
241
 10
10.058400000000001
 20
3.1419599999999992
 30
0.0
 70
    32
  0
VERTEX
  5
2070
  8
241
 10
10.121499999999999
 20
3.0978599999999981
 30
0.0
 70
    32
  0
VERTEX
  5
2071
  8
241
 10
10.185
 20
3.0544899999999982
 30
0.0
 70
    32
  0
VERTEX
  5
2072
  8
241
 10
10.249000000000001
 20
3.0118399999999981
 30
0.0
 70
    32
  0
VERTEX
  5
2073
  8
241
 10
10.3133
 20
2.969929999999998
 30
0.0
 70
    32
  0
VERTEX
  5
2074
  8
241
 10
10.3781
 20
2.92876
 30
0.0
 70
    32
  0
VERTEX
  5
2075
  8
241
 10
10.443199999999999
 20
2.8883499999999991
 30
0.0
 70
    32
  0
VERTEX
  5
2076
  8
241
 10
10.508699999999999
 20
2.8487
 30
0.0
 70
    32
  0
VERTEX
  5
2077
  8
241
 10
10.5745
 20
2.8098200000000002
 30
0.0
 70
    32
  0
VERTEX
  5
2078
  8
241
 10
10.640700000000001
 20
2.771729999999998
 30
0.0
 70
    32
  0
VERTEX
  5
2079
  8
241
 10
10.7073
 20
2.7344300000000001
 30
0.0
 70
    32
  0
VERTEX
  5
207A
  8
241
 10
10.774100000000001
 20
2.6979299999999991
 30
0.0
 70
    32
  0
VERTEX
  5
207B
  8
241
 10
10.8413
 20
2.6622300000000001
 30
0.0
 70
    32
  0
VERTEX
  5
207C
  8
241
 10
10.908899999999999
 20
2.627359999999999
 30
0.0
 70
    32
  0
VERTEX
  5
207D
  8
241
 10
10.976699999999999
 20
2.593309999999998
 30
0.0
 70
    32
  0
VERTEX
  5
207E
  8
241
 10
11.0448
 20
2.560099999999998
 30
0.0
 70
    32
  0
VERTEX
  5
207F
  8
241
 10
11.113200000000001
 20
2.5277400000000001
 30
0.0
 70
    32
  0
VERTEX
  5
2080
  8
241
 10
11.181900000000001
 20
2.4962200000000001
 30
0.0
 70
    32
  0
VERTEX
  5
2081
  8
241
 10
11.2509
 20
2.4655599999999991
 30
0.0
 70
    32
  0
VERTEX
  5
2082
  8
241
 10
11.3202
 20
2.4357500000000001
 30
0.0
 70
    32
  0
VERTEX
  5
2083
  8
241
 10
11.389699999999999
 20
2.4067899999999991
 30
0.0
 70
    32
  0
VERTEX
  5
2084
  8
241
 10
11.4594
 20
2.3786800000000001
 30
0.0
 70
    32
  0
VERTEX
  5
2085
  8
241
 10
11.529400000000001
 20
2.3514300000000001
 30
0.0
 70
    32
  0
VERTEX
  5
2086
  8
241
 10
11.5997
 20
2.325029999999999
 30
0.0
 70
    32
  0
VERTEX
  5
2087
  8
241
 10
11.6701
 20
2.29949
 30
0.0
 70
    32
  0
VERTEX
  5
2088
  8
241
 10
11.7408
 20
2.2748099999999991
 30
0.0
 70
    32
  0
VERTEX
  5
2089
  8
241
 10
11.8117
 20
2.2509799999999971
 30
0.0
 70
    32
  0
VERTEX
  5
208A
  8
241
 10
11.8828
 20
2.228009999999998
 30
0.0
 70
    32
  0
VERTEX
  5
208B
  8
241
 10
11.9541
 20
2.2059000000000002
 30
0.0
 70
    32
  0
VERTEX
  5
208C
  8
241
 10
12.025600000000001
 20
2.184639999999999
 30
0.0
 70
    32
  0
VERTEX
  5
208D
  8
241
 10
12.097300000000001
 20
2.16425
 30
0.0
 70
    32
  0
VERTEX
  5
208E
  8
241
 10
12.1691
 20
2.1447199999999991
 30
0.0
 70
    32
  0
VERTEX
  5
208F
  8
241
 10
12.241099999999999
 20
2.1260500000000002
 30
0.0
 70
    32
  0
VERTEX
  5
2090
  8
241
 10
12.3133
 20
2.108229999999998
 30
0.0
 70
    32
  0
VERTEX
  5
2091
  8
241
 10
12.3856
 20
2.0912899999999981
 30
0.0
 70
    32
  0
VERTEX
  5
2092
  8
241
 10
12.4581
 20
2.0752000000000002
 30
0.0
 70
    32
  0
VERTEX
  5
2093
  8
241
 10
12.5307
 20
2.059979999999999
 30
0.0
 70
    32
  0
VERTEX
  5
2094
  8
241
 10
12.603400000000001
 20
2.0456199999999991
 30
0.0
 70
    32
  0
VERTEX
  5
2095
  8
241
 10
12.676299999999999
 20
2.0321299999999991
 30
0.0
 70
    32
  0
VERTEX
  5
2096
  8
241
 10
12.7492
 20
2.019509999999999
 30
0.0
 70
    32
  0
VERTEX
  5
2097
  8
241
 10
12.8223
 20
2.0077500000000001
 30
0.0
 70
    32
  0
VERTEX
  5
2098
  8
241
 10
12.8955
 20
1.996859999999999
 30
0.0
 70
    32
  0
VERTEX
  5
2099
  8
241
 10
12.9687
 20
1.986829999999999
 30
0.0
 70
    32
  0
VERTEX
  5
209A
  8
241
 10
13.042
 20
1.977679999999999
 30
0.0
 70
    32
  0
VERTEX
  5
209B
  8
241
 10
13.115399999999999
 20
1.96939
 30
0.0
 70
    32
  0
VERTEX
  5
209C
  8
241
 10
13.1889
 20
1.9619699999999991
 30
0.0
 70
    32
  0
VERTEX
  5
209D
  8
241
 10
13.2624
 20
1.955429999999998
 30
0.0
 70
    32
  0
VERTEX
  5
209E
  8
241
 10
13.336
 20
1.9497500000000001
 30
0.0
 70
    32
  0
VERTEX
  5
209F
  8
241
 10
13.409599999999999
 20
1.94495
 30
0.0
 70
    32
  0
VERTEX
  5
20A0
  8
241
 10
13.4833
 20
1.9410199999999991
 30
0.0
 70
    32
  0
VERTEX
  5
20A1
  8
241
 10
13.557
 20
1.937959999999997
 30
0.0
 70
    32
  0
VERTEX
  5
20A2
  8
241
 10
13.630699999999999
 20
1.9357799999999969
 30
0.0
 70
    32
  0
VERTEX
  5
20A3
  8
241
 10
13.7044
 20
1.934469999999999
 30
0.0
 70
    32
  0
VERTEX
  5
20A4
  8
241
 10
13.7781
 20
1.93404
 30
0.0
 70
    32
  0
VERTEX
  5
20A5
  8
241
 10
13.851800000000001
 20
1.93449
 30
0.0
 70
    32
  0
VERTEX
  5
20A6
  8
241
 10
13.9255
 20
1.9358099999999969
 30
0.0
 70
    32
  0
VERTEX
  5
20A7
  8
241
 10
13.9992
 20
1.938009999999998
 30
0.0
 70
    32
  0
VERTEX
  5
20A8
  8
241
 10
14.072800000000001
 20
1.941079999999999
 30
0.0
 70
    32
  0
VERTEX
  5
20A9
  8
241
 10
14.1465
 20
1.9450400000000001
 30
0.0
 70
    32
  0
VERTEX
  5
20AA
  8
241
 10
14.220000000000001
 20
1.9498699999999991
 30
0.0
 70
    32
  0
VERTEX
  5
20AB
  8
241
 10
14.2935
 20
1.9555899999999991
 30
0.0
 70
    32
  0
VERTEX
  5
20AC
  8
241
 10
14.367000000000001
 20
1.96218
 30
0.0
 70
    32
  0
VERTEX
  5
20AD
  8
241
 10
14.4404
 20
1.9696599999999991
 30
0.0
 70
    32
  0
VERTEX
  5
20AE
  8
241
 10
14.5137
 20
1.978019999999999
 30
0.0
 70
    32
  0
VERTEX
  5
20AF
  8
241
 10
14.587
 20
1.9872599999999969
 30
0.0
 70
    32
  0
VERTEX
  5
20B0
  8
241
 10
14.6601
 20
1.99739
 30
0.0
 70
    32
  0
VERTEX
  5
20B1
  8
241
 10
14.7332
 20
2.0083999999999991
 30
0.0
 70
    32
  0
VERTEX
  5
20B2
  8
241
 10
14.806100000000001
 20
2.0203000000000002
 30
0.0
 70
    32
  0
VERTEX
  5
20B3
  8
241
 10
14.879
 20
2.0330799999999991
 30
0.0
 70
    32
  0
VERTEX
  5
20B4
  8
241
 10
14.951700000000001
 20
2.0467499999999981
 30
0.0
 70
    32
  0
VERTEX
  5
20B5
  8
241
 10
15.0243
 20
2.0613000000000001
 30
0.0
 70
    32
  0
VERTEX
  5
20B6
  8
241
 10
15.0967
 20
2.07674
 30
0.0
 70
    32
  0
VERTEX
  5
20B7
  8
241
 10
15.169
 20
2.0930699999999991
 30
0.0
 70
    32
  0
VERTEX
  5
20B8
  8
241
 10
15.241199999999999
 20
2.1102899999999991
 30
0.0
 70
    32
  0
VERTEX
  5
20B9
  8
241
 10
15.3132
 20
2.128409999999997
 30
0.0
 70
    32
  0
VERTEX
  5
20BA
  8
241
 10
15.385
 20
2.147409999999998
 30
0.0
 70
    32
  0
VERTEX
  5
20BB
  8
241
 10
15.4566
 20
2.1673
 30
0.0
 70
    32
  0
VERTEX
  5
20BC
  8
241
 10
15.5281
 20
2.188079999999998
 30
0.0
 70
    32
  0
VERTEX
  5
20BD
  8
241
 10
15.599399999999999
 20
2.2097599999999971
 30
0.0
 70
    32
  0
VERTEX
  5
20BE
  8
241
 10
15.670500000000001
 20
2.2323300000000001
 30
0.0
 70
    32
  0
VERTEX
  5
20BF
  8
241
 10
15.741300000000001
 20
2.2557900000000002
 30
0.0
 70
    32
  0
VERTEX
  5
20C0
  8
241
 10
15.811999999999999
 20
2.280149999999999
 30
0.0
 70
    32
  0
VERTEX
  5
20C1
  8
241
 10
15.882400000000001
 20
2.3054000000000001
 30
0.0
 70
    32
  0
VERTEX
  5
20C2
  8
241
 10
15.9526
 20
2.3315299999999981
 30
0.0
 70
    32
  0
VERTEX
  5
20C3
  8
241
 10
16.022600000000001
 20
2.3585400000000001
 30
0.0
 70
    32
  0
VERTEX
  5
20C4
  8
241
 10
16.092199999999998
 20
2.3864299999999981
 30
0.0
 70
    32
  0
VERTEX
  5
20C5
  8
241
 10
16.1616
 20
2.415169999999998
 30
0.0
 70
    32
  0
VERTEX
  5
20C6
  8
241
 10
16.230699999999999
 20
2.4447700000000001
 30
0.0
 70
    32
  0
VERTEX
  5
20C7
  8
241
 10
16.299499999999998
 20
2.4752200000000002
 30
0.0
 70
    32
  0
VERTEX
  5
20C8
  8
241
 10
16.367999999999999
 20
2.5064999999999991
 30
0.0
 70
    32
  0
VERTEX
  5
20C9
  8
241
 10
16.436199999999999
 20
2.5386299999999991
 30
0.0
 70
    32
  0
VERTEX
  5
20CA
  8
241
 10
16.503900000000002
 20
2.571569999999999
 30
0.0
 70
    32
  0
VERTEX
  5
20CB
  8
241
 10
16.571400000000001
 20
2.6053399999999991
 30
0.0
 70
    32
  0
VERTEX
  5
20CC
  8
241
 10
16.638400000000001
 20
2.63992
 30
0.0
 70
    32
  0
VERTEX
  5
20CD
  8
241
 10
16.705100000000002
 20
2.6753
 30
0.0
 70
    32
  0
VERTEX
  5
20CE
  8
241
 10
16.7713
 20
2.711479999999999
 30
0.0
 70
    32
  0
VERTEX
  5
20CF
  8
241
 10
16.837199999999999
 20
2.7484399999999991
 30
0.0
 70
    32
  0
VERTEX
  5
20D0
  8
241
 10
16.9026
 20
2.7861899999999991
 30
0.0
 70
    32
  0
VERTEX
  5
20D1
  8
241
 10
16.967500000000001
 20
2.8247200000000001
 30
0.0
 70
    32
  0
VERTEX
  5
20D2
  8
241
 10
17.032
 20
2.8640099999999999
 30
0.0
 70
    32
  0
VERTEX
  5
20D3
  8
241
 10
17.096
 20
2.904059999999999
 30
0.0
 70
    32
  0
VERTEX
  5
20D4
  8
241
 10
17.159500000000001
 20
2.9448699999999981
 30
0.0
 70
    32
  0
VERTEX
  5
20D5
  8
241
 10
17.2226
 20
2.9864199999999981
 30
0.0
 70
    32
  0
VERTEX
  5
20D6
  8
241
 10
17.2851
 20
3.0287000000000002
 30
0.0
 70
    32
  0
VERTEX
  5
20D7
  8
241
 10
17.347000000000001
 20
3.07172
 30
0.0
 70
    32
  0
VERTEX
  5
20D8
  8
241
 10
17.4085
 20
3.1154700000000002
 30
0.0
 70
    32
  0
VERTEX
  5
20D9
  8
241
 10
17.4693
 20
3.1599300000000001
 30
0.0
 70
    32
  0
VERTEX
  5
20DA
  8
241
 10
17.529599999999999
 20
3.2050999999999981
 30
0.0
 70
    32
  0
VERTEX
  5
20DB
  8
241
 10
17.589400000000001
 20
3.2509700000000001
 30
0.0
 70
    32
  0
VERTEX
  5
20DC
  8
241
 10
17.648499999999999
 20
3.2975300000000001
 30
0.0
 70
    32
  0
VERTEX
  5
20DD
  8
241
 10
17.707000000000001
 20
3.3447800000000001
 30
0.0
 70
    32
  0
VERTEX
  5
20DE
  8
241
 10
17.764800000000001
 20
3.392709999999997
 30
0.0
 70
    32
  0
VERTEX
  5
20DF
  8
241
 10
17.822099999999999
 20
3.441319999999997
 30
0.0
 70
    32
  0
VERTEX
  5
20E0
  8
241
 10
17.878599999999999
 20
3.4905900000000001
 30
0.0
 70
    32
  0
VERTEX
  5
20E1
  8
241
 10
17.9345
 20
3.540509999999998
 30
0.0
 70
    32
  0
VERTEX
  5
20E2
  8
241
 10
17.989799999999999
 20
3.591089999999999
 30
0.0
 70
    32
  0
VERTEX
  5
20E3
  8
241
 10
18.0443
 20
3.6423099999999988
 30
0.0
 70
    32
  0
VERTEX
  5
20E4
  8
241
 10
18.098099999999999
 20
3.6941699999999988
 30
0.0
 70
    32
  0
VERTEX
  5
20E5
  8
241
 10
18.151199999999999
 20
3.7466499999999989
 30
0.0
 70
    32
  0
VERTEX
  5
20E6
  8
241
 10
18.203499999999998
 20
3.79976
 30
0.0
 70
    32
  0
VERTEX
  5
20E7
  8
241
 10
18.255099999999999
 20
3.8534699999999988
 30
0.0
 70
    32
  0
VERTEX
  5
20E8
  8
241
 10
18.305900000000001
 20
3.9077999999999991
 30
0.0
 70
    32
  0
VERTEX
  5
20E9
  8
241
 10
18.355899999999998
 20
3.9627300000000001
 30
0.0
 70
    32
  0
VERTEX
  5
20EA
  8
241
 10
18.405200000000001
 20
4.0182399999999987
 30
0.0
 70
    32
  0
VERTEX
  5
20EB
  8
241
 10
18.453600000000002
 20
4.074349999999999
 30
0.0
 70
    32
  0
VERTEX
  5
20EC
  8
241
 10
18.501200000000001
 20
4.1310199999999986
 30
0.0
 70
    32
  0
VERTEX
  5
20ED
  8
241
 10
18.547999999999998
 20
4.1882699999999993
 30
0.0
 70
    32
  0
VERTEX
  5
20EE
  8
241
 10
18.593900000000001
 20
4.2460899999999979
 30
0.0
 70
    32
  0
VERTEX
  5
20EF
  8
241
 10
18.638999999999999
 20
4.3044500000000001
 30
0.0
 70
    32
  0
VERTEX
  5
20F0
  8
241
 10
18.683199999999999
 20
4.3633699999999971
 30
0.0
 70
    32
  0
VERTEX
  5
20F1
  8
241
 10
18.726400000000002
 20
4.4228199999999971
 30
0.0
 70
    32
  0
VERTEX
  5
20F2
  8
241
 10
18.768799999999999
 20
4.4828099999999971
 30
0.0
 70
    32
  0
VERTEX
  5
20F3
  8
241
 10
18.810300000000002
 20
4.5433300000000001
 30
0.0
 70
    32
  0
VERTEX
  5
20F4
  8
241
 10
18.8508
 20
4.604359999999998
 30
0.0
 70
    32
  0
VERTEX
  5
20F5
  8
241
 10
18.8904
 20
4.6659100000000002
 30
0.0
 70
    32
  0
VERTEX
  5
20F6
  8
241
 10
18.928999999999998
 20
4.7279599999999986
 30
0.0
 70
    32
  0
VERTEX
  5
20F7
  8
241
 10
18.9666
 20
4.7905100000000003
 30
0.0
 70
    32
  0
VERTEX
  5
20F8
  8
241
 10
19.003299999999999
 20
4.8535399999999971
 30
0.0
 70
    32
  0
VERTEX
  5
20F9
  8
241
 10
19.038900000000002
 20
4.9170600000000002
 30
0.0
 70
    32
  0
VERTEX
  5
20FA
  8
241
 10
19.073499999999999
 20
4.9810600000000003
 30
0.0
 70
    32
  0
VERTEX
  5
20FB
  8
241
 10
19.107099999999999
 20
5.045519999999998
 30
0.0
 70
    32
  0
VERTEX
  5
20FC
  8
241
 10
19.139700000000001
 20
5.1104399999999979
 30
0.0
 70
    32
  0
VERTEX
  5
20FD
  8
241
 10
19.171099999999999
 20
5.1758100000000002
 30
0.0
 70
    32
  0
VERTEX
  5
20FE
  8
241
 10
19.201499999999999
 20
5.241629999999998
 30
0.0
 70
    32
  0
VERTEX
  5
20FF
  8
241
 10
19.230899999999998
 20
5.3078900000000004
 30
0.0
 70
    32
  0
VERTEX
  5
2100
  8
241
 10
19.2591
 20
5.374579999999999
 30
0.0
 70
    32
  0
VERTEX
  5
2101
  8
241
 10
19.286200000000001
 20
5.4416799999999981
 30
0.0
 70
    32
  0
VERTEX
  5
2102
  8
241
 10
19.3124
 20
5.5091499999999991
 30
0.0
 70
    32
  0
VERTEX
  5
2103
  8
241
 10
19.337700000000002
 20
5.5769500000000001
 30
0.0
 70
    32
  0
VERTEX
  5
2104
  8
241
 10
19.362300000000001
 20
5.6450399999999981
 30
0.0
 70
    32
  0
VERTEX
  5
2105
  8
241
 10
19.386199999999999
 20
5.7133700000000003
 30
0.0
 70
    32
  0
VERTEX
  5
2106
  8
241
 10
19.409600000000001
 20
5.7819099999999981
 30
0.0
 70
    32
  0
VERTEX
  5
2107
  8
241
 10
19.432600000000001
 20
5.8506199999999993
 30
0.0
 70
    32
  0
VERTEX
  5
2108
  8
241
 10
19.455300000000001
 20
5.9194500000000003
 30
0.0
 70
    32
  0
VERTEX
  5
2109
  8
241
 10
19.477699999999999
 20
5.9883600000000001
 30
0.0
 70
    32
  0
VERTEX
  5
210A
  8
241
 10
19.5
 20
6.0573100000000002
 30
0.0
 70
    32
  0
SEQEND
  5
210B
  8
241
  0
LINE
  5
210C
  8
241
 10
7.6000001281499854
 20
-9.7076465743856488
 30
0.0
 11
12.39780616015196
 21
-13.225468846750861
 31
0.0
  0
LINE
  5
210D
  8
241
 10
12.39780616015196
 20
-13.225468846750861
 30
0.0
 11
13.0000002682209
 21
-13.54277007867614
 31
0.0
  0
LINE
  5
210E
  8
241
 10
19.066099999999999
 20
-10.079000000000001
 30
0.0
 11
14.304107986390591
 21
-13.57767030342117
 31
0.0
  0
LINE
  5
210F
  8
241
 10
19.066099999999999
 20
-10.079000000000001
 30
0.0
 11
19.500000402331349
 21
-9.4011928875959239
 31
0.0
  0
POLYLINE
  5
2110
  8
241
 66
     1
 10
0.0
 20
0.0
 30
0.0
 70
     8
  0
VERTEX
  5
2111
  8
241
 10
7.2360399999999983
 20
-12.102399999999999
 30
0.0
 70
    32
  0
VERTEX
  5
2112
  8
241
 10
7.2254699999999961
 20
-12.124000000000001
 30
0.0
 70
    32
  0
VERTEX
  5
2113
  8
241
 10
7.2149000000000001
 20
-12.1456
 30
0.0
 70
    32
  0
VERTEX
  5
2114
  8
241
 10
7.2043399999999993
 20
-12.167199999999999
 30
0.0
 70
    32
  0
VERTEX
  5
2115
  8
241
 10
7.1938000000000004
 20
-12.188800000000001
 30
0.0
 70
    32
  0
VERTEX
  5
2116
  8
241
 10
7.1832700000000003
 20
-12.2105
 30
0.0
 70
    32
  0
VERTEX
  5
2117
  8
241
 10
7.1727800000000004
 20
-12.232100000000001
 30
0.0
 70
    32
  0
VERTEX
  5
2118
  8
241
 10
7.162309999999998
 20
-12.2537
 30
0.0
 70
    32
  0
VERTEX
  5
2119
  8
241
 10
7.1518699999999971
 20
-12.2753
 30
0.0
 70
    32
  0
VERTEX
  5
211A
  8
241
 10
7.1414799999999987
 20
-12.296900000000001
 30
0.0
 70
    32
  0
VERTEX
  5
211B
  8
241
 10
7.131129999999998
 20
-12.3186
 30
0.0
 70
    32
  0
VERTEX
  5
211C
  8
241
 10
7.120829999999998
 20
-12.340199999999999
 30
0.0
 70
    32
  0
VERTEX
  5
211D
  8
241
 10
7.1105799999999979
 20
-12.361800000000001
 30
0.0
 70
    32
  0
VERTEX
  5
211E
  8
241
 10
7.1003899999999991
 20
-12.3834
 30
0.0
 70
    32
  0
VERTEX
  5
211F
  8
241
 10
7.0902700000000003
 20
-12.404999999999999
 30
0.0
 70
    32
  0
VERTEX
  5
2120
  8
241
 10
7.080210000000001
 20
-12.426600000000001
 30
0.0
 70
    32
  0
VERTEX
  5
2121
  8
241
 10
7.0702299999999987
 20
-12.4482
 30
0.0
 70
    32
  0
VERTEX
  5
2122
  8
241
 10
7.0603300000000004
 20
-12.469799999999999
 30
0.0
 70
    32
  0
VERTEX
  5
2123
  8
241
 10
7.0505100000000001
 20
-12.4915
 30
0.0
 70
    32
  0
VERTEX
  5
2124
  8
241
 10
7.040779999999998
 20
-12.5131
 30
0.0
 70
    32
  0
VERTEX
  5
2125
  8
241
 10
7.0311500000000002
 20
-12.534700000000001
 30
0.0
 70
    32
  0
VERTEX
  5
2126
  8
241
 10
7.021609999999999
 20
-12.5563
 30
0.0
 70
    32
  0
VERTEX
  5
2127
  8
241
 10
7.0121799999999981
 20
-12.5779
 30
0.0
 70
    32
  0
VERTEX
  5
2128
  8
241
 10
7.0028499999999987
 20
-12.599500000000001
 30
0.0
 70
    32
  0
VERTEX
  5
2129
  8
241
 10
6.9936399999999992
 20
-12.6211
 30
0.0
 70
    32
  0
VERTEX
  5
212A
  8
241
 10
6.9845499999999987
 20
-12.6426
 30
0.0
 70
    32
  0
VERTEX
  5
212B
  8
241
 10
6.975579999999999
 20
-12.664199999999999
 30
0.0
 70
    32
  0
VERTEX
  5
212C
  8
241
 10
6.966739999999997
 20
-12.6858
 30
0.0
 70
    32
  0
VERTEX
  5
212D
  8
241
 10
6.958029999999999
 20
-12.7074
 30
0.0
 70
    32
  0
VERTEX
  5
212E
  8
241
 10
6.9494600000000002
 20
-12.728999999999999
 30
0.0
 70
    32
  0
VERTEX
  5
212F
  8
241
 10
6.9410399999999992
 20
-12.7506
 30
0.0
 70
    32
  0
VERTEX
  5
2130
  8
241
 10
6.93276
 20
-12.7721
 30
0.0
 70
    32
  0
VERTEX
  5
2131
  8
241
 10
6.9246299999999987
 20
-12.793699999999999
 30
0.0
 70
    32
  0
VERTEX
  5
2132
  8
241
 10
6.9166699999999981
 20
-12.815300000000001
 30
0.0
 70
    32
  0
VERTEX
  5
2133
  8
241
 10
6.908859999999998
 20
-12.8369
 30
0.0
 70
    32
  0
VERTEX
  5
2134
  8
241
 10
6.9012199999999986
 20
-12.8584
 30
0.0
 70
    32
  0
VERTEX
  5
2135
  8
241
 10
6.8937600000000003
 20
-12.880000000000001
 30
0.0
 70
    32
  0
VERTEX
  5
2136
  8
241
 10
6.8864700000000001
 20
-12.9015
 30
0.0
 70
    32
  0
VERTEX
  5
2137
  8
241
 10
6.8793699999999971
 20
-12.9231
 30
0.0
 70
    32
  0
VERTEX
  5
2138
  8
241
 10
6.8724499999999971
 20
-12.944599999999999
 30
0.0
 70
    32
  0
VERTEX
  5
2139
  8
241
 10
6.8657300000000001
 20
-12.966200000000001
 30
0.0
 70
    32
  0
VERTEX
  5
213A
  8
241
 10
6.8592000000000004
 20
-12.9877
 30
0.0
 70
    32
  0
VERTEX
  5
213B
  8
241
 10
6.8528799999999981
 20
-13.0093
 30
0.0
 70
    32
  0
VERTEX
  5
213C
  8
241
 10
6.846759999999998
 20
-13.030799999999999
 30
0.0
 70
    32
  0
VERTEX
  5
213D
  8
241
 10
6.840849999999997
 20
-13.052300000000001
 30
0.0
 70
    32
  0
VERTEX
  5
213E
  8
241
 10
6.8351699999999971
 20
-13.0739
 30
0.0
 70
    32
  0
VERTEX
  5
213F
  8
241
 10
6.8296999999999981
 20
-13.0954
 30
0.0
 70
    32
  0
VERTEX
  5
2140
  8
241
 10
6.8244600000000002
 20
-13.116899999999999
 30
0.0
 70
    32
  0
VERTEX
  5
2141
  8
241
 10
6.8194600000000003
 20
-13.138400000000001
 30
0.0
 70
    32
  0
VERTEX
  5
2142
  8
241
 10
6.8146800000000001
 20
-13.1599
 30
0.0
 70
    32
  0
VERTEX
  5
2143
  8
241
 10
6.810159999999998
 20
-13.1814
 30
0.0
 70
    32
  0
VERTEX
  5
2144
  8
241
 10
6.8058699999999988
 20
-13.2029
 30
0.0
 70
    32
  0
VERTEX
  5
2145
  8
241
 10
6.8018400000000003
 20
-13.224399999999999
 30
0.0
 70
    32
  0
VERTEX
  5
2146
  8
241
 10
6.7980700000000001
 20
-13.245900000000001
 30
0.0
 70
    32
  0
VERTEX
  5
2147
  8
241
 10
6.7945599999999979
 20
-13.2674
 30
0.0
 70
    32
  0
VERTEX
  5
2148
  8
241
 10
6.7913100000000002
 20
-13.2889
 30
0.0
 70
    32
  0
VERTEX
  5
2149
  8
241
 10
6.788339999999998
 20
-13.3103
 30
0.0
 70
    32
  0
VERTEX
  5
214A
  8
241
 10
6.785639999999999
 20
-13.331799999999999
 30
0.0
 70
    32
  0
VERTEX
  5
214B
  8
241
 10
6.78322
 20
-13.353300000000001
 30
0.0
 70
    32
  0
VERTEX
  5
214C
  8
241
 10
6.7810899999999981
 20
-13.374700000000001
 30
0.0
 70
    32
  0
VERTEX
  5
214D
  8
241
 10
6.7792500000000002
 20
-13.3962
 30
0.0
 70
    32
  0
VERTEX
  5
214E
  8
241
 10
6.777709999999999
 20
-13.4176
 30
0.0
 70
    32
  0
VERTEX
  5
214F
  8
241
 10
6.7764699999999971
 20
-13.439
 30
0.0
 70
    32
  0
VERTEX
  5
2150
  8
241
 10
6.7755199999999993
 20
-13.4605
 30
0.0
 70
    32
  0
VERTEX
  5
2151
  8
241
 10
6.7748600000000003
 20
-13.4819
 30
0.0
 70
    32
  0
VERTEX
  5
2152
  8
241
 10
6.7744999999999971
 20
-13.503299999999999
 30
0.0
 70
    32
  0
VERTEX
  5
2153
  8
241
 10
6.7744200000000001
 20
-13.524699999999999
 30
0.0
 70
    32
  0
VERTEX
  5
2154
  8
241
 10
6.7746300000000002
 20
-13.546099999999999
 30
0.0
 70
    32
  0
VERTEX
  5
2155
  8
241
 10
6.7751200000000003
 20
-13.567500000000001
 30
0.0
 70
    32
  0
VERTEX
  5
2156
  8
241
 10
6.7758899999999986
 20
-13.588900000000001
 30
0.0
 70
    32
  0
VERTEX
  5
2157
  8
241
 10
6.7769300000000001
 20
-13.610300000000001
 30
0.0
 70
    32
  0
VERTEX
  5
2158
  8
241
 10
6.7782400000000003
 20
-13.6317
 30
0.0
 70
    32
  0
VERTEX
  5
2159
  8
241
 10
6.7798199999999991
 20
-13.6531
 30
0.0
 70
    32
  0
VERTEX
  5
215A
  8
241
 10
6.7816700000000001
 20
-13.6745
 30
0.0
 70
    32
  0
VERTEX
  5
215B
  8
241
 10
6.7837800000000001
 20
-13.6959
 30
0.0
 70
    32
  0
VERTEX
  5
215C
  8
241
 10
6.7861500000000001
 20
-13.7172
 30
0.0
 70
    32
  0
VERTEX
  5
215D
  8
241
 10
6.78878
 20
-13.7386
 30
0.0
 70
    32
  0
VERTEX
  5
215E
  8
241
 10
6.7916600000000003
 20
-13.7599
 30
0.0
 70
    32
  0
VERTEX
  5
215F
  8
241
 10
6.7948000000000004
 20
-13.7813
 30
0.0
 70
    32
  0
VERTEX
  5
2160
  8
241
 10
6.7981800000000003
 20
-13.8026
 30
0.0
 70
    32
  0
VERTEX
  5
2161
  8
241
 10
6.8018000000000001
 20
-13.824
 30
0.0
 70
    32
  0
VERTEX
  5
2162
  8
241
 10
6.8056700000000001
 20
-13.8453
 30
0.0
 70
    32
  0
VERTEX
  5
2163
  8
241
 10
6.8097700000000003
 20
-13.8667
 30
0.0
 70
    32
  0
VERTEX
  5
2164
  8
241
 10
6.8141100000000003
 20
-13.888
 30
0.0
 70
    32
  0
VERTEX
  5
2165
  8
241
 10
6.8186799999999987
 20
-13.9093
 30
0.0
 70
    32
  0
VERTEX
  5
2166
  8
241
 10
6.8234799999999991
 20
-13.9306
 30
0.0
 70
    32
  0
VERTEX
  5
2167
  8
241
 10
6.8285099999999987
 20
-13.9519
 30
0.0
 70
    32
  0
VERTEX
  5
2168
  8
241
 10
6.8337599999999981
 20
-13.9733
 30
0.0
 70
    32
  0
VERTEX
  5
2169
  8
241
 10
6.8392299999999979
 20
-13.9946
 30
0.0
 70
    32
  0
VERTEX
  5
216A
  8
241
 10
6.8449200000000001
 20
-14.0159
 30
0.0
 70
    32
  0
VERTEX
  5
216B
  8
241
 10
6.850819999999997
 20
-14.0372
 30
0.0
 70
    32
  0
VERTEX
  5
216C
  8
241
 10
6.8569300000000002
 20
-14.0585
 30
0.0
 70
    32
  0
VERTEX
  5
216D
  8
241
 10
6.8632499999999981
 20
-14.079700000000001
 30
0.0
 70
    32
  0
VERTEX
  5
216E
  8
241
 10
6.8697800000000004
 20
-14.101000000000001
 30
0.0
 70
    32
  0
VERTEX
  5
216F
  8
241
 10
6.8765000000000001
 20
-14.122299999999999
 30
0.0
 70
    32
  0
VERTEX
  5
2170
  8
241
 10
6.8834299999999979
 20
-14.143599999999999
 30
0.0
 70
    32
  0
VERTEX
  5
2171
  8
241
 10
6.8905500000000002
 20
-14.164899999999999
 30
0.0
 70
    32
  0
VERTEX
  5
2172
  8
241
 10
6.8978599999999979
 20
-14.1861
 30
0.0
 70
    32
  0
VERTEX
  5
2173
  8
241
 10
6.9053599999999991
 20
-14.2074
 30
0.0
 70
    32
  0
VERTEX
  5
2174
  8
241
 10
6.9130500000000001
 20
-14.2287
 30
0.0
 70
    32
  0
VERTEX
  5
2175
  8
241
 10
6.9209300000000002
 20
-14.2499
 30
0.0
 70
    32
  0
VERTEX
  5
2176
  8
241
 10
6.9289800000000001
 20
-14.2712
 30
0.0
 70
    32
  0
VERTEX
  5
2177
  8
241
 10
6.9372100000000003
 20
-14.292400000000001
 30
0.0
 70
    32
  0
VERTEX
  5
2178
  8
241
 10
6.9456100000000003
 20
-14.313700000000001
 30
0.0
 70
    32
  0
VERTEX
  5
2179
  8
241
 10
6.954189999999997
 20
-14.334899999999999
 30
0.0
 70
    32
  0
VERTEX
  5
217A
  8
241
 10
6.9629300000000001
 20
-14.356199999999999
 30
0.0
 70
    32
  0
VERTEX
  5
217B
  8
241
 10
6.9718400000000003
 20
-14.3774
 30
0.0
 70
    32
  0
VERTEX
  5
217C
  8
241
 10
6.980909999999998
 20
-14.3986
 30
0.0
 70
    32
  0
VERTEX
  5
217D
  8
241
 10
6.9901400000000002
 20
-14.4199
 30
0.0
 70
    32
  0
VERTEX
  5
217E
  8
241
 10
6.99953
 20
-14.4411
 30
0.0
 70
    32
  0
VERTEX
  5
217F
  8
241
 10
7.0090699999999986
 20
-14.462300000000001
 30
0.0
 70
    32
  0
VERTEX
  5
2180
  8
241
 10
7.018749999999998
 20
-14.483599999999999
 30
0.0
 70
    32
  0
VERTEX
  5
2181
  8
241
 10
7.0285899999999986
 20
-14.504799999999999
 30
0.0
 70
    32
  0
VERTEX
  5
2182
  8
241
 10
7.0385699999999991
 20
-14.526
 30
0.0
 70
    32
  0
VERTEX
  5
2183
  8
241
 10
7.048689999999997
 20
-14.5472
 30
0.0
 70
    32
  0
VERTEX
  5
2184
  8
241
 10
7.0589399999999971
 20
-14.5684
 30
0.0
 70
    32
  0
VERTEX
  5
2185
  8
241
 10
7.069329999999999
 20
-14.589600000000001
 30
0.0
 70
    32
  0
VERTEX
  5
2186
  8
241
 10
7.07986
 20
-14.610799999999999
 30
0.0
 70
    32
  0
VERTEX
  5
2187
  8
241
 10
7.0905100000000001
 20
-14.632
 30
0.0
 70
    32
  0
VERTEX
  5
2188
  8
241
 10
7.10128
 20
-14.6532
 30
0.0
 70
    32
  0
VERTEX
  5
2189
  8
241
 10
7.1121800000000004
 20
-14.6744
 30
0.0
 70
    32
  0
VERTEX
  5
218A
  8
241
 10
7.1231999999999971
 20
-14.695600000000001
 30
0.0
 70
    32
  0
VERTEX
  5
218B
  8
241
 10
7.1343300000000003
 20
-14.716799999999999
 30
0.0
 70
    32
  0
VERTEX
  5
218C
  8
241
 10
7.145579999999998
 20
-14.738
 30
0.0
 70
    32
  0
VERTEX
  5
218D
  8
241
 10
7.1569399999999987
 20
-14.7592
 30
0.0
 70
    32
  0
VERTEX
  5
218E
  8
241
 10
7.1684000000000001
 20
-14.7804
 30
0.0
 70
    32
  0
VERTEX
  5
218F
  8
241
 10
7.1799699999999991
 20
-14.801600000000001
 30
0.0
 70
    32
  0
VERTEX
  5
2190
  8
241
 10
7.1916399999999987
 20
-14.822800000000001
 30
0.0
 70
    32
  0
VERTEX
  5
2191
  8
241
 10
7.2034000000000002
 20
-14.843999999999999
 30
0.0
 70
    32
  0
VERTEX
  5
2192
  8
241
 10
7.2152699999999959
 20
-14.8651
 30
0.0
 70
    32
  0
VERTEX
  5
2193
  8
241
 10
7.2272199999999982
 20
-14.8863
 30
0.0
 70
    32
  0
VERTEX
  5
2194
  8
241
 10
7.2392599999999989
 20
-14.907500000000001
 30
0.0
 70
    32
  0
VERTEX
  5
2195
  8
241
 10
7.2513899999999989
 20
-14.928699999999999
 30
0.0
 70
    32
  0
VERTEX
  5
2196
  8
241
 10
7.2636000000000003
 20
-14.9498
 30
0.0
 70
    32
  0
VERTEX
  5
2197
  8
241
 10
7.275889999999996
 20
-14.971
 30
0.0
 70
    32
  0
VERTEX
  5
2198
  8
241
 10
7.2882499999999988
 20
-14.9922
 30
0.0
 70
    32
  0
VERTEX
  5
2199
  8
241
 10
7.3006899999999959
 20
-15.013400000000001
 30
0.0
 70
    32
  0
VERTEX
  5
219A
  8
241
 10
7.3132000000000001
 20
-15.0345
 30
0.0
 70
    32
  0
VERTEX
  5
219B
  8
241
 10
7.3257799999999982
 20
-15.0557
 30
0.0
 70
    32
  0
VERTEX
  5
219C
  8
241
 10
7.3384199999999984
 20
-15.0769
 30
0.0
 70
    32
  0
VERTEX
  5
219D
  8
241
 10
7.3511199999999981
 20
-15.098000000000001
 30
0.0
 70
    32
  0
VERTEX
  5
219E
  8
241
 10
7.3638799999999982
 20
-15.119199999999999
 30
0.0
 70
    32
  0
VERTEX
  5
219F
  8
241
 10
7.3766899999999982
 20
-15.1404
 30
0.0
 70
    32
  0
VERTEX
  5
21A0
  8
241
 10
7.3895600000000004
 20
-15.1615
 30
0.0
 70
    32
  0
VERTEX
  5
21A1
  8
241
 10
7.4024799999999971
 20
-15.182700000000001
 30
0.0
 70
    32
  0
VERTEX
  5
21A2
  8
241
 10
7.4154399999999958
 20
-15.203799999999999
 30
0.0
 70
    32
  0
VERTEX
  5
21A3
  8
241
 10
7.4284399999999984
 20
-15.225
 30
0.0
 70
    32
  0
VERTEX
  5
21A4
  8
241
 10
7.4414800000000003
 20
-15.2461
 30
0.0
 70
    32
  0
VERTEX
  5
21A5
  8
241
 10
7.4545699999999959
 20
-15.267300000000001
 30
0.0
 70
    32
  0
VERTEX
  5
21A6
  8
241
 10
7.4676799999999979
 20
-15.288500000000001
 30
0.0
 70
    32
  0
VERTEX
  5
21A7
  8
241
 10
7.480819999999996
 20
-15.3096
 30
0.0
 70
    32
  0
VERTEX
  5
21A8
  8
241
 10
7.4939999999999989
 20
-15.3308
 30
0.0
 70
    32
  0
VERTEX
  5
21A9
  8
241
 10
7.507189999999996
 20
-15.351900000000001
 30
0.0
 70
    32
  0
VERTEX
  5
21AA
  8
241
 10
7.52041
 20
-15.373100000000001
 30
0.0
 70
    32
  0
VERTEX
  5
21AB
  8
241
 10
7.5336499999999988
 20
-15.3942
 30
0.0
 70
    32
  0
VERTEX
  5
21AC
  8
241
 10
7.5468999999999982
 20
-15.4154
 30
0.0
 70
    32
  0
VERTEX
  5
21AD
  8
241
 10
7.5601599999999989
 20
-15.436500000000001
 30
0.0
 70
    32
  0
VERTEX
  5
21AE
  8
241
 10
7.5734399999999988
 20
-15.457700000000001
 30
0.0
 70
    32
  0
VERTEX
  5
21AF
  8
241
 10
7.5867199999999988
 20
-15.4788
 30
0.0
 70
    32
  0
VERTEX
  5
21B0
  8
241
 10
7.5999999999999988
 20
-15.5
 30
0.0
 70
    32
  0
SEQEND
  5
21B1
  8
241
  0
LINE
  5
21B2
  8
240
 10
7.5999999999999988
 20
-15.5
 30
0.0
 11
13.0
 21
-20.313300000000002
 31
0.0
  0
LINE
  5
21B3
  8
240
 10
19.500000402331349
 20
-15.50147983194972
 30
0.0
 11
14.199999999999999
 21
-20.313300000000002
 31
0.0
  0
LINE
  5
21B4
  8
240
 10
19.5
 20
15.6
 30
0.0
 11
14.20000055804851
 21
20.31326764697155
 31
0.0
  0
LINE
  5
21B5
  8
240
 10
13.00000026822093
 20
20.31326764697155
 30
0.0
 11
7.600000128150012
 21
15.5
 31
0.0
  0
LINE
  5
21B6
  8
240
 10
7.600000128150012
 20
15.5
 30
0.0
 11
0.0
 21
15.500000082440319
 31
0.0
  0
LINE
  5
21B7
  8
240
 10
7.5999999999999979
 20
-15.5
 30
0.0
 11
0.0
 21
-15.5
 31
0.0
  0
VIEWPORT
  5
22
 67
     1
  8
0
 10
261.51769911504419
 20
148.5
 30
0.0
 40
523.0353982300885
 41
297.0
 68
     1
 69
     1
1001
ACAD
1000
MVIEW
1002
{
1070
    16
1010
0.0
1020
0.0
1030
0.0
1010
0.0
1020
0.0
1030
1.0
1040
0.0
1040
297.0
1040
261.51769911504419
1040
148.5
1040
50.0
1040
0.0
1040
0.0
1070
     0
1070
   100
1070
     1
1070
     1
1070
     0
1070
     0
1070
     0
1070
     0
1040
0.0
1040
0.0
1040
0.0
1040
1.0
1040
1.0
1040
10.0
1040
10.0
1070
     0
1002
{
1002
}
1002
}
1001
GENIUS_GENODEF_13
1002
{
1000
HIER
1070
     0
1002
}
1002
{
1000
MANEDIT
1070
     0
1002
}
1002
{
1000
NOSEL
1070
     0
1002
}
1002
{
1000
BEHIND
1070
     0
1002
}
1002
{
1000
OTHER
1070
     0
1002
}
1002
{
1000
REACTOR
1002
}
1001
GENIUS_GENOBJ-N-SDF_13
1002
{
1000
OWNER
1000
GEN
1002
}
1001
GENIUS_GENSCREG_15
1000
PF
1040
1.0
1000
DF
1040
1.0
1000
MIN
1011
0.0
1021
0.0
1031
0.0
1021
0.0
1031
0.0
1000
MAX
1011
523.0353982300885
1021
0.0
1031
0.0
1021
297.0
1031
0.0
1000
FLAGS
1070
     2
  0
ENDSEC
  0
EOF
