  0
SECTION
  2
HEADER
  9
$ACADVER
  1
AC1009
  9
$INSBASE
 10
0.0
 20
0.0
 30
0.0
  9
$EXTMIN
 10
-28.62998980791351
 20
-15.077155217703069
 30
0.0
  9
$EXTMAX
 10
42.999996160254561
 20
47.000000000000007
 30
0.0
  9
$LIMMIN
 10
0.0
 20
0.0
  9
$LIMMAX
 10
297.0
 20
210.0
  9
$ORTHOMODE
 70
     0
  9
$REGENMODE
 70
     1
  9
$FILLMODE
 70
     1
  9
$QTEXTMODE
 70
     0
  9
$MIRRTEXT
 70
     1
  9
$DRAGMODE
 70
     2
  9
$LTSCALE
 40
10.0
  9
$OSMODE
 70
  3071
  9
$ATTMODE
 70
     1
  9
$TEXTSIZE
 40
3.0
  9
$TRACEWID
 40
1.0
  9
$TEXTSTYLE
  7
YOKO
  9
$CLAYER
  8
240
  9
$CELTYPE
  6
BYLAYER
  9
$CECOLOR
 62
   256
  9
$DIMSCALE
 40
1.0
  9
$DIMASZ
 40
2.2299999999999991
  9
$DIMEXO
 40
0.5
  9
$DIMDLI
 40
2.5
  9
$DIMRND
 40
0.0
  9
$DIMDLE
 40
0.0
  9
$DIMEXE
 40
1.0
  9
$DIMTP
 40
0.0
  9
$DIMTM
 40
0.0
  9
$DIMTXT
 40
3.0
  9
$DIMCEN
 40
0.0
  9
$DIMTSZ
 40
0.0
  9
$DIMTOL
 70
     0
  9
$DIMLIM
 70
     0
  9
$DIMTIH
 70
     0
  9
$DIMTOH
 70
     0
  9
$DIMSE1
 70
     0
  9
$DIMSE2
 70
     0
  9
$DIMTAD
 70
     3
  9
$DIMZIN
 70
     8
  9
$DIMBLK
  1
OPEN
  9
$DIMASO
 70
     1
  9
$DIMSHO
 70
     1
  9
$DIMPOST
  1

  9
$DIMAPOST
  1

  9
$DIMALT
 70
     0
  9
$DIMALTD
 70
     2
  9
$DIMALTF
 40
25.399999999999999
  9
$DIMLFAC
 40
1.0
  9
$DIMTOFL
 70
     1
  9
$DIMTVP
 40
0.0
  9
$DIMTIX
 70
     0
  9
$DIMSOXD
 70
     0
  9
$DIMSAH
 70
     0
  9
$DIMBLK1
  1

  9
$DIMBLK2
  1

  9
$DIMSTYLE
  2
BIGT
  9
$DIMCLRD
 70
   256
  9
$DIMCLRE
 70
   256
  9
$DIMCLRT
 70
    40
  9
$DIMTFAC
 40
1.0
  9
$DIMGAP
 40
1.0
  9
$LUNITS
 70
     2
  9
$LUPREC
 70
     2
  9
$SKETCHINC
 40
1.0
  9
$FILLETRAD
 40
0.0
  9
$AUNITS
 70
     0
  9
$AUPREC
 70
     3
  9
$MENU
  1
.
  9
$ELEVATION
 40
0.0
  9
$PELEVATION
 40
0.0
  9
$THICKNESS
 40
0.0
  9
$LIMCHECK
 70
     0
  9
$BLIPMODE
 70
     0
  9
$CHAMFERA
 40
10.0
  9
$CHAMFERB
 40
10.0
  9
$SKPOLY
 70
     0
  9
$TDCREATE
 40
2452366.5731224651
  9
$TDUPDATE
 40
2455812.57662088
  9
$TDINDWG
 40
0.0277319444
  9
$TDUSRTIMER
 40
0.0277317593
  9
$USRTIMER
 70
     1
  9
$ANGBASE
 50
0.0
  9
$ANGDIR
 70
     0
  9
$PDMODE
 70
    35
  9
$PDSIZE
 40
2.0
  9
$PLINEWID
 40
0.0
  9
$COORDS
 70
     1
  9
$SPLFRAME
 70
     0
  9
$SPLINETYPE
 70
     6
  9
$SPLINESEGS
 70
     8
  9
$ATTDIA
 70
     1
  9
$ATTREQ
 70
     1
  9
$HANDLING
 70
     1
  9
$HANDSEED
  5
1458
  9
$SURFTAB1
 70
     6
  9
$SURFTAB2
 70
     6
  9
$SURFTYPE
 70
     6
  9
$SURFU
 70
     6
  9
$SURFV
 70
     6
  9
$UCSNAME
  2

  9
$UCSORG
 10
0.0
 20
0.0
 30
0.0
  9
$UCSXDIR
 10
1.0
 20
0.0
 30
0.0
  9
$UCSYDIR
 10
0.0
 20
1.0
 30
0.0
  9
$PUCSNAME
  2

  9
$PUCSORG
 10
0.0
 20
0.0
 30
0.0
  9
$PUCSXDIR
 10
1.0
 20
0.0
 30
0.0
  9
$PUCSYDIR
 10
0.0
 20
1.0
 30
0.0
  9
$USERI1
 70
     1
  9
$USERI2
 70
     0
  9
$USERI3
 70
     0
  9
$USERI4
 70
     0
  9
$USERI5
 70
     0
  9
$USERR1
 40
0.0
  9
$USERR2
 40
0.0
  9
$USERR3
 40
0.0
  9
$USERR4
 40
0.0
  9
$USERR5
 40
0.0
  9
$WORLDVIEW
 70
     1
  9
$SHADEDGE
 70
     3
  9
$SHADEDIF
 70
    70
  9
$TILEMODE
 70
     1
  9
$MAXACTVP
 70
    16
  9
$PLIMCHECK
 70
     0
  9
$PEXTMIN
 10
1.0000000000000000E+020
 20
1.0000000000000000E+020
 30
1.0000000000000000E+020
  9
$PEXTMAX
 10
-1.0000000000000000E+020
 20
-1.0000000000000000E+020
 30
-1.0000000000000000E+020
  9
$PLIMMIN
 10
0.0
 20
0.0
  9
$PLIMMAX
 10
420.0
 20
297.0
  9
$UNITMODE
 70
     0
  9
$VISRETAIN
 70
     0
  9
$PLINEGEN
 70
     0
  9
$PSLTSCALE
 70
     1
  0
ENDSEC
  0
SECTION
  2
TABLES
  0
TABLE
  2
VPORT
 70
     1
  0
VPORT
  2
*ACTIVE
 70
     0
 10
0.0
 20
0.0
 11
1.0
 21
1.0
 12
7.1845397107216513
 22
15.96299610346099
 13
0.0
 23
0.0
 14
7.0
 24
7.0
 15
7.0
 25
7.0
 16
0.0
 26
0.0
 36
1.0
 17
0.0
 27
0.0
 37
0.0
 40
62.591686143961979
 41
1.8471023427866831
 42
50.0
 43
0.0
 44
0.0
 50
0.0
 51
0.0
 71
     0
 72
  2000
 73
     1
 74
     0
 75
     0
 76
     0
 77
     0
 78
     0
  0
ENDTAB
  0
TABLE
  2
LTYPE
 70
    16
  0
LTYPE
  2
CONTINUOUS
 70
     0
  3
Solid line
 72
    65
 73
     0
 40
0.0
  0
LTYPE
  2
CENTER2
 70
     0
  3
___ _ ___ _ ___ _ ___ _ ___ _ ___ _ ___ _ ___ _
 72
    65
 73
     4
 40
1.125
 49
0.75
 49
-0.125
 49
0.125
 49
-0.125
  0
LTYPE
  2
HIDDEN
 70
     0
  3
Hidden __ __ __ __ __ __ __ __ __ __ __ __ __ _
 72
    65
 73
     2
 40
9.5249999999999986
 49
6.349999999999997
 49
-3.174999999999998
  0
LTYPE
  2
PHANTOM2
 70
     0
  3
Phantom (.5x) ___ _ _ ___ _ _ ___ _ _ ___ _ _
 72
    65
 73
     6
 40
31.75
 49
15.875
 49
-3.174999999999998
 49
3.174999999999998
 49
-3.174999999999998
 49
3.174999999999998
 49
-3.174999999999998
  0
LTYPE
  2
CENTER
 70
     0
  3
Center ____ _ ____ _ ____ _ ____ _ ____ _ ____
 72
    65
 73
     4
 40
50.799999999999997
 49
31.75
 49
-6.349999999999997
 49
6.349999999999997
 49
-6.349999999999997
  0
LTYPE
  2
AMCONSTR
 70
     0
  3
_______________________
 72
    65
 73
     2
 40
9999.0
 49
9999.0
 49
0.0
  0
LTYPE
  2
HIDDEN2
 70
     0
  3
Hidden (.5x) _ _ _ _ _ _ _ _ _ _ _ _ _ _ _ _ _
 72
    65
 73
     2
 40
0.1875
 49
0.125
 49
-0.0625
  0
LTYPE
  2
AMZIGZAG2
 70
     0
  3
/\/-/\/-/\/-/\/-/\/-/\/
 72
    65
 73
     2
 40
0.4401
 49
0.0001
 49
-0.4400000000000002
  0
LTYPE
  2
ACANSTGB
 70
     0
  3
__ . . __ . .
 72
    65
 73
     6
 40
0.35433070866
 49
0.15748031496
 49
-0.03937007874
 49
0.03937007874
 49
-0.03937007874
 49
0.03937007874
 49
-0.03937007874
  0
LTYPE
  2
ACANSTGL
 70
     0
  3
_ _ _ _ _
 72
    65
 73
     2
 40
0.11811023622
 49
0.07874015748
 49
-0.03937007874
  0
ENDTAB
  0
TABLE
  2
LAYER
 70
     6
  0
LAYER
  2
0
 70
     0
 62
     7
  6
CONTINUOUS
  0
LAYER
  2
240
 70
     0
 62
     4
  6
CONTINUOUS
  0
LAYER
  2
241
 70
     0
 62
   211
  6
CONTINUOUS
  0
LAYER
  2
245
 70
     0
 62
     2
  6
CENTER2
  0
LAYER
  2
250
 70
     0
 62
     3
  6
CONTINUOUS
  0
LAYER
  2
DEFPOINTS
 70
     0
 62
     7
  6
CONTINUOUS
  0
ENDTAB
  0
TABLE
  2
STYLE
 70
     5
  0
STYLE
  2
STANDARD
 70
     0
 40
0.0
 41
1.0
 50
0.0
 71
     0
 42
3.0
  3
romans.shx
  4
BIGFONT.SHX
  0
STYLE
  2
YOKO
 70
     0
 40
0.0
 41
1.0
 50
0.0
 71
     0
 42
3.0
  3
romans.shx
  4
extfont.shx
  0
STYLE
  2
ACANSGDT
 70
     0
 40
0.0
 41
1.0
 50
0.0
 71
     0
 42
3.0
  3
amgdt.shx
  4

  0
ENDTAB
  0
TABLE
  2
VIEW
 70
     0
  0
ENDTAB
  0
TABLE
  2
UCS
 70
     0
  0
ENDTAB
  0
TABLE
  2
APPID
 70
    28
  0
APPID
  2
ACAD
 70
     0
  0
APPID
  2
ACADANNOTATIVE
 70
     0
  0
APPID
  2
GLOBAL
 70
     0
  0
APPID
  2
DETAIL
 70
     0
  0
APPID
  2
GRPNAME
 70
     0
  0
APPID
  2
GPARA
 70
     0
  0
APPID
  2
HATCH_TYPE
 70
     0
  0
APPID
  2
HATCH_DISPLAY
 70
     0
  0
APPID
  2
HATCH_DISTANCE
 70
     0
  0
APPID
  2
ITEMNAME
 70
     0
  0
APPID
  2
MCAD_NO_VIS
 70
     0
  0
APPID
  2
ACAD_TEMP_GRAPHIC
 70
     0
  0
APPID
  2
AD_DRAW
 70
     0
  0
APPID
  2
ACATTRIBSERVICES
 70
     0
  0
APPID
  2
DESIGNERASSEMBLIES
 70
     0
  0
APPID
  2
ACADM_DIM_EDIT
 70
     0
  0
APPID
  2
AMDT_DM_ADJ
 70
     0
  0
APPID
  2
GENIUS_GENSCREG_15
 70
     0
  0
APPID
  2
GENIUS_GENOBJ-N-SDF_13
 70
     0
  0
APPID
  2
GENIUS_GENODEF_13
 70
     0
  0
APPID
  2
ACAD_DSTYLE_DIMJAG
 70
     0
  0
APPID
  2
ACAD_DSTYLE_DIMBREAK
 70
     0
  0
APPID
  2
ACAD_MLEADERVER
 70
     0
  0
APPID
  2
ACAD_DSTYLE_DIMARC_LENGTH_
 70
     0
  0
APPID
  2
ACAD_DSTYLE_DIM_LINETYPE
 70
     0
  0
APPID
  2
ACAD_DSTYLE_DIM_EXT1_LINETYPE
 70
     0
  0
APPID
  2
ACAD_DSTYLE_DIM_EXT2_LINETYPE
 70
     0
  0
APPID
  2
ACAD_EXEMPT_FROM_CAD_STANDARDS
 70
     0
  0
ENDTAB
  0
TABLE
  2
DIMSTYLE
 70
     8
  0
DIMSTYLE
  2
STANDARD
 70
     0
  3

  4

  5

  6

  7

 40
1.0
 41
2.0
 42
2.0
 43
3.75
 44
2.0
 45
0.0
 46
0.0
 47
0.0
 48
0.0
140
4.0
141
0.09
142
0.0
143
25.399999999999999
144
1.0
145
0.0
146
1.0
147
1.0
 71
     0
 72
     0
 73
     1
 74
     1
 75
     0
 76
     0
 77
     0
 78
     8
170
     0
171
     2
172
     0
173
     1
174
     0
175
     0
176
   256
177
   256
178
   256
  0
DIMSTYLE
  2
BIGT
 70
     0
  3

  4

  5

  6

  7

 40
1.0
 41
2.2299999999999991
 42
0.5
 43
2.5
 44
1.0
 45
0.0
 46
0.0
 47
0.0
 48
0.0
140
3.5
141
0.0
142
0.0
143
25.399999999999999
144
1.0
145
0.0
146
1.0
147
1.0
 71
     0
 72
     0
 73
     0
 74
     0
 75
     0
 76
     0
 77
     3
 78
     9
170
     0
171
     2
172
     1
173
     0
174
     0
175
     0
176
   256
177
   256
178
    40
  0
DIMSTYLE
  2
AM_ANSI
 70
     0
  3

  4
mm
  5

  6

  7

 40
1.0
 41
0.12
 42
0.05
 43
0.5
 44
0.1
 45
0.0
 46
0.0
 47
0.1
 48
0.1
140
0.12
141
0.0
142
0.0
143
25.399999999999999
144
1.0
145
0.0
146
0.71
147
0.06
 71
     0
 72
     0
 73
     1
 74
     1
 75
     0
 76
     0
 77
     0
 78
     7
170
     0
171
     2
172
     0
173
     0
174
     0
175
     0
176
   256
177
   256
178
     2
  0
DIMSTYLE
  2
AM_ANSI$3
 70
     0
  3

  4
mm
  5

  6

  7

 40
1.0
 41
0.12
 42
0.05
 43
0.5
 44
0.1
 45
0.0
 46
0.0
 47
0.1
 48
0.1
140
0.12
141
0.0
142
0.0
143
25.399999999999999
144
1.0
145
0.0
146
0.71
147
0.06
 71
     0
 72
     0
 73
     1
 74
     1
 75
     0
 76
     0
 77
     0
 78
     7
170
     0
171
     2
172
     0
173
     0
174
     0
175
     0
176
   256
177
   256
178
     2
  0
DIMSTYLE
  2
AM_ANSI$4
 70
     0
  3

  4
mm
  5

  6

  7

 40
1.0
 41
0.12
 42
0.05
 43
0.5
 44
0.1
 45
0.0
 46
0.0
 47
0.1
 48
0.1
140
0.12
141
0.0
142
0.0
143
25.399999999999999
144
1.0
145
0.0
146
0.71
147
0.06
 71
     0
 72
     0
 73
     1
 74
     1
 75
     0
 76
     0
 77
     0
 78
     7
170
     0
171
     2
172
     0
173
     0
174
     0
175
     0
176
   256
177
   256
178
     2
  0
DIMSTYLE
  2
AM_ANSI$7
 70
     0
  3

  4
mm
  5

  6

  7

 40
1.0
 41
0.12
 42
0.05
 43
0.5
 44
0.1
 45
0.0
 46
0.0
 47
0.1
 48
0.1
140
0.12
141
0.0
142
0.0
143
25.399999999999999
144
1.0
145
0.0
146
0.71
147
0.06
 71
     0
 72
     0
 73
     1
 74
     1
 75
     0
 76
     0
 77
     0
 78
     7
170
     0
171
     2
172
     0
173
     0
174
     0
175
     0
176
   256
177
   256
178
     2
  0
DIMSTYLE
  2
AM_ANSI$SF
 70
     0
  3

  4
mm
  5

  6

  7

 40
1.0
 41
0.12
 42
0.05
 43
0.5
 44
0.1
 45
0.0
 46
0.0
 47
0.1
 48
0.1
140
0.12
141
0.0
142
0.0
143
25.399999999999999
144
1.0
145
0.0
146
0.71
147
0.06
 71
     0
 72
     0
 73
     1
 74
     1
 75
     1
 76
     1
 77
     0
 78
     7
170
     0
171
     2
172
     0
173
     0
174
     0
175
     0
176
   256
177
   256
178
     2
  0
DIMSTYLE
  2
AM_ANSI$SH
 70
     0
  3

  4
mm
  5

  6

  7

 40
1.0
 41
0.12
 42
0.05
 43
0.5
 44
0.1
 45
0.0
 46
0.0
 47
0.1
 48
0.1
140
0.12
141
0.0
142
0.0
143
25.399999999999999
144
1.0
145
0.0
146
0.71
147
0.06
 71
     0
 72
     0
 73
     1
 74
     1
 75
     1
 76
     1
 77
     0
 78
     7
170
     0
171
     2
172
     0
173
     1
174
     0
175
     0
176
   256
177
   256
178
     2
  0
ENDTAB
  0
ENDSEC
  0
SECTION
  2
BLOCKS
  0
BLOCK
  8
0
  2
$MODEL_SPACE
 70
     0
 10
0.0
 20
0.0
 30
0.0
  3
$MODEL_SPACE
  1

  0
ENDBLK
  5
11D7
  8
0
  0
BLOCK
 67
     1
  8
0
  2
$PAPER_SPACE
 70
     0
 10
0.0
 20
0.0
 30
0.0
  3
$PAPER_SPACE
  1

  0
ENDBLK
  5
11D3
 67
     1
  8
0
  0
BLOCK
  8
0
  2
_OPEN
 70
     0
 10
0.0
 20
0.0
 30
0.0
  3
_OPEN
  1

  0
LINE
  5
595
  8
0
  6
BYBLOCK
 62
     0
 10
-1.0
 20
0.1666666666666666
 30
0.0
 11
0.0
 21
0.0
 31
0.0
  0
LINE
  5
596
  8
0
  6
BYBLOCK
 62
     0
 10
-1.0
 20
-0.1666666666666666
 30
0.0
 11
0.0
 21
0.0
 31
0.0
  0
LINE
  5
597
  8
0
  6
BYBLOCK
 62
     0
 10
0.0
 20
0.0
 30
0.0
 11
-1.0
 21
0.0
 31
0.0
  0
ENDBLK
  5
599
  8
0
  0
ENDSEC
  0
SECTION
  2
ENTITIES
  0
TEXT
  5
92C
  8
241
 10
-14.0
 20
42.0
 30
0.0
 40
5.0
  1
CKB2-C0525C
  7
YOKO
 11
-14.0
 21
42.0
 31
0.0
 73
     1
  0
LINE
  5
95B
  8
250
 10
-14.62998980791351
 20
-15.077155217703069
 30
0.0
 11
-28.62998980791351
 21
-15.077155217703069
 31
0.0
1001
ITEMNAME
1000
LNSP2
  0
LINE
  5
C98
  8
250
 10
15.14140432392534
 20
12.50000000000002
 30
0.0
 11
42.999996160254561
 21
12.50000000000002
 31
0.0
  0
LINE
  5
C99
  8
250
 10
41.999996160254568
 20
10.270000000000019
 30
0.0
 11
41.999996160254568
 21
-4.7857160962515604
 31
0.0
  0
LINE
  5
C9C
  8
250
 10
25.141417601665179
 20
2.499999999999984
 30
0.0
 11
35.999997081793708
 21
2.49999999999998
 31
0.0
  0
LINE
  5
C9D
  8
250
 10
34.999997081793708
 20
4.7299999999999791
 30
0.0
 11
34.999997081793708
 21
6.9599999999999822
 31
0.0
  0
LINE
  5
C9F
  8
250
 10
34.999997081793708
 20
2.4999999999999831
 30
0.0
 11
34.999997081793708
 21
-2.5000000000000151
 31
0.0
  0
LINE
  5
CA1
  8
250
 10
0.0
 20
12.00000099999999
 30
0.0
 11
0.0000000000000011
 21
29.0
 31
0.0
  0
LINE
  5
CA2
  8
250
 10
24.99999799999997
 20
2.5585759999999871
 30
0.0
 11
24.99999799999997
 21
29.0
 31
0.0
  0
LINE
  5
CA3
  8
250
 10
2.2299999999999991
 20
28.0
 30
0.0
 11
22.769997999999958
 21
28.0
 31
0.0
  0
TEXT
  5
CA7
  8
250
 10
-26.058561236484952
 20
-14.07715521770308
 30
0.0
 40
3.0
  1
CK2
  7
YOKO
1001
ITEMNAME
1000
LNSP3
1001
ACAD
1000
MTEXTBEGIN
1070
    73
1070
     1
1070
    44
1040
1.0
1070
    74
1070
     0
1000
MTEXTEND
  0
TEXT
  5
CAA
  8
250
 10
34.16536778783847
 20
-3.844463648967948
 30
0.0
 40
3.0
  1
\U+2205
 50
90.0
  0
TEXT
  5
CAB
  8
250
 10
34.16536778783847
 20
-1.130177934682234
 30
0.0
 40
3.0
  1
5
 50
90.0
  0
LINE
  5
CAC
  8
250
 10
-11.403514843759471
 20
-8.7454033171059642
 30
0.0
 11
-9.9666420686862551
 21
-7.0
 31
0.0
  0
LINE
  5
CAD
  8
250
 10
-10.75976929361304
 20
-9.1170699837726303
 30
0.0
 11
-9.9666420686862551
 21
-7.0
 31
0.0
  0
LINE
  5
CAE
  8
250
 10
-9.9666420686862551
 20
-7.0
 30
0.0
 11
-11.08164206868625
 21
-8.9312366504392973
 31
0.0
  0
LINE
  5
CAF
  8
250
 10
-11.08164206868625
 20
-8.931236650439299
 30
0.0
 11
-14.62998980791351
 21
-15.077155217703069
 31
0.0
1001
ACAD
1000
DSTYLE
1002
{
1070
     5
1000
OPEN
1070
    78
1070
     8
1070
   140
1040
3.0
1002
}
  0
LINE
  5
CB0
  8
250
 10
2.2299999999999991
 20
27.62833333333333
 30
0.0
 11
0.000000000000001
 21
28.0
 31
0.0
  0
LINE
  5
CB1
  8
250
 10
2.2299999999999991
 20
28.371666666666659
 30
0.0
 11
0.000000000000001
 21
28.0
 31
0.0
  0
LINE
  5
CB2
  8
250
 10
0.000000000000001
 20
28.0
 30
0.0
 11
2.2299999999999991
 21
28.0
 31
0.0
  0
TEXT
  5
CB3
  8
250
 10
9.6428561428571236
 20
29.0
 30
0.0
 40
3.0
  1
25
1001
ACAD
1000
MTEXTBEGIN
1070
    73
1070
     1
1070
    44
1040
1.0
1070
    74
1070
     0
1000
MTEXTEND
  0
LINE
  5
CB4
  8
250
 10
22.769997999999958
 20
28.371666666666659
 30
0.0
 11
24.99999799999997
 21
28.0
 31
0.0
  0
LINE
  5
CB5
  8
250
 10
22.769997999999958
 20
27.62833333333333
 30
0.0
 11
24.99999799999997
 21
28.0
 31
0.0
  0
LINE
  5
CB6
  8
250
 10
24.99999799999997
 20
28.0
 30
0.0
 11
22.769997999999958
 21
28.0
 31
0.0
  0
TEXT
  5
CB7
  8
250
 10
40.999996160254547
 20
-4.0714303819658388
 30
0.0
 40
3.0
  1
\U+2205
 50
90.0
1001
ACAD
1000
MTEXTBEGIN
1070
    73
1070
     1
1070
    44
1040
1.0
1070
    74
1070
     0
1000
MTEXTEND
  0
TEXT
  5
CB8
  8
250
 10
40.999996160254547
 20
-1.3571446676801271
 30
0.0
 40
3.0
  1
25
 50
90.0
1001
ACAD
1000
MTEXTBEGIN
1070
    73
1070
     1
1070
    44
1040
1.0
1070
    74
1070
     0
1000
MTEXTEND
  0
LINE
  5
CB9
  8
250
 10
35.371663748460371
 20
4.72999999999998
 30
0.0
 11
34.999997081793708
 21
2.4999999999999831
 31
0.0
  0
LINE
  5
CBA
  8
250
 10
34.628330415127053
 20
4.72999999999998
 30
0.0
 11
34.999997081793708
 21
2.4999999999999831
 31
0.0
  0
LINE
  5
CBB
  8
250
 10
34.999997081793708
 20
2.4999999999999831
 30
0.0
 11
34.999997081793708
 21
4.72999999999998
 31
0.0
  0
LINE
  5
CBC
  8
250
 10
41.628329493587891
 20
10.270000000000019
 30
0.0
 11
41.999996160254568
 21
12.50000000000002
 31
0.0
  0
LINE
  5
CBD
  8
250
 10
42.371662826921252
 20
10.270000000000019
 30
0.0
 11
41.999996160254568
 21
12.50000000000002
 31
0.0
  0
LINE
  5
CBE
  8
250
 10
41.999996160254568
 20
12.50000000000002
 30
0.0
 11
41.999996160254568
 21
10.270000000000019
 31
0.0
  0
LINE
  5
EEA
  8
245
 10
-17.117995999999991
 20
0.0
 30
0.0
 11
26.1452397283241
 21
0.0000000000000142
 31
0.0
  0
LINE
  5
EEB
  8
241
 10
18.147235999999989
 20
-0.035020999999972
 30
0.0
 11
24.800000000000011
 21
1.1380370000000231
 31
0.0
  0
LINE
  5
EEC
  8
241
 10
17.680171999999999
 20
0.6000770000000273
 30
0.0
 11
24.835412000000019
 21
1.8617360000000061
 31
0.0
  0
LINE
  5
EED
  8
241
 10
14.397443000000001
 20
12.743961000000009
 30
0.0
 11
24.941420000000019
 21
2.1999980000000221
 31
0.0
  0
LINE
  5
EEE
  8
240
 10
24.653553000000009
 20
-2.1464459999999961
 30
0.0
 11
12.696446000000011
 21
-14.10355299999997
 31
0.0
  0
LINE
  5
EF0
  8
240
 10
-16.0
 20
6.7071799999999371
 30
0.0
 11
-16.0
 21
-6.7071789999999938
 31
0.0
  0
LINE
  5
EF1
  8
241
 10
0.0
 20
7.000000000000056
 30
0.0
 11
0.0
 21
0.0
 31
0.0
  0
LINE
  5
EF2
  8
241
 10
-13.75
 20
7.000000000000056
 30
0.0
 11
-13.749999999999851
 21
-0.0000000000000284
 31
0.0
  0
LINE
  5
EF3
  8
241
 10
-14.65750199999999
 20
6.839983000000017
 30
0.0
 11
-14.657501999999919
 21
-0.0000000000000284
 31
0.0
  0
LINE
  5
EF4
  8
245
 10
-6.50000000000004
 20
-2.8345589999999561
 30
0.0
 11
-6.50000000000004
 21
2.913297
 31
0.0
  0
CIRCLE
  5
EF5
  8
241
 10
-6.50000000000004
 20
0.0
 30
0.0
 40
2.0
  0
CIRCLE
  5
EF6
  8
241
 10
-6.50000000000004
 20
0.0
 30
0.0
 40
2.4954999999999981
  0
ARC
  5
EF7
  8
241
 10
17.452645000000011
 20
3.9042100000000319
 30
0.0
 40
4.0
 50
225.0
 51
279.99997199999962
  0
LINE
  5
EF8
  8
241
 10
13.574812
 20
-1.44240399999998
 30
0.0
 11
14.750178999999999
 21
0.9498220000000399
 31
0.0
  0
LINE
  5
EF9
  8
241
 10
6.5486219999999911
 20
-1.422695000000004
 30
0.0
 11
3.699999000000016
 21
4.2977080000000258
 31
0.0
  0
LINE
  5
EFA
  8
241
 10
3.699999000000016
 20
-12.03656599999996
 30
0.0
 11
3.699999000000016
 21
4.2977080000000258
 31
0.0
  0
LINE
  5
EFB
  8
240
 10
-1.5067447791582509
 20
-7.0
 30
0.0
 11
0.0000000000000995
 21
-6.9999999999997282
 31
0.0
  0
LINE
  5
EFC
  8
240
 10
-13.75
 20
-7.0
 30
0.0
 11
-6.4932552208417436
 21
-7.0
 31
0.0
  0
LINE
  5
EFD
  8
241
 10
-13.75
 20
-7.0
 30
0.0
 11
-13.75
 21
-0.0000000000000284
 31
0.0
  0
LINE
  5
EFE
  8
241
 10
-14.65750199999999
 20
-6.839983000000017
 30
0.0
 11
-14.657501999999919
 21
-0.0000000000000284
 31
0.0
  0
LINE
  5
EFF
  8
240
 10
-14.65750199999999
 20
-6.839983000000017
 30
0.0
 11
-15.53054
 21
-6.9939230000000521
 31
0.0
  0
LINE
  5
F00
  8
240
 10
-16.0
 20
-6.7071789999999938
 30
0.0
 11
-15.946409999999981
 21
-6.8000000000000123
 31
0.0
  0
ARC
  5
F01
  8
240
 10
-15.599999999999991
 20
-6.600000000000021
 30
0.0
 40
0.4
 50
209.9999999999996
 51
280.00000000000011
  0
LINE
  5
F02
  8
240
 10
-14.65750199999999
 20
-6.839983000000017
 30
0.0
 11
-13.75
 21
-7.0
 31
0.0
  0
ARC
  5
F03
  8
240
 10
-5.3285899999999913
 20
-7.8999999999999773
 30
0.0
 40
0.6
 50
209.9999999999996
 51
270.0
  0
ARC
  5
F04
  8
240
 10
-2.6714100000000061
 20
-7.8999999999999773
 30
0.0
 40
0.6
 50
270.0
 51
330.00000000000028
  0
LINE
  5
F05
  8
240
 10
-5.3285899999999913
 20
-8.5
 30
0.0
 11
-2.6714100000000061
 21
-8.5
 31
0.0
  0
LINE
  5
F06
  8
241
 10
-6.4932553067860228
 20
-6.9999994316584644
 30
0.0
 11
-1.5067446932139581
 21
-6.9999994316584644
 31
0.0
  0
LINE
  5
F07
  8
240
 10
-6.4196149999999923
 20
-7.2102879999999878
 30
0.0
 11
-5.8482049999999912
 21
-8.1999999999999869
 31
0.0
  0
ARC
  5
F08
  8
240
 10
-5.8999999999999906
 20
-6.91028799999998
 30
0.0
 40
0.6
 50
188.59905599999971
 51
209.9999999999996
  0
ARC
  5
F09
  8
240
 10
-2.0999999999999921
 20
-6.91028799999998
 30
0.0
 40
0.6
 50
330.00000000000028
 51
351.4009440000001
  0
LINE
  5
F0A
  8
240
 10
-1.580385000000003
 20
-7.2102879999999878
 30
0.0
 11
-2.151794999999991
 21
-8.1999999999999869
 31
0.0
  0
LINE
  5
F0B
  8
240
 10
7.8650639999999852
 20
-14.25
 30
0.0
 11
12.34289300000003
 21
-14.25
 31
0.0
  0
LINE
  5
F0C
  8
240
 10
0.0
 20
-11.50046499999999
 30
0.0
 11
0.0000000000000995
 21
-6.9999999999997282
 31
0.0
  0
LINE
  5
F0D
  8
241
 10
7.5971140000000013
 20
-14.213432999999981
 30
0.0
 11
7.5971140000000013
 21
-5.8803299999999572
 31
0.0
  0
LINE
  5
F0E
  8
240
 10
3.932051
 20
-12.13397399999999
 30
0.0
 11
7.3650639999999852
 21
-14.116024999999979
 31
0.0
  0
LINE
  5
F0F
  8
240
 10
0.5
 20
-11.999998999999971
 30
0.0
 11
2.8855029999999982
 21
-11.999998999999971
 31
0.0
  0
LINE
  5
F10
  8
240
 10
0.5
 20
-11.999998999999971
 30
0.0
 11
3.511795000000006
 21
-12.0
 31
0.0
  0
ARC
  5
F11
  8
240
 10
0.5
 20
-11.499998999999971
 30
0.0
 40
0.5
 50
180.0
 51
270.0
  0
ARC
  5
F12
  8
240
 10
3.432051
 20
-13.0
 30
0.0
 40
1.0
 50
60.000000000000277
 51
90.0
  0
ARC
  5
F13
  8
240
 10
7.8650639999999852
 20
-13.25
 30
0.0
 40
1.0
 50
239.9999999999998
 51
270.0
  0
LINE
  5
F20
  8
241
 10
0.0
 20
-7.0
 30
0.0
 11
0.0
 21
-0.0824610000000235
 31
0.0
  0
ARC
  5
F7A
  8
241
 10
-2.4028859999999952
 20
-5.8803299999999572
 30
0.0
 40
10.0
 50
0.0
 51
26.472199999999159
  0
LINE
  5
F7B
  8
241
 10
12.55000000000001
 20
-14.205089999999981
 30
0.0
 11
12.55000000000001
 21
-5.8521649999999852
 31
0.0
  0
ARC
  5
F7C
  8
240
 10
12.34289300000003
 20
-13.75
 30
0.0
 40
0.5
 50
270.0
 51
315.0
  0
ARC
  5
F7D
  8
241
 10
22.550000000000011
 20
-5.8521649999999852
 30
0.0
 40
10.0
 50
153.83381899999941
 51
180.0
  0
LINE
  5
F7E
  8
240
 10
-1.5067446279391841
 20
7.0
 30
0.0
 11
-0.0000000000003268
 21
7.0000000000002132
 31
0.0
  0
LINE
  5
F7F
  8
240
 10
-13.75
 20
7.000000000000056
 30
0.0
 11
-6.4932553720607871
 21
7.0
 31
0.0
  0
LINE
  5
F80
  8
240
 10
-14.65750199999999
 20
6.839983000000017
 30
0.0
 11
-15.53054
 21
6.9939229999999357
 31
0.0
  0
LINE
  5
F81
  8
240
 10
-16.0
 20
6.7071799999999371
 30
0.0
 11
-15.946409999999981
 21
6.8000000000000123
 31
0.0
  0
ARC
  5
F82
  8
240
 10
-15.599999999999991
 20
6.599999999999965
 30
0.0
 40
0.4
 50
79.999999999999815
 51
149.9999999999998
  0
LINE
  5
F83
  8
240
 10
-14.65750199999999
 20
6.839983000000017
 30
0.0
 11
-13.75
 21
7.000000000000056
 31
0.0
  0
ARC
  5
F84
  8
240
 10
-5.3285899999999913
 20
7.9000000000000332
 30
0.0
 40
0.6
 50
90.0
 51
149.9999999999998
  0
ARC
  5
F85
  8
240
 10
-2.6714100000000061
 20
7.9000000000000332
 30
0.0
 40
0.6
 50
29.999999999999719
 51
90.0
  0
LINE
  5
F86
  8
241
 10
-6.4932553720607871
 20
7.0
 30
0.0
 11
-1.5067439999999961
 21
7.000000000000056
 31
0.0
  0
LINE
  5
F87
  8
240
 10
-6.4196149999999923
 20
7.210288999999932
 30
0.0
 11
-5.8482049999999912
 21
8.1999999999999869
 31
0.0
  0
ARC
  5
F88
  8
240
 10
-5.8999999999999906
 20
6.9102889999999748
 30
0.0
 40
0.6
 50
149.9999999999998
 51
171.4009440000001
  0
LINE
  5
F89
  8
240
 10
-1.5067439999999961
 20
7.000000000000056
 30
0.0
 11
-1.400000000000003
 21
7.000000000000056
 31
0.0
  0
ARC
  5
F8A
  8
240
 10
-2.0999999999999921
 20
6.9102889999999748
 30
0.0
 40
0.6
 50
8.599055999999857
 51
29.999999999999719
  0
LINE
  5
F8B
  8
240
 10
-1.580385000000003
 20
7.210288999999932
 30
0.0
 11
-2.151794999999991
 21
8.1999999999999869
 31
0.0
  0
LINE
  5
F8C
  8
240
 10
-5.3285899999999913
 20
8.5000000000000568
 30
0.0
 11
-2.6714100000000061
 21
8.5000000000000568
 31
0.0
  0
LINE
  5
F8D
  8
240
 10
7.8650639999999852
 20
14.25000099999999
 30
0.0
 11
12.34289300000003
 21
14.25000099999999
 31
0.0
  0
LINE
  5
F8E
  8
241
 10
14.62421800000001
 20
1.075783000000029
 30
0.0
 11
3.7000000000000162
 21
12.00000099999999
 31
0.0
  0
LINE
  5
F8F
  8
241
 10
17.505308999999979
 20
0.6558390000000145
 30
0.0
 11
6.8867690000000144
 21
11.274387999999981
 31
0.0
  0
LINE
  5
F90
  8
241
 10
6.995591000000017
 20
11.61201099999999
 30
0.0
 11
13.95997600000001
 21
12.840024
 31
0.0
  0
LINE
  5
F91
  8
240
 10
0.0
 20
11.50046600000001
 30
0.0
 11
-0.0000000000003268
 21
7.0000000000002132
 31
0.0
  0
LINE
  5
F92
  8
240
 10
3.932051
 20
12.133975000000021
 30
0.0
 11
7.3650639999999852
 21
14.11602599999997
 31
0.0
  0
LINE
  5
F93
  8
240
 10
0.5
 20
12.00000099999999
 30
0.0
 11
3.432051
 21
12.00000099999999
 31
0.0
  0
ARC
  5
F94
  8
240
 10
0.5
 20
11.50000099999999
 30
0.0
 40
0.5
 50
90.0
 51
180.0
  0
ARC
  5
F95
  8
240
 10
3.432051
 20
13.00000099999999
 30
0.0
 40
1.0
 50
270.0
 51
299.99999999999972
  0
ARC
  5
F96
  8
241
 10
7.029146999999992
 20
11.41484600000001
 30
0.0
 40
0.2
 50
100.0000009999997
 51
224.99999700000009
  0
ARC
  5
F97
  8
240
 10
7.8650639999999852
 20
13.25000099999999
 30
0.0
 40
1.0
 50
90.0
 51
120.0000000000001
  0
ARC
  5
F98
  8
241
 10
17.64673100000001
 20
0.7972620000000177
 30
0.0
 40
0.2
 50
224.99999700000009
 51
280.00002599999999
  0
LINE
  5
F99
  8
240
 10
13.95997600000001
 20
12.840024
 30
0.0
 11
12.696446000000011
 21
14.103554000000001
 31
0.0
  0
ARC
  5
F9A
  8
240
 10
12.34289300000003
 20
13.75000099999999
 30
0.0
 40
0.5
 50
45.0
 51
90.0
  0
LINE
  5
F9B
  8
241
 10
13.95997600000001
 20
12.840024
 30
0.0
 11
14.045141000000021
 21
12.855041000000019
 31
0.0
  0
ARC
  5
F9C
  8
241
 10
14.114600000000021
 20
12.46111800000002
 30
0.0
 40
0.4
 50
45.000040000000453
 51
100.0000320000006
  0
LINE
  5
F9D
  8
240
 10
24.800000000000011
 20
-1.7928929999999901
 30
0.0
 11
24.800000000000011
 21
1.792894000000018
 31
0.0
  0
ARC
  5
F9E
  8
240
 10
24.300000000000011
 20
-1.7928929999999901
 30
0.0
 40
0.5
 50
315.0
 51
0.0
  0
ARC
  5
F9F
  8
240
 10
24.300000000000011
 20
1.792894000000018
 30
0.0
 40
0.5
 50
0.0
 51
7.1137460000011501
  0
ARC
  5
FA0
  8
240
 10
24.300000000000011
 20
1.792894000000018
 30
0.0
 40
0.5
 50
0.0
 51
7.1137460000011501
  0
ARC
  5
FA1
  8
240
 10
24.300000000000011
 20
1.792894000000018
 30
0.0
 40
0.5
 50
0.0
 51
7.1137460000011501
  0
ARC
  5
FA2
  8
241
 10
24.799997999999981
 20
2.0585759999999871
 30
0.0
 40
0.2
 50
270.00054999999992
 51
45.000029999999903
  0
VIEWPORT
  5
22
 67
     1
  8
0
 10
261.51769911504419
 20
148.5
 30
0.0
 40
523.0353982300885
 41
297.0
 68
     1
 69
     1
1001
ACAD
1000
MVIEW
1002
{
1070
    16
1010
0.0
1020
0.0
1030
0.0
1010
0.0
1020
0.0
1030
1.0
1040
0.0
1040
297.0
1040
261.51769911504419
1040
148.5
1040
50.0
1040
0.0
1040
0.0
1070
     0
1070
   100
1070
     1
1070
     1
1070
     0
1070
     0
1070
     0
1070
     0
1040
0.0
1040
0.0
1040
0.0
1040
1.0
1040
1.0
1040
10.0
1040
10.0
1070
     0
1002
{
1002
}
1002
}
1001
GENIUS_GENOBJ-N-SDF_13
1002
{
1000
OWNER
1000
GEN
1002
}
1001
GENIUS_GENODEF_13
1002
{
1000
HIER
1070
     0
1002
}
1002
{
1000
MANEDIT
1070
     0
1002
}
1002
{
1000
NOSEL
1070
     0
1002
}
1002
{
1000
BEHIND
1070
     0
1002
}
1002
{
1000
OTHER
1070
     0
1002
}
1002
{
1000
REACTOR
1002
}
1001
GENIUS_GENSCREG_15
1000
PF
1040
1.0
1000
DF
1040
1.0
1000
MIN
1011
0.0
1021
6.6749594872528440E+094
1031
0.0
1021
0.0
1031
0.0
1000
MAX
1011
523.0353982300885
1021
6.6749594872528440E+094
1031
0.0
1021
297.0
1031
0.0
1000
FLAGS
1070
     4
  0
ENDSEC
  0
EOF
