  0
SECTION
  2
HEADER
  9
$ACADVER
  1
AC1009
  9
$INSBASE
 10
0.0
 20
0.0
 30
0.0
  9
$EXTMIN
 10
-38.810247020900867
 20
-17.841381473514609
 30
-0.0015258207003583
  9
$EXTMAX
 10
50.012582891775082
 20
47.099217925399948
 30
0.0000000349246037
  9
$LIMMIN
 10
0.0
 20
0.0
  9
$LIMMAX
 10
297.0
 20
210.0
  9
$ORTHOMODE
 70
     1
  9
$REGENMODE
 70
     1
  9
$FILLMODE
 70
     1
  9
$QTEXTMODE
 70
     0
  9
$MIRRTEXT
 70
     1
  9
$DRAGMODE
 70
     2
  9
$LTSCALE
 40
10.0
  9
$OSMODE
 70
    39
  9
$ATTMODE
 70
     1
  9
$TEXTSIZE
 40
3.0
  9
$TRACEWID
 40
1.0
  9
$TEXTSTYLE
  7
YOKO
  9
$CLAYER
  8
240
  9
$CELTYPE
  6
BYLAYER
  9
$CECOLOR
 62
   256
  9
$DIMSCALE
 40
1.0
  9
$DIMASZ
 40
2.2299999999999991
  9
$DIMEXO
 40
0.5
  9
$DIMDLI
 40
7.0
  9
$DIMRND
 40
0.0
  9
$DIMDLE
 40
0.0
  9
$DIMEXE
 40
1.0
  9
$DIMTP
 40
0.0
  9
$DIMTM
 40
0.01
  9
$DIMTXT
 40
2.799999999999998
  9
$DIMCEN
 40
0.0
  9
$DIMTSZ
 40
0.0
  9
$DIMTOL
 70
     0
  9
$DIMLIM
 70
     0
  9
$DIMTIH
 70
     0
  9
$DIMTOH
 70
     0
  9
$DIMSE1
 70
     0
  9
$DIMSE2
 70
     0
  9
$DIMTAD
 70
     3
  9
$DIMZIN
 70
     9
  9
$DIMBLK
  1
OPEN
  9
$DIMASO
 70
     1
  9
$DIMSHO
 70
     1
  9
$DIMPOST
  1

  9
$DIMAPOST
  1

  9
$DIMALT
 70
     0
  9
$DIMALTD
 70
     2
  9
$DIMALTF
 40
25.399999999999999
  9
$DIMLFAC
 40
1.0
  9
$DIMTOFL
 70
     1
  9
$DIMTVP
 40
0.0
  9
$DIMTIX
 70
     1
  9
$DIMSOXD
 70
     0
  9
$DIMSAH
 70
     0
  9
$DIMBLK1
  1

  9
$DIMBLK2
  1

  9
$DIMSTYLE
  2
BIGT
  9
$DIMCLRD
 70
   256
  9
$DIMCLRE
 70
   256
  9
$DIMCLRT
 70
    40
  9
$DIMTFAC
 40
1.0
  9
$DIMGAP
 40
1.0
  9
$LUNITS
 70
     2
  9
$LUPREC
 70
     3
  9
$SKETCHINC
 40
1.0
  9
$FILLETRAD
 40
0.0
  9
$AUNITS
 70
     0
  9
$AUPREC
 70
     3
  9
$MENU
  1
.
  9
$ELEVATION
 40
0.0
  9
$PELEVATION
 40
0.0
  9
$THICKNESS
 40
0.0
  9
$LIMCHECK
 70
     0
  9
$BLIPMODE
 70
     0
  9
$CHAMFERA
 40
0.25
  9
$CHAMFERB
 40
0.25
  9
$SKPOLY
 70
     0
  9
$TDCREATE
 40
2455933.6814285652
  9
$TDUPDATE
 40
2456330.4041487849
  9
$TDINDWG
 40
0.0217758102
  9
$TDUSRTIMER
 40
0.0217758102
  9
$USRTIMER
 70
     1
  9
$ANGBASE
 50
0.0
  9
$ANGDIR
 70
     0
  9
$PDMODE
 70
     1
  9
$PDSIZE
 40
0.0
  9
$PLINEWID
 40
0.0
  9
$COORDS
 70
     0
  9
$SPLFRAME
 70
     0
  9
$SPLINETYPE
 70
     6
  9
$SPLINESEGS
 70
     4
  9
$ATTDIA
 70
     1
  9
$ATTREQ
 70
     1
  9
$HANDLING
 70
     1
  9
$HANDSEED
  5
2425
  9
$SURFTAB1
 70
     6
  9
$SURFTAB2
 70
     6
  9
$SURFTYPE
 70
     6
  9
$SURFU
 70
     6
  9
$SURFV
 70
     6
  9
$UCSNAME
  2

  9
$UCSORG
 10
0.0
 20
0.0
 30
0.0
  9
$UCSXDIR
 10
1.0
 20
0.0
 30
0.0
  9
$UCSYDIR
 10
0.0
 20
1.0
 30
0.0
  9
$PUCSNAME
  2

  9
$PUCSORG
 10
0.0
 20
0.0
 30
0.0
  9
$PUCSXDIR
 10
1.0
 20
0.0
 30
0.0
  9
$PUCSYDIR
 10
0.0
 20
1.0
 30
0.0
  9
$USERI1
 70
     1
  9
$USERI2
 70
     0
  9
$USERI3
 70
     0
  9
$USERI4
 70
     0
  9
$USERI5
 70
     0
  9
$USERR1
 40
0.0
  9
$USERR2
 40
0.0
  9
$USERR3
 40
0.0
  9
$USERR4
 40
0.0
  9
$USERR5
 40
0.0
  9
$WORLDVIEW
 70
     1
  9
$SHADEDGE
 70
     3
  9
$SHADEDIF
 70
    70
  9
$TILEMODE
 70
     1
  9
$MAXACTVP
 70
    16
  9
$PLIMCHECK
 70
     0
  9
$PEXTMIN
 10
1.0000000000000000E+020
 20
1.0000000000000000E+020
 30
1.0000000000000000E+020
  9
$PEXTMAX
 10
-1.0000000000000000E+020
 20
-1.0000000000000000E+020
 30
-1.0000000000000000E+020
  9
$PLIMMIN
 10
0.0
 20
0.0
  9
$PLIMMAX
 10
420.0
 20
297.0
  9
$UNITMODE
 70
     0
  9
$VISRETAIN
 70
     1
  9
$PLINEGEN
 70
     0
  9
$PSLTSCALE
 70
     1
  0
ENDSEC
  0
SECTION
  2
TABLES
  0
TABLE
  2
VPORT
 70
     3
  0
VPORT
  2
*ACTIVE
 70
     0
 10
0.0
 20
0.0
 11
1.0
 21
1.0
 12
5.6011679354371058
 22
14.628918225942661
 13
0.0
 23
0.0
 14
7.0
 24
7.0
 15
7.0
 25
7.0
 16
0.0
 26
0.0
 36
1.0
 17
0.0
 27
0.0
 37
0.0
 40
65.36092690311466
 41
1.4600431965442759
 42
50.0
 43
0.0
 44
0.0
 50
0.0
 51
0.0
 71
     0
 72
  2000
 73
     1
 74
     0
 75
     0
 76
     0
 77
     0
 78
     0
  0
ENDTAB
  0
TABLE
  2
LTYPE
 70
    21
  0
LTYPE
  2
CONTINUOUS
 70
     0
  3
Solid line
 72
    65
 73
     0
 40
0.0
  0
LTYPE
  2
CENTER2
 70
     0
  3
___ _ ___ _ ___ _ ___ _ ___ _ ___ _ ___ _ ___ _
 72
    65
 73
     4
 40
1.125
 49
0.75
 49
-0.125
 49
0.125
 49
-0.125
  0
LTYPE
  2
HIDDEN2
 70
     0
  3
_ _ _ _ _ _ _ _ _ _ _ _ _ _ _ _ _ _ _ _ _ _ _ _
 72
    65
 73
     2
 40
0.1875
 49
0.125
 49
-0.0625
  0
LTYPE
  2
PHANTOM2
 70
     0
  3
___ _ _ ___ _ _ ___ _ _ ___ _ _ ___ _ _ ___ _ _
 72
    65
 73
     6
 40
1.25
 49
0.625
 49
-0.125
 49
0.125
 49
-0.125
 49
0.125
 49
-0.125
  0
LTYPE
  2
CENTER
 70
     0
  3
____ _ ____ _ ____ _ ____ _ ____ _ ____ _ ____ 
 72
    65
 73
     4
 40
2.0
 49
1.25
 49
-0.25
 49
0.25
 49
-0.25
  0
LTYPE
  2
AMCONSTR
 70
     0
  3
_______________________
 72
    65
 73
     2
 40
9999.0
 49
9999.0
 49
0.0
  0
LTYPE
  2
HIDDEN
 70
     0
  3
Hidden __ __ __ __ __ __ __ __ __ __ __ __ __ _
 72
    65
 73
     2
 40
9.5249999999999986
 49
6.3499999999999979
 49
-3.174999999999998
  0
LTYPE
  2
AMZIGZAG2
 70
     0
  3
/\/-/\/-/\/-/\/-/\/-/\/
 72
    65
 73
     2
 40
0.4401
 49
0.0001
 49
-0.4400000000000001
  0
LTYPE
  2
ACANSTGB
 70
     0
  3
__ . . __ . .
 72
    65
 73
     6
 40
0.35433070866
 49
0.15748031496
 49
-0.03937007874
 49
0.03937007874
 49
-0.03937007874
 49
0.03937007874
 49
-0.03937007874
  0
LTYPE
  2
ACANSTGL
 70
     0
  3
_ _ _ _ _
 72
    65
 73
     2
 40
0.11811023622
 49
0.07874015748
 49
-0.03937007874
  0
ENDTAB
  0
TABLE
  2
LAYER
 70
     8
  0
LAYER
  2
0
 70
     0
 62
     7
  6
CONTINUOUS
  0
LAYER
  2
240
 70
     0
 62
     4
  6
CONTINUOUS
  0
LAYER
  2
DEFPOINTS
 70
     0
 62
     7
  6
CONTINUOUS
  0
LAYER
  2
245
 70
     0
 62
     2
  6
CENTER2
  0
LAYER
  2
241
 70
     0
 62
   211
  6
CONTINUOUS
  0
LAYER
  2
246
 70
     0
 62
     3
  6
PHANTOM2
  0
LAYER
  2
247
 70
     0
 62
    60
  6
CONTINUOUS
  0
LAYER
  2
250
 70
     0
 62
     3
  6
CONTINUOUS
  0
ENDTAB
  0
TABLE
  2
STYLE
 70
     9
  0
STYLE
  2
STANDARD
 70
     0
 40
0.0
 41
1.0
 50
0.0
 71
     0
 42
3.0
  3
romans.shx
  4
extfont.shx
  0
STYLE
  2
YOKO
 70
     0
 40
0.0
 41
1.0
 50
0.0
 71
     0
 42
3.0
  3
romans.shx
  4
extfont.shx
  0
STYLE
  2

 70
     1
 40
0.0
 41
1.0
 50
0.0
 71
     0
 42
3.0
  3
ltypeshp.shx
  4

  0
STYLE
  2
ACANSTS
 70
     0
 40
1.0
 41
1.0
 50
0.0
 71
     0
 42
3.0
  3
romans.shx
  4
extfont.shx
  0
STYLE
  2
ACANSGDT
 70
     0
 40
0.0
 41
1.0
 50
0.0
 71
     0
 42
3.0
  3
amgdtans.shx
  4

  0
ENDTAB
  0
TABLE
  2
VIEW
 70
     0
  0
ENDTAB
  0
TABLE
  2
UCS
 70
     0
  0
ENDTAB
  0
TABLE
  2
APPID
 70
    31
  0
APPID
  2
ACAD
 70
     0
  0
APPID
  2
GLOBAL
 70
     0
  0
APPID
  2
DETAIL
 70
     0
  0
APPID
  2
GRPNAME
 70
     0
  0
APPID
  2
GPARA
 70
     0
  0
APPID
  2
MCAD_NO_VIS
 70
     0
  0
APPID
  2
ACAD_TEMP_GRAPHIC
 70
     0
  0
APPID
  2
ACATTRIBSERVICES
 70
     0
  0
APPID
  2
GENIUS_GENSCREG_15
 70
     0
  0
APPID
  2
GENIUS_GENODEF_13
 70
     0
  0
APPID
  2
GENIUS_GENOBJ-N-SDF_13
 70
     0
  0
APPID
  2
GENIUS_GENREC_14
 70
     0
  0
APPID
  2
GENIUS_GENOBJ-N-REC_13
 70
     0
  0
APPID
  2
GENIUS_GENDIMSH_14
 70
     0
  0
APPID
  2
GENIUS_GENOBJ-N-DIM_13
 70
     0
  0
APPID
  2
GENIUS_GENDIM_13
 70
     0
  0
APPID
  2
GENIUS_GENDTOL_13
 70
     0
  0
APPID
  2
GENIUS_GENOLIS_13
 70
     0
  0
APPID
  2
GENIUS_GENOENT_13
 70
     0
  0
APPID
  2
GENIUS_GENOBJ-F-FEM_13
 70
     0
  0
APPID
  2
GENIUS_GENOREF_13
 70
     0
  0
APPID
  2
GENIUS_GEFFEM_13
 70
     0
  0
APPID
  2
GENIUS_GEFFEMP_13
 70
     0
  0
APPID
  2
AD_DRAW
 70
     0
  0
APPID
  2
DESIGNERASSEMBLIES
 70
     0
  0
APPID
  2
ACADM_DIM_EDIT
 70
     0
  0
APPID
  2
AMDT_DM_ADJ
 70
     0
  0
APPID
  2
ITEMNAME
 70
     0
  0
APPID
  2
HATCH_TYPE
 70
     0
  0
APPID
  2
HATCH_DISPLAY
 70
     0
  0
APPID
  2
HATCH_DISTANCE
 70
     0
  0
ENDTAB
  0
TABLE
  2
DIMSTYLE
 70
    29
  0
DIMSTYLE
  2
BIGT
 70
     0
  3

  4

  5

  6

  7

 40
1.0
 41
2.2299999999999991
 42
0.5
 43
7.0
 44
1.0
 45
0.0
 46
0.0
 47
0.0
 48
0.01
140
2.799999999999998
141
0.0
142
0.0
143
25.399999999999999
144
1.0
145
0.0
146
1.0
147
1.0
 71
     0
 72
     0
 73
     0
 74
     0
 75
     0
 76
     0
 77
     3
 78
     9
170
     0
171
     2
172
     1
173
     0
174
     1
175
     0
176
   256
177
   256
178
    40
  0
DIMSTYLE
  2
AM_ANSI
 70
     0
  3

  4
mm
  5

  6

  7

 40
1.0
 41
0.1
 42
0.05
 43
0.5
 44
0.1
 45
0.0
 46
0.0
 47
0.1
 48
0.1
140
0.12
141
0.0
142
0.0
143
25.399999999999999
144
1.0
145
0.0
146
0.71
147
0.06
 71
     0
 72
     0
 73
     1
 74
     1
 75
     0
 76
     0
 77
     0
 78
     7
170
     0
171
     2
172
     0
173
     0
174
     0
175
     0
176
   256
177
   256
178
     2
  0
DIMSTYLE
  2
AM_ANSI$3
 70
     0
  3

  4
mm
  5

  6

  7

 40
1.0
 41
0.1
 42
0.05
 43
0.5
 44
0.1
 45
0.0
 46
0.0
 47
0.1
 48
0.1
140
0.12
141
0.0
142
0.0
143
25.399999999999999
144
1.0
145
0.0
146
0.71
147
0.06
 71
     0
 72
     0
 73
     1
 74
     1
 75
     0
 76
     0
 77
     0
 78
     7
170
     0
171
     2
172
     0
173
     0
174
     0
175
     0
176
   256
177
   256
178
     2
  0
DIMSTYLE
  2
AM_ANSI$4
 70
     0
  3

  4
mm
  5

  6

  7

 40
1.0
 41
0.1
 42
0.05
 43
0.5
 44
0.1
 45
0.0
 46
0.0
 47
0.1
 48
0.1
140
0.12
141
0.0
142
0.0
143
25.399999999999999
144
1.0
145
0.0
146
0.71
147
0.06
 71
     0
 72
     0
 73
     1
 74
     1
 75
     0
 76
     0
 77
     0
 78
     7
170
     0
171
     2
172
     0
173
     0
174
     0
175
     0
176
   256
177
   256
178
     2
  0
DIMSTYLE
  2
AM_ANSI$7
 70
     0
  3

  4
mm
  5

  6

  7

 40
1.0
 41
0.1
 42
0.05
 43
0.5
 44
0.1
 45
0.0
 46
0.0
 47
0.1
 48
0.1
140
0.24
141
0.0
142
0.0
143
25.399999999999999
144
1.0
145
0.0
146
0.71
147
0.06
 71
     0
 72
     0
 73
     1
 74
     1
 75
     0
 76
     0
 77
     0
 78
     7
170
     0
171
     2
172
     0
173
     0
174
     0
175
     0
176
   256
177
   256
178
     2
  0
DIMSTYLE
  2
AM_ANSI$SF
 70
     0
  3

  4
mm
  5

  6

  7

 40
1.0
 41
0.1
 42
0.05
 43
0.5
 44
0.1
 45
0.0
 46
0.0
 47
0.1
 48
0.1
140
0.12
141
0.0
142
0.0
143
25.399999999999999
144
1.0
145
0.0
146
0.71
147
0.06
 71
     0
 72
     0
 73
     1
 74
     1
 75
     1
 76
     1
 77
     0
 78
     7
170
     0
171
     2
172
     0
173
     0
174
     0
175
     0
176
   256
177
   256
178
     2
  0
DIMSTYLE
  2
AM_ANSI$SH
 70
     0
  3

  4
mm
  5

  6
GENAXEH
  7

 40
1.0
 41
0.1
 42
0.05
 43
0.5
 44
0.1
 45
0.0
 46
0.0
 47
0.1
 48
0.1
140
0.12
141
0.0
142
0.0
143
25.399999999999999
144
1.0
145
0.0
146
0.71
147
0.06
 71
     0
 72
     0
 73
     1
 74
     1
 75
     1
 76
     1
 77
     0
 78
     7
170
     0
171
     2
172
     0
173
     1
174
     0
175
     0
176
   256
177
   256
178
     2
  0
ENDTAB
  0
ENDSEC
  0
SECTION
  2
BLOCKS
  0
BLOCK
  8
0
  2
$MODEL_SPACE
 70
     0
 10
0.0
 20
0.0
 30
0.0
  3
$MODEL_SPACE
  1

  0
ENDBLK
  5
1EA7
  8
0
  0
BLOCK
 67
     1
  8
0
  2
$PAPER_SPACE
 70
     0
 10
0.0
 20
0.0
 30
0.0
  3
$PAPER_SPACE
  1

  0
ENDBLK
  5
1EA3
 67
     1
  8
0
  0
BLOCK
  8
0
  2
_OPEN
 70
     0
 10
0.0
 20
0.0
 30
0.0
  3
_OPEN
  1

  0
LINE
  5
1AAA
  8
0
  6
BYBLOCK
 62
     0
 10
-1.0
 20
0.1666666666666666
 30
0.0
 11
0.0
 21
0.0
 31
0.0
  0
LINE
  5
1AAB
  8
0
  6
BYBLOCK
 62
     0
 10
-1.0
 20
-0.1666666666666666
 30
0.0
 11
0.0
 21
0.0
 31
0.0
  0
LINE
  5
1AAC
  8
0
  6
BYBLOCK
 62
     0
 10
0.0
 20
0.0
 30
0.0
 11
-1.0
 21
0.0
 31
0.0
  0
ENDBLK
  5
1AAD
  8
0
  0
BLOCK
  8
0
  2
GENAXEH
 70
     0
 10
0.0
 20
0.0
 30
0.0
  3
GENAXEH
  1

  0
LINE
  5
1AD5
  8
0
 10
-1.0
 20
0.0
 30
0.0
 11
1.0
 21
0.0
 31
0.0
  0
ENDBLK
  5
1AD6
  8
0
  0
ENDSEC
  0
SECTION
  2
ENTITIES
  0
TEXT
  5
16F5
  8
241
 10
-38.976500861048862
 20
42.09741724013054
 30
0.0
 40
5.0
  1
CKB1-C2232-45B-20
  7
YOKO
 11
-38.976500861048862
 21
42.09741724013054
 31
0.0
 73
     1
  0
LINE
  5
16F6
  8
250
 10
-15.07640732877026
 20
-17.834429048986799
 30
0.0
 11
-28.219264471627412
 21
-17.834429048986799
 31
0.0
1001
ITEMNAME
1000
LNSP2
  0
TEXT
  5
16F7
  8
250
 10
-25.647835900198839
 20
-16.834429048986799
 30
0.0
 40
3.0
  1
CK1
  7
YOKO
  0
LINE
  5
16F8
  8
250
 10
-9.0701213970373757
 20
-7.4312366504392973
 30
0.0
 11
-15.07640732877026
 21
-17.834429048986799
 31
0.0
  0
LINE
  5
16F9
  8
250
 10
-9.3919941721105928
 20
-7.2454033171059633
 30
0.0
 11
-7.955121397037372
 21
-5.5
 31
0.0
  0
LINE
  5
16FA
  8
250
 10
-8.7482486219641604
 20
-7.6170699837726303
 30
0.0
 11
-7.955121397037372
 21
-5.5
 31
0.0
  0
LINE
  5
16FB
  8
250
 10
-7.955121397037372
 20
-5.5
 30
0.0
 11
-9.0701213970373757
 21
-7.4312366504392973
 31
0.0
  0
LINE
  5
18AA
  8
250
 10
12.04184834291709
 20
16.0
 30
0.0
 11
-35.999999999999929
 21
16.000000000000021
 31
0.0
  0
LINE
  5
18AB
  8
250
 10
-34.99999999999995
 20
13.770000000000019
 30
0.0
 11
-34.99999999999995
 21
-4.5333333333335162
 31
0.0
  0
LINE
  5
18AE
  8
250
 10
7.041849166097581
 20
11.0
 30
0.0
 11
-28.99999999999995
 21
11.000000000000011
 31
0.0
  0
LINE
  5
18AF
  8
250
 10
-27.99999999999995
 20
8.7700000000000085
 30
0.0
 11
-27.99999999999995
 21
-4.5333333333334851
 31
0.0
  0
LINE
  5
18B2
  8
250
 10
-0.5
 20
-9.4999997229266153
 30
0.0
 11
-22.000000000000011
 21
-9.4999997229266082
 31
0.0
  0
LINE
  5
18B3
  8
250
 10
-0.5
 20
9.499999947950954
 30
0.0
 11
-22.0
 21
9.4999999479509594
 31
0.0
  0
LINE
  5
18B4
  8
250
 10
-21.0
 20
-7.2699997229266087
 30
0.0
 11
-21.0
 21
7.2699999479509589
 31
0.0
  0
LINE
  5
18B8
  8
250
 10
13.952508689916121
 20
16.703553390593239
 30
0.0
 11
10.03367555951418
 21
20.622386520995171
 31
0.0
  0
ARC
  5
18B9
  8
250
 10
19.96395923197268
 20
10.692102848536679
 30
0.0
 40
13.043541847802899
 50
99.807590055137254
 51
125.1924099448626
  0
LINE
  5
18BD
  8
250
 10
0.0
 20
9.999999947950954
 30
0.0
 11
0.0000000000000012
 21
29.0
 31
0.0
  0
LINE
  5
18BE
  8
250
 10
19.962916213631001
 20
11.19314481914043
 30
0.0
 11
19.962916213631001
 21
29.0
 31
0.0
  0
LINE
  5
18BF
  8
250
 10
2.23
 20
28.0
 30
0.0
 11
17.732916213631
 21
28.0
 31
0.0
  0
LINE
  5
18C3
  8
250
 10
15.15606201568386
 20
16.0
 30
0.0
 11
43.0
 21
15.99999999999998
 31
0.0
  0
LINE
  5
18C4
  8
250
 10
42.0
 20
13.769999999999991
 30
0.0
 11
42.0
 21
-4.5333333333333403
 31
0.0
  0
LINE
  5
18C7
  8
250
 10
20.15606108960581
 20
11.0
 30
0.0
 11
36.0
 21
10.99999999999998
 31
0.0
  0
LINE
  5
18C8
  8
250
 10
35.0
 20
8.7699999999999942
 30
0.0
 11
35.0
 21
-4.5333333333333359
 31
0.0
  0
LINE
  5
18CB
  8
250
 10
14.80606208050933
 20
-16.349999999999991
 30
0.0
 11
50.0
 21
-16.350000000000001
 31
0.0
  0
LINE
  5
18CC
  8
250
 10
14.80606208050933
 20
16.349999999999991
 30
0.0
 11
50.0
 21
16.34999999999998
 31
0.0
  0
LINE
  5
18CD
  8
250
 10
49.0
 20
-14.119999999999999
 30
0.0
 11
49.0
 21
14.11999999999998
 31
0.0
  0
TEXT
  5
18D1
  8
250
 10
-35.99999999999995
 20
-3.8000000000001881
 30
0.0
 40
2.799999999999998
  1
\U+220532
 50
90.0
  0
LINE
  5
18D2
  8
250
 10
-35.371666666666613
 20
13.770000000000019
 30
0.0
 11
-34.999999999999929
 21
16.000000000000021
 31
0.0
  0
LINE
  5
18D3
  8
250
 10
-34.628333333333252
 20
13.770000000000019
 30
0.0
 11
-34.999999999999929
 21
16.000000000000021
 31
0.0
  0
LINE
  5
18D4
  8
250
 10
-34.999999999999929
 20
16.000000000000021
 30
0.0
 11
-34.999999999999929
 21
13.770000000000019
 31
0.0
  0
TEXT
  5
18D5
  8
250
 10
-28.999999999999961
 20
-3.8000000000001561
 30
0.0
 40
2.799999999999998
  1
\U+220522
 50
90.0
  0
LINE
  5
18D6
  8
250
 10
-28.371666666666631
 20
8.7700000000000085
 30
0.0
 11
-27.99999999999995
 21
11.000000000000011
 31
0.0
  0
LINE
  5
18D7
  8
250
 10
-27.628333333333291
 20
8.7700000000000085
 30
0.0
 11
-27.99999999999995
 21
11.000000000000011
 31
0.0
  0
LINE
  5
18D8
  8
250
 10
-27.99999999999995
 20
11.000000000000011
 30
0.0
 11
-27.99999999999995
 21
8.7700000000000085
 31
0.0
  0
TEXT
  5
18D9
  8
250
 10
-22.0
 20
-3.8285713160592549
 30
0.0
 40
3.0
  1
\U+2205
 50
90.0
  0
TEXT
  5
18DA
  8
250
 10
-22.100000000000001
 20
-1.1142856017735401
 30
0.0
 40
2.799999999999998
  1
19
 50
90.0
  0
LINE
  5
18DB
  8
250
 10
-21.371666666666648
 20
7.2699999479509589
 30
0.0
 11
-21.0
 21
9.4999999479509594
 31
0.0
  0
LINE
  5
18DC
  8
250
 10
-20.62833333333333
 20
7.2699999479509589
 30
0.0
 11
-21.0
 21
9.4999999479509594
 31
0.0
  0
LINE
  5
18DD
  8
250
 10
-21.0
 20
9.4999999479509594
 30
0.0
 11
-21.0
 21
7.2699999479509589
 31
0.0
  0
LINE
  5
18DE
  8
250
 10
-20.628333333333341
 20
-7.2699997229266069
 30
0.0
 11
-21.0
 21
-9.4999997229266082
 31
0.0
  0
LINE
  5
18DF
  8
250
 10
-21.37166666666667
 20
-7.2699997229266069
 30
0.0
 11
-21.0
 21
-9.4999997229266082
 31
0.0
  0
LINE
  5
18E0
  8
250
 10
-21.0
 20
-9.4999997229266082
 30
0.0
 11
-21.0
 21
-7.2699997229266069
 31
0.0
  0
TEXT
  5
18E1
  8
250
 10
11.27766781442439
 20
22.62699232511736
 30
0.0
 40
2.799999999999998
  1
45üï
 50
18.107756505035649
  0
LINE
  5
18E2
  8
250
 10
12.68603265305061
 20
21.067250804294979
 30
0.0
 11
10.74078234070072
 21
19.915279739808621
 31
0.0
  0
LINE
  5
18E3
  8
250
 10
12.20727175038747
 20
21.63587409130108
 30
0.0
 11
10.74078234070072
 21
19.915279739808621
 31
0.0
  0
LINE
  5
18E4
  8
250
 10
10.74078234070072
 20
19.915279739808621
 30
0.0
 11
12.44665220171904
 21
21.351562447798031
 31
0.0
  0
LINE
  5
18E5
  8
250
 10
17.71035069223338
 20
23.91532402382343
 30
0.0
 11
19.963959231972719
 21
23.735644696339591
 31
0.0
  0
LINE
  5
18E6
  8
250
 10
17.773892993575888
 20
23.174711560800741
 30
0.0
 11
19.963959231972719
 21
23.735644696339591
 31
0.0
  0
LINE
  5
18E7
  8
250
 10
19.963959231972719
 20
23.735644696339591
 30
0.0
 11
17.742121842904641
 21
23.54501779231208
 31
0.0
  0
TEXT
  5
18E8
  8
250
 10
7.3147914401488352
 20
29.0
 30
0.0
 40
2.799999999999998
  1
20
  0
LINE
  5
18E9
  8
250
 10
17.732916213631
 20
28.371666666666659
 30
0.0
 11
19.962916213631001
 21
28.0
 31
0.0
  0
LINE
  5
18EA
  8
250
 10
17.732916213631
 20
27.62833333333333
 30
0.0
 11
19.962916213631001
 21
28.0
 31
0.0
  0
LINE
  5
18EB
  8
250
 10
19.962916213631001
 20
28.0
 30
0.0
 11
17.732916213631
 21
28.0
 31
0.0
  0
LINE
  5
18EC
  8
250
 10
2.23
 20
27.62833333333333
 30
0.0
 11
0.0000000000000011
 21
28.0
 31
0.0
  0
LINE
  5
18ED
  8
250
 10
2.23
 20
28.371666666666659
 30
0.0
 11
0.0000000000000011
 21
28.0
 31
0.0
  0
LINE
  5
18EE
  8
250
 10
0.0000000000000011
 20
28.0
 30
0.0
 11
2.23
 21
28.0
 31
0.0
  0
TEXT
  5
18EF
  8
250
 10
40.838282923057307
 20
-3.7999999999999989
 30
0.0
 40
2.799999999999998
  1
\U+220532
 50
90.0
  0
LINE
  5
18F0
  8
250
 10
41.628333333333337
 20
13.769999999999991
 30
0.0
 11
42.000000000000007
 21
15.99999999999998
 31
0.0
  0
LINE
  5
18F1
  8
250
 10
42.371666666666663
 20
13.769999999999991
 30
0.0
 11
42.000000000000007
 21
15.99999999999998
 31
0.0
  0
LINE
  5
18F2
  8
250
 10
42.000000000000007
 20
15.99999999999998
 30
0.0
 11
42.000000000000007
 21
13.769999999999991
 31
0.0
  0
TEXT
  5
18F3
  8
250
 10
33.838282923057307
 20
-3.7999999999999958
 30
0.0
 40
2.799999999999998
  1
\U+220522
 50
90.0
  0
LINE
  5
18F4
  8
250
 10
34.62833333333333
 20
8.7699999999999942
 30
0.0
 11
35.0
 21
10.99999999999998
 31
0.0
  0
LINE
  5
18F5
  8
250
 10
35.37166666666667
 20
8.7699999999999942
 30
0.0
 11
35.0
 21
10.99999999999998
 31
0.0
  0
LINE
  5
18F6
  8
250
 10
35.0
 20
10.99999999999998
 30
0.0
 11
35.0
 21
8.7699999999999942
 31
0.0
  0
TEXT
  5
18F7
  8
250
 10
48.0
 20
-5.8952380952380974
 30
0.0
 40
3.0
  1
\U+2205
 50
90.0
  0
TEXT
  5
18F8
  8
250
 10
47.899999999999999
 20
-3.180952380952383
 30
0.0
 40
2.799999999999998
  1
32.7
 50
90.0
  0
LINE
  5
18F9
  8
250
 10
48.628333333333337
 20
14.11999999999998
 30
0.0
 11
49.000000000000007
 21
16.34999999999998
 31
0.0
  0
LINE
  5
18FA
  8
250
 10
49.371666666666677
 20
14.11999999999998
 30
0.0
 11
49.000000000000007
 21
16.34999999999998
 31
0.0
  0
LINE
  5
18FB
  8
250
 10
49.000000000000007
 20
16.34999999999998
 30
0.0
 11
49.000000000000007
 21
14.11999999999998
 31
0.0
  0
LINE
  5
18FC
  8
250
 10
49.371666666666663
 20
-14.119999999999999
 30
0.0
 11
48.999999999999993
 21
-16.350000000000001
 31
0.0
  0
LINE
  5
18FD
  8
250
 10
48.628333333333323
 20
-14.119999999999999
 30
0.0
 11
48.999999999999993
 21
-16.350000000000001
 31
0.0
  0
LINE
  5
18FE
  8
250
 10
48.999999999999993
 20
-16.350000000000001
 30
0.0
 11
48.999999999999993
 21
-14.119999999999999
 31
0.0
  0
LINE
  5
1F96
  8
241
 10
12.39780522882937
 20
12.05433209246695
 30
0.0
 11
7.6264943927526332
 21
8.6805050219475977
 31
0.0
  0
LINE
  5
1F97
  8
241
 10
19.075417891144731
 20
9.0327053261650008
 30
0.0
 11
19.500000402331342
 21
7.9439946733523374
 31
0.0
  0
LINE
  5
1F98
  8
240
 10
19.500000402331342
 20
7.9439946733523374
 30
0.0
 11
19.863536581397039
 21
7.0118184757847057
 31
0.0
  0
LINE
  5
1F99
  8
241
 10
19.96395923197268
 20
6.4340260947779191
 30
0.0
 11
14.30710591375826
 21
10.43402613596848
 31
0.0
  0
LINE
  5
1F9A
  8
241
 10
12.89289258420466
 20
10.43402613596848
 30
0.0
 11
7.2360392659902431
 21
6.4340260947779191
 31
0.0
  0
LINE
  5
1F9B
  8
241
 10
6.599999964237198
 20
4.9963715323125637
 30
0.0
 11
6.599999964237198
 21
9.499999947950954
 31
0.0
  0
LINE
  5
1F9C
  8
240
 10
19.96395923197268
 20
-8.5553466021837608
 30
0.0
 11
19.500000402331342
 21
-8.8834160246313161
 31
0.0
  0
LINE
  5
1F9D
  8
241
 10
19.500000402331342
 20
-8.8834150908264569
 30
0.0
 11
14.30710591375826
 21
-12.555346602215341
 31
0.0
  0
LINE
  5
1F9E
  8
241
 10
14.30710591375826
 20
1.434025971261377
 30
0.0
 11
19.500000402331331
 21
5.105957596000084
 31
0.0
  0
LINE
  5
1F9F
  8
240
 10
19.500000402331331
 20
5.105957596000084
 30
0.0
 11
19.96395923197268
 21
5.434026094770017
 31
0.0
  0
POLYLINE
  5
1FA0
  8
241
 66
     1
 10
0.0
 20
0.0
 30
0.0
 70
     8
  0
VERTEX
  5
1FA1
  8
241
 10
14.199999999999999
 20
-9.9921199999999981
 30
0.0
 70
    32
  0
VERTEX
  5
1FA2
  8
241
 10
14.2308
 20
-9.9702300000000008
 30
0.0
 70
    32
  0
VERTEX
  5
1FA3
  8
241
 10
14.2615
 20
-9.9483399999999982
 30
0.0
 70
    32
  0
VERTEX
  5
1FA4
  8
241
 10
14.292299999999999
 20
-9.9264500000000009
 30
0.0
 70
    32
  0
VERTEX
  5
1FA5
  8
241
 10
14.323
 20
-9.9045699999999997
 30
0.0
 70
    32
  0
VERTEX
  5
1FA6
  8
241
 10
14.3538
 20
-9.8826800000000006
 30
0.0
 70
    32
  0
VERTEX
  5
1FA7
  8
241
 10
14.384600000000001
 20
-9.8607899999999997
 30
0.0
 70
    32
  0
VERTEX
  5
1FA8
  8
241
 10
14.4153
 20
-9.8389000000000006
 30
0.0
 70
    32
  0
VERTEX
  5
1FA9
  8
241
 10
14.446099999999999
 20
-9.8170099999999998
 30
0.0
 70
    32
  0
VERTEX
  5
1FAA
  8
241
 10
14.476900000000001
 20
-9.7951199999999972
 30
0.0
 70
    32
  0
VERTEX
  5
1FAB
  8
241
 10
14.5076
 20
-9.7732299999999999
 30
0.0
 70
    32
  0
VERTEX
  5
1FAC
  8
241
 10
14.538399999999999
 20
-9.751339999999999
 30
0.0
 70
    32
  0
VERTEX
  5
1FAD
  8
241
 10
14.569100000000001
 20
-9.7294499999999982
 30
0.0
 70
    32
  0
VERTEX
  5
1FAE
  8
241
 10
14.5999
 20
-9.7075600000000009
 30
0.0
 70
    32
  0
VERTEX
  5
1FAF
  8
241
 10
14.630699999999999
 20
-9.68567
 30
0.0
 70
    32
  0
VERTEX
  5
1FB0
  8
241
 10
14.6614
 20
-9.6637799999999991
 30
0.0
 70
    32
  0
VERTEX
  5
1FB1
  8
241
 10
14.6922
 20
-9.6418900000000001
 30
0.0
 70
    32
  0
VERTEX
  5
1FB2
  8
241
 10
14.723000000000001
 20
-9.6199999999999992
 30
0.0
 70
    32
  0
VERTEX
  5
1FB3
  8
241
 10
14.7537
 20
-9.5981100000000001
 30
0.0
 70
    32
  0
VERTEX
  5
1FB4
  8
241
 10
14.7845
 20
-9.5762199999999993
 30
0.0
 70
    32
  0
VERTEX
  5
1FB5
  8
241
 10
14.815200000000001
 20
-9.5543300000000002
 30
0.0
 70
    32
  0
VERTEX
  5
1FB6
  8
241
 10
14.846
 20
-9.5324399999999994
 30
0.0
 70
    32
  0
VERTEX
  5
1FB7
  8
241
 10
14.876799999999999
 20
-9.5105500000000003
 30
0.0
 70
    32
  0
VERTEX
  5
1FB8
  8
241
 10
14.907500000000001
 20
-9.4886499999999998
 30
0.0
 70
    32
  0
VERTEX
  5
1FB9
  8
241
 10
14.9383
 20
-9.4667600000000007
 30
0.0
 70
    32
  0
VERTEX
  5
1FBA
  8
241
 10
14.968999999999999
 20
-9.4448699999999999
 30
0.0
 70
    32
  0
VERTEX
  5
1FBB
  8
241
 10
14.9998
 20
-9.4229800000000008
 30
0.0
 70
    32
  0
VERTEX
  5
1FBC
  8
241
 10
15.0306
 20
-9.4010899999999982
 30
0.0
 70
    32
  0
VERTEX
  5
1FBD
  8
241
 10
15.061299999999999
 20
-9.3792000000000009
 30
0.0
 70
    32
  0
VERTEX
  5
1FBE
  8
241
 10
15.0921
 20
-9.35731
 30
0.0
 70
    32
  0
VERTEX
  5
1FBF
  8
241
 10
15.1228
 20
-9.3354199999999992
 30
0.0
 70
    32
  0
VERTEX
  5
1FC0
  8
241
 10
15.153600000000001
 20
-9.3135200000000005
 30
0.0
 70
    32
  0
VERTEX
  5
1FC1
  8
241
 10
15.1844
 20
-9.2916299999999996
 30
0.0
 70
    32
  0
VERTEX
  5
1FC2
  8
241
 10
15.2151
 20
-9.2697399999999988
 30
0.0
 70
    32
  0
VERTEX
  5
1FC3
  8
241
 10
15.245900000000001
 20
-9.2478499999999997
 30
0.0
 70
    32
  0
VERTEX
  5
1FC4
  8
241
 10
15.2766
 20
-9.2259600000000006
 30
0.0
 70
    32
  0
VERTEX
  5
1FC5
  8
241
 10
15.307399999999999
 20
-9.2040600000000001
 30
0.0
 70
    32
  0
VERTEX
  5
1FC6
  8
241
 10
15.338100000000001
 20
-9.1821699999999993
 30
0.0
 70
    32
  0
VERTEX
  5
1FC7
  8
241
 10
15.3689
 20
-9.1602800000000002
 30
0.0
 70
    32
  0
VERTEX
  5
1FC8
  8
241
 10
15.399699999999999
 20
-9.1383799999999997
 30
0.0
 70
    32
  0
VERTEX
  5
1FC9
  8
241
 10
15.430400000000001
 20
-9.1164899999999989
 30
0.0
 70
    32
  0
VERTEX
  5
1FCA
  8
241
 10
15.4612
 20
-9.0945999999999998
 30
0.0
 70
    32
  0
VERTEX
  5
1FCB
  8
241
 10
15.491899999999999
 20
-9.0726999999999993
 30
0.0
 70
    32
  0
VERTEX
  5
1FCC
  8
241
 10
15.5227
 20
-9.0508100000000002
 30
0.0
 70
    32
  0
VERTEX
  5
1FCD
  8
241
 10
15.5534
 20
-9.0289199999999994
 30
0.0
 70
    32
  0
VERTEX
  5
1FCE
  8
241
 10
15.584199999999999
 20
-9.0070199999999971
 30
0.0
 70
    32
  0
VERTEX
  5
1FCF
  8
241
 10
15.6149
 20
-8.9851299999999998
 30
0.0
 70
    32
  0
VERTEX
  5
1FD0
  8
241
 10
15.6457
 20
-8.9632300000000011
 30
0.0
 70
    32
  0
VERTEX
  5
1FD1
  8
241
 10
15.676500000000001
 20
-8.9413400000000003
 30
0.0
 70
    32
  0
VERTEX
  5
1FD2
  8
241
 10
15.7072
 20
-8.9194399999999998
 30
0.0
 70
    32
  0
VERTEX
  5
1FD3
  8
241
 10
15.738
 20
-8.8975500000000007
 30
0.0
 70
    32
  0
VERTEX
  5
1FD4
  8
241
 10
15.768700000000001
 20
-8.8756500000000003
 30
0.0
 70
    32
  0
VERTEX
  5
1FD5
  8
241
 10
15.7995
 20
-8.8537600000000012
 30
0.0
 70
    32
  0
VERTEX
  5
1FD6
  8
241
 10
15.8302
 20
-8.8318600000000007
 30
0.0
 70
    32
  0
VERTEX
  5
1FD7
  8
241
 10
15.861000000000001
 20
-8.8099600000000002
 30
0.0
 70
    32
  0
VERTEX
  5
1FD8
  8
241
 10
15.8917
 20
-8.7880699999999994
 30
0.0
 70
    32
  0
VERTEX
  5
1FD9
  8
241
 10
15.922499999999999
 20
-8.7661699999999971
 30
0.0
 70
    32
  0
VERTEX
  5
1FDA
  8
241
 10
15.953200000000001
 20
-8.7442700000000002
 30
0.0
 70
    32
  0
VERTEX
  5
1FDB
  8
241
 10
15.984
 20
-8.7223800000000011
 30
0.0
 70
    32
  0
VERTEX
  5
1FDC
  8
241
 10
16.014700000000001
 20
-8.7004800000000007
 30
0.0
 70
    32
  0
VERTEX
  5
1FDD
  8
241
 10
16.045500000000001
 20
-8.6785800000000002
 30
0.0
 70
    32
  0
VERTEX
  5
1FDE
  8
241
 10
16.0762
 20
-8.6566799999999997
 30
0.0
 70
    32
  0
VERTEX
  5
1FDF
  8
241
 10
16.106999999999999
 20
-8.634780000000001
 30
0.0
 70
    32
  0
VERTEX
  5
1FE0
  8
241
 10
16.137699999999999
 20
-8.6128900000000002
 30
0.0
 70
    32
  0
VERTEX
  5
1FE1
  8
241
 10
16.168500000000002
 20
-8.5909899999999997
 30
0.0
 70
    32
  0
VERTEX
  5
1FE2
  8
241
 10
16.199200000000001
 20
-8.5690899999999992
 30
0.0
 70
    32
  0
VERTEX
  5
1FE3
  8
241
 10
16.23
 20
-8.5471899999999987
 30
0.0
 70
    32
  0
VERTEX
  5
1FE4
  8
241
 10
16.2607
 20
-8.52529
 30
0.0
 70
    32
  0
VERTEX
  5
1FE5
  8
241
 10
16.291499999999999
 20
-8.5033899999999996
 30
0.0
 70
    32
  0
VERTEX
  5
1FE6
  8
241
 10
16.322199999999999
 20
-8.4814899999999991
 30
0.0
 70
    32
  0
VERTEX
  5
1FE7
  8
241
 10
16.353000000000002
 20
-8.4595899999999986
 30
0.0
 70
    32
  0
VERTEX
  5
1FE8
  8
241
 10
16.383700000000001
 20
-8.4376800000000003
 30
0.0
 70
    32
  0
VERTEX
  5
1FE9
  8
241
 10
16.4145
 20
-8.4157799999999998
 30
0.0
 70
    32
  0
VERTEX
  5
1FEA
  8
241
 10
16.4452
 20
-8.3938800000000011
 30
0.0
 70
    32
  0
VERTEX
  5
1FEB
  8
241
 10
16.475899999999999
 20
-8.3719800000000006
 30
0.0
 70
    32
  0
VERTEX
  5
1FEC
  8
241
 10
16.506699999999999
 20
-8.3500800000000002
 30
0.0
 70
    32
  0
VERTEX
  5
1FED
  8
241
 10
16.537400000000002
 20
-8.3281700000000001
 30
0.0
 70
    32
  0
VERTEX
  5
1FEE
  8
241
 10
16.568200000000001
 20
-8.3062699999999996
 30
0.0
 70
    32
  0
VERTEX
  5
1FEF
  8
241
 10
16.5989
 20
-8.2843699999999991
 30
0.0
 70
    32
  0
VERTEX
  5
1FF0
  8
241
 10
16.6297
 20
-8.2624600000000008
 30
0.0
 70
    32
  0
VERTEX
  5
1FF1
  8
241
 10
16.660399999999999
 20
-8.2405600000000003
 30
0.0
 70
    32
  0
VERTEX
  5
1FF2
  8
241
 10
16.691099999999999
 20
-8.2186500000000002
 30
0.0
 70
    32
  0
VERTEX
  5
1FF3
  8
241
 10
16.721900000000002
 20
-8.1967499999999998
 30
0.0
 70
    32
  0
VERTEX
  5
1FF4
  8
241
 10
16.752600000000001
 20
-8.1748399999999997
 30
0.0
 70
    32
  0
VERTEX
  5
1FF5
  8
241
 10
16.7834
 20
-8.1529399999999992
 30
0.0
 70
    32
  0
VERTEX
  5
1FF6
  8
241
 10
16.8141
 20
-8.1310300000000009
 30
0.0
 70
    32
  0
VERTEX
  5
1FF7
  8
241
 10
16.844799999999999
 20
-8.1091199999999972
 30
0.0
 70
    32
  0
VERTEX
  5
1FF8
  8
241
 10
16.875599999999999
 20
-8.0872200000000003
 30
0.0
 70
    32
  0
VERTEX
  5
1FF9
  8
241
 10
16.906300000000002
 20
-8.0653100000000002
 30
0.0
 70
    32
  0
VERTEX
  5
1FFA
  8
241
 10
16.937000000000001
 20
-8.0434000000000001
 30
0.0
 70
    32
  0
VERTEX
  5
1FFB
  8
241
 10
16.9678
 20
-8.02149
 30
0.0
 70
    32
  0
VERTEX
  5
1FFC
  8
241
 10
16.9985
 20
-7.999579999999999
 30
0.0
 70
    32
  0
VERTEX
  5
1FFD
  8
241
 10
17.029199999999999
 20
-7.9776699999999989
 30
0.0
 70
    32
  0
VERTEX
  5
1FFE
  8
241
 10
17.059999999999999
 20
-7.9557599999999997
 30
0.0
 70
    32
  0
VERTEX
  5
1FFF
  8
241
 10
17.090699999999998
 20
-7.9338499999999987
 30
0.0
 70
    32
  0
VERTEX
  5
2000
  8
241
 10
17.121400000000001
 20
-7.9119399999999986
 30
0.0
 70
    32
  0
VERTEX
  5
2001
  8
241
 10
17.152200000000001
 20
-7.8900300000000003
 30
0.0
 70
    32
  0
VERTEX
  5
2002
  8
241
 10
17.1829
 20
-7.8681199999999993
 30
0.0
 70
    32
  0
VERTEX
  5
2003
  8
241
 10
17.2136
 20
-7.846210000000001
 30
0.0
 70
    32
  0
VERTEX
  5
2004
  8
241
 10
17.244399999999999
 20
-7.8243
 30
0.0
 70
    32
  0
VERTEX
  5
2005
  8
241
 10
17.275099999999998
 20
-7.8023800000000003
 30
0.0
 70
    32
  0
VERTEX
  5
2006
  8
241
 10
17.305800000000001
 20
-7.7804699999999993
 30
0.0
 70
    32
  0
VERTEX
  5
2007
  8
241
 10
17.336500000000001
 20
-7.758560000000001
 30
0.0
 70
    32
  0
VERTEX
  5
2008
  8
241
 10
17.3673
 20
-7.7366399999999986
 30
0.0
 70
    32
  0
VERTEX
  5
2009
  8
241
 10
17.398
 20
-7.7147300000000003
 30
0.0
 70
    32
  0
VERTEX
  5
200A
  8
241
 10
17.428699999999999
 20
-7.6928099999999997
 30
0.0
 70
    32
  0
VERTEX
  5
200B
  8
241
 10
17.459399999999999
 20
-7.6708999999999987
 30
0.0
 70
    32
  0
VERTEX
  5
200C
  8
241
 10
17.490200000000002
 20
-7.648979999999999
 30
0.0
 70
    32
  0
VERTEX
  5
200D
  8
241
 10
17.520900000000001
 20
-7.6270600000000002
 30
0.0
 70
    32
  0
VERTEX
  5
200E
  8
241
 10
17.551600000000001
 20
-7.6051399999999987
 30
0.0
 70
    32
  0
VERTEX
  5
200F
  8
241
 10
17.5823
 20
-7.5832300000000004
 30
0.0
 70
    32
  0
VERTEX
  5
2010
  8
241
 10
17.613099999999999
 20
-7.5613099999999998
 30
0.0
 70
    32
  0
VERTEX
  5
2011
  8
241
 10
17.643799999999999
 20
-7.5393899999999991
 30
0.0
 70
    32
  0
VERTEX
  5
2012
  8
241
 10
17.674499999999998
 20
-7.5174699999999994
 30
0.0
 70
    32
  0
VERTEX
  5
2013
  8
241
 10
17.705200000000001
 20
-7.4955499999999988
 30
0.0
 70
    32
  0
VERTEX
  5
2014
  8
241
 10
17.735900000000001
 20
-7.4736299999999991
 30
0.0
 70
    32
  0
VERTEX
  5
2015
  8
241
 10
17.7667
 20
-7.4517100000000003
 30
0.0
 70
    32
  0
VERTEX
  5
2016
  8
241
 10
17.7974
 20
-7.4297899999999988
 30
0.0
 70
    32
  0
VERTEX
  5
2017
  8
241
 10
17.828099999999999
 20
-7.4078699999999991
 30
0.0
 70
    32
  0
VERTEX
  5
2018
  8
241
 10
17.858799999999999
 20
-7.3859399999999988
 30
0.0
 70
    32
  0
VERTEX
  5
2019
  8
241
 10
17.889500000000002
 20
-7.36402
 30
0.0
 70
    32
  0
VERTEX
  5
201A
  8
241
 10
17.920200000000001
 20
-7.3421000000000003
 30
0.0
 70
    32
  0
VERTEX
  5
201B
  8
241
 10
17.950900000000001
 20
-7.3201700000000001
 30
0.0
 70
    32
  0
VERTEX
  5
201C
  8
241
 10
17.9817
 20
-7.2982500000000003
 30
0.0
 70
    32
  0
VERTEX
  5
201D
  8
241
 10
18.0124
 20
-7.2763200000000001
 30
0.0
 70
    32
  0
VERTEX
  5
201E
  8
241
 10
18.043099999999999
 20
-7.254389999999999
 30
0.0
 70
    32
  0
VERTEX
  5
201F
  8
241
 10
18.073799999999999
 20
-7.2324699999999993
 30
0.0
 70
    32
  0
VERTEX
  5
2020
  8
241
 10
18.104500000000002
 20
-7.2105399999999991
 30
0.0
 70
    32
  0
VERTEX
  5
2021
  8
241
 10
18.135200000000001
 20
-7.1886099999999997
 30
0.0
 70
    32
  0
VERTEX
  5
2022
  8
241
 10
18.165900000000001
 20
-7.1666800000000004
 30
0.0
 70
    32
  0
VERTEX
  5
2023
  8
241
 10
18.1966
 20
-7.1447599999999998
 30
0.0
 70
    32
  0
VERTEX
  5
2024
  8
241
 10
18.2273
 20
-7.1228300000000004
 30
0.0
 70
    32
  0
VERTEX
  5
2025
  8
241
 10
18.257999999999999
 20
-7.1009000000000002
 30
0.0
 70
    32
  0
VERTEX
  5
2026
  8
241
 10
18.288699999999999
 20
-7.0789600000000004
 30
0.0
 70
    32
  0
VERTEX
  5
2027
  8
241
 10
18.319400000000002
 20
-7.0570300000000001
 30
0.0
 70
    32
  0
VERTEX
  5
2028
  8
241
 10
18.350100000000001
 20
-7.035099999999999
 30
0.0
 70
    32
  0
VERTEX
  5
2029
  8
241
 10
18.380800000000001
 20
-7.0131699999999988
 30
0.0
 70
    32
  0
VERTEX
  5
202A
  8
241
 10
18.4115
 20
-6.9912299999999998
 30
0.0
 70
    32
  0
VERTEX
  5
202B
  8
241
 10
18.4422
 20
-6.9692999999999987
 30
0.0
 70
    32
  0
VERTEX
  5
202C
  8
241
 10
18.472899999999999
 20
-6.9473599999999998
 30
0.0
 70
    32
  0
VERTEX
  5
202D
  8
241
 10
18.503599999999999
 20
-6.9254300000000004
 30
0.0
 70
    32
  0
VERTEX
  5
202E
  8
241
 10
18.534300000000002
 20
-6.9034899999999988
 30
0.0
 70
    32
  0
VERTEX
  5
202F
  8
241
 10
18.565000000000001
 20
-6.8815600000000003
 30
0.0
 70
    32
  0
VERTEX
  5
2030
  8
241
 10
18.595700000000001
 20
-6.8596199999999987
 30
0.0
 70
    32
  0
VERTEX
  5
2031
  8
241
 10
18.6264
 20
-6.8376799999999998
 30
0.0
 70
    32
  0
VERTEX
  5
2032
  8
241
 10
18.6571
 20
-6.815739999999999
 30
0.0
 70
    32
  0
VERTEX
  5
2033
  8
241
 10
18.687799999999999
 20
-6.7938000000000001
 30
0.0
 70
    32
  0
VERTEX
  5
2034
  8
241
 10
18.718499999999999
 20
-6.7718600000000002
 30
0.0
 70
    32
  0
VERTEX
  5
2035
  8
241
 10
18.749199999999998
 20
-6.7499199999999986
 30
0.0
 70
    32
  0
VERTEX
  5
2036
  8
241
 10
18.779800000000002
 20
-6.7279799999999996
 30
0.0
 70
    32
  0
VERTEX
  5
2037
  8
241
 10
18.810500000000001
 20
-6.7060399999999989
 30
0.0
 70
    32
  0
VERTEX
  5
2038
  8
241
 10
18.841200000000001
 20
-6.6840899999999994
 30
0.0
 70
    32
  0
VERTEX
  5
2039
  8
241
 10
18.8719
 20
-6.6621499999999987
 30
0.0
 70
    32
  0
VERTEX
  5
203A
  8
241
 10
18.9026
 20
-6.6402099999999997
 30
0.0
 70
    32
  0
VERTEX
  5
203B
  8
241
 10
18.933299999999999
 20
-6.6182600000000003
 30
0.0
 70
    32
  0
VERTEX
  5
203C
  8
241
 10
18.963899999999999
 20
-6.5963199999999986
 30
0.0
 70
    32
  0
VERTEX
  5
203D
  8
241
 10
18.994599999999998
 20
-6.57437
 30
0.0
 70
    32
  0
VERTEX
  5
203E
  8
241
 10
19.025300000000001
 20
-6.5524199999999988
 30
0.0
 70
    32
  0
VERTEX
  5
203F
  8
241
 10
19.056000000000001
 20
-6.5304699999999993
 30
0.0
 70
    32
  0
VERTEX
  5
2040
  8
241
 10
19.0867
 20
-6.5085300000000004
 30
0.0
 70
    32
  0
SEQEND
  5
2041
  8
241
  0
LINE
  5
2042
  8
240
 10
19.96395923197268
 20
-7.5553467668120211
 30
0.0
 11
19.96395923197268
 21
-8.5553466021837608
 31
0.0
  0
LINE
  5
2043
  8
241
 10
19.086664542555791
 20
-6.5085257340116973
 30
0.0
 11
19.863536581397039
 21
-7.9764635891536937
 31
0.0
  0
LINE
  5
2044
  8
241
 10
19.863536581397039
 20
-7.9764635891536937
 30
0.0
 11
19.96395923197268
 21
-8.5553466021837608
 31
0.0
  0
LINE
  5
2045
  8
240
 10
19.500000402331342
 20
-10.54580396300662
 30
0.0
 11
19.500000402331342
 21
-8.8834150908264569
 31
0.0
  0
POLYLINE
  5
2046
  8
241
 66
     1
 10
0.0
 20
0.0
 30
0.0
 70
     8
  0
VERTEX
  5
2047
  8
241
 10
19.151399999999999
 20
-10.8573
 30
0.0
 70
    32
  0
VERTEX
  5
2048
  8
241
 10
19.1465
 20
-10.85
 30
0.0
 70
    32
  0
VERTEX
  5
2049
  8
241
 10
19.1416
 20
-10.842700000000001
 30
0.0
 70
    32
  0
VERTEX
  5
204A
  8
241
 10
19.136700000000001
 20
-10.8355
 30
0.0
 70
    32
  0
VERTEX
  5
204B
  8
241
 10
19.131900000000002
 20
-10.828200000000001
 30
0.0
 70
    32
  0
VERTEX
  5
204C
  8
241
 10
19.126999999999999
 20
-10.821
 30
0.0
 70
    32
  0
VERTEX
  5
204D
  8
241
 10
19.1221
 20
-10.813800000000001
 30
0.0
 70
    32
  0
VERTEX
  5
204E
  8
241
 10
19.1172
 20
-10.8066
 30
0.0
 70
    32
  0
VERTEX
  5
204F
  8
241
 10
19.112300000000001
 20
-10.7994
 30
0.0
 70
    32
  0
VERTEX
  5
2050
  8
241
 10
19.107399999999998
 20
-10.792199999999999
 30
0.0
 70
    32
  0
VERTEX
  5
2051
  8
241
 10
19.102499999999999
 20
-10.7851
 30
0.0
 70
    32
  0
VERTEX
  5
2052
  8
241
 10
19.0976
 20
-10.777900000000001
 30
0.0
 70
    32
  0
VERTEX
  5
2053
  8
241
 10
19.092700000000001
 20
-10.770799999999999
 30
0.0
 70
    32
  0
VERTEX
  5
2054
  8
241
 10
19.087800000000001
 20
-10.7636
 30
0.0
 70
    32
  0
VERTEX
  5
2055
  8
241
 10
19.082899999999999
 20
-10.756500000000001
 30
0.0
 70
    32
  0
VERTEX
  5
2056
  8
241
 10
19.077999999999999
 20
-10.7494
 30
0.0
 70
    32
  0
VERTEX
  5
2057
  8
241
 10
19.0731
 20
-10.7423
 30
0.0
 70
    32
  0
VERTEX
  5
2058
  8
241
 10
19.068200000000001
 20
-10.735300000000001
 30
0.0
 70
    32
  0
VERTEX
  5
2059
  8
241
 10
19.063300000000002
 20
-10.728199999999999
 30
0.0
 70
    32
  0
VERTEX
  5
205A
  8
241
 10
19.058399999999999
 20
-10.7211
 30
0.0
 70
    32
  0
VERTEX
  5
205B
  8
241
 10
19.0534
 20
-10.7141
 30
0.0
 70
    32
  0
VERTEX
  5
205C
  8
241
 10
19.048500000000001
 20
-10.707100000000001
 30
0.0
 70
    32
  0
VERTEX
  5
205D
  8
241
 10
19.043600000000001
 20
-10.699999999999999
 30
0.0
 70
    32
  0
VERTEX
  5
205E
  8
241
 10
19.038699999999999
 20
-10.693
 30
0.0
 70
    32
  0
VERTEX
  5
205F
  8
241
 10
19.033799999999999
 20
-10.6861
 30
0.0
 70
    32
  0
VERTEX
  5
2060
  8
241
 10
19.0289
 20
-10.6791
 30
0.0
 70
    32
  0
VERTEX
  5
2061
  8
241
 10
19.023900000000001
 20
-10.6721
 30
0.0
 70
    32
  0
VERTEX
  5
2062
  8
241
 10
19.018999999999998
 20
-10.6652
 30
0.0
 70
    32
  0
VERTEX
  5
2063
  8
241
 10
19.014099999999999
 20
-10.658200000000001
 30
0.0
 70
    32
  0
VERTEX
  5
2064
  8
241
 10
19.0092
 20
-10.651300000000001
 30
0.0
 70
    32
  0
VERTEX
  5
2065
  8
241
 10
19.004200000000001
 20
-10.644399999999999
 30
0.0
 70
    32
  0
VERTEX
  5
2066
  8
241
 10
18.999300000000002
 20
-10.637499999999999
 30
0.0
 70
    32
  0
VERTEX
  5
2067
  8
241
 10
18.994399999999999
 20
-10.630599999999999
 30
0.0
 70
    32
  0
VERTEX
  5
2068
  8
241
 10
18.9894
 20
-10.623699999999999
 30
0.0
 70
    32
  0
VERTEX
  5
2069
  8
241
 10
18.984500000000001
 20
-10.6168
 30
0.0
 70
    32
  0
VERTEX
  5
206A
  8
241
 10
18.979600000000001
 20
-10.609999999999999
 30
0.0
 70
    32
  0
VERTEX
  5
206B
  8
241
 10
18.974599999999999
 20
-10.603199999999999
 30
0.0
 70
    32
  0
VERTEX
  5
206C
  8
241
 10
18.9697
 20
-10.596299999999999
 30
0.0
 70
    32
  0
VERTEX
  5
206D
  8
241
 10
18.964700000000001
 20
-10.589499999999999
 30
0.0
 70
    32
  0
VERTEX
  5
206E
  8
241
 10
18.959800000000001
 20
-10.582700000000001
 30
0.0
 70
    32
  0
VERTEX
  5
206F
  8
241
 10
18.954899999999999
 20
-10.575900000000001
 30
0.0
 70
    32
  0
VERTEX
  5
2070
  8
241
 10
18.9499
 20
-10.569100000000001
 30
0.0
 70
    32
  0
VERTEX
  5
2071
  8
241
 10
18.945
 20
-10.5624
 30
0.0
 70
    32
  0
VERTEX
  5
2072
  8
241
 10
18.940000000000001
 20
-10.5556
 30
0.0
 70
    32
  0
VERTEX
  5
2073
  8
241
 10
18.935099999999998
 20
-10.5489
 30
0.0
 70
    32
  0
VERTEX
  5
2074
  8
241
 10
18.930099999999999
 20
-10.542199999999999
 30
0.0
 70
    32
  0
VERTEX
  5
2075
  8
241
 10
18.9252
 20
-10.535500000000001
 30
0.0
 70
    32
  0
VERTEX
  5
2076
  8
241
 10
18.920200000000001
 20
-10.5288
 30
0.0
 70
    32
  0
VERTEX
  5
2077
  8
241
 10
18.915199999999999
 20
-10.5221
 30
0.0
 70
    32
  0
VERTEX
  5
2078
  8
241
 10
18.910299999999999
 20
-10.5154
 30
0.0
 70
    32
  0
VERTEX
  5
2079
  8
241
 10
18.9053
 20
-10.508699999999999
 30
0.0
 70
    32
  0
VERTEX
  5
207A
  8
241
 10
18.900400000000001
 20
-10.5021
 30
0.0
 70
    32
  0
VERTEX
  5
207B
  8
241
 10
18.895399999999999
 20
-10.4954
 30
0.0
 70
    32
  0
VERTEX
  5
207C
  8
241
 10
18.8904
 20
-10.488799999999999
 30
0.0
 70
    32
  0
VERTEX
  5
207D
  8
241
 10
18.8855
 20
-10.482200000000001
 30
0.0
 70
    32
  0
VERTEX
  5
207E
  8
241
 10
18.880500000000001
 20
-10.4756
 30
0.0
 70
    32
  0
VERTEX
  5
207F
  8
241
 10
18.875499999999999
 20
-10.468999999999999
 30
0.0
 70
    32
  0
VERTEX
  5
2080
  8
241
 10
18.8706
 20
-10.462400000000001
 30
0.0
 70
    32
  0
VERTEX
  5
2081
  8
241
 10
18.865600000000001
 20
-10.4559
 30
0.0
 70
    32
  0
VERTEX
  5
2082
  8
241
 10
18.860600000000002
 20
-10.449299999999999
 30
0.0
 70
    32
  0
VERTEX
  5
2083
  8
241
 10
18.855599999999999
 20
-10.4428
 30
0.0
 70
    32
  0
VERTEX
  5
2084
  8
241
 10
18.8507
 20
-10.436299999999999
 30
0.0
 70
    32
  0
VERTEX
  5
2085
  8
241
 10
18.845700000000001
 20
-10.4298
 30
0.0
 70
    32
  0
VERTEX
  5
2086
  8
241
 10
18.840699999999998
 20
-10.423299999999999
 30
0.0
 70
    32
  0
VERTEX
  5
2087
  8
241
 10
18.835699999999999
 20
-10.4168
 30
0.0
 70
    32
  0
VERTEX
  5
2088
  8
241
 10
18.8307
 20
-10.410299999999999
 30
0.0
 70
    32
  0
VERTEX
  5
2089
  8
241
 10
18.825800000000001
 20
-10.4039
 30
0.0
 70
    32
  0
VERTEX
  5
208A
  8
241
 10
18.820799999999998
 20
-10.397399999999999
 30
0.0
 70
    32
  0
VERTEX
  5
208B
  8
241
 10
18.815799999999999
 20
-10.391
 30
0.0
 70
    32
  0
VERTEX
  5
208C
  8
241
 10
18.8108
 20
-10.384600000000001
 30
0.0
 70
    32
  0
VERTEX
  5
208D
  8
241
 10
18.805800000000001
 20
-10.3782
 30
0.0
 70
    32
  0
VERTEX
  5
208E
  8
241
 10
18.800799999999999
 20
-10.3718
 30
0.0
 70
    32
  0
VERTEX
  5
208F
  8
241
 10
18.7958
 20
-10.365399999999999
 30
0.0
 70
    32
  0
VERTEX
  5
2090
  8
241
 10
18.790800000000001
 20
-10.359
 30
0.0
 70
    32
  0
VERTEX
  5
2091
  8
241
 10
18.785799999999998
 20
-10.352600000000001
 30
0.0
 70
    32
  0
VERTEX
  5
2092
  8
241
 10
18.780799999999999
 20
-10.346299999999999
 30
0.0
 70
    32
  0
VERTEX
  5
2093
  8
241
 10
18.7758
 20
-10.34
 30
0.0
 70
    32
  0
VERTEX
  5
2094
  8
241
 10
18.770800000000001
 20
-10.3337
 30
0.0
 70
    32
  0
VERTEX
  5
2095
  8
241
 10
18.765799999999999
 20
-10.327299999999999
 30
0.0
 70
    32
  0
VERTEX
  5
2096
  8
241
 10
18.7608
 20
-10.321099999999999
 30
0.0
 70
    32
  0
VERTEX
  5
2097
  8
241
 10
18.755800000000001
 20
-10.3148
 30
0.0
 70
    32
  0
VERTEX
  5
2098
  8
241
 10
18.750800000000002
 20
-10.3085
 30
0.0
 70
    32
  0
VERTEX
  5
2099
  8
241
 10
18.745799999999999
 20
-10.302199999999999
 30
0.0
 70
    32
  0
VERTEX
  5
209A
  8
241
 10
18.7408
 20
-10.295999999999999
 30
0.0
 70
    32
  0
VERTEX
  5
209B
  8
241
 10
18.735800000000001
 20
-10.2898
 30
0.0
 70
    32
  0
VERTEX
  5
209C
  8
241
 10
18.730799999999999
 20
-10.2836
 30
0.0
 70
    32
  0
VERTEX
  5
209D
  8
241
 10
18.7258
 20
-10.2774
 30
0.0
 70
    32
  0
VERTEX
  5
209E
  8
241
 10
18.720800000000001
 20
-10.2712
 30
0.0
 70
    32
  0
VERTEX
  5
209F
  8
241
 10
18.715800000000002
 20
-10.265000000000001
 30
0.0
 70
    32
  0
VERTEX
  5
20A0
  8
241
 10
18.710699999999999
 20
-10.258800000000001
 30
0.0
 70
    32
  0
VERTEX
  5
20A1
  8
241
 10
18.7057
 20
-10.252700000000001
 30
0.0
 70
    32
  0
VERTEX
  5
20A2
  8
241
 10
18.700700000000001
 20
-10.246499999999999
 30
0.0
 70
    32
  0
VERTEX
  5
20A3
  8
241
 10
18.695699999999999
 20
-10.240399999999999
 30
0.0
 70
    32
  0
VERTEX
  5
20A4
  8
241
 10
18.6907
 20
-10.234299999999999
 30
0.0
 70
    32
  0
VERTEX
  5
20A5
  8
241
 10
18.685600000000001
 20
-10.228199999999999
 30
0.0
 70
    32
  0
VERTEX
  5
20A6
  8
241
 10
18.680599999999998
 20
-10.222099999999999
 30
0.0
 70
    32
  0
VERTEX
  5
20A7
  8
241
 10
18.675599999999999
 20
-10.215999999999999
 30
0.0
 70
    32
  0
VERTEX
  5
20A8
  8
241
 10
18.670500000000001
 20
-10.210000000000001
 30
0.0
 70
    32
  0
VERTEX
  5
20A9
  8
241
 10
18.665500000000002
 20
-10.203900000000001
 30
0.0
 70
    32
  0
VERTEX
  5
20AA
  8
241
 10
18.660499999999999
 20
-10.197900000000001
 30
0.0
 70
    32
  0
VERTEX
  5
20AB
  8
241
 10
18.6555
 20
-10.1919
 30
0.0
 70
    32
  0
VERTEX
  5
20AC
  8
241
 10
18.650400000000001
 20
-10.1858
 30
0.0
 70
    32
  0
VERTEX
  5
20AD
  8
241
 10
18.645399999999999
 20
-10.1798
 30
0.0
 70
    32
  0
VERTEX
  5
20AE
  8
241
 10
18.6404
 20
-10.1739
 30
0.0
 70
    32
  0
VERTEX
  5
20AF
  8
241
 10
18.635300000000001
 20
-10.167899999999999
 30
0.0
 70
    32
  0
VERTEX
  5
20B0
  8
241
 10
18.630299999999998
 20
-10.161899999999999
 30
0.0
 70
    32
  0
VERTEX
  5
20B1
  8
241
 10
18.6252
 20
-10.156000000000001
 30
0.0
 70
    32
  0
VERTEX
  5
20B2
  8
241
 10
18.620200000000001
 20
-10.15
 30
0.0
 70
    32
  0
VERTEX
  5
20B3
  8
241
 10
18.615200000000002
 20
-10.1441
 30
0.0
 70
    32
  0
VERTEX
  5
20B4
  8
241
 10
18.610099999999999
 20
-10.138199999999999
 30
0.0
 70
    32
  0
VERTEX
  5
20B5
  8
241
 10
18.6051
 20
-10.132300000000001
 30
0.0
 70
    32
  0
VERTEX
  5
20B6
  8
241
 10
18.600000000000001
 20
-10.1264
 30
0.0
 70
    32
  0
VERTEX
  5
20B7
  8
241
 10
18.594999999999999
 20
-10.1206
 30
0.0
 70
    32
  0
VERTEX
  5
20B8
  8
241
 10
18.5899
 20
-10.114699999999999
 30
0.0
 70
    32
  0
VERTEX
  5
20B9
  8
241
 10
18.584900000000001
 20
-10.1089
 30
0.0
 70
    32
  0
VERTEX
  5
20BA
  8
241
 10
18.579799999999999
 20
-10.103
 30
0.0
 70
    32
  0
VERTEX
  5
20BB
  8
241
 10
18.5748
 20
-10.097200000000001
 30
0.0
 70
    32
  0
VERTEX
  5
20BC
  8
241
 10
18.569700000000001
 20
-10.0914
 30
0.0
 70
    32
  0
VERTEX
  5
20BD
  8
241
 10
18.564599999999999
 20
-10.085599999999999
 30
0.0
 70
    32
  0
VERTEX
  5
20BE
  8
241
 10
18.5596
 20
-10.079800000000001
 30
0.0
 70
    32
  0
VERTEX
  5
20BF
  8
241
 10
18.554500000000001
 20
-10.0741
 30
0.0
 70
    32
  0
VERTEX
  5
20C0
  8
241
 10
18.549499999999998
 20
-10.068300000000001
 30
0.0
 70
    32
  0
VERTEX
  5
20C1
  8
241
 10
18.5444
 20
-10.0626
 30
0.0
 70
    32
  0
VERTEX
  5
20C2
  8
241
 10
18.539300000000001
 20
-10.056900000000001
 30
0.0
 70
    32
  0
VERTEX
  5
20C3
  8
241
 10
18.534300000000002
 20
-10.0511
 30
0.0
 70
    32
  0
VERTEX
  5
20C4
  8
241
 10
18.529199999999999
 20
-10.045400000000001
 30
0.0
 70
    32
  0
VERTEX
  5
20C5
  8
241
 10
18.524100000000001
 20
-10.0398
 30
0.0
 70
    32
  0
VERTEX
  5
20C6
  8
241
 10
18.519100000000002
 20
-10.0341
 30
0.0
 70
    32
  0
VERTEX
  5
20C7
  8
241
 10
18.513999999999999
 20
-10.0284
 30
0.0
 70
    32
  0
SEQEND
  5
20C8
  8
241
  0
LINE
  5
20C9
  8
240
 10
19.500000402331342
 20
-5.2568907737836801
 30
0.0
 11
19.500000402331331
 21
5.1059575960000894
 31
0.0
  0
LINE
  5
20CA
  8
240
 10
19.96395923197268
 20
-7.5553467668120211
 30
0.0
 11
19.57350410521029
 21
-5.3088677161652242
 31
0.0
  0
LINE
  5
20CB
  8
240
 10
19.500000402331342
 20
-5.2568907737836801
 30
0.0
 11
19.57350410521029
 21
-5.3088677161652242
 31
0.0
  0
LINE
  5
20CC
  8
240
 10
19.863536581397039
 20
7.0118184757847057
 30
0.0
 11
19.96395923197268
 21
6.4340260947779191
 31
0.0
  0
LINE
  5
20CD
  8
240
 10
19.96395923197268
 20
5.434026094770017
 30
0.0
 11
19.96395923197268
 21
6.4340260947779191
 31
0.0
  0
LINE
  5
20CE
  8
241
 10
7.2360392659902431
 20
-8.5553466021837608
 30
0.0
 11
7.6264943927526332
 21
-6.304626524905613
 31
0.0
  0
LINE
  5
20CF
  8
240
 10
0.0
 20
-9.4999997229266153
 30
0.0
 11
0.0
 21
-5.4999999999999991
 31
0.0
  0
LINE
  5
20D0
  8
241
 10
14.20000009238718
 20
-9.9921234482970647
 30
0.0
 11
14.20000009238718
 21
-4.3919439290200151
 31
0.0
  0
POLYLINE
  5
20D1
  8
241
 66
     1
 10
0.0
 20
0.0
 30
0.0
 70
     8
  0
VERTEX
  5
20D2
  8
241
 10
6.957889999999999
 20
-5.6806700000000001
 30
0.0
 70
    32
  0
VERTEX
  5
20D3
  8
241
 10
7.053799999999999
 20
-5.7491099999999991
 30
0.0
 70
    32
  0
VERTEX
  5
20D4
  8
241
 10
7.1497000000000002
 20
-5.8175400000000002
 30
0.0
 70
    32
  0
VERTEX
  5
20D5
  8
241
 10
7.2456100000000001
 20
-5.8859799999999991
 30
0.0
 70
    32
  0
VERTEX
  5
20D6
  8
241
 10
7.34152
 20
-5.9544100000000002
 30
0.0
 70
    32
  0
VERTEX
  5
20D7
  8
241
 10
7.4374199999999986
 20
-6.02285
 30
0.0
 70
    32
  0
VERTEX
  5
20D8
  8
241
 10
7.5333300000000003
 20
-6.091289999999999
 30
0.0
 70
    32
  0
VERTEX
  5
20D9
  8
241
 10
7.6292399999999994
 20
-6.1597200000000001
 30
0.0
 70
    32
  0
VERTEX
  5
20DA
  8
241
 10
7.7251399999999988
 20
-6.228159999999999
 30
0.0
 70
    32
  0
VERTEX
  5
20DB
  8
241
 10
7.8210499999999987
 20
-6.2965900000000001
 30
0.0
 70
    32
  0
VERTEX
  5
20DC
  8
241
 10
7.9169600000000004
 20
-6.3650299999999991
 30
0.0
 70
    32
  0
VERTEX
  5
20DD
  8
241
 10
8.0128599999999999
 20
-6.4334600000000002
 30
0.0
 70
    32
  0
VERTEX
  5
20DE
  8
241
 10
8.1087699999999998
 20
-6.5019
 30
0.0
 70
    32
  0
VERTEX
  5
20DF
  8
241
 10
8.2046700000000001
 20
-6.570339999999999
 30
0.0
 70
    32
  0
VERTEX
  5
20E0
  8
241
 10
8.3005800000000001
 20
-6.6387700000000001
 30
0.0
 70
    32
  0
VERTEX
  5
20E1
  8
241
 10
8.39649
 20
-6.7072099999999999
 30
0.0
 70
    32
  0
VERTEX
  5
20E2
  8
241
 10
8.4923899999999986
 20
-6.7756399999999992
 30
0.0
 70
    32
  0
VERTEX
  5
20E3
  8
241
 10
8.5883000000000003
 20
-6.8440799999999991
 30
0.0
 70
    32
  0
VERTEX
  5
20E4
  8
241
 10
8.6842100000000002
 20
-6.9125100000000002
 30
0.0
 70
    32
  0
VERTEX
  5
20E5
  8
241
 10
8.7801100000000005
 20
-6.9809499999999991
 30
0.0
 70
    32
  0
VERTEX
  5
20E6
  8
241
 10
8.8760200000000005
 20
-7.0493899999999989
 30
0.0
 70
    32
  0
VERTEX
  5
20E7
  8
241
 10
8.9719300000000004
 20
-7.11782
 30
0.0
 70
    32
  0
VERTEX
  5
20E8
  8
241
 10
9.0678300000000007
 20
-7.1862599999999999
 30
0.0
 70
    32
  0
VERTEX
  5
20E9
  8
241
 10
9.1637399999999989
 20
-7.2546899999999992
 30
0.0
 70
    32
  0
VERTEX
  5
20EA
  8
241
 10
9.2596500000000006
 20
-7.323129999999999
 30
0.0
 70
    32
  0
VERTEX
  5
20EB
  8
241
 10
9.3555499999999991
 20
-7.391560000000001
 30
0.0
 70
    32
  0
VERTEX
  5
20EC
  8
241
 10
9.4514600000000009
 20
-7.4599999999999991
 30
0.0
 70
    32
  0
VERTEX
  5
20ED
  8
241
 10
9.547369999999999
 20
-7.5284399999999989
 30
0.0
 70
    32
  0
VERTEX
  5
20EE
  8
241
 10
9.6432699999999993
 20
-7.59687
 30
0.0
 70
    32
  0
VERTEX
  5
20EF
  8
241
 10
9.7391800000000011
 20
-7.6653099999999998
 30
0.0
 70
    32
  0
VERTEX
  5
20F0
  8
241
 10
9.8350799999999996
 20
-7.7337399999999992
 30
0.0
 70
    32
  0
VERTEX
  5
20F1
  8
241
 10
9.9309899999999995
 20
-7.802179999999999
 30
0.0
 70
    32
  0
VERTEX
  5
20F2
  8
241
 10
10.026899999999999
 20
-7.8706100000000001
 30
0.0
 70
    32
  0
VERTEX
  5
20F3
  8
241
 10
10.1228
 20
-7.9390499999999991
 30
0.0
 70
    32
  0
VERTEX
  5
20F4
  8
241
 10
10.2187
 20
-8.0074899999999989
 30
0.0
 70
    32
  0
VERTEX
  5
20F5
  8
241
 10
10.3146
 20
-8.0759199999999982
 30
0.0
 70
    32
  0
VERTEX
  5
20F6
  8
241
 10
10.410500000000001
 20
-8.1443600000000007
 30
0.0
 70
    32
  0
VERTEX
  5
20F7
  8
241
 10
10.506399999999999
 20
-8.21279
 30
0.0
 70
    32
  0
VERTEX
  5
20F8
  8
241
 10
10.6023
 20
-8.2812300000000008
 30
0.0
 70
    32
  0
VERTEX
  5
20F9
  8
241
 10
10.6982
 20
-8.3496699999999997
 30
0.0
 70
    32
  0
VERTEX
  5
20FA
  8
241
 10
10.7941
 20
-8.4181000000000008
 30
0.0
 70
    32
  0
VERTEX
  5
20FB
  8
241
 10
10.8901
 20
-8.4865399999999998
 30
0.0
 70
    32
  0
VERTEX
  5
20FC
  8
241
 10
10.986000000000001
 20
-8.5549699999999991
 30
0.0
 70
    32
  0
VERTEX
  5
20FD
  8
241
 10
11.081899999999999
 20
-8.6234099999999998
 30
0.0
 70
    32
  0
VERTEX
  5
20FE
  8
241
 10
11.1778
 20
-8.6918399999999991
 30
0.0
 70
    32
  0
VERTEX
  5
20FF
  8
241
 10
11.2737
 20
-8.7602799999999998
 30
0.0
 70
    32
  0
VERTEX
  5
2100
  8
241
 10
11.3696
 20
-8.8287200000000006
 30
0.0
 70
    32
  0
VERTEX
  5
2101
  8
241
 10
11.4655
 20
-8.8971499999999981
 30
0.0
 70
    32
  0
VERTEX
  5
2102
  8
241
 10
11.561400000000001
 20
-8.9655899999999988
 30
0.0
 70
    32
  0
VERTEX
  5
2103
  8
241
 10
11.657299999999999
 20
-9.0340199999999982
 30
0.0
 70
    32
  0
VERTEX
  5
2104
  8
241
 10
11.7532
 20
-9.1024600000000007
 30
0.0
 70
    32
  0
VERTEX
  5
2105
  8
241
 10
11.8491
 20
-9.1708899999999982
 30
0.0
 70
    32
  0
VERTEX
  5
2106
  8
241
 10
11.945
 20
-9.2393300000000007
 30
0.0
 70
    32
  0
VERTEX
  5
2107
  8
241
 10
12.040900000000001
 20
-9.3077699999999997
 30
0.0
 70
    32
  0
VERTEX
  5
2108
  8
241
 10
12.136799999999999
 20
-9.3762000000000008
 30
0.0
 70
    32
  0
VERTEX
  5
2109
  8
241
 10
12.232699999999999
 20
-9.4446399999999997
 30
0.0
 70
    32
  0
VERTEX
  5
210A
  8
241
 10
12.3287
 20
-9.513069999999999
 30
0.0
 70
    32
  0
VERTEX
  5
210B
  8
241
 10
12.4246
 20
-9.5815099999999997
 30
0.0
 70
    32
  0
VERTEX
  5
210C
  8
241
 10
12.5205
 20
-9.6499399999999991
 30
0.0
 70
    32
  0
VERTEX
  5
210D
  8
241
 10
12.616400000000001
 20
-9.7183799999999998
 30
0.0
 70
    32
  0
VERTEX
  5
210E
  8
241
 10
12.712300000000001
 20
-9.7868200000000005
 30
0.0
 70
    32
  0
VERTEX
  5
210F
  8
241
 10
12.808199999999999
 20
-9.8552499999999998
 30
0.0
 70
    32
  0
VERTEX
  5
2110
  8
241
 10
12.9041
 20
-9.9236899999999988
 30
0.0
 70
    32
  0
VERTEX
  5
2111
  8
241
 10
13.0
 20
-9.9921199999999981
 30
0.0
 70
    32
  0
SEQEND
  5
2112
  8
241
  0
LINE
  5
2113
  8
241
 10
12.99999840557574
 20
-9.9921234482970647
 30
0.0
 11
12.99999840557574
 21
-4.3919439290200151
 31
0.0
  0
LINE
  5
2114
  8
241
 10
6.599999964237198
 20
-9.4999997229266153
 30
0.0
 11
6.599999964237198
 21
3.6808612523119351
 31
0.0
  0
POLYLINE
  5
2115
  8
240
 66
     1
 10
0.0
 20
0.0
 30
0.0
 70
     8
  0
VERTEX
  5
2116
  8
240
 10
0.0
 20
-9.5
 30
0.0
 70
    32
  0
VERTEX
  5
2117
  8
240
 10
0.104762
 20
-9.5
 30
0.0
 70
    32
  0
VERTEX
  5
2118
  8
240
 10
0.209524
 20
-9.5
 30
0.0
 70
    32
  0
VERTEX
  5
2119
  8
240
 10
0.314286
 20
-9.5
 30
0.0
 70
    32
  0
VERTEX
  5
211A
  8
240
 10
0.419048
 20
-9.5
 30
0.0
 70
    32
  0
VERTEX
  5
211B
  8
240
 10
0.5238100000000001
 20
-9.5
 30
0.0
 70
    32
  0
VERTEX
  5
211C
  8
240
 10
0.628571
 20
-9.5
 30
0.0
 70
    32
  0
VERTEX
  5
211D
  8
240
 10
0.7333330000000001
 20
-9.5
 30
0.0
 70
    32
  0
VERTEX
  5
211E
  8
240
 10
0.838095
 20
-9.5
 30
0.0
 70
    32
  0
VERTEX
  5
211F
  8
240
 10
0.9428569999999998
 20
-9.5
 30
0.0
 70
    32
  0
VERTEX
  5
2120
  8
240
 10
1.0476199999999991
 20
-9.5
 30
0.0
 70
    32
  0
VERTEX
  5
2121
  8
240
 10
1.1523799999999991
 20
-9.5
 30
0.0
 70
    32
  0
VERTEX
  5
2122
  8
240
 10
1.257139999999999
 20
-9.5
 30
0.0
 70
    32
  0
VERTEX
  5
2123
  8
240
 10
1.3619000000000001
 20
-9.5
 30
0.0
 70
    32
  0
VERTEX
  5
2124
  8
240
 10
1.4666699999999999
 20
-9.5
 30
0.0
 70
    32
  0
VERTEX
  5
2125
  8
240
 10
1.571429999999999
 20
-9.5
 30
0.0
 70
    32
  0
VERTEX
  5
2126
  8
240
 10
1.6761900000000001
 20
-9.5
 30
0.0
 70
    32
  0
VERTEX
  5
2127
  8
240
 10
1.7809499999999989
 20
-9.5
 30
0.0
 70
    32
  0
VERTEX
  5
2128
  8
240
 10
1.8857099999999991
 20
-9.5
 30
0.0
 70
    32
  0
VERTEX
  5
2129
  8
240
 10
1.9904799999999989
 20
-9.5
 30
0.0
 70
    32
  0
VERTEX
  5
212A
  8
240
 10
2.0952399999999991
 20
-9.5
 30
0.0
 70
    32
  0
VERTEX
  5
212B
  8
240
 10
2.2000000000000002
 20
-9.5
 30
0.0
 70
    32
  0
VERTEX
  5
212C
  8
240
 10
2.304759999999999
 20
-9.5
 30
0.0
 70
    32
  0
VERTEX
  5
212D
  8
240
 10
2.4095200000000001
 20
-9.5
 30
0.0
 70
    32
  0
VERTEX
  5
212E
  8
240
 10
2.5142899999999999
 20
-9.5
 30
0.0
 70
    32
  0
VERTEX
  5
212F
  8
240
 10
2.6190500000000001
 20
-9.5
 30
0.0
 70
    32
  0
VERTEX
  5
2130
  8
240
 10
2.723809999999999
 20
-9.5
 30
0.0
 70
    32
  0
VERTEX
  5
2131
  8
240
 10
2.82857
 20
-9.5
 30
0.0
 70
    32
  0
VERTEX
  5
2132
  8
240
 10
2.9333299999999989
 20
-9.5
 30
0.0
 70
    32
  0
VERTEX
  5
2133
  8
240
 10
3.0381
 20
-9.5
 30
0.0
 70
    32
  0
VERTEX
  5
2134
  8
240
 10
3.1428599999999989
 20
-9.5
 30
0.0
 70
    32
  0
VERTEX
  5
2135
  8
240
 10
3.2476199999999991
 20
-9.5
 30
0.0
 70
    32
  0
VERTEX
  5
2136
  8
240
 10
3.3523800000000001
 20
-9.5
 30
0.0
 70
    32
  0
VERTEX
  5
2137
  8
240
 10
3.4571399999999999
 20
-9.5
 30
0.0
 70
    32
  0
VERTEX
  5
2138
  8
240
 10
3.5619000000000001
 20
-9.5
 30
0.0
 70
    32
  0
VERTEX
  5
2139
  8
240
 10
3.666669999999999
 20
-9.5
 30
0.0
 70
    32
  0
VERTEX
  5
213A
  8
240
 10
3.7714300000000001
 20
-9.5
 30
0.0
 70
    32
  0
VERTEX
  5
213B
  8
240
 10
3.8761899999999998
 20
-9.5
 30
0.0
 70
    32
  0
VERTEX
  5
213C
  8
240
 10
3.9809499999999991
 20
-9.5
 30
0.0
 70
    32
  0
VERTEX
  5
213D
  8
240
 10
4.0857099999999988
 20
-9.5
 30
0.0
 70
    32
  0
VERTEX
  5
213E
  8
240
 10
4.1904799999999991
 20
-9.5
 30
0.0
 70
    32
  0
VERTEX
  5
213F
  8
240
 10
4.2952399999999988
 20
-9.5
 30
0.0
 70
    32
  0
VERTEX
  5
2140
  8
240
 10
4.4000000000000004
 20
-9.5
 30
0.0
 70
    32
  0
VERTEX
  5
2141
  8
240
 10
4.5047600000000001
 20
-9.5
 30
0.0
 70
    32
  0
VERTEX
  5
2142
  8
240
 10
4.609519999999999
 20
-9.5
 30
0.0
 70
    32
  0
VERTEX
  5
2143
  8
240
 10
4.7142900000000001
 20
-9.5
 30
0.0
 70
    32
  0
VERTEX
  5
2144
  8
240
 10
4.8190499999999989
 20
-9.5
 30
0.0
 70
    32
  0
VERTEX
  5
2145
  8
240
 10
4.9238099999999987
 20
-9.5
 30
0.0
 70
    32
  0
VERTEX
  5
2146
  8
240
 10
5.0285699999999993
 20
-9.5
 30
0.0
 70
    32
  0
VERTEX
  5
2147
  8
240
 10
5.1333299999999991
 20
-9.5
 30
0.0
 70
    32
  0
VERTEX
  5
2148
  8
240
 10
5.2381000000000002
 20
-9.5
 30
0.0
 70
    32
  0
VERTEX
  5
2149
  8
240
 10
5.3428599999999991
 20
-9.5
 30
0.0
 70
    32
  0
VERTEX
  5
214A
  8
240
 10
5.4476199999999988
 20
-9.5
 30
0.0
 70
    32
  0
VERTEX
  5
214B
  8
240
 10
5.5523800000000003
 20
-9.5
 30
0.0
 70
    32
  0
VERTEX
  5
214C
  8
240
 10
5.6571400000000001
 20
-9.5
 30
0.0
 70
    32
  0
VERTEX
  5
214D
  8
240
 10
5.7618999999999989
 20
-9.5
 30
0.0
 70
    32
  0
VERTEX
  5
214E
  8
240
 10
5.8666700000000001
 20
-9.5
 30
0.0
 70
    32
  0
VERTEX
  5
214F
  8
240
 10
5.9714299999999998
 20
-9.5
 30
0.0
 70
    32
  0
VERTEX
  5
2150
  8
240
 10
6.0761900000000004
 20
-9.5
 30
0.0
 70
    32
  0
VERTEX
  5
2151
  8
240
 10
6.1809500000000002
 20
-9.5
 30
0.0
 70
    32
  0
VERTEX
  5
2152
  8
240
 10
6.285709999999999
 20
-9.5
 30
0.0
 70
    32
  0
VERTEX
  5
2153
  8
240
 10
6.3904800000000002
 20
-9.5
 30
0.0
 70
    32
  0
VERTEX
  5
2154
  8
240
 10
6.495239999999999
 20
-9.5
 30
0.0
 70
    32
  0
VERTEX
  5
2155
  8
240
 10
6.5999999999999988
 20
-9.5
 30
0.0
 70
    32
  0
SEQEND
  5
2156
  8
240
  0
LINE
  5
2157
  8
241
 10
12.89289258420466
 20
-12.555346602215341
 30
0.0
 11
6.754918939500171
 21
-8.2151431007461575
 31
0.0
  0
LINE
  5
2158
  8
241
 10
12.367097688063319
 20
-9.5405059774701115
 30
0.0
 11
12.893663719296439
 21
-11.90599800974206
 31
0.0
  0
LINE
  5
2159
  8
241
 10
14.20000009238718
 20
-9.9921234482970647
 30
0.0
 11
12.893663719296439
 21
-11.90599800974206
 31
0.0
  0
LINE
  5
215A
  8
241
 10
14.30710591375826
 20
-12.555346602215341
 30
0.0
 11
14.30397340857235
 21
-9.9181386401406222
 31
0.0
  0
LINE
  5
215B
  8
241
 10
12.893663719296439
 20
-11.90599800974206
 30
0.0
 11
12.89289258420466
 21
-12.555346602215341
 31
0.0
  0
LINE
  5
215C
  8
241
 10
14.30710591375826
 20
-12.555346602215341
 30
0.0
 11
12.89289258420466
 21
-12.555346602215341
 31
0.0
  0
LINE
  5
215D
  8
240
 10
14.20000009238718
 20
-15.281388300287229
 30
0.0
 11
12.99999840557574
 21
-15.281388300287229
 31
0.0
  0
LINE
  5
215E
  8
241
 10
12.99999840557574
 20
-9.9921234482970647
 30
0.0
 11
14.20000009238718
 21
-9.9921234482970647
 31
0.0
  0
LINE
  5
215F
  8
241
 10
14.20000009238718
 20
-4.3919439290200151
 30
0.0
 11
12.99999840557574
 21
-4.3919439290200151
 31
0.0
  0
LINE
  5
2160
  8
241
 10
13.43503035604952
 20
0.0707105881942027
 30
0.0
 11
13.7649718672037
 21
0.0707105881942027
 31
0.0
  0
LINE
  5
2161
  8
241
 10
7.6602995395660249
 20
-6.1818863409632439
 30
0.0
 11
7.6264943927526332
 21
-6.2710967312816592
 31
0.0
  0
LINE
  5
2162
  8
241
 10
7.6264943927526332
 20
-6.2710967312816592
 30
0.0
 11
7.6264943927526332
 21
-6.304626524905613
 31
0.0
  0
POLYLINE
  5
2163
  8
241
 66
     1
 10
0.0
 20
0.0
 30
0.0
 70
     8
  0
VERTEX
  5
2164
  8
241
 10
6.957889999999999
 20
-5.6806700000000001
 30
0.0
 70
    32
  0
VERTEX
  5
2165
  8
241
 10
6.9546700000000001
 20
-5.7209000000000003
 30
0.0
 70
    32
  0
VERTEX
  5
2166
  8
241
 10
6.9514500000000004
 20
-5.7611299999999996
 30
0.0
 70
    32
  0
VERTEX
  5
2167
  8
241
 10
6.9482299999999997
 20
-5.801359999999999
 30
0.0
 70
    32
  0
VERTEX
  5
2168
  8
241
 10
6.9450000000000003
 20
-5.8415900000000001
 30
0.0
 70
    32
  0
VERTEX
  5
2169
  8
241
 10
6.9417799999999996
 20
-5.8818199999999994
 30
0.0
 70
    32
  0
VERTEX
  5
216A
  8
241
 10
6.9385599999999998
 20
-5.9220499999999987
 30
0.0
 70
    32
  0
VERTEX
  5
216B
  8
241
 10
6.9353399999999992
 20
-5.9622799999999998
 30
0.0
 70
    32
  0
VERTEX
  5
216C
  8
241
 10
6.9321199999999994
 20
-6.00251
 30
0.0
 70
    32
  0
VERTEX
  5
216D
  8
241
 10
6.9288899999999991
 20
-6.0427400000000002
 30
0.0
 70
    32
  0
VERTEX
  5
216E
  8
241
 10
6.9256699999999993
 20
-6.0829699999999987
 30
0.0
 70
    32
  0
VERTEX
  5
216F
  8
241
 10
6.9224500000000004
 20
-6.1231999999999989
 30
0.0
 70
    32
  0
VERTEX
  5
2170
  8
241
 10
6.9192299999999998
 20
-6.1634299999999991
 30
0.0
 70
    32
  0
VERTEX
  5
2171
  8
241
 10
6.91601
 20
-6.2036600000000002
 30
0.0
 70
    32
  0
VERTEX
  5
2172
  8
241
 10
6.9127899999999993
 20
-6.2438900000000004
 30
0.0
 70
    32
  0
VERTEX
  5
2173
  8
241
 10
6.9095599999999999
 20
-6.2841199999999988
 30
0.0
 70
    32
  0
VERTEX
  5
2174
  8
241
 10
6.9063399999999993
 20
-6.324349999999999
 30
0.0
 70
    32
  0
VERTEX
  5
2175
  8
241
 10
6.9031199999999986
 20
-6.3645800000000001
 30
0.0
 70
    32
  0
VERTEX
  5
2176
  8
241
 10
6.8998999999999988
 20
-6.4048099999999986
 30
0.0
 70
    32
  0
VERTEX
  5
2177
  8
241
 10
6.896679999999999
 20
-6.4450399999999997
 30
0.0
 70
    32
  0
VERTEX
  5
2178
  8
241
 10
6.8934600000000001
 20
-6.485269999999999
 30
0.0
 70
    32
  0
VERTEX
  5
2179
  8
241
 10
6.890229999999999
 20
-6.5254899999999996
 30
0.0
 70
    32
  0
VERTEX
  5
217A
  8
241
 10
6.8870100000000001
 20
-6.5657199999999989
 30
0.0
 70
    32
  0
VERTEX
  5
217B
  8
241
 10
6.8837899999999994
 20
-6.6059499999999991
 30
0.0
 70
    32
  0
VERTEX
  5
217C
  8
241
 10
6.8805699999999987
 20
-6.6461800000000002
 30
0.0
 70
    32
  0
VERTEX
  5
217D
  8
241
 10
6.877349999999999
 20
-6.6864100000000004
 30
0.0
 70
    32
  0
VERTEX
  5
217E
  8
241
 10
6.8741199999999987
 20
-6.7266399999999988
 30
0.0
 70
    32
  0
VERTEX
  5
217F
  8
241
 10
6.8708999999999989
 20
-6.7668699999999991
 30
0.0
 70
    32
  0
VERTEX
  5
2180
  8
241
 10
6.86768
 20
-6.8071000000000002
 30
0.0
 70
    32
  0
VERTEX
  5
2181
  8
241
 10
6.8644600000000002
 20
-6.8473300000000004
 30
0.0
 70
    32
  0
VERTEX
  5
2182
  8
241
 10
6.8612399999999987
 20
-6.8875599999999997
 30
0.0
 70
    32
  0
VERTEX
  5
2183
  8
241
 10
6.8580199999999989
 20
-6.927789999999999
 30
0.0
 70
    32
  0
VERTEX
  5
2184
  8
241
 10
6.8547899999999986
 20
-6.9680200000000001
 30
0.0
 70
    32
  0
VERTEX
  5
2185
  8
241
 10
6.8515699999999988
 20
-7.0082500000000003
 30
0.0
 70
    32
  0
VERTEX
  5
2186
  8
241
 10
6.848349999999999
 20
-7.0484799999999996
 30
0.0
 70
    32
  0
VERTEX
  5
2187
  8
241
 10
6.8451300000000002
 20
-7.0887099999999998
 30
0.0
 70
    32
  0
VERTEX
  5
2188
  8
241
 10
6.8419100000000004
 20
-7.1289399999999992
 30
0.0
 70
    32
  0
VERTEX
  5
2189
  8
241
 10
6.8386800000000001
 20
-7.1691699999999994
 30
0.0
 70
    32
  0
VERTEX
  5
218A
  8
241
 10
6.8354600000000003
 20
-7.2093999999999987
 30
0.0
 70
    32
  0
VERTEX
  5
218B
  8
241
 10
6.8322399999999988
 20
-7.2496299999999998
 30
0.0
 70
    32
  0
VERTEX
  5
218C
  8
241
 10
6.829019999999999
 20
-7.28986
 30
0.0
 70
    32
  0
VERTEX
  5
218D
  8
241
 10
6.8258000000000001
 20
-7.3300899999999993
 30
0.0
 70
    32
  0
VERTEX
  5
218E
  8
241
 10
6.8225800000000003
 20
-7.3703199999999987
 30
0.0
 70
    32
  0
VERTEX
  5
218F
  8
241
 10
6.81935
 20
-7.4105499999999989
 30
0.0
 70
    32
  0
VERTEX
  5
2190
  8
241
 10
6.8161300000000002
 20
-7.4507799999999991
 30
0.0
 70
    32
  0
VERTEX
  5
2191
  8
241
 10
6.8129099999999996
 20
-7.4910100000000002
 30
0.0
 70
    32
  0
VERTEX
  5
2192
  8
241
 10
6.8096899999999989
 20
-7.5312399999999986
 30
0.0
 70
    32
  0
VERTEX
  5
2193
  8
241
 10
6.80647
 20
-7.5714699999999988
 30
0.0
 70
    32
  0
VERTEX
  5
2194
  8
241
 10
6.8032500000000002
 20
-7.611699999999999
 30
0.0
 70
    32
  0
VERTEX
  5
2195
  8
241
 10
6.8000199999999991
 20
-7.6519300000000001
 30
0.0
 70
    32
  0
VERTEX
  5
2196
  8
241
 10
6.7968000000000002
 20
-7.6921600000000003
 30
0.0
 70
    32
  0
VERTEX
  5
2197
  8
241
 10
6.7935800000000004
 20
-7.7323899999999988
 30
0.0
 70
    32
  0
VERTEX
  5
2198
  8
241
 10
6.7903599999999997
 20
-7.772619999999999
 30
0.0
 70
    32
  0
VERTEX
  5
2199
  8
241
 10
6.7871399999999991
 20
-7.8128500000000001
 30
0.0
 70
    32
  0
VERTEX
  5
219A
  8
241
 10
6.7839099999999997
 20
-7.8530800000000003
 30
0.0
 70
    32
  0
VERTEX
  5
219B
  8
241
 10
6.7806899999999981
 20
-7.8933099999999996
 30
0.0
 70
    32
  0
VERTEX
  5
219C
  8
241
 10
6.7774700000000001
 20
-7.9335399999999989
 30
0.0
 70
    32
  0
VERTEX
  5
219D
  8
241
 10
6.7742500000000003
 20
-7.9737600000000004
 30
0.0
 70
    32
  0
VERTEX
  5
219E
  8
241
 10
6.7710299999999997
 20
-8.0139899999999997
 30
0.0
 70
    32
  0
VERTEX
  5
219F
  8
241
 10
6.7678099999999999
 20
-8.054219999999999
 30
0.0
 70
    32
  0
VERTEX
  5
21A0
  8
241
 10
6.7645799999999996
 20
-8.0944500000000001
 30
0.0
 70
    32
  0
VERTEX
  5
21A1
  8
241
 10
6.7613599999999998
 20
-8.1346799999999995
 30
0.0
 70
    32
  0
VERTEX
  5
21A2
  8
241
 10
6.7581399999999991
 20
-8.1749100000000006
 30
0.0
 70
    32
  0
VERTEX
  5
21A3
  8
241
 10
6.7549199999999994
 20
-8.2151399999999999
 30
0.0
 70
    32
  0
SEQEND
  5
21A4
  8
241
  0
LINE
  5
21A5
  8
241
 10
7.2360392659902431
 20
5.434026094770017
 30
0.0
 11
12.89289258420466
 21
1.434025971261377
 31
0.0
  0
LINE
  5
21A6
  8
241
 10
12.89289258420466
 20
1.434025971261377
 30
0.0
 11
14.30710591375826
 21
1.434025971261377
 31
0.0
  0
LINE
  5
21A7
  8
241
 10
7.2360392659902431
 20
6.4340260947779191
 30
0.0
 11
7.6264943927526332
 21
8.6805050219475977
 31
0.0
  0
LINE
  5
21A8
  8
241
 10
7.2360392659902431
 20
6.4340260947779191
 30
0.0
 11
7.2360392659902431
 21
5.434026094770017
 31
0.0
  0
LINE
  5
21A9
  8
241
 10
19.075417891144731
 20
9.0327053261650008
 30
0.0
 11
14.304107055068
 21
12.406532232048249
 31
0.0
  0
LINE
  5
21AA
  8
240
 10
19.500000402331342
 20
7.9439946733523419
 30
0.0
 11
19.500000402331342
 21
10.60000009613216
 31
0.0
  0
POLYLINE
  5
21AB
  8
240
 66
     1
 10
0.0
 20
0.0
 30
0.0
 70
     8
  0
VERTEX
  5
21AC
  8
240
 10
6.5999999999999988
 20
9.5
 30
0.0
 70
    32
  0
VERTEX
  5
21AD
  8
240
 10
6.495239999999999
 20
9.5
 30
0.0
 70
    32
  0
VERTEX
  5
21AE
  8
240
 10
6.3904800000000002
 20
9.5
 30
0.0
 70
    32
  0
VERTEX
  5
21AF
  8
240
 10
6.285709999999999
 20
9.5
 30
0.0
 70
    32
  0
VERTEX
  5
21B0
  8
240
 10
6.1809500000000002
 20
9.5
 30
0.0
 70
    32
  0
VERTEX
  5
21B1
  8
240
 10
6.0761900000000004
 20
9.5
 30
0.0
 70
    32
  0
VERTEX
  5
21B2
  8
240
 10
5.9714299999999998
 20
9.5
 30
0.0
 70
    32
  0
VERTEX
  5
21B3
  8
240
 10
5.8666700000000001
 20
9.5
 30
0.0
 70
    32
  0
VERTEX
  5
21B4
  8
240
 10
5.7618999999999989
 20
9.5
 30
0.0
 70
    32
  0
VERTEX
  5
21B5
  8
240
 10
5.6571400000000001
 20
9.5
 30
0.0
 70
    32
  0
VERTEX
  5
21B6
  8
240
 10
5.5523800000000003
 20
9.5
 30
0.0
 70
    32
  0
VERTEX
  5
21B7
  8
240
 10
5.4476199999999988
 20
9.5
 30
0.0
 70
    32
  0
VERTEX
  5
21B8
  8
240
 10
5.3428599999999991
 20
9.5
 30
0.0
 70
    32
  0
VERTEX
  5
21B9
  8
240
 10
5.2381000000000002
 20
9.5
 30
0.0
 70
    32
  0
VERTEX
  5
21BA
  8
240
 10
5.1333299999999991
 20
9.5
 30
0.0
 70
    32
  0
VERTEX
  5
21BB
  8
240
 10
5.0285699999999993
 20
9.5
 30
0.0
 70
    32
  0
VERTEX
  5
21BC
  8
240
 10
4.9238099999999987
 20
9.5
 30
0.0
 70
    32
  0
VERTEX
  5
21BD
  8
240
 10
4.8190499999999989
 20
9.5
 30
0.0
 70
    32
  0
VERTEX
  5
21BE
  8
240
 10
4.7142900000000001
 20
9.5
 30
0.0
 70
    32
  0
VERTEX
  5
21BF
  8
240
 10
4.609519999999999
 20
9.5
 30
0.0
 70
    32
  0
VERTEX
  5
21C0
  8
240
 10
4.5047600000000001
 20
9.5
 30
0.0
 70
    32
  0
VERTEX
  5
21C1
  8
240
 10
4.4000000000000004
 20
9.5
 30
0.0
 70
    32
  0
VERTEX
  5
21C2
  8
240
 10
4.2952399999999988
 20
9.5
 30
0.0
 70
    32
  0
VERTEX
  5
21C3
  8
240
 10
4.1904799999999991
 20
9.5
 30
0.0
 70
    32
  0
VERTEX
  5
21C4
  8
240
 10
4.0857099999999988
 20
9.5
 30
0.0
 70
    32
  0
VERTEX
  5
21C5
  8
240
 10
3.9809499999999991
 20
9.5
 30
0.0
 70
    32
  0
VERTEX
  5
21C6
  8
240
 10
3.8761899999999998
 20
9.5
 30
0.0
 70
    32
  0
VERTEX
  5
21C7
  8
240
 10
3.7714300000000001
 20
9.5
 30
0.0
 70
    32
  0
VERTEX
  5
21C8
  8
240
 10
3.666669999999999
 20
9.5
 30
0.0
 70
    32
  0
VERTEX
  5
21C9
  8
240
 10
3.5619000000000001
 20
9.5
 30
0.0
 70
    32
  0
VERTEX
  5
21CA
  8
240
 10
3.4571399999999999
 20
9.5
 30
0.0
 70
    32
  0
VERTEX
  5
21CB
  8
240
 10
3.3523800000000001
 20
9.5
 30
0.0
 70
    32
  0
VERTEX
  5
21CC
  8
240
 10
3.2476199999999991
 20
9.5
 30
0.0
 70
    32
  0
VERTEX
  5
21CD
  8
240
 10
3.1428599999999989
 20
9.5
 30
0.0
 70
    32
  0
VERTEX
  5
21CE
  8
240
 10
3.0381
 20
9.5
 30
0.0
 70
    32
  0
VERTEX
  5
21CF
  8
240
 10
2.9333299999999989
 20
9.5
 30
0.0
 70
    32
  0
VERTEX
  5
21D0
  8
240
 10
2.82857
 20
9.5
 30
0.0
 70
    32
  0
VERTEX
  5
21D1
  8
240
 10
2.723809999999999
 20
9.5
 30
0.0
 70
    32
  0
VERTEX
  5
21D2
  8
240
 10
2.6190500000000001
 20
9.5
 30
0.0
 70
    32
  0
VERTEX
  5
21D3
  8
240
 10
2.5142899999999999
 20
9.5
 30
0.0
 70
    32
  0
VERTEX
  5
21D4
  8
240
 10
2.4095200000000001
 20
9.5
 30
0.0
 70
    32
  0
VERTEX
  5
21D5
  8
240
 10
2.304759999999999
 20
9.5
 30
0.0
 70
    32
  0
VERTEX
  5
21D6
  8
240
 10
2.2000000000000002
 20
9.5
 30
0.0
 70
    32
  0
VERTEX
  5
21D7
  8
240
 10
2.0952399999999991
 20
9.5
 30
0.0
 70
    32
  0
VERTEX
  5
21D8
  8
240
 10
1.9904799999999989
 20
9.5
 30
0.0
 70
    32
  0
VERTEX
  5
21D9
  8
240
 10
1.8857099999999991
 20
9.5
 30
0.0
 70
    32
  0
VERTEX
  5
21DA
  8
240
 10
1.7809499999999989
 20
9.5
 30
0.0
 70
    32
  0
VERTEX
  5
21DB
  8
240
 10
1.6761900000000001
 20
9.5
 30
0.0
 70
    32
  0
VERTEX
  5
21DC
  8
240
 10
1.571429999999999
 20
9.5
 30
0.0
 70
    32
  0
VERTEX
  5
21DD
  8
240
 10
1.4666699999999999
 20
9.5
 30
0.0
 70
    32
  0
VERTEX
  5
21DE
  8
240
 10
1.3619000000000001
 20
9.5
 30
0.0
 70
    32
  0
VERTEX
  5
21DF
  8
240
 10
1.257139999999999
 20
9.5
 30
0.0
 70
    32
  0
VERTEX
  5
21E0
  8
240
 10
1.1523799999999991
 20
9.5
 30
0.0
 70
    32
  0
VERTEX
  5
21E1
  8
240
 10
1.0476199999999991
 20
9.5
 30
0.0
 70
    32
  0
VERTEX
  5
21E2
  8
240
 10
0.9428569999999998
 20
9.5
 30
0.0
 70
    32
  0
VERTEX
  5
21E3
  8
240
 10
0.838095
 20
9.5
 30
0.0
 70
    32
  0
VERTEX
  5
21E4
  8
240
 10
0.7333330000000001
 20
9.5
 30
0.0
 70
    32
  0
VERTEX
  5
21E5
  8
240
 10
0.628571
 20
9.5
 30
0.0
 70
    32
  0
VERTEX
  5
21E6
  8
240
 10
0.5238100000000001
 20
9.5
 30
0.0
 70
    32
  0
VERTEX
  5
21E7
  8
240
 10
0.419048
 20
9.5
 30
0.0
 70
    32
  0
VERTEX
  5
21E8
  8
240
 10
0.314286
 20
9.5
 30
0.0
 70
    32
  0
VERTEX
  5
21E9
  8
240
 10
0.209524
 20
9.5
 30
0.0
 70
    32
  0
VERTEX
  5
21EA
  8
240
 10
0.104762
 20
9.5
 30
0.0
 70
    32
  0
VERTEX
  5
21EB
  8
240
 10
0.0000000000660007
 20
9.5
 30
0.0
 70
    32
  0
SEQEND
  5
21EC
  8
240
  0
LINE
  5
21ED
  8
241
 10
14.20000009238718
 20
12.39579145344109
 30
0.0
 11
14.20000009238718
 21
15.281388360675431
 31
0.0
  0
LINE
  5
21EE
  8
241
 10
12.99999840557574
 20
12.16842887309044
 30
0.0
 11
12.99999840557574
 21
15.281388360675431
 31
0.0
  0
LINE
  5
21EF
  8
241
 10
12.39780522882937
 20
12.05433209246695
 30
0.0
 11
14.25668783485888
 21
12.406532232048249
 31
0.0
  0
LINE
  5
21F0
  8
241
 10
12.39780522882937
 20
12.05433209246695
 30
0.0
 11
12.893663719296439
 21
10.94135310216822
 31
0.0
  0
LINE
  5
21F1
  8
241
 10
14.25668783485888
 20
12.406532232048249
 30
0.0
 11
14.304107055068
 21
12.406532232048249
 31
0.0
  0
LINE
  5
21F2
  8
241
 10
14.25668783485888
 20
12.406532232048249
 30
0.0
 11
12.893663719296439
 21
10.94135310216822
 31
0.0
  0
LINE
  5
21F3
  8
241
 10
12.893663719296439
 20
10.94135310216822
 30
0.0
 11
12.89289258420466
 21
10.43402613596848
 31
0.0
  0
LINE
  5
21F4
  8
241
 10
14.30710591375826
 20
10.43402613596848
 30
0.0
 11
14.304107055068
 21
12.406532232048249
 31
0.0
  0
LINE
  5
21F5
  8
241
 10
14.30710591375826
 20
10.43402613596848
 30
0.0
 11
12.89289258420466
 21
10.43402613596848
 31
0.0
  0
LINE
  5
21F6
  8
240
 10
14.20000009238718
 20
15.281388360675431
 30
0.0
 11
12.99999840557574
 21
15.281388360675431
 31
0.0
  0
LINE
  5
21F7
  8
245
 10
-15.192564580976081
 20
0.0
 30
0.0
 11
21.453942927931831
 21
0.0
 31
0.0
  0
LINE
  5
21F8
  8
246
 10
19.962916213631001
 20
10.69314481914043
 30
0.0
 11
14.30606208050933
 21
16.349999999999991
 31
0.0
  0
LINE
  5
21F9
  8
246
 10
14.30606208050933
 20
16.349999999999991
 30
0.0
 11
12.89184828529444
 21
16.349999999999991
 31
0.0
  0
LINE
  5
21FA
  8
246
 10
12.89184828529444
 20
16.349999999999991
 30
0.0
 11
7.2349940357574507
 21
10.69314481914043
 31
0.0
  0
LINE
  5
21FB
  8
246
 10
7.2349940357574507
 20
10.69314481914043
 30
0.0
 11
7.2349940357574489
 21
10.073616863780719
 31
0.0
  0
LINE
  5
21FC
  8
246
 10
19.962916213631001
 20
9.2789314895868245
 30
0.0
 11
19.962916213631001
 21
10.69314481914043
 31
0.0
  0
LINE
  5
21FD
  8
246
 10
19.962916213631001
 20
9.2789314895868245
 30
0.0
 11
19.500000402331342
 21
8.8160162082782261
 31
0.0
  0
LINE
  5
21FE
  8
246
 10
19.962916213631001
 20
-9.2789314895868245
 30
0.0
 11
19.962916213631001
 21
-10.69314481914043
 31
0.0
  0
LINE
  5
21FF
  8
246
 10
19.962916213631001
 20
-10.69314481914043
 30
0.0
 11
14.30606208050933
 21
-16.349999999999991
 31
0.0
  0
LINE
  5
2200
  8
246
 10
14.30606208050933
 20
-16.349999999999991
 30
0.0
 11
12.89184828529444
 21
-16.349999999999991
 31
0.0
  0
LINE
  5
2201
  8
246
 10
12.89184828529444
 20
-16.349999999999991
 30
0.0
 11
7.2349940357574507
 21
-10.69314481914043
 31
0.0
  0
LINE
  5
2202
  8
246
 10
7.2349940357574507
 20
-10.69314481914043
 30
0.0
 11
7.2349940357574507
 21
-10.134994291086141
 31
0.0
  0
LINE
  5
2203
  8
246
 10
19.962916213631001
 20
-9.2789314895868245
 30
0.0
 11
19.539482489730901
 21
-8.8554982504748505
 31
0.0
  0
LINE
  5
2204
  8
240
 10
12.99999840557574
 20
15.281388360675431
 30
0.0
 11
6.599999964237198
 21
9.499999947950954
 31
0.0
  0
LINE
  5
2205
  8
240
 10
14.200000092387191
 20
15.281388360675431
 30
0.0
 11
19.500000402331342
 21
10.60000009613216
 31
0.0
  0
POLYLINE
  5
2206
  8
241
 66
     1
 10
0.0
 20
0.0
 30
0.0
 70
     8
  0
VERTEX
  5
2207
  8
241
 10
19.5
 20
1.0705199999999999
 30
0.0
 70
    32
  0
VERTEX
  5
2208
  8
241
 10
19.497399999999999
 20
1.0689500000000001
 30
0.0
 70
    32
  0
VERTEX
  5
2209
  8
241
 10
19.494900000000001
 20
1.0673799999999991
 30
0.0
 70
    32
  0
VERTEX
  5
220A
  8
241
 10
19.4923
 20
1.0658099999999999
 30
0.0
 70
    32
  0
VERTEX
  5
220B
  8
241
 10
19.489699999999999
 20
1.064239999999999
 30
0.0
 70
    32
  0
VERTEX
  5
220C
  8
241
 10
19.487200000000001
 20
1.06267
 30
0.0
 70
    32
  0
VERTEX
  5
220D
  8
241
 10
19.4846
 20
1.061099999999999
 30
0.0
 70
    32
  0
VERTEX
  5
220E
  8
241
 10
19.481999999999999
 20
1.059529999999999
 30
0.0
 70
    32
  0
VERTEX
  5
220F
  8
241
 10
19.479500000000002
 20
1.05796
 30
0.0
 70
    32
  0
VERTEX
  5
2210
  8
241
 10
19.476900000000001
 20
1.0563899999999991
 30
0.0
 70
    32
  0
VERTEX
  5
2211
  8
241
 10
19.474299999999999
 20
1.0548200000000001
 30
0.0
 70
    32
  0
VERTEX
  5
2212
  8
241
 10
19.471800000000002
 20
1.05325
 30
0.0
 70
    32
  0
VERTEX
  5
2213
  8
241
 10
19.469200000000001
 20
1.0516799999999991
 30
0.0
 70
    32
  0
VERTEX
  5
2214
  8
241
 10
19.4666
 20
1.0501100000000001
 30
0.0
 70
    32
  0
VERTEX
  5
2215
  8
241
 10
19.464099999999998
 20
1.04854
 30
0.0
 70
    32
  0
VERTEX
  5
2216
  8
241
 10
19.461500000000001
 20
1.04697
 30
0.0
 70
    32
  0
VERTEX
  5
2217
  8
241
 10
19.4589
 20
1.0454000000000001
 30
0.0
 70
    32
  0
VERTEX
  5
2218
  8
241
 10
19.456399999999999
 20
1.04383
 30
0.0
 70
    32
  0
VERTEX
  5
2219
  8
241
 10
19.453800000000001
 20
1.0422599999999991
 30
0.0
 70
    32
  0
VERTEX
  5
221A
  8
241
 10
19.4512
 20
1.040689999999999
 30
0.0
 70
    32
  0
VERTEX
  5
221B
  8
241
 10
19.448699999999999
 20
1.03912
 30
0.0
 70
    32
  0
VERTEX
  5
221C
  8
241
 10
19.446100000000001
 20
1.0375499999999991
 30
0.0
 70
    32
  0
VERTEX
  5
221D
  8
241
 10
19.4435
 20
1.035979999999999
 30
0.0
 70
    32
  0
VERTEX
  5
221E
  8
241
 10
19.440999999999999
 20
1.0344100000000001
 30
0.0
 70
    32
  0
VERTEX
  5
221F
  8
241
 10
19.438400000000001
 20
1.0328399999999991
 30
0.0
 70
    32
  0
VERTEX
  5
2220
  8
241
 10
19.4358
 20
1.0312699999999999
 30
0.0
 70
    32
  0
VERTEX
  5
2221
  8
241
 10
19.433299999999999
 20
1.0296899999999991
 30
0.0
 70
    32
  0
VERTEX
  5
2222
  8
241
 10
19.430700000000002
 20
1.0281199999999999
 30
0.0
 70
    32
  0
VERTEX
  5
2223
  8
241
 10
19.428100000000001
 20
1.0265500000000001
 30
0.0
 70
    32
  0
VERTEX
  5
2224
  8
241
 10
19.425599999999999
 20
1.02498
 30
0.0
 70
    32
  0
VERTEX
  5
2225
  8
241
 10
19.422999999999998
 20
1.023409999999999
 30
0.0
 70
    32
  0
VERTEX
  5
2226
  8
241
 10
19.420400000000001
 20
1.021839999999999
 30
0.0
 70
    32
  0
VERTEX
  5
2227
  8
241
 10
19.417899999999999
 20
1.02027
 30
0.0
 70
    32
  0
VERTEX
  5
2228
  8
241
 10
19.415299999999998
 20
1.0186999999999991
 30
0.0
 70
    32
  0
VERTEX
  5
2229
  8
241
 10
19.412700000000001
 20
1.017129999999999
 30
0.0
 70
    32
  0
VERTEX
  5
222A
  8
241
 10
19.4102
 20
1.01556
 30
0.0
 70
    32
  0
VERTEX
  5
222B
  8
241
 10
19.407599999999999
 20
1.0139899999999991
 30
0.0
 70
    32
  0
VERTEX
  5
222C
  8
241
 10
19.405000000000001
 20
1.0124200000000001
 30
0.0
 70
    32
  0
VERTEX
  5
222D
  8
241
 10
19.4025
 20
1.01085
 30
0.0
 70
    32
  0
VERTEX
  5
222E
  8
241
 10
19.399899999999999
 20
1.0092799999999991
 30
0.0
 70
    32
  0
VERTEX
  5
222F
  8
241
 10
19.397300000000001
 20
1.0077100000000001
 30
0.0
 70
    32
  0
VERTEX
  5
2230
  8
241
 10
19.3948
 20
1.00614
 30
0.0
 70
    32
  0
VERTEX
  5
2231
  8
241
 10
19.392199999999999
 20
1.0045699999999991
 30
0.0
 70
    32
  0
VERTEX
  5
2232
  8
241
 10
19.389600000000002
 20
1.002999999999999
 30
0.0
 70
    32
  0
VERTEX
  5
2233
  8
241
 10
19.3871
 20
1.0014299999999989
 30
0.0
 70
    32
  0
VERTEX
  5
2234
  8
241
 10
19.384499999999999
 20
0.9998610000000001
 30
0.0
 70
    32
  0
VERTEX
  5
2235
  8
241
 10
19.381900000000002
 20
0.998291
 30
0.0
 70
    32
  0
VERTEX
  5
2236
  8
241
 10
19.3794
 20
0.9967200000000001
 30
0.0
 70
    32
  0
VERTEX
  5
2237
  8
241
 10
19.376799999999999
 20
0.9951499999999999
 30
0.0
 70
    32
  0
VERTEX
  5
2238
  8
241
 10
19.374199999999998
 20
0.9935799999999998
 30
0.0
 70
    32
  0
VERTEX
  5
2239
  8
241
 10
19.371700000000001
 20
0.9920100000000001
 30
0.0
 70
    32
  0
VERTEX
  5
223A
  8
241
 10
19.3691
 20
0.9904399999999998
 30
0.0
 70
    32
  0
VERTEX
  5
223B
  8
241
 10
19.366499999999998
 20
0.988869
 30
0.0
 70
    32
  0
VERTEX
  5
223C
  8
241
 10
19.364000000000001
 20
0.9872989999999999
 30
0.0
 70
    32
  0
VERTEX
  5
223D
  8
241
 10
19.3614
 20
0.985729
 30
0.0
 70
    32
  0
VERTEX
  5
223E
  8
241
 10
19.358799999999999
 20
0.984159
 30
0.0
 70
    32
  0
VERTEX
  5
223F
  8
241
 10
19.356300000000001
 20
0.9825889999999999
 30
0.0
 70
    32
  0
VERTEX
  5
2240
  8
241
 10
19.3537
 20
0.981018
 30
0.0
 70
    32
  0
VERTEX
  5
2241
  8
241
 10
19.351099999999999
 20
0.979448
 30
0.0
 70
    32
  0
VERTEX
  5
2242
  8
241
 10
19.348600000000001
 20
0.9778780000000001
 30
0.0
 70
    32
  0
VERTEX
  5
2243
  8
241
 10
19.346
 20
0.9763079999999998
 30
0.0
 70
    32
  0
VERTEX
  5
2244
  8
241
 10
19.343399999999999
 20
0.9747379999999999
 30
0.0
 70
    32
  0
VERTEX
  5
2245
  8
241
 10
19.340900000000001
 20
0.9731669999999999
 30
0.0
 70
    32
  0
VERTEX
  5
2246
  8
241
 10
19.3383
 20
0.9715969999999998
 30
0.0
 70
    32
  0
VERTEX
  5
2247
  8
241
 10
19.335699999999999
 20
0.9700270000000001
 30
0.0
 70
    32
  0
VERTEX
  5
2248
  8
241
 10
19.333200000000001
 20
0.968457
 30
0.0
 70
    32
  0
VERTEX
  5
2249
  8
241
 10
19.3306
 20
0.966886
 30
0.0
 70
    32
  0
VERTEX
  5
224A
  8
241
 10
19.327999999999999
 20
0.965316
 30
0.0
 70
    32
  0
VERTEX
  5
224B
  8
241
 10
19.325500000000002
 20
0.9637459999999999
 30
0.0
 70
    32
  0
VERTEX
  5
224C
  8
241
 10
19.322900000000001
 20
0.962176
 30
0.0
 70
    32
  0
VERTEX
  5
224D
  8
241
 10
19.3203
 20
0.9606059999999999
 30
0.0
 70
    32
  0
VERTEX
  5
224E
  8
241
 10
19.317799999999998
 20
0.959035
 30
0.0
 70
    32
  0
VERTEX
  5
224F
  8
241
 10
19.315200000000001
 20
0.957465
 30
0.0
 70
    32
  0
VERTEX
  5
2250
  8
241
 10
19.3126
 20
0.9558950000000001
 30
0.0
 70
    32
  0
VERTEX
  5
2251
  8
241
 10
19.310099999999998
 20
0.954325
 30
0.0
 70
    32
  0
VERTEX
  5
2252
  8
241
 10
19.307500000000001
 20
0.9527549999999999
 30
0.0
 70
    32
  0
VERTEX
  5
2253
  8
241
 10
19.3049
 20
0.9511839999999999
 30
0.0
 70
    32
  0
VERTEX
  5
2254
  8
241
 10
19.302399999999999
 20
0.949614
 30
0.0
 70
    32
  0
VERTEX
  5
2255
  8
241
 10
19.299800000000001
 20
0.9480439999999999
 30
0.0
 70
    32
  0
VERTEX
  5
2256
  8
241
 10
19.2972
 20
0.9464739999999999
 30
0.0
 70
    32
  0
VERTEX
  5
2257
  8
241
 10
19.294699999999999
 20
0.944904
 30
0.0
 70
    32
  0
VERTEX
  5
2258
  8
241
 10
19.292100000000001
 20
0.9433329999999999
 30
0.0
 70
    32
  0
VERTEX
  5
2259
  8
241
 10
19.2895
 20
0.9417629999999999
 30
0.0
 70
    32
  0
VERTEX
  5
225A
  8
241
 10
19.286999999999999
 20
0.940193
 30
0.0
 70
    32
  0
VERTEX
  5
225B
  8
241
 10
19.284400000000002
 20
0.9386229999999999
 30
0.0
 70
    32
  0
VERTEX
  5
225C
  8
241
 10
19.2818
 20
0.9370519999999999
 30
0.0
 70
    32
  0
VERTEX
  5
225D
  8
241
 10
19.279299999999999
 20
0.935482
 30
0.0
 70
    32
  0
VERTEX
  5
225E
  8
241
 10
19.276700000000002
 20
0.9339120000000001
 30
0.0
 70
    32
  0
VERTEX
  5
225F
  8
241
 10
19.274100000000001
 20
0.932342
 30
0.0
 70
    32
  0
VERTEX
  5
2260
  8
241
 10
19.271599999999999
 20
0.9307719999999999
 30
0.0
 70
    32
  0
VERTEX
  5
2261
  8
241
 10
19.268999999999998
 20
0.9292010000000001
 30
0.0
 70
    32
  0
VERTEX
  5
2262
  8
241
 10
19.266400000000001
 20
0.927631
 30
0.0
 70
    32
  0
VERTEX
  5
2263
  8
241
 10
19.2639
 20
0.9260609999999999
 30
0.0
 70
    32
  0
VERTEX
  5
2264
  8
241
 10
19.261299999999999
 20
0.924491
 30
0.0
 70
    32
  0
VERTEX
  5
2265
  8
241
 10
19.258700000000001
 20
0.9229209999999998
 30
0.0
 70
    32
  0
VERTEX
  5
2266
  8
241
 10
19.2562
 20
0.9213499999999999
 30
0.0
 70
    32
  0
VERTEX
  5
2267
  8
241
 10
19.253599999999999
 20
0.9197799999999999
 30
0.0
 70
    32
  0
VERTEX
  5
2268
  8
241
 10
19.251000000000001
 20
0.91821
 30
0.0
 70
    32
  0
VERTEX
  5
2269
  8
241
 10
19.2485
 20
0.9166399999999999
 30
0.0
 70
    32
  0
VERTEX
  5
226A
  8
241
 10
19.245899999999999
 20
0.9150700000000001
 30
0.0
 70
    32
  0
VERTEX
  5
226B
  8
241
 10
19.243300000000001
 20
0.913499
 30
0.0
 70
    32
  0
VERTEX
  5
226C
  8
241
 10
19.2408
 20
0.9119290000000001
 30
0.0
 70
    32
  0
VERTEX
  5
226D
  8
241
 10
19.238199999999999
 20
0.910359
 30
0.0
 70
    32
  0
VERTEX
  5
226E
  8
241
 10
19.235600000000002
 20
0.9087889999999999
 30
0.0
 70
    32
  0
VERTEX
  5
226F
  8
241
 10
19.2331
 20
0.9072189999999999
 30
0.0
 70
    32
  0
VERTEX
  5
2270
  8
241
 10
19.230499999999999
 20
0.905648
 30
0.0
 70
    32
  0
VERTEX
  5
2271
  8
241
 10
19.227900000000002
 20
0.9040779999999999
 30
0.0
 70
    32
  0
VERTEX
  5
2272
  8
241
 10
19.2254
 20
0.9025079999999999
 30
0.0
 70
    32
  0
VERTEX
  5
2273
  8
241
 10
19.222799999999999
 20
0.9009379999999998
 30
0.0
 70
    32
  0
VERTEX
  5
2274
  8
241
 10
19.220199999999998
 20
0.8993669999999999
 30
0.0
 70
    32
  0
VERTEX
  5
2275
  8
241
 10
19.217700000000001
 20
0.8977969999999999
 30
0.0
 70
    32
  0
VERTEX
  5
2276
  8
241
 10
19.2151
 20
0.896227
 30
0.0
 70
    32
  0
VERTEX
  5
2277
  8
241
 10
19.212499999999999
 20
0.8946569999999999
 30
0.0
 70
    32
  0
VERTEX
  5
2278
  8
241
 10
19.210000000000001
 20
0.893087
 30
0.0
 70
    32
  0
VERTEX
  5
2279
  8
241
 10
19.2074
 20
0.891516
 30
0.0
 70
    32
  0
VERTEX
  5
227A
  8
241
 10
19.204799999999999
 20
0.8899459999999999
 30
0.0
 70
    32
  0
VERTEX
  5
227B
  8
241
 10
19.202200000000001
 20
0.8883760000000001
 30
0.0
 70
    32
  0
VERTEX
  5
227C
  8
241
 10
19.1997
 20
0.8868059999999999
 30
0.0
 70
    32
  0
VERTEX
  5
227D
  8
241
 10
19.197099999999999
 20
0.885236
 30
0.0
 70
    32
  0
VERTEX
  5
227E
  8
241
 10
19.194500000000001
 20
0.8836649999999998
 30
0.0
 70
    32
  0
VERTEX
  5
227F
  8
241
 10
19.192
 20
0.8820949999999999
 30
0.0
 70
    32
  0
VERTEX
  5
2280
  8
241
 10
19.189399999999999
 20
0.880525
 30
0.0
 70
    32
  0
VERTEX
  5
2281
  8
241
 10
19.186800000000002
 20
0.8789549999999998
 30
0.0
 70
    32
  0
VERTEX
  5
2282
  8
241
 10
19.1843
 20
0.8773850000000001
 30
0.0
 70
    32
  0
VERTEX
  5
2283
  8
241
 10
19.181699999999999
 20
0.8758139999999999
 30
0.0
 70
    32
  0
VERTEX
  5
2284
  8
241
 10
19.179099999999998
 20
0.874244
 30
0.0
 70
    32
  0
VERTEX
  5
2285
  8
241
 10
19.176600000000001
 20
0.872674
 30
0.0
 70
    32
  0
VERTEX
  5
2286
  8
241
 10
19.173999999999999
 20
0.871104
 30
0.0
 70
    32
  0
SEQEND
  5
2287
  8
241
  0
ARC
  5
2288
  8
241
 10
15.380867544717519
 20
-3.4683583594981511
 30
0.0
 40
5.7635836361182244
 50
48.843118183386594
 51
57.070273634695781
  0
ARC
  5
2289
  8
241
 10
5.3603594087093294
 20
8.9441976591164103
 30
0.0
 40
15.99974749411235
 50
303.53774868533958
 51
329.69676728763278
  0
ARC
  5
228A
  8
241
 10
21.935022300862311
 20
9.077060918696441
 30
0.0
 40
16.163191009115479
 50
203.33790200407259
 51
236.44063181556021
  0
ARC
  5
228B
  8
241
 10
9.2721146513671187
 20
4.3677126195488443
 30
0.0
 40
2.7589783800984411
 50
137.55976477899401
 51
217.87233005714191
  0
LINE
  5
228C
  8
241
 10
19.500000402331342
 20
-5.8183941387036091
 30
0.0
 11
19.086664542555791
 21
-6.5085257340116973
 31
0.0
  0
LINE
  5
228D
  8
241
 10
19.086664542555791
 20
-6.5085257340116973
 30
0.0
 11
14.20000009238718
 21
-9.9921234482970647
 31
0.0
  0
ARC
  5
228E
  8
241
 10
13.680536154876361
 20
9.6925302601666647
 30
0.0
 40
9.6249512206904964
 50
226.81981471489379
 51
300.14443646110732
  0
POLYLINE
  5
228F
  8
241
 66
     1
 10
0.0
 20
0.0
 30
0.0
 70
     8
  0
VERTEX
  5
2290
  8
241
 10
18.513999999999999
 20
1.36924
 30
0.0
 70
    32
  0
VERTEX
  5
2291
  8
241
 10
18.530999999999999
 20
1.381699999999999
 30
0.0
 70
    32
  0
VERTEX
  5
2292
  8
241
 10
18.547999999999998
 20
1.3941699999999999
 30
0.0
 70
    32
  0
VERTEX
  5
2293
  8
241
 10
18.565000000000001
 20
1.4066499999999991
 30
0.0
 70
    32
  0
VERTEX
  5
2294
  8
241
 10
18.581900000000001
 20
1.419149999999999
 30
0.0
 70
    32
  0
VERTEX
  5
2295
  8
241
 10
18.5989
 20
1.431659999999999
 30
0.0
 70
    32
  0
VERTEX
  5
2296
  8
241
 10
18.6157
 20
1.444199999999999
 30
0.0
 70
    32
  0
VERTEX
  5
2297
  8
241
 10
18.6326
 20
1.4567699999999999
 30
0.0
 70
    32
  0
VERTEX
  5
2298
  8
241
 10
18.6493
 20
1.469379999999999
 30
0.0
 70
    32
  0
VERTEX
  5
2299
  8
241
 10
18.6661
 20
1.4820299999999991
 30
0.0
 70
    32
  0
VERTEX
  5
229A
  8
241
 10
18.682700000000001
 20
1.49472
 30
0.0
 70
    32
  0
VERTEX
  5
229B
  8
241
 10
18.699300000000001
 20
1.50746
 30
0.0
 70
    32
  0
VERTEX
  5
229C
  8
241
 10
18.715699999999998
 20
1.5202599999999991
 30
0.0
 70
    32
  0
VERTEX
  5
229D
  8
241
 10
18.732099999999999
 20
1.5331099999999991
 30
0.0
 70
    32
  0
VERTEX
  5
229E
  8
241
 10
18.7484
 20
1.546039999999999
 30
0.0
 70
    32
  0
VERTEX
  5
229F
  8
241
 10
18.764600000000002
 20
1.559029999999999
 30
0.0
 70
    32
  0
VERTEX
  5
22A0
  8
241
 10
18.7806
 20
1.5721000000000001
 30
0.0
 70
    32
  0
VERTEX
  5
22A1
  8
241
 10
18.796500000000002
 20
1.5852399999999991
 30
0.0
 70
    32
  0
VERTEX
  5
22A2
  8
241
 10
18.8123
 20
1.598479999999999
 30
0.0
 70
    32
  0
VERTEX
  5
22A3
  8
241
 10
18.827999999999999
 20
1.611799999999999
 30
0.0
 70
    32
  0
VERTEX
  5
22A4
  8
241
 10
18.843499999999999
 20
1.6252200000000001
 30
0.0
 70
    32
  0
VERTEX
  5
22A5
  8
241
 10
18.858799999999999
 20
1.6387400000000001
 30
0.0
 70
    32
  0
VERTEX
  5
22A6
  8
241
 10
18.873999999999999
 20
1.6523699999999999
 30
0.0
 70
    32
  0
VERTEX
  5
22A7
  8
241
 10
18.888999999999999
 20
1.666099999999999
 30
0.0
 70
    32
  0
VERTEX
  5
22A8
  8
241
 10
18.9038
 20
1.6799500000000001
 30
0.0
 70
    32
  0
VERTEX
  5
22A9
  8
241
 10
18.918399999999998
 20
1.693929999999999
 30
0.0
 70
    32
  0
VERTEX
  5
22AA
  8
241
 10
18.9328
 20
1.7080200000000001
 30
0.0
 70
    32
  0
VERTEX
  5
22AB
  8
241
 10
18.947099999999999
 20
1.7222500000000001
 30
0.0
 70
    32
  0
VERTEX
  5
22AC
  8
241
 10
18.961099999999998
 20
1.7366200000000001
 30
0.0
 70
    32
  0
VERTEX
  5
22AD
  8
241
 10
18.974900000000002
 20
1.75112
 30
0.0
 70
    32
  0
VERTEX
  5
22AE
  8
241
 10
18.988399999999999
 20
1.7657700000000001
 30
0.0
 70
    32
  0
VERTEX
  5
22AF
  8
241
 10
19.0017
 20
1.7805699999999991
 30
0.0
 70
    32
  0
VERTEX
  5
22B0
  8
241
 10
19.014800000000001
 20
1.795529999999999
 30
0.0
 70
    32
  0
VERTEX
  5
22B1
  8
241
 10
19.0276
 20
1.81064
 30
0.0
 70
    32
  0
VERTEX
  5
22B2
  8
241
 10
19.040199999999999
 20
1.8259299999999989
 30
0.0
 70
    32
  0
VERTEX
  5
22B3
  8
241
 10
19.052499999999998
 20
1.84138
 30
0.0
 70
    32
  0
VERTEX
  5
22B4
  8
241
 10
19.064499999999999
 20
1.8570099999999989
 30
0.0
 70
    32
  0
VERTEX
  5
22B5
  8
241
 10
19.0762
 20
1.8728199999999999
 30
0.0
 70
    32
  0
VERTEX
  5
22B6
  8
241
 10
19.087599999999998
 20
1.8888199999999999
 30
0.0
 70
    32
  0
VERTEX
  5
22B7
  8
241
 10
19.098800000000001
 20
1.905
 30
0.0
 70
    32
  0
VERTEX
  5
22B8
  8
241
 10
19.1096
 20
1.921379999999999
 30
0.0
 70
    32
  0
VERTEX
  5
22B9
  8
241
 10
19.120100000000001
 20
1.93794
 30
0.0
 70
    32
  0
VERTEX
  5
22BA
  8
241
 10
19.130400000000002
 20
1.95469
 30
0.0
 70
    32
  0
VERTEX
  5
22BB
  8
241
 10
19.1403
 20
1.9716199999999999
 30
0.0
 70
    32
  0
VERTEX
  5
22BC
  8
241
 10
19.149999999999999
 20
1.988729999999999
 30
0.0
 70
    32
  0
VERTEX
  5
22BD
  8
241
 10
19.159400000000002
 20
2.006009999999999
 30
0.0
 70
    32
  0
VERTEX
  5
22BE
  8
241
 10
19.168500000000002
 20
2.02346
 30
0.0
 70
    32
  0
VERTEX
  5
22BF
  8
241
 10
19.177299999999999
 20
2.0410699999999991
 30
0.0
 70
    32
  0
VERTEX
  5
22C0
  8
241
 10
19.1859
 20
2.0588500000000001
 30
0.0
 70
    32
  0
VERTEX
  5
22C1
  8
241
 10
19.194199999999999
 20
2.076779999999999
 30
0.0
 70
    32
  0
VERTEX
  5
22C2
  8
241
 10
19.202200000000001
 20
2.0948699999999998
 30
0.0
 70
    32
  0
VERTEX
  5
22C3
  8
241
 10
19.210000000000001
 20
2.113119999999999
 30
0.0
 70
    32
  0
VERTEX
  5
22C4
  8
241
 10
19.217600000000001
 20
2.13151
 30
0.0
 70
    32
  0
VERTEX
  5
22C5
  8
241
 10
19.224900000000002
 20
2.1500400000000002
 30
0.0
 70
    32
  0
VERTEX
  5
22C6
  8
241
 10
19.2319
 20
2.1687199999999991
 30
0.0
 70
    32
  0
VERTEX
  5
22C7
  8
241
 10
19.238700000000001
 20
2.1875299999999989
 30
0.0
 70
    32
  0
VERTEX
  5
22C8
  8
241
 10
19.2453
 20
2.2064799999999991
 30
0.0
 70
    32
  0
VERTEX
  5
22C9
  8
241
 10
19.2517
 20
2.2255500000000001
 30
0.0
 70
    32
  0
VERTEX
  5
22CA
  8
241
 10
19.2578
 20
2.244759999999999
 30
0.0
 70
    32
  0
VERTEX
  5
22CB
  8
241
 10
19.2637
 20
2.264079999999999
 30
0.0
 70
    32
  0
VERTEX
  5
22CC
  8
241
 10
19.269400000000001
 20
2.2835299999999989
 30
0.0
 70
    32
  0
VERTEX
  5
22CD
  8
241
 10
19.274899999999999
 20
2.3030900000000001
 30
0.0
 70
    32
  0
VERTEX
  5
22CE
  8
241
 10
19.280100000000001
 20
2.3227599999999988
 30
0.0
 70
    32
  0
VERTEX
  5
22CF
  8
241
 10
19.2852
 20
2.3425400000000001
 30
0.0
 70
    32
  0
VERTEX
  5
22D0
  8
241
 10
19.290099999999999
 20
2.3624299999999989
 30
0.0
 70
    32
  0
VERTEX
  5
22D1
  8
241
 10
19.294699999999999
 20
2.3824200000000002
 30
0.0
 70
    32
  0
VERTEX
  5
22D2
  8
241
 10
19.299199999999999
 20
2.402499999999999
 30
0.0
 70
    32
  0
VERTEX
  5
22D3
  8
241
 10
19.3035
 20
2.4226799999999988
 30
0.0
 70
    32
  0
VERTEX
  5
22D4
  8
241
 10
19.307600000000001
 20
2.4429500000000002
 30
0.0
 70
    32
  0
VERTEX
  5
22D5
  8
241
 10
19.311499999999999
 20
2.463309999999999
 30
0.0
 70
    32
  0
VERTEX
  5
22D6
  8
241
 10
19.315300000000001
 20
2.4837500000000001
 30
0.0
 70
    32
  0
VERTEX
  5
22D7
  8
241
 10
19.318899999999999
 20
2.504259999999999
 30
0.0
 70
    32
  0
VERTEX
  5
22D8
  8
241
 10
19.322299999999998
 20
2.524859999999999
 30
0.0
 70
    32
  0
VERTEX
  5
22D9
  8
241
 10
19.325600000000001
 20
2.545529999999999
 30
0.0
 70
    32
  0
VERTEX
  5
22DA
  8
241
 10
19.328700000000001
 20
2.5662699999999998
 30
0.0
 70
    32
  0
VERTEX
  5
22DB
  8
241
 10
19.331600000000002
 20
2.5870700000000002
 30
0.0
 70
    32
  0
VERTEX
  5
22DC
  8
241
 10
19.334399999999999
 20
2.6079300000000001
 30
0.0
 70
    32
  0
VERTEX
  5
22DD
  8
241
 10
19.3371
 20
2.628849999999999
 30
0.0
 70
    32
  0
VERTEX
  5
22DE
  8
241
 10
19.339600000000001
 20
2.6498300000000001
 30
0.0
 70
    32
  0
VERTEX
  5
22DF
  8
241
 10
19.341999999999999
 20
2.6708599999999989
 30
0.0
 70
    32
  0
VERTEX
  5
22E0
  8
241
 10
19.3443
 20
2.6919299999999988
 30
0.0
 70
    32
  0
VERTEX
  5
22E1
  8
241
 10
19.346399999999999
 20
2.7130499999999991
 30
0.0
 70
    32
  0
VERTEX
  5
22E2
  8
241
 10
19.348400000000002
 20
2.73421
 30
0.0
 70
    32
  0
VERTEX
  5
22E3
  8
241
 10
19.350300000000001
 20
2.755409999999999
 30
0.0
 70
    32
  0
VERTEX
  5
22E4
  8
241
 10
19.3521
 20
2.7766399999999991
 30
0.0
 70
    32
  0
VERTEX
  5
22E5
  8
241
 10
19.3537
 20
2.7978900000000002
 30
0.0
 70
    32
  0
VERTEX
  5
22E6
  8
241
 10
19.3553
 20
2.8191799999999989
 30
0.0
 70
    32
  0
VERTEX
  5
22E7
  8
241
 10
19.3567
 20
2.840479999999999
 30
0.0
 70
    32
  0
VERTEX
  5
22E8
  8
241
 10
19.3581
 20
2.8618099999999989
 30
0.0
 70
    32
  0
VERTEX
  5
22E9
  8
241
 10
19.359400000000001
 20
2.8831500000000001
 30
0.0
 70
    32
  0
VERTEX
  5
22EA
  8
241
 10
19.360600000000002
 20
2.9045000000000001
 30
0.0
 70
    32
  0
VERTEX
  5
22EB
  8
241
 10
19.361699999999999
 20
2.9258599999999988
 30
0.0
 70
    32
  0
VERTEX
  5
22EC
  8
241
 10
19.3627
 20
2.9472200000000002
 30
0.0
 70
    32
  0
VERTEX
  5
22ED
  8
241
 10
19.363600000000002
 20
2.9685899999999998
 30
0.0
 70
    32
  0
VERTEX
  5
22EE
  8
241
 10
19.3645
 20
2.989949999999999
 30
0.0
 70
    32
  0
VERTEX
  5
22EF
  8
241
 10
19.365300000000001
 20
3.011299999999999
 30
0.0
 70
    32
  0
VERTEX
  5
22F0
  8
241
 10
19.366
 20
3.0326399999999998
 30
0.0
 70
    32
  0
VERTEX
  5
22F1
  8
241
 10
19.366700000000002
 20
3.0539800000000001
 30
0.0
 70
    32
  0
VERTEX
  5
22F2
  8
241
 10
19.3674
 20
3.0752899999999999
 30
0.0
 70
    32
  0
VERTEX
  5
22F3
  8
241
 10
19.367899999999999
 20
3.096579999999999
 30
0.0
 70
    32
  0
VERTEX
  5
22F4
  8
241
 10
19.368500000000001
 20
3.1178499999999989
 30
0.0
 70
    32
  0
VERTEX
  5
22F5
  8
241
 10
19.369
 20
3.139089999999999
 30
0.0
 70
    32
  0
VERTEX
  5
22F6
  8
241
 10
19.369399999999999
 20
3.160299999999999
 30
0.0
 70
    32
  0
VERTEX
  5
22F7
  8
241
 10
19.369800000000001
 20
3.1814800000000001
 30
0.0
 70
    32
  0
VERTEX
  5
22F8
  8
241
 10
19.370200000000001
 20
3.2026300000000001
 30
0.0
 70
    32
  0
VERTEX
  5
22F9
  8
241
 10
19.3706
 20
3.223749999999999
 30
0.0
 70
    32
  0
VERTEX
  5
22FA
  8
241
 10
19.370899999999999
 20
3.24485
 30
0.0
 70
    32
  0
VERTEX
  5
22FB
  8
241
 10
19.371099999999998
 20
3.265919999999999
 30
0.0
 70
    32
  0
VERTEX
  5
22FC
  8
241
 10
19.371400000000001
 20
3.2869599999999992
 30
0.0
 70
    32
  0
VERTEX
  5
22FD
  8
241
 10
19.371600000000001
 20
3.3079699999999992
 30
0.0
 70
    32
  0
VERTEX
  5
22FE
  8
241
 10
19.371700000000001
 20
3.328949999999999
 30
0.0
 70
    32
  0
VERTEX
  5
22FF
  8
241
 10
19.3719
 20
3.3499099999999991
 30
0.0
 70
    32
  0
VERTEX
  5
2300
  8
241
 10
19.3719
 20
3.3708399999999998
 30
0.0
 70
    32
  0
VERTEX
  5
2301
  8
241
 10
19.372
 20
3.39175
 30
0.0
 70
    32
  0
VERTEX
  5
2302
  8
241
 10
19.372
 20
3.4126300000000001
 30
0.0
 70
    32
  0
VERTEX
  5
2303
  8
241
 10
19.372
 20
3.433489999999999
 30
0.0
 70
    32
  0
VERTEX
  5
2304
  8
241
 10
19.372
 20
3.4543199999999992
 30
0.0
 70
    32
  0
VERTEX
  5
2305
  8
241
 10
19.3719
 20
3.4751199999999991
 30
0.0
 70
    32
  0
VERTEX
  5
2306
  8
241
 10
19.3718
 20
3.4958999999999989
 30
0.0
 70
    32
  0
VERTEX
  5
2307
  8
241
 10
19.371700000000001
 20
3.516659999999999
 30
0.0
 70
    32
  0
VERTEX
  5
2308
  8
241
 10
19.371500000000001
 20
3.5373899999999998
 30
0.0
 70
    32
  0
VERTEX
  5
2309
  8
241
 10
19.371300000000002
 20
3.5581
 30
0.0
 70
    32
  0
VERTEX
  5
230A
  8
241
 10
19.371099999999998
 20
3.5787900000000001
 30
0.0
 70
    32
  0
VERTEX
  5
230B
  8
241
 10
19.370799999999999
 20
3.59945
 30
0.0
 70
    32
  0
VERTEX
  5
230C
  8
241
 10
19.3705
 20
3.620099999999999
 30
0.0
 70
    32
  0
VERTEX
  5
230D
  8
241
 10
19.370200000000001
 20
3.6407199999999991
 30
0.0
 70
    32
  0
VERTEX
  5
230E
  8
241
 10
19.369800000000001
 20
3.661309999999999
 30
0.0
 70
    32
  0
VERTEX
  5
230F
  8
241
 10
19.369499999999999
 20
3.6818900000000001
 30
0.0
 70
    32
  0
VERTEX
  5
2310
  8
241
 10
19.3691
 20
3.7024499999999989
 30
0.0
 70
    32
  0
VERTEX
  5
2311
  8
241
 10
19.368600000000001
 20
3.7229800000000002
 30
0.0
 70
    32
  0
VERTEX
  5
2312
  8
241
 10
19.368200000000002
 20
3.7435
 30
0.0
 70
    32
  0
VERTEX
  5
2313
  8
241
 10
19.367699999999999
 20
3.7639900000000002
 30
0.0
 70
    32
  0
VERTEX
  5
2314
  8
241
 10
19.3672
 20
3.7844699999999989
 30
0.0
 70
    32
  0
VERTEX
  5
2315
  8
241
 10
19.366599999999998
 20
3.8049199999999992
 30
0.0
 70
    32
  0
VERTEX
  5
2316
  8
241
 10
19.366099999999999
 20
3.825359999999999
 30
0.0
 70
    32
  0
VERTEX
  5
2317
  8
241
 10
19.365500000000001
 20
3.845769999999999
 30
0.0
 70
    32
  0
VERTEX
  5
2318
  8
241
 10
19.364899999999999
 20
3.866169999999999
 30
0.0
 70
    32
  0
VERTEX
  5
2319
  8
241
 10
19.3643
 20
3.8865500000000002
 30
0.0
 70
    32
  0
VERTEX
  5
231A
  8
241
 10
19.363600000000002
 20
3.9069199999999991
 30
0.0
 70
    32
  0
VERTEX
  5
231B
  8
241
 10
19.3629
 20
3.92726
 30
0.0
 70
    32
  0
VERTEX
  5
231C
  8
241
 10
19.362200000000001
 20
3.947589999999999
 30
0.0
 70
    32
  0
VERTEX
  5
231D
  8
241
 10
19.361499999999999
 20
3.9679000000000002
 30
0.0
 70
    32
  0
VERTEX
  5
231E
  8
241
 10
19.360800000000001
 20
3.9881999999999991
 30
0.0
 70
    32
  0
VERTEX
  5
231F
  8
241
 10
19.359999999999999
 20
4.0084799999999996
 30
0.0
 70
    32
  0
VERTEX
  5
2320
  8
241
 10
19.359200000000001
 20
4.0287399999999991
 30
0.0
 70
    32
  0
VERTEX
  5
2321
  8
241
 10
19.3584
 20
4.048989999999999
 30
0.0
 70
    32
  0
VERTEX
  5
2322
  8
241
 10
19.357600000000001
 20
4.0692199999999987
 30
0.0
 70
    32
  0
VERTEX
  5
2323
  8
241
 10
19.3567
 20
4.0894399999999989
 30
0.0
 70
    32
  0
VERTEX
  5
2324
  8
241
 10
19.355899999999998
 20
4.1096399999999988
 30
0.0
 70
    32
  0
VERTEX
  5
2325
  8
241
 10
19.355
 20
4.1298300000000001
 30
0.0
 70
    32
  0
VERTEX
  5
2326
  8
241
 10
19.354099999999999
 20
4.1500099999999991
 30
0.0
 70
    32
  0
VERTEX
  5
2327
  8
241
 10
19.353200000000001
 20
4.1701699999999988
 30
0.0
 70
    32
  0
VERTEX
  5
2328
  8
241
 10
19.3522
 20
4.1903199999999989
 30
0.0
 70
    32
  0
VERTEX
  5
2329
  8
241
 10
19.351299999999998
 20
4.2104599999999994
 30
0.0
 70
    32
  0
VERTEX
  5
232A
  8
241
 10
19.350300000000001
 20
4.2305799999999998
 30
0.0
 70
    32
  0
VERTEX
  5
232B
  8
241
 10
19.349299999999999
 20
4.2506899999999996
 30
0.0
 70
    32
  0
VERTEX
  5
232C
  8
241
 10
19.348299999999998
 20
4.270789999999999
 30
0.0
 70
    32
  0
VERTEX
  5
232D
  8
241
 10
19.347300000000001
 20
4.2908799999999996
 30
0.0
 70
    32
  0
VERTEX
  5
232E
  8
241
 10
19.346299999999999
 20
4.3109599999999988
 30
0.0
 70
    32
  0
VERTEX
  5
232F
  8
241
 10
19.345199999999998
 20
4.3310199999999988
 30
0.0
 70
    32
  0
VERTEX
  5
2330
  8
241
 10
19.344200000000001
 20
4.3510799999999996
 30
0.0
 70
    32
  0
VERTEX
  5
2331
  8
241
 10
19.3431
 20
4.3711199999999986
 30
0.0
 70
    32
  0
VERTEX
  5
2332
  8
241
 10
19.341999999999999
 20
4.3911600000000002
 30
0.0
 70
    32
  0
VERTEX
  5
2333
  8
241
 10
19.340900000000001
 20
4.411179999999999
 30
0.0
 70
    32
  0
VERTEX
  5
2334
  8
241
 10
19.3398
 20
4.4311999999999987
 30
0.0
 70
    32
  0
VERTEX
  5
2335
  8
241
 10
19.338699999999999
 20
4.4512099999999988
 30
0.0
 70
    32
  0
VERTEX
  5
2336
  8
241
 10
19.337499999999999
 20
4.4712100000000001
 30
0.0
 70
    32
  0
VERTEX
  5
2337
  8
241
 10
19.336400000000001
 20
4.4912000000000001
 30
0.0
 70
    32
  0
VERTEX
  5
2338
  8
241
 10
19.3352
 20
4.5111800000000004
 30
0.0
 70
    32
  0
VERTEX
  5
2339
  8
241
 10
19.334099999999999
 20
4.531159999999999
 30
0.0
 70
    32
  0
VERTEX
  5
233A
  8
241
 10
19.332899999999999
 20
4.5511299999999997
 30
0.0
 70
    32
  0
VERTEX
  5
233B
  8
241
 10
19.331700000000001
 20
4.571089999999999
 30
0.0
 70
    32
  0
VERTEX
  5
233C
  8
241
 10
19.330500000000001
 20
4.5910399999999996
 30
0.0
 70
    32
  0
VERTEX
  5
233D
  8
241
 10
19.3293
 20
4.6109900000000001
 30
0.0
 70
    32
  0
VERTEX
  5
233E
  8
241
 10
19.328099999999999
 20
4.6309300000000002
 30
0.0
 70
    32
  0
VERTEX
  5
233F
  8
241
 10
19.326899999999998
 20
4.6508699999999994
 30
0.0
 70
    32
  0
VERTEX
  5
2340
  8
241
 10
19.325700000000001
 20
4.670799999999999
 30
0.0
 70
    32
  0
VERTEX
  5
2341
  8
241
 10
19.3245
 20
4.6907300000000003
 30
0.0
 70
    32
  0
VERTEX
  5
2342
  8
241
 10
19.3232
 20
4.7106500000000002
 30
0.0
 70
    32
  0
VERTEX
  5
2343
  8
241
 10
19.321999999999999
 20
4.7305699999999993
 30
0.0
 70
    32
  0
VERTEX
  5
2344
  8
241
 10
19.320699999999999
 20
4.7504799999999996
 30
0.0
 70
    32
  0
VERTEX
  5
2345
  8
241
 10
19.319500000000001
 20
4.770389999999999
 30
0.0
 70
    32
  0
VERTEX
  5
2346
  8
241
 10
19.318200000000001
 20
4.7903000000000002
 30
0.0
 70
    32
  0
VERTEX
  5
2347
  8
241
 10
19.317
 20
4.8102
 30
0.0
 70
    32
  0
VERTEX
  5
2348
  8
241
 10
19.3157
 20
4.8301099999999986
 30
0.0
 70
    32
  0
VERTEX
  5
2349
  8
241
 10
19.314499999999999
 20
4.8500100000000002
 30
0.0
 70
    32
  0
VERTEX
  5
234A
  8
241
 10
19.313199999999998
 20
4.8699000000000003
 30
0.0
 70
    32
  0
VERTEX
  5
234B
  8
241
 10
19.311900000000001
 20
4.8898000000000001
 30
0.0
 70
    32
  0
VERTEX
  5
234C
  8
241
 10
19.310700000000001
 20
4.9096900000000003
 30
0.0
 70
    32
  0
VERTEX
  5
234D
  8
241
 10
19.3094
 20
4.9295900000000001
 30
0.0
 70
    32
  0
VERTEX
  5
234E
  8
241
 10
19.3081
 20
4.9494800000000003
 30
0.0
 70
    32
  0
VERTEX
  5
234F
  8
241
 10
19.306799999999999
 20
4.9693699999999987
 30
0.0
 70
    32
  0
SEQEND
  5
2350
  8
241
  0
LINE
  5
2351
  8
241
 10
18.51400919258592
 20
-10.02841386049843
 30
0.0
 11
17.626402899622899
 21
-10.20824985328286
 31
0.0
  0
LINE
  5
2352
  8
241
 10
18.51400919258592
 20
-10.02841386049843
 30
0.0
 11
19.06560409890632
 21
-9.1905805917928944
 31
0.0
  0
LINE
  5
2353
  8
240
 10
19.500000402331342
 20
-10.54580396300662
 30
0.0
 11
14.20000009238718
 21
-15.281388300287229
 31
0.0
  0
LINE
  5
2354
  8
240
 10
12.99999840557574
 20
-15.281388300287229
 30
0.0
 11
6.599999964237198
 21
-9.4999997229266153
 31
0.0
  0
ARC
  5
23BB
  8
241
 10
-2.099999999999965
 20
5.4114359999999762
 30
0.0
 40
0.6
 50
8.4882609999998522
 51
29.999999999999719
  0
LINE
  5
23BC
  8
241
 10
-4.4735899999999988
 20
6.75
 30
0.0
 11
-2.5264099999999701
 21
6.75
 31
0.0
  0
ARC
  5
23BD
  8
241
 10
-2.5264099999999701
 20
6.1499999999999764
 30
0.0
 40
0.6
 50
29.999999999999719
 51
90.0
  0
ARC
  5
23BE
  8
241
 10
-4.8999999999999773
 20
5.4114359999999762
 30
0.0
 40
0.6
 50
150.0000000000002
 51
171.51173900000009
  0
LINE
  5
23BF
  8
241
 10
-5.4196149999999612
 20
5.7114359999999591
 30
0.0
 11
-4.9932049999999881
 21
6.4499999999999851
 31
0.0
  0
ARC
  5
23C0
  8
241
 10
-4.4735899999999988
 20
6.1499999999999764
 30
0.0
 40
0.6
 50
90.0
 51
150.0000000000002
  0
LINE
  5
23C1
  8
241
 10
-1.58038399999998
 20
5.7114359999999591
 30
0.0
 11
-2.006794999999955
 21
6.4499999999999851
 31
0.0
  0
LINE
  5
23E0
  8
241
 10
-4.4735899999999988
 20
-6.75
 30
0.0
 11
-2.5264099999999701
 21
-6.75
 31
0.0
  0
ARC
  5
23E1
  8
241
 10
-2.5264099999999701
 20
-6.1500000000000012
 30
0.0
 40
0.6
 50
270.0
 51
330.00000000000028
  0
ARC
  5
23E2
  8
241
 10
-4.8999999999999773
 20
-5.4114360000000081
 30
0.0
 40
0.6
 50
188.4882609999998
 51
209.99999999999969
  0
LINE
  5
23E3
  8
241
 10
-5.4196149999999612
 20
-5.7114359999999911
 30
0.0
 11
-4.9932049999999881
 21
-6.4500000000000171
 31
0.0
  0
ARC
  5
23E4
  8
241
 10
-4.4735899999999988
 20
-6.1500000000000012
 30
0.0
 40
0.6
 50
209.99999999999969
 51
270.0
  0
LINE
  5
23E5
  8
241
 10
-1.58038399999998
 20
-5.7114359999999911
 30
0.0
 11
-2.006794999999955
 21
-6.4500000000000171
 31
0.0
  0
LINE
  5
23E6
  8
245
 10
-5.0
 20
2.797314999999966
 30
0.0
 11
-5.0
 21
-2.7973140000000281
 31
0.0
  0
CIRCLE
  5
23E7
  8
241
 10
-5.0
 20
0.0
 30
0.0
 40
1.978
  0
CIRCLE
  5
23E8
  8
241
 10
-5.0
 20
0.0
 30
0.0
 40
1.5
  0
LINE
  5
23F6
  8
240
 10
-11.65750199999998
 20
5.339982999999985
 30
0.0
 11
-12.53053999999997
 21
5.4939229999999952
 31
0.0
  0
LINE
  5
23F7
  8
240
 10
-11.65750199999998
 20
5.339982999999985
 30
0.0
 11
-10.74999999999997
 21
5.5
 31
0.0
  0
LINE
  5
23F8
  8
240
 10
-12.99999999999997
 20
5.2071799999999611
 30
0.0
 11
-12.946409999999981
 21
5.2999999999999821
 31
0.0
  0
ARC
  5
23F9
  8
240
 10
-12.59999999999998
 20
5.0999999999999934
 30
0.0
 40
0.4
 50
79.999999999999815
 51
150.0000000000002
  0
LINE
  5
23FA
  8
240
 10
-12.99999999999997
 20
-5.207179999999993
 30
0.0
 11
-12.946409999999981
 21
-5.3000000000000114
 31
0.0
  0
ARC
  5
23FB
  8
240
 10
-12.59999999999998
 20
-5.100000000000021
 30
0.0
 40
0.4
 50
209.99999999999969
 51
280.00000000000028
  0
LINE
  5
23FC
  8
240
 10
-11.65750199999998
 20
-5.339983000000017
 30
0.0
 11
-12.53053999999997
 21
-5.4939229999999952
 31
0.0
  0
LINE
  5
23FD
  8
240
 10
-11.65750199999998
 20
-5.339983000000017
 30
0.0
 11
-10.74999999999997
 21
-5.5
 31
0.0
  0
LINE
  5
23FE
  8
241
 10
-11.65750199999998
 20
-5.339983000000017
 30
0.0
 11
-11.65750199999934
 21
0.0000000000000142
 31
0.0
  0
LINE
  5
23FF
  8
241
 10
-10.74999999999997
 20
-5.5
 30
0.0
 11
-10.75
 21
0.0000000000000142
 31
0.0
  0
LINE
  5
2400
  8
241
 10
-10.74999999999997
 20
5.5
 30
0.0
 11
-10.75
 21
0.0000000000000142
 31
0.0
  0
LINE
  5
2401
  8
241
 10
-11.65750199999998
 20
5.339982999999985
 30
0.0
 11
-11.657502000000189
 21
0.0000000000000142
 31
0.0
  0
LINE
  5
2402
  8
240
 10
-12.99999999999997
 20
5.2071799999999611
 30
0.0
 11
-12.99999999999997
 21
-5.207179999999993
 31
0.0
  0
LINE
  5
2403
  8
240
 10
-10.74999999999997
 20
-5.5
 30
0.0
 11
0.0
 21
-5.4999999999999991
 31
0.0
  0
LINE
  5
2404
  8
240
 10
-10.74999999999997
 20
5.5
 30
0.0
 11
-0.0000000000000018
 21
5.4999999999999991
 31
0.0
  0
TEXT
  5
2410
  8
247
 10
5.74491825905727
 20
-8.5961522391006611
 30
0.0
 40
2.0
  1
CKB1-C2232-45B-20
 50
90.0
 41
0.5
  7
YOKO
 11
5.74491825905727
 21
-8.5961522391006611
 31
0.0
 73
     1
  0
LINE
  5
2411
  8
240
 10
-0.0000000000000302
 20
9.4999997229266278
 30
0.0
 11
-0.0000000000000175
 21
5.5000000000000089
 31
0.0
  0
LINE
  5
2412
  8
241
 10
-0.0000000000000018
 20
5.4999999999999991
 30
0.0
 11
-0.0000000000000009
 21
-5.4999999999999982
 31
0.0
  0
LINE
  5
2413
  8
241
 10
19.500000402331342
 20
-5.2568907737836801
 30
0.0
 11
19.500000402331342
 21
-5.8183941387036091
 31
0.0
  0
VIEWPORT
  5
22
 67
     1
  8
0
 10
261.51769911504419
 20
148.5
 30
0.0
 40
523.0353982300885
 41
297.0
 68
     1
 69
     1
1001
ACAD
1000
MVIEW
1002
{
1070
    16
1010
0.0
1020
0.0
1030
0.0
1010
0.0
1020
0.0
1030
1.0
1040
0.0
1040
297.0
1040
261.51769911504419
1040
148.5
1040
50.0
1040
0.0
1040
0.0
1070
     0
1070
   100
1070
     1
1070
     1
1070
     0
1070
     0
1070
     0
1070
     0
1040
0.0
1040
0.0
1040
0.0
1040
1.0
1040
1.0
1040
10.0
1040
10.0
1070
     0
1002
{
1002
}
1002
}
1001
GENIUS_GENODEF_13
1002
{
1000
HIER
1070
     0
1002
}
1002
{
1000
MANEDIT
1070
     0
1002
}
1002
{
1000
NOSEL
1070
     0
1002
}
1002
{
1000
BEHIND
1070
     0
1002
}
1002
{
1000
OTHER
1070
     0
1002
}
1002
{
1000
REACTOR
1002
}
1001
GENIUS_GENOBJ-N-SDF_13
1002
{
1000
OWNER
1000
GEN
1002
}
1001
GENIUS_GENSCREG_15
1000
PF
1040
1.0
1000
DF
1040
1.0
1000
MIN
1011
0.0
1021
2.7200830952939999E+024
1031
6.0007746204051628E+054
1021
0.0
1031
0.0
1000
MAX
1011
523.0353982300885
1021
2.7200830952939999E+024
1031
6.0007746204051628E+054
1021
297.0
1031
0.0
1000
FLAGS
1070
     2
  0
ENDSEC
  0
EOF
