  0
SECTION
  2
HEADER
  9
$ACADVER
  1
AC1009
  9
$INSBASE
 10
0.0
 20
0.0
 30
0.0
  9
$EXTMIN
 10
-48.999999999999993
 20
-40.0
 30
0.0
  9
$EXTMAX
 10
100.67187276000141
 20
75.000000000000043
 30
0.0
  9
$LIMMIN
 10
0.0
 20
0.0
  9
$LIMMAX
 10
297.0
 20
210.0
  9
$ORTHOMODE
 70
     1
  9
$REGENMODE
 70
     1
  9
$FILLMODE
 70
     1
  9
$QTEXTMODE
 70
     0
  9
$MIRRTEXT
 70
     1
  9
$DRAGMODE
 70
     2
  9
$LTSCALE
 40
10.0
  9
$OSMODE
 70
    35
  9
$ATTMODE
 70
     1
  9
$TEXTSIZE
 40
3.0
  9
$TRACEWID
 40
1.0
  9
$TEXTSTYLE
  7
YOKO
  9
$CLAYER
  8
240
  9
$CELTYPE
  6
BYLAYER
  9
$CECOLOR
 62
   256
  9
$DIMSCALE
 40
1.0
  9
$DIMASZ
 40
2.2299999999999991
  9
$DIMEXO
 40
0.5
  9
$DIMDLI
 40
7.0
  9
$DIMRND
 40
0.0
  9
$DIMDLE
 40
0.0
  9
$DIMEXE
 40
1.0
  9
$DIMTP
 40
0.0
  9
$DIMTM
 40
0.01
  9
$DIMTXT
 40
2.7999999999999989
  9
$DIMCEN
 40
0.0
  9
$DIMTSZ
 40
0.0
  9
$DIMTOL
 70
     0
  9
$DIMLIM
 70
     0
  9
$DIMTIH
 70
     0
  9
$DIMTOH
 70
     0
  9
$DIMSE1
 70
     0
  9
$DIMSE2
 70
     0
  9
$DIMTAD
 70
     3
  9
$DIMZIN
 70
     9
  9
$DIMBLK
  1
OPEN
  9
$DIMASO
 70
     1
  9
$DIMSHO
 70
     1
  9
$DIMPOST
  1

  9
$DIMAPOST
  1

  9
$DIMALT
 70
     0
  9
$DIMALTD
 70
     2
  9
$DIMALTF
 40
25.399999999999999
  9
$DIMLFAC
 40
1.0
  9
$DIMTOFL
 70
     1
  9
$DIMTVP
 40
0.0
  9
$DIMTIX
 70
     1
  9
$DIMSOXD
 70
     0
  9
$DIMSAH
 70
     0
  9
$DIMBLK1
  1

  9
$DIMBLK2
  1

  9
$DIMSTYLE
  2
BIGT
  9
$DIMCLRD
 70
   256
  9
$DIMCLRE
 70
   256
  9
$DIMCLRT
 70
    40
  9
$DIMTFAC
 40
1.0
  9
$DIMGAP
 40
1.0
  9
$LUNITS
 70
     2
  9
$LUPREC
 70
     6
  9
$SKETCHINC
 40
1.0
  9
$FILLETRAD
 40
0.0
  9
$AUNITS
 70
     0
  9
$AUPREC
 70
     6
  9
$MENU
  1
.
  9
$ELEVATION
 40
0.0
  9
$PELEVATION
 40
0.0
  9
$THICKNESS
 40
0.0
  9
$LIMCHECK
 70
     0
  9
$BLIPMODE
 70
     0
  9
$CHAMFERA
 40
0.2
  9
$CHAMFERB
 40
0.2
  9
$SKPOLY
 70
     0
  9
$TDCREATE
 40
2457745.5583148841
  9
$TDUPDATE
 40
2457745.613852222
  9
$TDINDWG
 40
0.0154022801
  9
$TDUSRTIMER
 40
0.0154022454
  9
$USRTIMER
 70
     1
  9
$ANGBASE
 50
0.0
  9
$ANGDIR
 70
     0
  9
$PDMODE
 70
     1
  9
$PDSIZE
 40
0.0
  9
$PLINEWID
 40
0.0
  9
$COORDS
 70
     1
  9
$SPLFRAME
 70
     0
  9
$SPLINETYPE
 70
     6
  9
$SPLINESEGS
 70
     4
  9
$ATTDIA
 70
     1
  9
$ATTREQ
 70
     1
  9
$HANDLING
 70
     1
  9
$HANDSEED
  5
4715
  9
$SURFTAB1
 70
     6
  9
$SURFTAB2
 70
     6
  9
$SURFTYPE
 70
     6
  9
$SURFU
 70
     6
  9
$SURFV
 70
     6
  9
$UCSNAME
  2

  9
$UCSORG
 10
0.0
 20
0.0
 30
0.0
  9
$UCSXDIR
 10
1.0
 20
0.0
 30
0.0
  9
$UCSYDIR
 10
0.0
 20
1.0
 30
0.0
  9
$PUCSNAME
  2

  9
$PUCSORG
 10
0.0
 20
0.0
 30
0.0
  9
$PUCSXDIR
 10
1.0
 20
0.0
 30
0.0
  9
$PUCSYDIR
 10
0.0
 20
1.0
 30
0.0
  9
$USERI1
 70
     1
  9
$USERI2
 70
     0
  9
$USERI3
 70
     0
  9
$USERI4
 70
     0
  9
$USERI5
 70
     0
  9
$USERR1
 40
0.0
  9
$USERR2
 40
0.0
  9
$USERR3
 40
0.0
  9
$USERR4
 40
0.0
  9
$USERR5
 40
0.0
  9
$WORLDVIEW
 70
     1
  9
$SHADEDGE
 70
     3
  9
$SHADEDIF
 70
    70
  9
$TILEMODE
 70
     1
  9
$MAXACTVP
 70
    16
  9
$PLIMCHECK
 70
     0
  9
$PEXTMIN
 10
1.0000000000000000E+020
 20
1.0000000000000000E+020
 30
1.0000000000000000E+020
  9
$PEXTMAX
 10
-1.0000000000000000E+020
 20
-1.0000000000000000E+020
 30
-1.0000000000000000E+020
  9
$PLIMMIN
 10
0.0
 20
0.0
  9
$PLIMMAX
 10
420.0
 20
297.0
  9
$UNITMODE
 70
     0
  9
$VISRETAIN
 70
     1
  9
$PLINEGEN
 70
     0
  9
$PSLTSCALE
 70
     1
  0
ENDSEC
  0
SECTION
  2
TABLES
  0
TABLE
  2
VPORT
 70
     1
  0
VPORT
  2
*ACTIVE
 70
     0
 10
0.0
 20
0.0
 11
1.0
 21
1.0
 12
14.175547612793761
 22
13.75623188034152
 13
0.0
 23
0.0
 14
7.0
 24
7.0
 15
7.0
 25
7.0
 16
0.0
 26
0.0
 36
1.0
 17
0.0
 27
0.0
 37
0.0
 40
169.01492244017069
 41
1.464403066812705
 42
50.0
 43
0.0
 44
0.0
 50
0.0
 51
0.0
 71
     0
 72
  2000
 73
     1
 74
     0
 75
     0
 76
     1
 77
     0
 78
     0
  0
ENDTAB
  0
TABLE
  2
LTYPE
 70
    16
  0
LTYPE
  2
CONTINUOUS
 70
     0
  3
Solid line
 72
    65
 73
     0
 40
0.0
  0
LTYPE
  2
CENTER2
 70
     0
  3
___ _ ___ _ ___ _ ___ _ ___ _ ___ _ ___ _ ___ _
 72
    65
 73
     4
 40
1.125
 49
0.75
 49
-0.125
 49
0.125
 49
-0.125
  0
LTYPE
  2
HIDDEN2
 70
     0
  3
_ _ _ _ _ _ _ _ _ _ _ _ _ _ _ _ _ _ _ _ _ _ _ _
 72
    65
 73
     2
 40
0.1875
 49
0.125
 49
-0.0625
  0
LTYPE
  2
PHANTOM2
 70
     0
  3
___ _ _ ___ _ _ ___ _ _ ___ _ _ ___ _ _ ___ _ _
 72
    65
 73
     6
 40
1.25
 49
0.625
 49
-0.125
 49
0.125
 49
-0.125
 49
0.125
 49
-0.125
  0
LTYPE
  2
AM_ISO02W050
 70
     0
  3
__ __ __ __ __ __ __ __ __ __ __ __ __ __ __
 72
    65
 73
     2
 40
7.5
 49
6.0
 49
-1.5
  0
LTYPE
  2
AMCONSTR
 70
     0
  3
_______________________
 72
    65
 73
     2
 40
9999.0
 49
9999.0
 49
0.0
  0
LTYPE
  2
ACISOWELD
 70
     0
  3
_ _ _ _ _
 72
    65
 73
     2
 40
2.0
 49
2.0
 49
-1.0
  0
LTYPE
  2
ACISOTGB
 70
     0
  3
__ . . __ . .
 72
    65
 73
     6
 40
9.0
 49
4.0
 49
-1.0
 49
1.0
 49
-1.0
 49
1.0
 49
-1.0
  0
LTYPE
  2
ACISOTGL
 70
     0
  3
_ _ _ _ _
 72
    65
 73
     2
 40
3.0
 49
2.0
 49
-1.0
  0
LTYPE
  2
ACJISTGB
 70
     0
  3
__ . . __ . .
 72
    65
 73
     6
 40
9.0
 49
4.0
 49
-1.0
 49
1.0
 49
-1.0
 49
1.0
 49
-1.0
  0
LTYPE
  2
ACJISTGL
 70
     0
  3
_ _ _ _ _
 72
    65
 73
     2
 40
3.0
 49
2.0
 49
-1.0
  0
ENDTAB
  0
TABLE
  2
LAYER
 70
     8
  0
LAYER
  2
0
 70
     0
 62
     7
  6
CONTINUOUS
  0
LAYER
  2
DEFPOINTS
 70
     0
 62
     7
  6
CONTINUOUS
  0
LAYER
  2
245
 70
     0
 62
     2
  6
CENTER2
  0
LAYER
  2
240
 70
     0
 62
     4
  6
CONTINUOUS
  0
LAYER
  2
241
 70
     0
 62
   211
  6
CONTINUOUS
  0
LAYER
  2
243
 70
     0
 62
   211
  6
HIDDEN2
  0
LAYER
  2
247
 70
     0
 62
    60
  6
CONTINUOUS
  0
LAYER
  2
250
 70
     0
 62
     3
  6
CONTINUOUS
  0
ENDTAB
  0
TABLE
  2
STYLE
 70
     7
  0
STYLE
  2
STANDARD
 70
     0
 40
0.0
 41
1.0
 50
0.0
 71
     0
 42
3.0
  3
romans.shx
  4
extfont.shx
  0
STYLE
  2
ACISOTS
 70
     0
 40
1.0
 41
1.0
 50
0.0
 71
     0
 42
3.0
  3
amgdt.shx
  4
extfont.shx
  0
STYLE
  2
ACISOGDT
 70
     0
 40
0.0
 41
1.0
 50
0.0
 71
     0
 42
3.0
  3
amgdt.shx
  4
extfont.shx
  0
STYLE
  2
ACJISTS
 70
     0
 40
1.0
 41
1.0
 50
0.0
 71
     0
 42
3.0
  3
amgdt.shx
  4
extfont.shx
  0
STYLE
  2
ACJISGDT
 70
     0
 40
0.0
 41
1.0
 50
0.0
 71
     0
 42
3.0
  3
amgdt.shx
  4
extfont.shx
  0
STYLE
  2
YOKO
 70
     0
 40
0.0
 41
1.0
 50
0.0
 71
     0
 42
3.0
  3
romans.shx
  4
extfont.shx
  0
ENDTAB
  0
TABLE
  2
VIEW
 70
     0
  0
ENDTAB
  0
TABLE
  2
UCS
 70
     0
  0
ENDTAB
  0
TABLE
  2
APPID
 70
    41
  0
APPID
  2
ACAD
 70
     0
  0
APPID
  2
GLOBAL
 70
     0
  0
APPID
  2
DETAIL
 70
     0
  0
APPID
  2
GRPNAME
 70
     0
  0
APPID
  2
GPARA
 70
     0
  0
APPID
  2
MCAD_NO_VIS
 70
     0
  0
APPID
  2
ACAD_TEMP_GRAPHIC
 70
     0
  0
APPID
  2
ACATTRIBSERVICES
 70
     0
  0
APPID
  2
GENIUS_GENSCREG_15
 70
     0
  0
APPID
  2
GENIUS_GENODEF_13
 70
     0
  0
APPID
  2
GENIUS_GENOBJ-N-SDF_13
 70
     0
  0
APPID
  2
GENIUS_GENREC_14
 70
     0
  0
APPID
  2
GENIUS_GENOBJ-N-REC_13
 70
     0
  0
APPID
  2
GENIUS_GENDIMSH_14
 70
     0
  0
APPID
  2
GENIUS_GENOBJ-N-DIM_13
 70
     0
  0
APPID
  2
GENIUS_GENDIM_13
 70
     0
  0
APPID
  2
GENIUS_GENDTOL_13
 70
     0
  0
APPID
  2
GENIUS_GENOLIS_13
 70
     0
  0
APPID
  2
GENIUS_GENOENT_13
 70
     0
  0
APPID
  2
GENIUS_GENOBJ-F-FEM_13
 70
     0
  0
APPID
  2
GENIUS_GENOREF_13
 70
     0
  0
APPID
  2
GENIUS_GEFFEM_13
 70
     0
  0
APPID
  2
GENIUS_GEFFEMP_13
 70
     0
  0
APPID
  2
AD_DRAW
 70
     0
  0
APPID
  2
DESIGNERASSEMBLIES
 70
     0
  0
APPID
  2
ACADM_DIM_EDIT
 70
     0
  0
APPID
  2
AMDT_DM_ADJ
 70
     0
  0
APPID
  2
ITEMNAME
 70
     0
  0
APPID
  2
GENIUS_GENOBJ-N-FIL_13
 70
     0
  0
APPID
  2
GENIUS_GENFIL_13
 70
     0
  0
APPID
  2
GENIUS_GENOBJ-N-CHA_13
 70
     0
  0
APPID
  2
ACAD_NAV_VCDISPLAY
 70
     0
  0
APPID
  2
GENIUS_GENOBJ-N-CEN_13
 70
     0
  0
APPID
  2
ACAD_PSEXT
 70
     0
  0
APPID
  2
ACAD_EXEMPT_FROM_CAD_STANDARDS
 70
     0
  0
APPID
  2
GENIUS_GENOBJ-N-HTC_13
 70
     0
  0
APPID
  2
GENIUS_GENHATCH_13
 70
     0
  0
APPID
  2
ACAD_DSTYLE_DIMJAG
 70
     0
  0
APPID
  2
ACAD_DSTYLE_DIMBREAK
 70
     0
  0
APPID
  2
ACAECLAYERSTANDARD
 70
     0
  0
APPID
  2
ACAD_MLEADERVER
 70
     0
  0
ENDTAB
  0
TABLE
  2
DIMSTYLE
 70
    29
  0
DIMSTYLE
  2
BIGT
 70
     0
  3

  4

  5
OPEN
  6

  7

 40
1.0
 41
2.2299999999999991
 42
0.5
 43
7.0
 44
1.0
 45
0.0
 46
0.0
 47
0.0
 48
0.01
140
2.7999999999999989
141
0.0
142
0.0
143
25.399999999999999
144
1.0
145
0.0
146
1.0
147
1.0
 71
     0
 72
     0
 73
     0
 74
     0
 75
     0
 76
     0
 77
     3
 78
     9
170
     0
171
     2
172
     1
173
     0
174
     1
175
     0
176
   256
177
   256
178
    40
  0
DIMSTYLE
  2
AM_ISO
 70
     0
  3

  4
"
  5

  6

  7

 40
1.0
 41
2.5
 42
1.0
 43
10.0
 44
1.0
 45
0.0
 46
0.0
 47
0.1
 48
0.1
140
3.5
141
0.0
142
0.0
143
0.0393701
144
1.0
145
0.0
146
0.71
147
1.5
 71
     0
 72
     0
 73
     0
 74
     0
 75
     0
 76
     0
 77
     1
 78
     8
170
     0
171
     2
172
     1
173
     0
174
     0
175
     0
176
   256
177
   256
178
     2
  0
DIMSTYLE
  2
AM_ISO$3
 70
     0
  3

  4
"
  5

  6

  7

 40
1.0
 41
2.5
 42
1.0
 43
10.0
 44
1.0
 45
0.0
 46
0.0
 47
0.1
 48
0.1
140
3.5
141
0.0
142
0.0
143
0.0393701
144
1.0
145
0.0
146
0.71
147
1.5
 71
     0
 72
     0
 73
     0
 74
     1
 75
     0
 76
     0
 77
     1
 78
     8
170
     0
171
     2
172
     0
173
     0
174
     0
175
     0
176
   256
177
   256
178
     2
  0
DIMSTYLE
  2
AM_ISO$4
 70
     0
  3

  4
"
  5

  6

  7

 40
1.0
 41
2.5
 42
1.0
 43
10.0
 44
1.0
 45
0.0
 46
0.0
 47
0.1
 48
0.1
140
3.5
141
0.0
142
0.0
143
0.0393701
144
1.0
145
0.0
146
0.71
147
1.5
 71
     0
 72
     0
 73
     0
 74
     1
 75
     0
 76
     0
 77
     1
 78
     8
170
     0
171
     2
172
     0
173
     0
174
     0
175
     0
176
   256
177
   256
178
     2
  0
DIMSTYLE
  2
AM_ISO$6
 70
     0
  3

  4
"
  5

  6

  7

 40
1.0
 41
2.5
 42
1.0
 43
10.0
 44
1.0
 45
0.0
 46
0.0
 47
0.1
 48
0.1
140
3.5
141
0.0
142
0.0
143
0.0393701
144
1.0
145
0.0
146
0.71
147
1.5
 71
     0
 72
     0
 73
     0
 74
     0
 75
     0
 76
     0
 77
     0
 78
     8
170
     0
171
     2
172
     1
173
     0
174
     0
175
     0
176
   256
177
   256
178
     2
  0
DIMSTYLE
  2
AM_ISO$7
 70
     0
  3

  4
"
  5

  6

  7

 40
1.0
 41
2.5
 42
1.0
 43
10.0
 44
1.0
 45
0.0
 46
0.0
 47
0.1
 48
0.1
140
5.0
141
0.0
142
0.0
143
0.0393701
144
1.0
145
0.0
146
0.71
147
1.5
 71
     0
 72
     0
 73
     0
 74
     0
 75
     0
 76
     0
 77
     1
 78
     8
170
     0
171
     2
172
     1
173
     0
174
     0
175
     0
176
   256
177
   256
178
     2
  0
DIMSTYLE
  2
AM_ISO$SF
 70
     0
  3

  4
"
  5

  6

  7

 40
1.0
 41
2.5
 42
1.0
 43
10.0
 44
1.0
 45
0.0
 46
0.0
 47
0.1
 48
0.1
140
3.5
141
0.0
142
0.0
143
0.0393701
144
1.0
145
0.0
146
0.71
147
1.5
 71
     0
 72
     0
 73
     0
 74
     0
 75
     1
 76
     1
 77
     1
 78
     8
170
     0
171
     2
172
     1
173
     0
174
     0
175
     0
176
   256
177
   256
178
     2
  0
DIMSTYLE
  2
AM_ISO$SH
 70
     0
  3

  4
"
  5

  6
GENAXEH
  7

 40
1.0
 41
2.5
 42
1.0
 43
10.0
 44
1.0
 45
0.0
 46
0.0
 47
0.1
 48
0.1
140
3.5
141
0.0
142
0.0
143
0.0393701
144
2.0
145
0.0
146
0.71
147
1.5
 71
     0
 72
     0
 73
     0
 74
     0
 75
     1
 76
     1
 77
     1
 78
     8
170
     0
171
     2
172
     1
173
     1
174
     0
175
     0
176
   256
177
   256
178
     2
  0
DIMSTYLE
  2
BIGT$2
 70
     0
  3

  4

  5
OPEN
  6

  7

 40
1.0
 41
2.2299999999999991
 42
0.5
 43
7.0
 44
1.0
 45
0.0
 46
0.0
 47
0.0
 48
0.01
140
2.7999999999999989
141
0.0
142
0.0
143
25.399999999999999
144
1.0
145
0.0
146
1.0
147
1.0
 71
     0
 72
     0
 73
     0
 74
     0
 75
     0
 76
     0
 77
     3
 78
     9
170
     0
171
     2
172
     1
173
     0
174
     0
175
     0
176
   256
177
   256
178
    40
  0
DIMSTYLE
  2
BIGT$3
 70
     0
  3

  4

  5
OPEN
  6

  7

 40
1.0
 41
2.2299999999999991
 42
0.5
 43
2.5
 44
1.0
 45
0.0
 46
0.0
 47
0.0
 48
0.01
140
2.7999999999999989
141
0.0
142
0.0
143
25.399999999999999
144
1.0
145
0.0
146
1.0
147
1.0
 71
     0
 72
     0
 73
     0
 74
     0
 75
     0
 76
     0
 77
     3
 78
     9
170
     0
171
     2
172
     1
173
     0
174
     0
175
     0
176
   256
177
   256
178
    40
  0
DIMSTYLE
  2
BIGT$7
 70
     0
  3

  4

  5
OPEN
  6

  7

 40
0.0
 41
2.2299999999999991
 42
0.5
 43
7.0
 44
1.0
 45
0.0
 46
0.0
 47
0.0
 48
0.01
140
2.7999999999999989
141
0.0
142
0.0
143
25.399999999999999
144
1.0
145
0.0
146
1.0
147
1.0
 71
     0
 72
     0
 73
     0
 74
     0
 75
     0
 76
     0
 77
     3
 78
     9
170
     0
171
     2
172
     0
173
     0
174
     0
175
     0
176
   256
177
   256
178
    40
  0
DIMSTYLE
  2
BIGT$6
 70
     0
  3

  4

  5
OPEN
  6

  7

 40
1.0
 41
2.2299999999999991
 42
0.5
 43
2.5
 44
1.0
 45
0.0
 46
0.0
 47
0.0
 48
0.01
140
2.7999999999999989
141
0.0
142
0.0
143
25.399999999999999
144
1.0
145
0.0
146
1.0
147
1.0
 71
     0
 72
     0
 73
     0
 74
     0
 75
     0
 76
     0
 77
     3
 78
     9
170
     0
171
     2
172
     1
173
     0
174
     0
175
     0
176
   256
177
   256
178
    40
  0
DIMSTYLE
  2
BIGT$0
 70
     0
  3

  4

  5
OPEN
  6

  7

 40
1.0
 41
2.2299999999999991
 42
0.5
 43
7.0
 44
1.0
 45
0.0
 46
0.0
 47
0.0
 48
0.01
140
2.7999999999999989
141
0.0
142
0.0
143
25.399999999999999
144
1.0
145
0.0
146
1.0
147
1.0
 71
     0
 72
     0
 73
     0
 74
     0
 75
     0
 76
     0
 77
     3
 78
     9
170
     0
171
     2
172
     1
173
     0
174
     1
175
     0
176
   256
177
   256
178
    40
  0
DIMSTYLE
  2
BIGT$4
 70
     0
  3

  4

  5
OPEN
  6

  7

 40
1.0
 41
2.2299999999999991
 42
0.5
 43
2.5
 44
1.0
 45
0.0
 46
0.0
 47
0.0
 48
0.01
140
2.7999999999999989
141
0.0
142
0.0
143
25.399999999999999
144
1.0
145
0.0
146
1.0
147
1.0
 71
     0
 72
     0
 73
     0
 74
     0
 75
     0
 76
     0
 77
     3
 78
     9
170
     0
171
     2
172
     1
173
     0
174
     0
175
     0
176
   256
177
   256
178
    40
  0
DIMSTYLE
  2
BIGT$SH
 70
     0
  3

  4

  5
OPEN
  6

  7

 40
1.0
 41
2.2299999999999991
 42
0.5
 43
7.0
 44
1.0
 45
0.0
 46
0.0
 47
0.0
 48
0.0
140
2.7999999999999989
141
0.0
142
0.0
143
25.399999999999999
144
1.0
145
0.0
146
1.0
147
1.0
 71
     0
 72
     0
 73
     0
 74
     0
 75
     0
 76
     0
 77
     3
 78
     9
170
     0
171
     2
172
     1
173
     0
174
     0
175
     0
176
   256
177
   256
178
    40
  0
DIMSTYLE
  2
BIGT$SF
 70
     0
  3

  4

  5
OPEN
  6

  7

 40
1.0
 41
2.2299999999999991
 42
0.5
 43
7.0
 44
1.0
 45
0.0
 46
0.0
 47
0.0
 48
0.0
140
2.7999999999999989
141
0.0
142
0.0
143
25.399999999999999
144
1.0
145
0.0
146
1.0
147
1.0
 71
     0
 72
     0
 73
     0
 74
     0
 75
     0
 76
     0
 77
     3
 78
     9
170
     0
171
     2
172
     1
173
     0
174
     0
175
     0
176
   256
177
   256
178
    40
  0
DIMSTYLE
  2
TECHNICAL_OSAKA
 70
     0
  3

  4
"
  5
OPEN30
  6

  7

 40
1.0
 41
2.5
 42
1.0
 43
10.0
 44
1.0
 45
0.0
 46
0.0
 47
0.1
 48
0.1
140
2.7999999999999989
141
0.0
142
0.0
143
0.0393701
144
1.0
145
0.0
146
0.71
147
1.5
 71
     0
 72
     0
 73
     0
 74
     0
 75
     0
 76
     0
 77
     3
 78
     8
170
     0
171
     2
172
     1
173
     0
174
     0
175
     0
176
   256
177
   256
178
    40
  0
DIMSTYLE
  2
TECHNICAL_OSAKA$3
 70
     0
  3

  4
"
  5
OPEN30
  6

  7

 40
1.0
 41
2.5
 42
1.0
 43
10.0
 44
1.0
 45
0.0
 46
0.0
 47
0.1
 48
0.1
140
2.7999999999999989
141
0.0
142
0.0
143
0.0393701
144
1.0
145
0.0
146
0.71
147
1.5
 71
     0
 72
     0
 73
     0
 74
     1
 75
     0
 76
     0
 77
     3
 78
     8
170
     0
171
     2
172
     0
173
     0
174
     0
175
     0
176
   256
177
   256
178
    40
  0
DIMSTYLE
  2
TECHNICAL_OSAKA$4
 70
     0
  3

  4
"
  5
OPEN30
  6

  7

 40
1.0
 41
2.5
 42
1.0
 43
10.0
 44
1.0
 45
0.0
 46
0.0
 47
0.1
 48
0.1
140
2.7999999999999989
141
0.0
142
0.0
143
0.0393701
144
1.0
145
0.0
146
0.71
147
1.5
 71
     0
 72
     0
 73
     0
 74
     1
 75
     0
 76
     0
 77
     3
 78
     8
170
     0
171
     2
172
     0
173
     0
174
     0
175
     0
176
   256
177
   256
178
    40
  0
DIMSTYLE
  2
TECHNICAL_OSAKA$6
 70
     0
  3

  4
"
  5
OPEN30
  6

  7

 40
1.0
 41
2.5
 42
1.0
 43
10.0
 44
1.0
 45
0.0
 46
0.0
 47
0.1
 48
0.1
140
2.7999999999999989
141
0.0
142
0.0
143
0.0393701
144
1.0
145
0.0
146
0.71
147
1.5
 71
     0
 72
     0
 73
     0
 74
     0
 75
     0
 76
     0
 77
     0
 78
     8
170
     0
171
     2
172
     1
173
     0
174
     0
175
     0
176
   256
177
   256
178
    40
  0
DIMSTYLE
  2
TECHNICAL_OSAKA$7
 70
     0
  3

  4
"
  5
OPEN30
  6

  7

 40
1.0
 41
2.5
 42
1.0
 43
10.0
 44
1.0
 45
0.0
 46
0.0
 47
0.1
 48
0.1
140
2.7999999999999989
141
0.0
142
0.0
143
0.0393701
144
1.0
145
0.0
146
0.71
147
1.5
 71
     0
 72
     0
 73
     0
 74
     0
 75
     0
 76
     0
 77
     3
 78
     8
170
     0
171
     2
172
     1
173
     0
174
     0
175
     0
176
   256
177
   256
178
    40
  0
DIMSTYLE
  2
TECHNICAL_OSAKA$SF
 70
     0
  3

  4
"
  5
OPEN30
  6
OPEN30
  7
OPEN30
 40
1.0
 41
2.5
 42
1.0
 43
10.0
 44
1.0
 45
0.0
 46
0.0
 47
0.1
 48
0.1
140
3.5
141
0.0
142
0.0
143
0.0393701
144
1.0
145
0.0
146
0.71
147
1.5
 71
     0
 72
     0
 73
     0
 74
     0
 75
     1
 76
     1
 77
     3
 78
     8
170
     0
171
     2
172
     1
173
     0
174
     0
175
     0
176
   256
177
   256
178
    40
  0
DIMSTYLE
  2
TECHNICAL_OSAKA$SH
 70
     0
  3

  4
"
  5
OPEN30
  6
GENAXEH
  7
OPEN30
 40
1.0
 41
2.5
 42
1.0
 43
10.0
 44
1.0
 45
0.0
 46
0.0
 47
0.1
 48
0.1
140
3.5
141
0.0
142
0.0
143
0.0393701
144
2.0
145
0.0
146
0.71
147
1.5
 71
     0
 72
     0
 73
     0
 74
     0
 75
     1
 76
     1
 77
     3
 78
     8
170
     0
171
     2
172
     1
173
     1
174
     0
175
     0
176
   256
177
   256
178
    40
  0
ENDTAB
  0
ENDSEC
  0
SECTION
  2
BLOCKS
  0
BLOCK
  8
0
  2
$MODEL_SPACE
 70
     0
 10
0.0
 20
0.0
 30
0.0
  3
$MODEL_SPACE
  1

  0
ENDBLK
  5
1C
  8
0
  0
BLOCK
 67
     1
  8
0
  2
$PAPER_SPACE
 70
     0
 10
0.0
 20
0.0
 30
0.0
  3
$PAPER_SPACE
  1

  0
ENDBLK
  5
19
 67
     1
  8
0
  0
BLOCK
  8
0
  2
_OPEN
 70
     0
 10
0.0
 20
0.0
 30
0.0
  3
_OPEN
  1

  0
LINE
  5
461C
  8
0
  6
BYBLOCK
 62
     0
 10
-1.0
 20
0.1666666666666666
 30
0.0
 11
0.0
 21
0.0
 31
0.0
  0
LINE
  5
461D
  8
0
  6
BYBLOCK
 62
     0
 10
-1.0
 20
-0.1666666666666666
 30
0.0
 11
0.0
 21
0.0
 31
0.0
  0
LINE
  5
461E
  8
0
  6
BYBLOCK
 62
     0
 10
0.0
 20
0.0
 30
0.0
 11
-1.0
 21
0.0
 31
0.0
  0
ENDBLK
  5
461F
  8
0
  0
BLOCK
  8
0
  2
GENAXEH
 70
     0
 10
0.0
 20
0.0
 30
0.0
  3
GENAXEH
  1

  0
LINE
  5
4657
  8
0
 10
-1.0
 20
0.0
 30
0.0
 11
1.0
 21
0.0
 31
0.0
  0
ENDBLK
  5
4658
  8
0
  0
BLOCK
  8
0
  2
_OPEN30
 70
     0
 10
0.0
 20
0.0
 30
0.0
  3
_OPEN30
  1

  0
LINE
  5
4693
  8
0
  6
BYBLOCK
 62
     0
 10
-1.0
 20
0.26794919
 30
0.0
 11
0.0
 21
0.0
 31
0.0
  0
LINE
  5
4694
  8
0
  6
BYBLOCK
 62
     0
 10
0.0
 20
0.0
 30
0.0
 11
-1.0
 21
-0.26794919
 31
0.0
  0
LINE
  5
4695
  8
0
  6
BYBLOCK
 62
     0
 10
0.0
 20
0.0
 30
0.0
 11
-1.0
 21
0.0
 31
0.0
  0
ENDBLK
  5
4696
  8
0
  0
ENDSEC
  0
SECTION
  2
ENTITIES
  0
TEXT
  5
4228
  8
250
  6
CONTINUOUS
 10
-38.771796381153678
 20
-34.00237159786608
 30
0.0
 40
2.799999999999998
  1
C8
  7
YOKO
1001
ITEMNAME
1000
LNSP3
  0
LINE
  5
4229
  8
250
  6
CONTINUOUS
 10
-26.388643906031231
 20
-26.512922048535518
 30
0.0
 11
-25.099968771153659
 21
-24.947537907866071
 31
0.0
  0
LINE
  5
422A
  8
250
  6
CONTINUOUS
 10
-25.811293636901802
 20
-26.84625538197313
 30
0.0
 11
-25.099968771153659
 21
-24.947537907866071
 31
0.0
  0
LINE
  5
422B
  8
250
  6
CONTINUOUS
 10
-25.099968771153659
 20
-24.947537907866071
 30
0.0
 11
-26.099968771466528
 21
-26.679588715254319
 31
0.0
  0
LINE
  5
422C
  8
250
  6
CONTINUOUS
 10
-26.099968771466528
 20
-26.679588715254319
 30
0.0
 11
-30.90512971115368
 21
-35.002371597866073
 31
0.0
1001
ACAD
1000
DSTYLE
1002
{
1070
     6
1000
OPEN
1070
    41
1040
2.0
1070
    42
1040
2.0
1070
    44
1040
2.0
1070
   140
1040
4.0
1070
   343
1005
0
1002
}
  0
LINE
  5
422D
  8
250
  6
CONTINUOUS
 10
-30.90512971115368
 20
-35.002371597866073
 30
0.0
 11
-41.171796381153669
 21
-35.002371597866073
 31
0.0
1001
ITEMNAME
1000
LNSP2
  0
LINE
  5
422E
  8
245
  6
CENTER2
 10
-48.999999999999993
 20
0.0
 30
0.0
 11
81.356297688481376
 21
0.0
 31
0.0
  0
LINE
  5
422F
  8
240
  6
CONTINUOUS
 10
0.0000000000000071
 20
40.0
 30
0.0
 11
30.000000000000011
 21
40.0
 31
0.0
  0
LINE
  5
4230
  8
240
  6
CONTINUOUS
 10
0.0000000000000071
 20
-40.0
 30
0.0
 11
30.000000000000011
 21
-40.0
 31
0.0
  0
LINE
  5
4231
  8
241
  6
CONTINUOUS
 10
0.0
 20
-25.5749949632309
 30
0.0
 11
0.0000000000000071
 21
29.574994963230889
 31
0.0
  0
LINE
  5
4232
  8
243
  6
HIDDEN2
 10
-47.999999999999993
 20
-22.199999999999999
 30
0.0
 11
-40.0
 21
-22.199999999999999
 31
0.0
  0
LINE
  5
4233
  8
243
  6
HIDDEN2
 10
-37.564043019999978
 20
-24.63595698
 30
0.0
 11
-40.0
 21
-22.199999999999999
 31
0.0
  0
LINE
  5
4234
  8
243
  6
HIDDEN2
 10
-40.0
 20
-24.575062150000001
 30
0.0
 11
-40.0
 21
-22.199999999999999
 31
0.0
  0
LINE
  5
4235
  8
240
  6
CONTINUOUS
 10
0.0000000000000071
 20
-40.0
 30
0.0
 11
0.0000000000000071
 21
-25.574994963230889
 31
0.0
  0
LINE
  5
4236
  8
240
  6
CONTINUOUS
 10
30.000000000000011
 20
-40.0
 30
0.0
 11
30.000000000000011
 21
-26.57832366799158
 31
0.0
  0
LINE
  5
4237
  8
240
  6
CONTINUOUS
 10
-47.999999999999993
 20
-24.375075590078179
 30
0.0
 11
-47.999999999999993
 21
28.37507559007658
 31
0.0
1001
GRPNAME
1000
PASTMD0U
  0
LINE
  5
4238
  8
240
  6
CONTINUOUS
 10
0.0000000000000071
 20
40.0
 30
0.0
 11
0.0000000000000071
 21
29.574994963230889
 31
0.0
  0
LINE
  5
4239
  8
241
  6
CONTINUOUS
 10
9.9499999999999975
 20
11.77167262
 30
0.0
 11
9.9499999999999975
 21
38.22077680999999
 31
0.0
1001
GRPNAME
1000
PASTMD1I
  0
LINE
  5
423A
  8
241
  6
CONTINUOUS
 10
14.05000000000002
 20
11.77167262
 30
0.0
 11
14.05000000000002
 21
38.22077680999999
 31
0.0
1001
GRPNAME
1000
PASTMD1I
  0
LINE
  5
423B
  8
241
  6
CONTINUOUS
 10
9.9499999999999975
 20
11.77167262
 30
0.0
 11
14.05000000000002
 21
11.77167262
 31
0.0
1001
GRPNAME
1000
PASTMD1I
  0
LINE
  5
423C
  8
241
  6
CONTINUOUS
 10
9.9499999999999975
 20
38.22077680999999
 30
0.0
 11
14.05000000000002
 21
38.22077680999999
 31
0.0
1001
GRPNAME
1000
PASTMD1I
  0
ARC
  5
423D
  8
241
  6
CONTINUOUS
 10
-19.247999627147941
 20
24.996224715
 30
0.0
 40
35.82799962714796
 50
338.33912465138178
 51
21.660875348618202
  0
ARC
  5
423E
  8
241
  6
CONTINUOUS
 10
43.247999627147912
 20
24.996224715
 30
0.0
 40
35.827999627147932
 50
158.33912465138181
 51
201.66087534861811
  0
LINE
  5
423F
  8
241
  6
CONTINUOUS
 10
9.9499999999999975
 20
-11.77167262
 30
0.0
 11
9.9499999999999975
 21
-38.22077680999999
 31
0.0
1001
GRPNAME
1000
PASTMD1I
  0
LINE
  5
4240
  8
241
  6
CONTINUOUS
 10
14.05000000000002
 20
-11.77167262
 30
0.0
 11
14.05000000000002
 21
-38.22077680999999
 31
0.0
1001
GRPNAME
1000
PASTMD1I
  0
LINE
  5
4241
  8
241
  6
CONTINUOUS
 10
9.9499999999999975
 20
-11.77167262
 30
0.0
 11
14.05000000000002
 21
-11.77167262
 31
0.0
1001
GRPNAME
1000
PASTMD1I
  0
LINE
  5
4242
  8
241
  6
CONTINUOUS
 10
9.9499999999999975
 20
-38.22077680999999
 30
0.0
 11
14.05000000000002
 21
-38.22077680999999
 31
0.0
1001
GRPNAME
1000
PASTMD1I
  0
ARC
  5
4243
  8
241
  6
CONTINUOUS
 10
-19.247999627147941
 20
-24.996224715
 30
0.0
 40
35.82799962714796
 50
338.33912465138178
 51
21.660875348618202
  0
ARC
  5
4244
  8
241
  6
CONTINUOUS
 10
43.247999627147912
 20
-24.996224715
 30
0.0
 40
35.827999627147932
 50
158.33912465138181
 51
201.66087534861811
  0
LINE
  5
4245
  8
247
  6
CONTINUOUS
 10
6.0000000000000071
 20
-20.250000000069999
 30
0.0
 11
6.0000000000000071
 21
-13.557692308029999
 31
0.0
  0
ARC
  5
4246
  8
247
  6
CONTINUOUS
 10
4.2500000000699787
 20
-20.250000000069999
 30
0.0
 40
1.7499999999299991
 50
180.0
 51
0.0
  0
ARC
  5
4247
  8
247
  6
CONTINUOUS
 10
4.2500000000699787
 20
-13.557692308029999
 30
0.0
 40
1.7499999999299991
 50
0.0
 51
180.0
  0
LINE
  5
4248
  8
247
  6
CONTINUOUS
 10
2.5000000001400111
 20
-19.384615384720011
 30
0.0
 11
5.5000000000200151
 21
-20.244851541962021
 31
0.0
  0
LINE
  5
4249
  8
247
  6
CONTINUOUS
 10
3.9230769231600151
 20
-18.48498381833582
 30
0.0
 11
3.9230769231600151
 21
-19.792676125975809
 31
0.0
  0
ARC
  5
424A
  8
247
  6
CONTINUOUS
 10
3.0495986677029872
 20
-18.145143816089782
 30
0.0
 40
0.5538165441895349
 50
72.997889675292001
 51
172.92416621851191
  0
ARC
  5
424B
  8
247
  6
CONTINUOUS
 10
2.9360330444657801
 20
-18.566878323028789
 30
0.0
 40
0.9904354236226808
 50
4.7429368522005859
 51
73.849226273266424
1001
GENIUS_GENOBJ-N-FIL_13
1002
{
1000
OWNER
1000
GEN
1002
}
1001
GENIUS_GENODEF_13
1002
{
1000
HIER
1070
     0
1002
}
1002
{
1000
MANEDIT
1070
     0
1002
}
1002
{
1000
NOSEL
1070
     0
1002
}
1002
{
1000
BEHIND
1070
     0
1002
}
1002
{
1000
OTHER
1070
     0
1002
}
1002
{
1000
REACTOR
1002
}
  0
LINE
  5
424C
  8
247
  6
CONTINUOUS
 10
5.5000000000200151
 20
-18.937159234321989
 30
0.0
 11
5.5000000000200151
 21
-20.244851541962021
 31
0.0
  0
LINE
  5
424D
  8
247
  6
CONTINUOUS
 10
2.5000000001400111
 20
-19.384615384720011
 30
0.0
 11
2.5000000001400111
 21
-18.076923077079972
 31
0.0
  0
ARC
  5
424E
  8
247
  6
CONTINUOUS
 10
4.482024232665542
 20
-18.56091963654697
 30
0.0
 40
0.5640818586791229
 50
65.990941652528889
 51
172.26344345906909
  0
ARC
  5
424F
  8
247
  6
CONTINUOUS
 10
4.4874290391865701
 20
-19.03826268534706
 30
0.0
 40
1.0176059446230981
 50
5.7019851642581241
 51
77.277338436822191
1001
GENIUS_GENOBJ-N-FIL_13
1002
{
1000
OWNER
1000
GEN
1002
}
1001
GENIUS_GENODEF_13
1002
{
1000
HIER
1070
     0
1002
}
1002
{
1000
MANEDIT
1070
     0
1002
}
1002
{
1000
NOSEL
1070
     0
1002
}
1002
{
1000
BEHIND
1070
     0
1002
}
1002
{
1000
OTHER
1070
     0
1002
}
1002
{
1000
REACTOR
1002
}
  0
LINE
  5
4250
  8
247
  6
CONTINUOUS
 10
5.5000000000200151
 20
-17.283313080541991
 30
0.0
 11
2.5000000001400111
 21
-16.423076923300009
 31
0.0
  0
LINE
  5
4251
  8
247
  6
CONTINUOUS
 10
2.5000000001400111
 20
-14.00000000032
 30
0.0
 11
2.5000000001400111
 21
-14.565736619456599
 31
0.0
  0
LINE
  5
4252
  8
247
  6
CONTINUOUS
 10
5.5000000000200151
 20
-15.461538461799989
 30
0.0
 11
5.5000000000200151
 21
-14.846153846440011
 31
0.0
  0
ARC
  5
4253
  8
247
  6
CONTINUOUS
 10
4.5832851359733739
 20
-13.708791209122859
 30
0.0
 40
2.2526500823422122
 50
202.35948814152749
 51
254.99324854284609
  0
ARC
  5
4254
  8
247
  6
CONTINUOUS
 10
3.3083126551945341
 20
-14.37406947921323
 30
0.0
 40
0.8906723995727782
 50
94.994589319075374
 51
155.1663289573041
1001
GENIUS_GENOBJ-N-FIL_13
1002
{
1000
OWNER
1000
GEN
1002
}
1001
GENIUS_GENODEF_13
1002
{
1000
HIER
1070
     0
1002
}
1002
{
1000
MANEDIT
1070
     0
1002
}
1002
{
1000
NOSEL
1070
     0
1002
}
1002
{
1000
BEHIND
1070
     0
1002
}
1002
{
1000
OTHER
1070
     0
1002
}
1002
{
1000
REACTOR
1002
}
  0
ARC
  5
4255
  8
247
  6
CONTINUOUS
 10
4.16014588866779
 20
-15.22645888621258
 30
0.0
 40
1.392781735586712
 50
15.846096555780679
 51
82.325137004169122
  0
ARC
  5
4256
  8
247
  6
CONTINUOUS
 10
4.4592434315272911
 20
-14.64221272584035
 30
0.0
 40
1.324563662670287
 50
249.7136016704969
 51
321.78874565640888
1001
GENIUS_GENOBJ-N-FIL_13
1002
{
1000
OWNER
1000
GEN
1002
}
1001
GENIUS_GENODEF_13
1002
{
1000
HIER
1070
     0
1002
}
1002
{
1000
MANEDIT
1070
     0
1002
}
1002
{
1000
NOSEL
1070
     0
1002
}
1002
{
1000
BEHIND
1070
     0
1002
}
1002
{
1000
OTHER
1070
     0
1002
}
1002
{
1000
REACTOR
1002
}
  0
LINE
  5
4257
  8
247
  6
CONTINUOUS
 10
4.346153846219984
 20
-14.53846153876
 30
0.0
 11
4.346153846219984
 21
-13.84615384648
 31
0.0
  0
LINE
  5
4258
  8
247
  6
CONTINUOUS
 10
2.500000000139984
 20
-20.250000000069999
 30
0.0
 11
2.500000000139984
 21
-19.576923077020009
 31
0.0
  0
LINE
  5
4259
  8
240
  6
CONTINUOUS
 10
-0.0000000000018758
 20
-25.574994960662249
 30
0.0
 11
-47.999999999999993
 21
-24.375075590078179
 31
0.0
  0
LINE
  5
425A
  8
240
  6
CONTINUOUS
 10
-47.999999999999993
 20
28.37507559007658
 30
0.0
 11
-0.0000002283238985
 21
29.57499495495313
 31
0.0
  0
LINE
  5
4331
  8
241
  6
CONTINUOUS
 10
52.39999999995905
 20
-20.50000000000006
 30
0.0
 11
52.399999999979968
 21
20.499999999999659
 31
0.0
  0
LINE
  5
4332
  8
241
  6
CONTINUOUS
 10
53.999999999967137
 20
-20.50000000000006
 30
0.0
 11
53.999999999967137
 21
20.499999999999719
 31
0.0
  0
LINE
  5
4333
  8
241
  6
CONTINUOUS
 10
55.399999999959732
 20
-20.50000000000006
 30
0.0
 11
55.399999999959732
 21
20.499999999999751
 31
0.0
  0
LINE
  5
4334
  8
241
  6
CONTINUOUS
 10
56.999999999966462
 20
-20.50000000000006
 30
0.0
 11
56.999999999946901
 21
20.499999999999801
 31
0.0
  0
LINE
  5
4389
  8
240
  6
CONTINUOUS
 10
36.414213562353503
 20
20.499999999999201
 30
0.0
 11
71.999999999998366
 21
20.499999999998849
 31
0.0
  0
LINE
  5
43DD
  8
241
  6
CONTINUOUS
 10
63.999999999970314
 20
-20.5
 30
0.0
 11
63.999999999970569
 21
20.500000000000011
 31
0.0
  0
LINE
  5
43DE
  8
240
  6
CONTINUOUS
 10
35.707106781167681
 20
-20.79289321881242
 30
0.0
 11
30.192893218803711
 21
-26.307106781176401
 31
0.0
  0
ARC
  5
43DF
  8
240
  6
CONTINUOUS
 10
36.414213562354348
 20
-21.499999999999091
 30
0.0
 40
1.0
 50
90.0
 51
135.0
1001
GENIUS_GENOREF_13
1005
43EE
  0
LINE
  5
43E0
  8
241
  6
CONTINUOUS
 10
35.999999999985562
 20
20.589820278873169
 30
0.0
 11
35.999999999985562
 21
-20.5
 31
0.0
  0
LINE
  5
43E1
  8
240
  6
CONTINUOUS
 10
35.707106781166772
 20
20.79289321881333
 30
0.0
 11
30.1928932188045
 21
26.30710678117746
 31
0.0
  0
ARC
  5
43E2
  8
240
  6
CONTINUOUS
 10
36.414213562353439
 20
21.5
 30
0.0
 40
1.0
 50
225.0
 51
270.0
1001
GENIUS_GENOBJ-N-FIL_13
1002
{
1000
OWNER
1000
GEN
1002
}
1001
GENIUS_GENODEF_13
1002
{
1000
HIER
1070
     0
1002
}
1002
{
1000
MANEDIT
1070
     0
1002
}
1002
{
1000
NOSEL
1070
     0
1002
}
1002
{
1000
BEHIND
1070
     0
1002
}
1002
{
1000
OTHER
1070
     0
1002
}
1002
{
1000
REACTOR
1002
}
  0
ARC
  5
43E7
  8
240
  6
CONTINUOUS
 10
30.89999999999117
 20
27.014213562363899
 30
0.0
 40
1.0
 50
205.84193276432899
 51
224.99999999999079
  0
ARC
  5
43E9
  8
240
  6
CONTINUOUS
 10
30.89999999999117
 20
-27.014213562363899
 30
0.0
 40
1.0
 50
135.00000000000921
 51
154.15806723688209
  0
POINT
  5
43EE
  8
0
 10
-138.3794319259699
 20
-130.25223694516711
 30
0.0
1001
GENIUS_GENOENT_13
1002
{
1000
MYREF
1005
43EE
1002
}
1002
{
1000
GRP
1005
0
1002
}
1001
GENIUS_GENODEF_13
1002
{
1000
HIER
1070
     1
1002
}
1002
{
1000
MANEDIT
1070
     0
1002
}
1002
{
1000
NOSEL
1070
     0
1002
}
1002
{
1000
BEHIND
1070
     0
1002
}
1002
{
1000
OTHER
1070
     0
1002
}
1002
{
1000
REACTOR
1002
}
1001
GENIUS_GENOBJ-N-FIL_13
1002
{
1000
OWNER
1000
GEN
1002
}
1001
GENIUS_GENOLIS_13
1002
{
1000
ENT
1005
0
1005
43DF
1002
}
  0
LINE
  5
43F6
  8
240
  6
CONTINUOUS
 10
30.000000000000011
 20
26.57832366799158
 30
0.0
 11
30.000000000000011
 21
40.0
 31
0.0
  0
LINE
  5
43F8
  8
241
  6
CONTINUOUS
 10
29.999999999990798
 20
-26.578323668010601
 30
0.0
 11
30.000000000000011
 21
26.57832366799158
 31
0.0
  0
LINE
  5
443D
  8
240
  6
CONTINUOUS
 10
71.999999999998366
 20
20.499999999998849
 30
0.0
 11
80.000000000000924
 21
18.356406460549209
 31
0.0
  0
LINE
  5
444C
  8
240
  6
CONTINUOUS
 10
36.414213562354398
 20
-20.49999999999919
 30
0.0
 11
71.999999999998579
 21
-20.499999999998849
 31
0.0
  0
LINE
  5
444F
  8
240
  6
CONTINUOUS
 10
71.999999999998579
 20
-20.499999999998849
 30
0.0
 11
80.000000000000924
 21
-18.35640646054927
 31
0.0
  0
LINE
  5
4451
  8
240
  6
CONTINUOUS
 10
80.000000000001904
 20
18.356406460549209
 30
0.0
 11
80.000000000000924
 21
-18.35640646054927
 31
0.0
  0
LINE
  5
445C
  8
241
  6
CONTINUOUS
 10
71.999999999998636
 20
-20.5
 30
0.0
 11
71.999999999998522
 21
20.499999999998799
 31
0.0
  0
LINE
  5
447F
  8
250
  6
CONTINUOUS
 10
82.538539430001435
 20
28.225107550000001
 30
0.0
 11
100.67187276000141
 21
28.225107550000001
 31
0.0
1001
ITEMNAME
1000
LNSP2
  0
TEXT
  5
4480
  8
250
  6
CONTINUOUS
 10
84.805206096668087
 20
29.225107550000001
 30
0.0
 40
2.799999999999998
  1
MGT12
  7
YOKO
1001
ITEMNAME
1000
LNSP3
1001
ACAD
1000
MTEXTBEGIN
1070
    73
1070
     1
1070
    44
1040
1.0
1070
    74
1070
     0
1000
MTEXTEND
  0
LINE
  5
4481
  8
250
  6
CONTINUOUS
 10
72.499999999998636
 20
-20.5
 30
0.0
 11
93.000000000001421
 21
-20.5
 31
0.0
  0
LINE
  5
4482
  8
250
  6
CONTINUOUS
 10
72.499999999998494
 20
20.5
 30
0.0
 11
93.000000000001421
 21
20.5
 31
0.0
  0
LINE
  5
4483
  8
250
  6
CONTINUOUS
 10
92.000000000001435
 20
-18.27
 30
0.0
 11
92.000000000001435
 21
18.27
 31
0.0
  0
TEXT
  5
4484
  8
250
  6
CONTINUOUS
 10
91.000000000001407
 20
-3.533333333333331
 30
0.0
 40
2.799999999999998
  1
\U+220541
 50
90.0
1001
ACAD
1000
MTEXTBEGIN
1070
    73
1070
     1
1070
    44
1040
1.0
1070
    74
1070
     0
1000
MTEXTEND
1000
MTEXTBEGIN
1070
    73
1070
     1
1070
    44
1040
1.0
1070
    74
1070
     0
1000
MTEXTEND
  0
LINE
  5
4485
  8
250
  6
CONTINUOUS
 10
91.628333333334709
 20
18.27
 30
0.0
 11
92.000000000001435
 21
20.5
 31
0.0
  0
LINE
  5
4486
  8
250
  6
CONTINUOUS
 10
92.371666666668006
 20
18.27
 30
0.0
 11
92.000000000001435
 21
20.5
 31
0.0
  0
LINE
  5
4487
  8
250
  6
CONTINUOUS
 10
92.000000000001435
 20
20.5
 30
0.0
 11
92.000000000001435
 21
18.27
 31
0.0
  0
LINE
  5
4488
  8
250
  6
CONTINUOUS
 10
92.371666666668006
 20
-18.27
 30
0.0
 11
92.000000000001435
 21
-20.5
 31
0.0
  0
LINE
  5
4489
  8
250
  6
CONTINUOUS
 10
91.628333333334709
 20
-18.27
 30
0.0
 11
92.000000000001435
 21
-20.5
 31
0.0
  0
LINE
  5
448A
  8
250
  6
CONTINUOUS
 10
92.000000000001435
 20
-20.5
 30
0.0
 11
92.000000000001435
 21
-18.27
 31
0.0
  0
POLYLINE
  5
448B
  8
250
  6
CONTINUOUS
 66
     1
 10
0.0
 20
0.0
 30
0.0
1001
ACAD
1000
DSTYLE
1002
{
1070
     6
1000
OPEN
1070
    41
1040
2.0
1070
    42
1040
2.0
1070
    44
1040
2.0
1070
    79
1070
     2
1070
   140
1040
4.0
1070
   179
1070
     3
1070
   371
1070
    -1
1070
   372
1070
    -1
1002
}
  0
VERTEX
  5
448C
  8
250
  6
CONTINUOUS
 10
78.264089090073583
 20
20.82154238752722
 30
0.0
  0
VERTEX
  5
448D
  8
250
  6
CONTINUOUS
 10
82.538539430001435
 20
28.225107550000001
 30
0.0
  0
SEQEND
  5
448E
  8
250
  6
CONTINUOUS
  0
LINE
  5
448F
  8
245
  6
CENTER2
 10
45.000000000001421
 20
21.5
 30
0.0
 11
45.000000000001421
 21
9.0
 31
0.0
1001
GENIUS_GENOBJ-N-CEN_13
1002
{
1000
OWNER
1000
GEN
1002
}
1001
GENIUS_GENODEF_13
1002
{
1000
HIER
1070
     0
1002
}
1002
{
1000
MANEDIT
1070
     0
1002
}
1002
{
1000
NOSEL
1070
     0
1002
}
1002
{
1000
BEHIND
1070
     0
1002
}
1002
{
1000
OTHER
1070
     0
1002
}
1002
{
1000
REACTOR
1002
}
  0
LINE
  5
4490
  8
243
  6
HIDDEN2
 10
28.000000000001421
 20
10.0
 30
0.0
 11
73.500000000001407
 21
10.0
 31
0.0
  0
LINE
  5
4491
  8
243
  6
HIDDEN2
 10
73.500000000001407
 20
13.699999999999999
 30
0.0
 11
80.000000000001421
 21
13.699999999999999
 31
0.0
  0
LINE
  5
4492
  8
250
  6
CONTINUOUS
 10
78.552764224661431
 20
20.654875720848519
 30
0.0
 11
77.264089090001406
 21
19.089491580000001
 31
0.0
  0
LINE
  5
4493
  8
250
  6
CONTINUOUS
 10
77.97541395548572
 20
20.98820905420591
 30
0.0
 11
77.264089090001406
 21
19.089491580000001
 31
0.0
  0
LINE
  5
4494
  8
250
  6
CONTINUOUS
 10
77.264089090001406
 20
19.089491580000001
 30
0.0
 11
78.264089090073583
 21
20.82154238752722
 31
0.0
  0
LINE
  5
4495
  8
243
  6
HIDDEN2
 10
28.000000000001421
 20
-10.0
 30
0.0
 11
73.500000000001407
 21
-10.0
 31
0.0
  0
LINE
  5
4496
  8
243
  6
HIDDEN2
 10
73.500000000001407
 20
13.699999999999999
 30
0.0
 11
73.500000000001407
 21
-13.699999999999999
 31
0.0
  0
LINE
  5
4497
  8
243
  6
HIDDEN2
 10
73.500000000001407
 20
-13.699999999999999
 30
0.0
 11
80.000000000001421
 21
-13.699999999999999
 31
0.0
  0
TEXT
  5
4552
  8
241
  6
CONTINUOUS
 10
-48.0
 20
70.0
 30
0.0
 40
5.0
  1
C8-MGT12-80
  7
YOKO
 11
-48.0
 21
70.0
 31
0.0
 73
     1
  0
LINE
  5
4553
  8
250
  6
CONTINUOUS
 10
0.0000000000000033
 20
40.492499999999993
 30
0.0
 11
0.0000000000000033
 21
57.0
 31
0.0
  0
LINE
  5
4554
  8
250
  6
CONTINUOUS
 10
80.000000000000014
 20
18.874044550754501
 30
0.0
 11
80.0
 21
57.0
 31
0.0
  0
LINE
  5
4555
  8
250
  6
CONTINUOUS
 10
2.2300000000000031
 20
56.0
 30
0.0
 11
77.769999999999996
 21
56.0
 31
0.0
  0
LINE
  5
4556
  8
250
  6
CONTINUOUS
 10
2.2300000000000031
 20
55.62833333333333
 30
0.0
 11
0.0000000000000033
 21
56.0
 31
0.0
  0
LINE
  5
4557
  8
250
  6
CONTINUOUS
 10
2.2300000000000031
 20
56.37166666666667
 30
0.0
 11
0.0000000000000033
 21
56.0
 31
0.0
  0
LINE
  5
4558
  8
250
  6
CONTINUOUS
 10
0.0000000000000033
 20
56.0
 30
0.0
 11
2.2300000000000031
 21
56.0
 31
0.0
  0
LINE
  5
4559
  8
250
  6
CONTINUOUS
 10
77.769999999999996
 20
56.37166666666667
 30
0.0
 11
80.0
 21
56.0
 31
0.0
  0
LINE
  5
455A
  8
250
  6
CONTINUOUS
 10
77.769999999999996
 20
55.62833333333333
 30
0.0
 11
80.0
 21
56.0
 31
0.0
  0
LINE
  5
455B
  8
250
  6
CONTINUOUS
 10
80.0
 20
56.0
 30
0.0
 11
77.769999999999996
 21
56.0
 31
0.0
  0
TEXT
  5
455C
  8
250
  6
CONTINUOUS
 10
37.142857142857139
 20
57.0
 30
0.0
 40
3.0
  1
80
1001
ACAD
1000
MTEXTBEGIN
1070
    73
1070
     1
1070
    44
1040
1.0
1070
    74
1070
     0
1000
MTEXTEND
1000
MTEXTBEGIN
1070
    73
1070
     1
1070
    44
1040
1.0
1070
    74
1070
     0
1000
MTEXTEND
1000
MTEXTBEGIN
1070
    73
1070
     1
1070
    44
1040
1.0
1070
    74
1070
     0
1000
MTEXTEND
  0
VIEWPORT
  5
22
 67
     1
  8
0
 10
261.51769911504419
 20
148.5
 30
0.0
 40
523.0353982300885
 41
297.0
 68
     1
 69
     1
1001
ACAD
1000
MVIEW
1002
{
1070
    16
1010
0.0
1020
0.0
1030
0.0
1010
0.0
1020
0.0
1030
1.0
1040
0.0
1040
297.0
1040
261.51769911504419
1040
148.5
1040
50.0
1040
0.0
1040
0.0
1070
     0
1070
   100
1070
     1
1070
     1
1070
     0
1070
     0
1070
     0
1070
     0
1040
0.0
1040
0.0
1040
0.0
1040
1.0
1040
1.0
1040
10.0
1040
10.0
1070
     0
1002
{
1002
}
1002
}
1001
GENIUS_GENODEF_13
1002
{
1000
HIER
1070
     0
1002
}
1002
{
1000
MANEDIT
1070
     0
1002
}
1002
{
1000
NOSEL
1070
     0
1002
}
1002
{
1000
BEHIND
1070
     0
1002
}
1002
{
1000
OTHER
1070
     0
1002
}
1002
{
1000
REACTOR
1002
}
1001
GENIUS_GENOBJ-N-SDF_13
1002
{
1000
OWNER
1000
GEN
1002
}
1001
GENIUS_GENSCREG_15
1000
PF
1040
1.0
1000
DF
1040
1.0
1000
MIN
1011
0.0
1021
0.0
1031
0.0
1021
0.0
1031
0.0
1000
MAX
1011
523.0353982300885
1021
0.0
1031
0.0
1021
297.0
1031
0.0
1000
FLAGS
1070
     4
  0
ENDSEC
  0
EOF
