  0
SECTION
  2
HEADER
  9
$ACADVER
  1
AC1009
  9
$INSBASE
 10
0.0
 20
0.0
 30
0.0
  9
$EXTMIN
 10
-38.999999999999972
 20
-31.5
 30
0.0
  9
$EXTMAX
 10
98.454361690008596
 20
61.000000000000007
 30
0.0
  9
$LIMMIN
 10
0.0
 20
0.0
  9
$LIMMAX
 10
297.0
 20
210.0
  9
$ORTHOMODE
 70
     1
  9
$REGENMODE
 70
     1
  9
$FILLMODE
 70
     1
  9
$QTEXTMODE
 70
     0
  9
$MIRRTEXT
 70
     1
  9
$DRAGMODE
 70
     2
  9
$LTSCALE
 40
10.0
  9
$OSMODE
 70
    35
  9
$ATTMODE
 70
     1
  9
$TEXTSIZE
 40
3.0
  9
$TRACEWID
 40
1.0
  9
$TEXTSTYLE
  7
YOKO
  9
$CLAYER
  8
240
  9
$CELTYPE
  6
BYLAYER
  9
$CECOLOR
 62
   256
  9
$DIMSCALE
 40
1.0
  9
$DIMASZ
 40
2.2299999999999991
  9
$DIMEXO
 40
0.5
  9
$DIMDLI
 40
7.0
  9
$DIMRND
 40
0.0
  9
$DIMDLE
 40
0.0
  9
$DIMEXE
 40
1.0
  9
$DIMTP
 40
0.0
  9
$DIMTM
 40
0.01
  9
$DIMTXT
 40
2.7999999999999989
  9
$DIMCEN
 40
0.0
  9
$DIMTSZ
 40
0.0
  9
$DIMTOL
 70
     0
  9
$DIMLIM
 70
     0
  9
$DIMTIH
 70
     0
  9
$DIMTOH
 70
     0
  9
$DIMSE1
 70
     0
  9
$DIMSE2
 70
     0
  9
$DIMTAD
 70
     3
  9
$DIMZIN
 70
     9
  9
$DIMBLK
  1
OPEN
  9
$DIMASO
 70
     1
  9
$DIMSHO
 70
     1
  9
$DIMPOST
  1

  9
$DIMAPOST
  1

  9
$DIMALT
 70
     0
  9
$DIMALTD
 70
     2
  9
$DIMALTF
 40
25.399999999999999
  9
$DIMLFAC
 40
1.0
  9
$DIMTOFL
 70
     1
  9
$DIMTVP
 40
0.0
  9
$DIMTIX
 70
     1
  9
$DIMSOXD
 70
     0
  9
$DIMSAH
 70
     0
  9
$DIMBLK1
  1

  9
$DIMBLK2
  1

  9
$DIMSTYLE
  2
BIGT
  9
$DIMCLRD
 70
   256
  9
$DIMCLRE
 70
   256
  9
$DIMCLRT
 70
    40
  9
$DIMTFAC
 40
1.0
  9
$DIMGAP
 40
1.0
  9
$LUNITS
 70
     2
  9
$LUPREC
 70
     6
  9
$SKETCHINC
 40
1.0
  9
$FILLETRAD
 40
0.0
  9
$AUNITS
 70
     0
  9
$AUPREC
 70
     6
  9
$MENU
  1
.
  9
$ELEVATION
 40
0.0
  9
$PELEVATION
 40
0.0
  9
$THICKNESS
 40
0.0
  9
$LIMCHECK
 70
     0
  9
$BLIPMODE
 70
     0
  9
$CHAMFERA
 40
0.2
  9
$CHAMFERB
 40
0.2
  9
$SKPOLY
 70
     0
  9
$TDCREATE
 40
2457745.4371338659
  9
$TDUPDATE
 40
2457745.6132289348
  9
$TDINDWG
 40
0.0130195486
  9
$TDUSRTIMER
 40
0.0130195139
  9
$USRTIMER
 70
     1
  9
$ANGBASE
 50
0.0
  9
$ANGDIR
 70
     0
  9
$PDMODE
 70
     1
  9
$PDSIZE
 40
0.0
  9
$PLINEWID
 40
0.0
  9
$COORDS
 70
     1
  9
$SPLFRAME
 70
     0
  9
$SPLINETYPE
 70
     6
  9
$SPLINESEGS
 70
     4
  9
$ATTDIA
 70
     1
  9
$ATTREQ
 70
     1
  9
$HANDLING
 70
     1
  9
$HANDSEED
  5
4670
  9
$SURFTAB1
 70
     6
  9
$SURFTAB2
 70
     6
  9
$SURFTYPE
 70
     6
  9
$SURFU
 70
     6
  9
$SURFV
 70
     6
  9
$UCSNAME
  2

  9
$UCSORG
 10
0.0
 20
0.0
 30
0.0
  9
$UCSXDIR
 10
1.0
 20
0.0
 30
0.0
  9
$UCSYDIR
 10
0.0
 20
1.0
 30
0.0
  9
$PUCSNAME
  2

  9
$PUCSORG
 10
0.0
 20
0.0
 30
0.0
  9
$PUCSXDIR
 10
1.0
 20
0.0
 30
0.0
  9
$PUCSYDIR
 10
0.0
 20
1.0
 30
0.0
  9
$USERI1
 70
     1
  9
$USERI2
 70
     0
  9
$USERI3
 70
     0
  9
$USERI4
 70
     0
  9
$USERI5
 70
     0
  9
$USERR1
 40
0.0
  9
$USERR2
 40
0.0
  9
$USERR3
 40
0.0
  9
$USERR4
 40
0.0
  9
$USERR5
 40
0.0
  9
$WORLDVIEW
 70
     1
  9
$SHADEDGE
 70
     3
  9
$SHADEDIF
 70
    70
  9
$TILEMODE
 70
     1
  9
$MAXACTVP
 70
    16
  9
$PLIMCHECK
 70
     0
  9
$PEXTMIN
 10
1.0000000000000000E+020
 20
1.0000000000000000E+020
 30
1.0000000000000000E+020
  9
$PEXTMAX
 10
-1.0000000000000000E+020
 20
-1.0000000000000000E+020
 30
-1.0000000000000000E+020
  9
$PLIMMIN
 10
0.0
 20
0.0
  9
$PLIMMAX
 10
420.0
 20
297.0
  9
$UNITMODE
 70
     0
  9
$VISRETAIN
 70
     1
  9
$PLINEGEN
 70
     0
  9
$PSLTSCALE
 70
     1
  0
ENDSEC
  0
SECTION
  2
TABLES
  0
TABLE
  2
VPORT
 70
     1
  0
VPORT
  2
*ACTIVE
 70
     0
 10
0.0
 20
0.0
 11
1.0
 21
1.0
 12
18.569195187041998
 22
19.763867954967459
 13
0.0
 23
0.0
 14
7.0
 24
7.0
 15
7.0
 25
7.0
 16
0.0
 26
0.0
 36
1.0
 17
0.0
 27
0.0
 37
0.0
 40
160.6037805666148
 41
1.464403066812705
 42
50.0
 43
0.0
 44
0.0
 50
0.0
 51
0.0
 71
     0
 72
  2000
 73
     1
 74
     0
 75
     0
 76
     1
 77
     0
 78
     0
  0
ENDTAB
  0
TABLE
  2
LTYPE
 70
    16
  0
LTYPE
  2
CONTINUOUS
 70
     0
  3
Solid line
 72
    65
 73
     0
 40
0.0
  0
LTYPE
  2
CENTER2
 70
     0
  3
___ _ ___ _ ___ _ ___ _ ___ _ ___ _ ___ _ ___ _
 72
    65
 73
     4
 40
1.125
 49
0.75
 49
-0.125
 49
0.125
 49
-0.125
  0
LTYPE
  2
HIDDEN2
 70
     0
  3
_ _ _ _ _ _ _ _ _ _ _ _ _ _ _ _ _ _ _ _ _ _ _ _
 72
    65
 73
     2
 40
0.1875
 49
0.125
 49
-0.0625
  0
LTYPE
  2
PHANTOM2
 70
     0
  3
___ _ _ ___ _ _ ___ _ _ ___ _ _ ___ _ _ ___ _ _
 72
    65
 73
     6
 40
1.25
 49
0.625
 49
-0.125
 49
0.125
 49
-0.125
 49
0.125
 49
-0.125
  0
LTYPE
  2
AM_ISO02W050
 70
     0
  3
__ __ __ __ __ __ __ __ __ __ __ __ __ __ __
 72
    65
 73
     2
 40
7.5
 49
6.0
 49
-1.5
  0
LTYPE
  2
AMCONSTR
 70
     0
  3
_______________________
 72
    65
 73
     2
 40
9999.0
 49
9999.0
 49
0.0
  0
LTYPE
  2
ACISOWELD
 70
     0
  3
_ _ _ _ _
 72
    65
 73
     2
 40
2.0
 49
2.0
 49
-1.0
  0
LTYPE
  2
ACISOTGB
 70
     0
  3
__ . . __ . .
 72
    65
 73
     6
 40
9.0
 49
4.0
 49
-1.0
 49
1.0
 49
-1.0
 49
1.0
 49
-1.0
  0
LTYPE
  2
ACISOTGL
 70
     0
  3
_ _ _ _ _
 72
    65
 73
     2
 40
3.0
 49
2.0
 49
-1.0
  0
LTYPE
  2
ACJISTGB
 70
     0
  3
__ . . __ . .
 72
    65
 73
     6
 40
9.0
 49
4.0
 49
-1.0
 49
1.0
 49
-1.0
 49
1.0
 49
-1.0
  0
LTYPE
  2
ACJISTGL
 70
     0
  3
_ _ _ _ _
 72
    65
 73
     2
 40
3.0
 49
2.0
 49
-1.0
  0
ENDTAB
  0
TABLE
  2
LAYER
 70
     8
  0
LAYER
  2
0
 70
     0
 62
     7
  6
CONTINUOUS
  0
LAYER
  2
DEFPOINTS
 70
     0
 62
     7
  6
CONTINUOUS
  0
LAYER
  2
245
 70
     0
 62
     2
  6
CENTER2
  0
LAYER
  2
240
 70
     0
 62
     4
  6
CONTINUOUS
  0
LAYER
  2
241
 70
     0
 62
   211
  6
CONTINUOUS
  0
LAYER
  2
243
 70
     0
 62
   211
  6
HIDDEN2
  0
LAYER
  2
247
 70
     0
 62
    60
  6
CONTINUOUS
  0
LAYER
  2
250
 70
     0
 62
     3
  6
CONTINUOUS
  0
ENDTAB
  0
TABLE
  2
STYLE
 70
     7
  0
STYLE
  2
STANDARD
 70
     0
 40
0.0
 41
1.0
 50
0.0
 71
     0
 42
3.0
  3
romans.shx
  4
extfont.shx
  0
STYLE
  2
ACISOTS
 70
     0
 40
1.0
 41
1.0
 50
0.0
 71
     0
 42
3.0
  3
amgdt.shx
  4
extfont.shx
  0
STYLE
  2
ACISOGDT
 70
     0
 40
0.0
 41
1.0
 50
0.0
 71
     0
 42
3.0
  3
amgdt.shx
  4
extfont.shx
  0
STYLE
  2
ACJISTS
 70
     0
 40
1.0
 41
1.0
 50
0.0
 71
     0
 42
3.0
  3
amgdt.shx
  4
extfont.shx
  0
STYLE
  2
ACJISGDT
 70
     0
 40
0.0
 41
1.0
 50
0.0
 71
     0
 42
3.0
  3
amgdt.shx
  4
extfont.shx
  0
STYLE
  2
YOKO
 70
     0
 40
0.0
 41
1.0
 50
0.0
 71
     0
 42
3.0
  3
romans.shx
  4
extfont.shx
  0
ENDTAB
  0
TABLE
  2
VIEW
 70
     0
  0
ENDTAB
  0
TABLE
  2
UCS
 70
     0
  0
ENDTAB
  0
TABLE
  2
APPID
 70
    39
  0
APPID
  2
ACAD
 70
     0
  0
APPID
  2
GLOBAL
 70
     0
  0
APPID
  2
DETAIL
 70
     0
  0
APPID
  2
GRPNAME
 70
     0
  0
APPID
  2
GPARA
 70
     0
  0
APPID
  2
MCAD_NO_VIS
 70
     0
  0
APPID
  2
ACAD_TEMP_GRAPHIC
 70
     0
  0
APPID
  2
ACATTRIBSERVICES
 70
     0
  0
APPID
  2
GENIUS_GENSCREG_15
 70
     0
  0
APPID
  2
GENIUS_GENODEF_13
 70
     0
  0
APPID
  2
GENIUS_GENOBJ-N-SDF_13
 70
     0
  0
APPID
  2
GENIUS_GENREC_14
 70
     0
  0
APPID
  2
GENIUS_GENOBJ-N-REC_13
 70
     0
  0
APPID
  2
GENIUS_GENDIMSH_14
 70
     0
  0
APPID
  2
GENIUS_GENOBJ-N-DIM_13
 70
     0
  0
APPID
  2
GENIUS_GENDIM_13
 70
     0
  0
APPID
  2
GENIUS_GENDTOL_13
 70
     0
  0
APPID
  2
GENIUS_GENOLIS_13
 70
     0
  0
APPID
  2
GENIUS_GENOENT_13
 70
     0
  0
APPID
  2
GENIUS_GENOBJ-F-FEM_13
 70
     0
  0
APPID
  2
GENIUS_GENOREF_13
 70
     0
  0
APPID
  2
GENIUS_GEFFEM_13
 70
     0
  0
APPID
  2
GENIUS_GEFFEMP_13
 70
     0
  0
APPID
  2
AD_DRAW
 70
     0
  0
APPID
  2
DESIGNERASSEMBLIES
 70
     0
  0
APPID
  2
ACADM_DIM_EDIT
 70
     0
  0
APPID
  2
AMDT_DM_ADJ
 70
     0
  0
APPID
  2
ITEMNAME
 70
     0
  0
APPID
  2
GENIUS_GENOBJ-N-FIL_13
 70
     0
  0
APPID
  2
GENIUS_GENFIL_13
 70
     0
  0
APPID
  2
GENIUS_GENOBJ-N-CHA_13
 70
     0
  0
APPID
  2
ACAD_NAV_VCDISPLAY
 70
     0
  0
APPID
  2
ACAD_PSEXT
 70
     0
  0
APPID
  2
GENIUS_GENOBJ-N-CRS_13
 70
     0
  0
APPID
  2
GENIUS_GENOBJ-N-HTC_13
 70
     0
  0
APPID
  2
GENIUS_GENHATCH_13
 70
     0
  0
APPID
  2
ACAD_DSTYLE_DIMJAG
 70
     0
  0
APPID
  2
ACAD_DSTYLE_DIMBREAK
 70
     0
  0
APPID
  2
ACAD_MLEADERVER
 70
     0
  0
ENDTAB
  0
TABLE
  2
DIMSTYLE
 70
    29
  0
DIMSTYLE
  2
BIGT
 70
     0
  3

  4

  5
OPEN
  6

  7

 40
1.0
 41
2.2299999999999991
 42
0.5
 43
7.0
 44
1.0
 45
0.0
 46
0.0
 47
0.0
 48
0.01
140
2.7999999999999989
141
0.0
142
0.0
143
25.399999999999999
144
1.0
145
0.0
146
1.0
147
1.0
 71
     0
 72
     0
 73
     0
 74
     0
 75
     0
 76
     0
 77
     3
 78
     9
170
     0
171
     2
172
     1
173
     0
174
     1
175
     0
176
   256
177
   256
178
    40
  0
DIMSTYLE
  2
AM_ISO
 70
     0
  3

  4
"
  5

  6

  7

 40
1.0
 41
2.5
 42
1.0
 43
10.0
 44
1.0
 45
0.0
 46
0.0
 47
0.1
 48
0.1
140
3.5
141
0.0
142
0.0
143
0.0393701
144
1.0
145
0.0
146
0.71
147
1.5
 71
     0
 72
     0
 73
     0
 74
     0
 75
     0
 76
     0
 77
     1
 78
     8
170
     0
171
     2
172
     1
173
     0
174
     0
175
     0
176
   256
177
   256
178
     2
  0
DIMSTYLE
  2
AM_ISO$3
 70
     0
  3

  4
"
  5

  6

  7

 40
1.0
 41
2.5
 42
1.0
 43
10.0
 44
1.0
 45
0.0
 46
0.0
 47
0.1
 48
0.1
140
3.5
141
0.0
142
0.0
143
0.0393701
144
1.0
145
0.0
146
0.71
147
1.5
 71
     0
 72
     0
 73
     0
 74
     1
 75
     0
 76
     0
 77
     1
 78
     8
170
     0
171
     2
172
     0
173
     0
174
     0
175
     0
176
   256
177
   256
178
     2
  0
DIMSTYLE
  2
AM_ISO$4
 70
     0
  3

  4
"
  5

  6

  7

 40
1.0
 41
2.5
 42
1.0
 43
10.0
 44
1.0
 45
0.0
 46
0.0
 47
0.1
 48
0.1
140
3.5
141
0.0
142
0.0
143
0.0393701
144
1.0
145
0.0
146
0.71
147
1.5
 71
     0
 72
     0
 73
     0
 74
     1
 75
     0
 76
     0
 77
     1
 78
     8
170
     0
171
     2
172
     0
173
     0
174
     0
175
     0
176
   256
177
   256
178
     2
  0
DIMSTYLE
  2
AM_ISO$6
 70
     0
  3

  4
"
  5

  6

  7

 40
1.0
 41
2.5
 42
1.0
 43
10.0
 44
1.0
 45
0.0
 46
0.0
 47
0.1
 48
0.1
140
3.5
141
0.0
142
0.0
143
0.0393701
144
1.0
145
0.0
146
0.71
147
1.5
 71
     0
 72
     0
 73
     0
 74
     0
 75
     0
 76
     0
 77
     0
 78
     8
170
     0
171
     2
172
     1
173
     0
174
     0
175
     0
176
   256
177
   256
178
     2
  0
DIMSTYLE
  2
AM_ISO$7
 70
     0
  3

  4
"
  5

  6

  7

 40
1.0
 41
2.5
 42
1.0
 43
10.0
 44
1.0
 45
0.0
 46
0.0
 47
0.1
 48
0.1
140
5.0
141
0.0
142
0.0
143
0.0393701
144
1.0
145
0.0
146
0.71
147
1.5
 71
     0
 72
     0
 73
     0
 74
     0
 75
     0
 76
     0
 77
     1
 78
     8
170
     0
171
     2
172
     1
173
     0
174
     0
175
     0
176
   256
177
   256
178
     2
  0
DIMSTYLE
  2
AM_ISO$SF
 70
     0
  3

  4
"
  5

  6

  7

 40
1.0
 41
2.5
 42
1.0
 43
10.0
 44
1.0
 45
0.0
 46
0.0
 47
0.1
 48
0.1
140
3.5
141
0.0
142
0.0
143
0.0393701
144
1.0
145
0.0
146
0.71
147
1.5
 71
     0
 72
     0
 73
     0
 74
     0
 75
     1
 76
     1
 77
     1
 78
     8
170
     0
171
     2
172
     1
173
     0
174
     0
175
     0
176
   256
177
   256
178
     2
  0
DIMSTYLE
  2
AM_ISO$SH
 70
     0
  3

  4
"
  5

  6
GENAXEH
  7

 40
1.0
 41
2.5
 42
1.0
 43
10.0
 44
1.0
 45
0.0
 46
0.0
 47
0.1
 48
0.1
140
3.5
141
0.0
142
0.0
143
0.0393701
144
2.0
145
0.0
146
0.71
147
1.5
 71
     0
 72
     0
 73
     0
 74
     0
 75
     1
 76
     1
 77
     1
 78
     8
170
     0
171
     2
172
     1
173
     1
174
     0
175
     0
176
   256
177
   256
178
     2
  0
DIMSTYLE
  2
BIGT$2
 70
     0
  3

  4

  5
OPEN
  6

  7

 40
1.0
 41
2.2299999999999991
 42
0.5
 43
7.0
 44
1.0
 45
0.0
 46
0.0
 47
0.0
 48
0.01
140
2.7999999999999989
141
0.0
142
0.0
143
25.399999999999999
144
1.0
145
0.0
146
1.0
147
1.0
 71
     0
 72
     0
 73
     0
 74
     0
 75
     0
 76
     0
 77
     3
 78
     9
170
     0
171
     2
172
     1
173
     0
174
     0
175
     0
176
   256
177
   256
178
    40
  0
DIMSTYLE
  2
BIGT$3
 70
     0
  3

  4

  5
OPEN
  6

  7

 40
1.0
 41
2.2299999999999991
 42
0.5
 43
2.5
 44
1.0
 45
0.0
 46
0.0
 47
0.0
 48
0.01
140
2.7999999999999989
141
0.0
142
0.0
143
25.399999999999999
144
1.0
145
0.0
146
1.0
147
1.0
 71
     0
 72
     0
 73
     0
 74
     0
 75
     0
 76
     0
 77
     3
 78
     9
170
     0
171
     2
172
     1
173
     0
174
     0
175
     0
176
   256
177
   256
178
    40
  0
DIMSTYLE
  2
BIGT$7
 70
     0
  3

  4

  5
OPEN
  6

  7

 40
0.0
 41
2.2299999999999991
 42
0.5
 43
7.0
 44
1.0
 45
0.0
 46
0.0
 47
0.0
 48
0.01
140
2.7999999999999989
141
0.0
142
0.0
143
25.399999999999999
144
1.0
145
0.0
146
1.0
147
1.0
 71
     0
 72
     0
 73
     0
 74
     0
 75
     0
 76
     0
 77
     3
 78
     9
170
     0
171
     2
172
     0
173
     0
174
     0
175
     0
176
   256
177
   256
178
    40
  0
DIMSTYLE
  2
BIGT$6
 70
     0
  3

  4

  5
OPEN
  6

  7

 40
1.0
 41
2.2299999999999991
 42
0.5
 43
2.5
 44
1.0
 45
0.0
 46
0.0
 47
0.0
 48
0.01
140
2.7999999999999989
141
0.0
142
0.0
143
25.399999999999999
144
1.0
145
0.0
146
1.0
147
1.0
 71
     0
 72
     0
 73
     0
 74
     0
 75
     0
 76
     0
 77
     3
 78
     9
170
     0
171
     2
172
     1
173
     0
174
     0
175
     0
176
   256
177
   256
178
    40
  0
DIMSTYLE
  2
BIGT$0
 70
     0
  3

  4

  5
OPEN
  6

  7

 40
1.0
 41
2.2299999999999991
 42
0.5
 43
7.0
 44
1.0
 45
0.0
 46
0.0
 47
0.0
 48
0.01
140
2.7999999999999989
141
0.0
142
0.0
143
25.399999999999999
144
1.0
145
0.0
146
1.0
147
1.0
 71
     0
 72
     0
 73
     0
 74
     0
 75
     0
 76
     0
 77
     3
 78
     9
170
     0
171
     2
172
     1
173
     0
174
     1
175
     0
176
   256
177
   256
178
    40
  0
DIMSTYLE
  2
BIGT$4
 70
     0
  3

  4

  5
OPEN
  6

  7

 40
1.0
 41
2.2299999999999991
 42
0.5
 43
2.5
 44
1.0
 45
0.0
 46
0.0
 47
0.0
 48
0.01
140
2.7999999999999989
141
0.0
142
0.0
143
25.399999999999999
144
1.0
145
0.0
146
1.0
147
1.0
 71
     0
 72
     0
 73
     0
 74
     0
 75
     0
 76
     0
 77
     3
 78
     9
170
     0
171
     2
172
     1
173
     0
174
     0
175
     0
176
   256
177
   256
178
    40
  0
DIMSTYLE
  2
BIGT$SH
 70
     0
  3

  4

  5
OPEN
  6

  7

 40
1.0
 41
2.2299999999999991
 42
0.5
 43
7.0
 44
1.0
 45
0.0
 46
0.0
 47
0.0
 48
0.0
140
2.7999999999999989
141
0.0
142
0.0
143
25.399999999999999
144
1.0
145
0.0
146
1.0
147
1.0
 71
     0
 72
     0
 73
     0
 74
     0
 75
     0
 76
     0
 77
     3
 78
     9
170
     0
171
     2
172
     1
173
     0
174
     0
175
     0
176
   256
177
   256
178
    40
  0
DIMSTYLE
  2
BIGT$SF
 70
     0
  3

  4

  5
OPEN
  6

  7

 40
1.0
 41
2.2299999999999991
 42
0.5
 43
7.0
 44
1.0
 45
0.0
 46
0.0
 47
0.0
 48
0.0
140
2.7999999999999989
141
0.0
142
0.0
143
25.399999999999999
144
1.0
145
0.0
146
1.0
147
1.0
 71
     0
 72
     0
 73
     0
 74
     0
 75
     0
 76
     0
 77
     3
 78
     9
170
     0
171
     2
172
     1
173
     0
174
     0
175
     0
176
   256
177
   256
178
    40
  0
DIMSTYLE
  2
TECHNICAL_OSAKA
 70
     0
  3

  4
"
  5
OPEN30
  6

  7

 40
1.0
 41
2.5
 42
1.0
 43
10.0
 44
1.0
 45
0.0
 46
0.0
 47
0.1
 48
0.1
140
2.7999999999999989
141
0.0
142
0.0
143
0.0393701
144
1.0
145
0.0
146
0.71
147
1.5
 71
     0
 72
     0
 73
     0
 74
     0
 75
     0
 76
     0
 77
     3
 78
     8
170
     0
171
     2
172
     1
173
     0
174
     0
175
     0
176
   256
177
   256
178
    40
  0
DIMSTYLE
  2
TECHNICAL_OSAKA$3
 70
     0
  3

  4
"
  5
OPEN30
  6

  7

 40
1.0
 41
2.5
 42
1.0
 43
10.0
 44
1.0
 45
0.0
 46
0.0
 47
0.1
 48
0.1
140
2.7999999999999989
141
0.0
142
0.0
143
0.0393701
144
1.0
145
0.0
146
0.71
147
1.5
 71
     0
 72
     0
 73
     0
 74
     1
 75
     0
 76
     0
 77
     3
 78
     8
170
     0
171
     2
172
     0
173
     0
174
     0
175
     0
176
   256
177
   256
178
    40
  0
DIMSTYLE
  2
TECHNICAL_OSAKA$4
 70
     0
  3

  4
"
  5
OPEN30
  6

  7

 40
1.0
 41
2.5
 42
1.0
 43
10.0
 44
1.0
 45
0.0
 46
0.0
 47
0.1
 48
0.1
140
2.7999999999999989
141
0.0
142
0.0
143
0.0393701
144
1.0
145
0.0
146
0.71
147
1.5
 71
     0
 72
     0
 73
     0
 74
     1
 75
     0
 76
     0
 77
     3
 78
     8
170
     0
171
     2
172
     0
173
     0
174
     0
175
     0
176
   256
177
   256
178
    40
  0
DIMSTYLE
  2
TECHNICAL_OSAKA$6
 70
     0
  3

  4
"
  5
OPEN30
  6

  7

 40
1.0
 41
2.5
 42
1.0
 43
10.0
 44
1.0
 45
0.0
 46
0.0
 47
0.1
 48
0.1
140
2.7999999999999989
141
0.0
142
0.0
143
0.0393701
144
1.0
145
0.0
146
0.71
147
1.5
 71
     0
 72
     0
 73
     0
 74
     0
 75
     0
 76
     0
 77
     0
 78
     8
170
     0
171
     2
172
     1
173
     0
174
     0
175
     0
176
   256
177
   256
178
    40
  0
DIMSTYLE
  2
TECHNICAL_OSAKA$7
 70
     0
  3

  4
"
  5
OPEN30
  6

  7

 40
1.0
 41
2.5
 42
1.0
 43
10.0
 44
1.0
 45
0.0
 46
0.0
 47
0.1
 48
0.1
140
2.7999999999999989
141
0.0
142
0.0
143
0.0393701
144
1.0
145
0.0
146
0.71
147
1.5
 71
     0
 72
     0
 73
     0
 74
     0
 75
     0
 76
     0
 77
     3
 78
     8
170
     0
171
     2
172
     1
173
     0
174
     0
175
     0
176
   256
177
   256
178
    40
  0
DIMSTYLE
  2
TECHNICAL_OSAKA$SF
 70
     0
  3

  4
"
  5
OPEN30
  6
OPEN30
  7
OPEN30
 40
1.0
 41
2.5
 42
1.0
 43
10.0
 44
1.0
 45
0.0
 46
0.0
 47
0.1
 48
0.1
140
3.5
141
0.0
142
0.0
143
0.0393701
144
1.0
145
0.0
146
0.71
147
1.5
 71
     0
 72
     0
 73
     0
 74
     0
 75
     1
 76
     1
 77
     3
 78
     8
170
     0
171
     2
172
     1
173
     0
174
     0
175
     0
176
   256
177
   256
178
    40
  0
DIMSTYLE
  2
TECHNICAL_OSAKA$SH
 70
     0
  3

  4
"
  5
OPEN30
  6
GENAXEH
  7
OPEN30
 40
1.0
 41
2.5
 42
1.0
 43
10.0
 44
1.0
 45
0.0
 46
0.0
 47
0.1
 48
0.1
140
3.5
141
0.0
142
0.0
143
0.0393701
144
2.0
145
0.0
146
0.71
147
1.5
 71
     0
 72
     0
 73
     0
 74
     0
 75
     1
 76
     1
 77
     3
 78
     8
170
     0
171
     2
172
     1
173
     1
174
     0
175
     0
176
   256
177
   256
178
    40
  0
ENDTAB
  0
ENDSEC
  0
SECTION
  2
BLOCKS
  0
BLOCK
  8
0
  2
$MODEL_SPACE
 70
     0
 10
0.0
 20
0.0
 30
0.0
  3
$MODEL_SPACE
  1

  0
ENDBLK
  5
1C
  8
0
  0
BLOCK
 67
     1
  8
0
  2
$PAPER_SPACE
 70
     0
 10
0.0
 20
0.0
 30
0.0
  3
$PAPER_SPACE
  1

  0
ENDBLK
  5
19
 67
     1
  8
0
  0
BLOCK
  8
0
  2
_OPEN
 70
     0
 10
0.0
 20
0.0
 30
0.0
  3
_OPEN
  1

  0
LINE
  5
4577
  8
0
  6
BYBLOCK
 62
     0
 10
-1.0
 20
0.1666666666666666
 30
0.0
 11
0.0
 21
0.0
 31
0.0
  0
LINE
  5
4578
  8
0
  6
BYBLOCK
 62
     0
 10
-1.0
 20
-0.1666666666666666
 30
0.0
 11
0.0
 21
0.0
 31
0.0
  0
LINE
  5
4579
  8
0
  6
BYBLOCK
 62
     0
 10
0.0
 20
0.0
 30
0.0
 11
-1.0
 21
0.0
 31
0.0
  0
ENDBLK
  5
457A
  8
0
  0
BLOCK
  8
0
  2
GENAXEH
 70
     0
 10
0.0
 20
0.0
 30
0.0
  3
GENAXEH
  1

  0
LINE
  5
45B2
  8
0
 10
-1.0
 20
0.0
 30
0.0
 11
1.0
 21
0.0
 31
0.0
  0
ENDBLK
  5
45B3
  8
0
  0
BLOCK
  8
0
  2
_OPEN30
 70
     0
 10
0.0
 20
0.0
 30
0.0
  3
_OPEN30
  1

  0
LINE
  5
45EE
  8
0
  6
BYBLOCK
 62
     0
 10
-1.0
 20
0.26794919
 30
0.0
 11
0.0
 21
0.0
 31
0.0
  0
LINE
  5
45EF
  8
0
  6
BYBLOCK
 62
     0
 10
0.0
 20
0.0
 30
0.0
 11
-1.0
 21
-0.26794919
 31
0.0
  0
LINE
  5
45F0
  8
0
  6
BYBLOCK
 62
     0
 10
0.0
 20
0.0
 30
0.0
 11
-1.0
 21
0.0
 31
0.0
  0
ENDBLK
  5
45F1
  8
0
  0
BLOCK
  8
0
  2
*U4
 70
     1
 10
0.0
 20
0.0
 30
0.0
  3
*U4
  1

  0
TEXT
  5
4477
  8
250
 10
80.25436168666667
 20
29.094157549999998
 30
0.0
 40
2.799999999999998
  1
MGT6
  7
YOKO
  0
ENDBLK
  5
4478
  8
0
  0
ENDSEC
  0
SECTION
  2
ENTITIES
  0
LINE
  5
422B
  8
245
  6
CENTER2
 10
-38.999999999999972
 20
0.0
 30
0.0
 11
81.743595973545794
 21
0.0
 31
0.0
  0
LINE
  5
422C
  8
240
  6
CONTINUOUS
 10
-37.999999999999972
 20
-19.7249230954402
 30
0.0
 11
-37.999999999999972
 21
22.524923095440219
 31
0.0
1001
GRPNAME
1000
PASTMD30
  0
LINE
  5
422D
  8
240
  6
CONTINUOUS
 10
-37.999999999999972
 20
-19.7249230954402
 30
0.0
 11
0.0
 21
-20.6750065918194
 31
0.0
1001
GRPNAME
1000
PASTMD30
  0
LINE
  5
422E
  8
243
  6
HIDDEN2
 10
-37.999999999999972
 20
-18.0
 30
0.0
 11
-31.80000000000004
 21
-18.0
 31
0.0
1001
GRPNAME
1000
PASTMD30
  0
LINE
  5
422F
  8
243
  6
HIDDEN2
 10
-29.871855430570321
 20
-19.928144569429652
 30
0.0
 11
-31.79999999999993
 21
-18.0
 31
0.0
1001
GRPNAME
1000
PASTMD30
  0
LINE
  5
4230
  8
243
  6
HIDDEN2
 10
-31.80000000000004
 20
-19.879936718533649
 30
0.0
 11
-31.80000000000004
 21
-18.0
 31
0.0
1001
GRPNAME
1000
PASTMD30
  0
LINE
  5
4231
  8
240
  6
CONTINUOUS
 10
0.0
 20
-31.5
 30
0.0
 11
0.0
 21
-20.6750065918194
 31
0.0
1001
GRPNAME
1000
PASTMD30
  0
LINE
  5
4232
  8
240
  6
CONTINUOUS
 10
-37.999999999999972
 20
22.524923095440219
 30
0.0
 11
0.0
 21
23.475006591819412
 31
0.0
1001
GRPNAME
1000
PASTMD30
  0
LINE
  5
4233
  8
240
  6
CONTINUOUS
 10
0.0
 20
31.5
 30
0.0
 11
0.0
 21
23.475006591819412
 31
0.0
1001
GRPNAME
1000
PASTMD30
  0
LINE
  5
4234
  8
240
  6
CONTINUOUS
 10
22.000000000000242
 20
-31.5
 30
0.0
 11
22.000000000000291
 21
-22.817997555276239
 31
0.0
  0
LINE
  5
4235
  8
240
  6
CONTINUOUS
 10
0.0
 20
31.5
 30
0.0
 11
22.000000000000242
 21
31.5
 31
0.0
  0
LINE
  5
4236
  8
240
  6
CONTINUOUS
 10
0.0
 20
-31.5
 30
0.0
 11
22.000000000000242
 21
-31.5
 31
0.0
  0
LINE
  5
4237
  8
241
  6
CONTINUOUS
 10
9.9499999999999869
 20
8.9923414211634736
 30
0.0
 11
9.9499999999999869
 21
30.18137425657125
 31
0.0
1001
GRPNAME
1000
PASTMD30
  0
LINE
  5
4238
  8
241
  6
CONTINUOUS
 10
9.9499999999999869
 20
30.18137425657125
 30
0.0
 11
14.05000000000001
 21
30.18137425657125
 31
0.0
1001
GRPNAME
1000
PASTMD30
  0
LINE
  5
4239
  8
241
  6
CONTINUOUS
 10
14.05000000000055
 20
8.9923414211634736
 30
0.0
 11
14.05000000000001
 21
30.18137425657125
 31
0.0
1001
GRPNAME
1000
PASTMD30
  0
LINE
  5
423A
  8
241
  6
CONTINUOUS
 10
9.9499999999999869
 20
8.9923414211634736
 30
0.0
 11
14.05000000000055
 21
8.9923414211634736
 31
0.0
1001
GRPNAME
1000
PASTMD30
  0
LINE
  5
423B
  8
241
  6
CONTINUOUS
 10
0.0
 20
-20.675006591819429
 30
0.0
 11
0.0
 21
23.47500659181938
 31
0.0
  0
LINE
  5
423C
  8
250
  6
CONTINUOUS
 10
-18.76198996755296
 20
-21.987243911098801
 30
0.0
 11
-17.325117192479748
 21
-20.24184059399283
 31
0.0
  0
LINE
  5
423D
  8
250
  6
CONTINUOUS
 10
-18.11824441740653
 20
-22.358910577765482
 30
0.0
 11
-17.325117192479748
 21
-20.24184059399283
 31
0.0
  0
LINE
  5
423E
  8
250
  6
CONTINUOUS
 10
-17.325117192479748
 20
-20.24184059399283
 30
0.0
 11
-18.44011719247975
 21
-22.17307724443214
 31
0.0
  0
POLYLINE
  5
423F
  8
250
  6
CONTINUOUS
 66
     1
 10
0.0
 20
0.0
 30
0.0
  0
VERTEX
  5
4240
  8
250
  6
CONTINUOUS
 10
-18.44011719247975
 20
-22.17307724443214
 30
0.0
  0
VERTEX
  5
4241
  8
250
  6
CONTINUOUS
 10
-23.825018556117701
 20
-31.5
 30
0.0
  0
SEQEND
  5
4242
  8
250
  6
CONTINUOUS
  0
TEXT
  5
4243
  8
250
  6
CONTINUOUS
 10
-31.691685222784368
 20
-30.5
 30
0.0
 40
2.799999999999998
  1
C6
  7
YOKO
1001
ITEMNAME
1000
LNSP3
  0
LINE
  5
4244
  8
250
  6
CONTINUOUS
 10
-23.825018556117701
 20
-31.5
 30
0.0
 11
-34.091685222784371
 21
-31.5
 31
0.0
1001
ITEMNAME
1000
LNSP2
  0
ARC
  5
4245
  8
241
  6
CONTINUOUS
 10
-16.228827256943418
 20
19.586857838866582
 30
0.0
 40
32.07882725694369
 50
340.71513450902091
 51
19.284865490980941
  0
ARC
  5
4246
  8
241
  6
CONTINUOUS
 10
40.228827256943717
 20
19.58685783886736
 30
0.0
 40
32.07882725694374
 50
160.71513450901909
 51
199.28486549098051
  0
LINE
  5
4247
  8
241
  6
CONTINUOUS
 10
9.9499999999999869
 20
-8.9923414211634736
 30
0.0
 11
9.9499999999999869
 21
-30.18137425657125
 31
0.0
1001
GRPNAME
1000
PASTMD30
  0
LINE
  5
4248
  8
241
  6
CONTINUOUS
 10
9.9499999999999869
 20
-30.18137425657125
 30
0.0
 11
14.05000000000001
 21
-30.18137425657125
 31
0.0
1001
GRPNAME
1000
PASTMD30
  0
LINE
  5
4249
  8
241
  6
CONTINUOUS
 10
14.05000000000055
 20
-8.9923414211634736
 30
0.0
 11
14.05000000000001
 21
-30.18137425657125
 31
0.0
1001
GRPNAME
1000
PASTMD30
  0
LINE
  5
424A
  8
241
  6
CONTINUOUS
 10
9.9499999999999869
 20
-8.9923414211634736
 30
0.0
 11
14.05000000000055
 21
-8.9923414211634736
 31
0.0
1001
GRPNAME
1000
PASTMD30
  0
ARC
  5
424B
  8
241
  6
CONTINUOUS
 10
-16.228827256943418
 20
-19.586857838866582
 30
0.0
 40
32.07882725694369
 50
340.71513450901892
 51
19.284865490979119
  0
ARC
  5
424C
  8
241
  6
CONTINUOUS
 10
40.228827256943717
 20
-19.58685783886736
 30
0.0
 40
32.07882725694374
 50
160.71513450901909
 51
199.28486549098051
  0
LINE
  5
424D
  8
247
  6
CONTINUOUS
 10
6.0
 20
-17.250000000069999
 30
0.0
 11
6.0
 21
-10.557692308029999
 31
0.0
  0
ARC
  5
424E
  8
247
  6
CONTINUOUS
 10
4.2500000000699742
 20
-17.250000000069999
 30
0.0
 40
1.7499999999299991
 50
180.0
 51
0.0
  0
ARC
  5
424F
  8
247
  6
CONTINUOUS
 10
4.2500000000699742
 20
-10.557692308029999
 30
0.0
 40
1.7499999999299991
 50
0.0
 51
180.0
  0
LINE
  5
4250
  8
247
  6
CONTINUOUS
 10
2.500000000140004
 20
-16.38461538472
 30
0.0
 11
5.5000000000200071
 21
-17.244851541962021
 31
0.0
  0
LINE
  5
4251
  8
247
  6
CONTINUOUS
 10
3.923076923160008
 20
-15.48498381833582
 30
0.0
 11
3.923076923160008
 21
-16.79267612597582
 31
0.0
  0
ARC
  5
4252
  8
247
  6
CONTINUOUS
 10
3.04959866770298
 20
-15.14514381608978
 30
0.0
 40
0.5538165441895349
 50
72.997889675291773
 51
172.92416621851191
  0
ARC
  5
4253
  8
247
  6
CONTINUOUS
 10
2.936033044465773
 20
-15.56687832302879
 30
0.0
 40
0.9904354236226808
 50
4.7429368522022122
 51
73.849226273266297
1001
GENIUS_GENOBJ-N-FIL_13
1002
{
1000
OWNER
1000
GEN
1002
}
1001
GENIUS_GENODEF_13
1002
{
1000
HIER
1070
     0
1002
}
1002
{
1000
MANEDIT
1070
     0
1002
}
1002
{
1000
NOSEL
1070
     0
1002
}
1002
{
1000
BEHIND
1070
     0
1002
}
1002
{
1000
OTHER
1070
     0
1002
}
1002
{
1000
REACTOR
1002
}
  0
LINE
  5
4254
  8
247
  6
CONTINUOUS
 10
5.5000000000200071
 20
-15.937159234321991
 30
0.0
 11
5.5000000000200071
 21
-17.244851541962021
 31
0.0
  0
LINE
  5
4255
  8
247
  6
CONTINUOUS
 10
2.500000000140004
 20
-16.38461538472
 30
0.0
 11
2.500000000140004
 21
-15.07692307707998
 31
0.0
  0
ARC
  5
4256
  8
247
  6
CONTINUOUS
 10
4.4820242326655348
 20
-15.56091963654697
 30
0.0
 40
0.5640818586791229
 50
65.990941652528889
 51
172.26344345906909
  0
ARC
  5
4257
  8
247
  6
CONTINUOUS
 10
4.487429039186563
 20
-16.03826268534706
 30
0.0
 40
1.0176059446230981
 50
5.7019851642581241
 51
77.277338436822376
1001
GENIUS_GENOBJ-N-FIL_13
1002
{
1000
OWNER
1000
GEN
1002
}
1001
GENIUS_GENODEF_13
1002
{
1000
HIER
1070
     0
1002
}
1002
{
1000
MANEDIT
1070
     0
1002
}
1002
{
1000
NOSEL
1070
     0
1002
}
1002
{
1000
BEHIND
1070
     0
1002
}
1002
{
1000
OTHER
1070
     0
1002
}
1002
{
1000
REACTOR
1002
}
  0
LINE
  5
4258
  8
247
  6
CONTINUOUS
 10
5.5000000000200071
 20
-14.283313080541999
 30
0.0
 11
2.500000000140004
 21
-13.423076923300011
 31
0.0
  0
LINE
  5
4259
  8
247
  6
CONTINUOUS
 10
2.500000000140004
 20
-11.00000000032
 30
0.0
 11
2.500000000140004
 21
-11.565736619456599
 31
0.0
  0
LINE
  5
425A
  8
247
  6
CONTINUOUS
 10
5.5000000000200071
 20
-12.461538461799989
 30
0.0
 11
5.5000000000200071
 21
-11.846153846440011
 31
0.0
  0
ARC
  5
425B
  8
247
  6
CONTINUOUS
 10
4.5832851359733668
 20
-10.708791209122859
 30
0.0
 40
2.2526500823422122
 50
202.3594881415259
 51
254.99324854284609
  0
ARC
  5
425C
  8
247
  6
CONTINUOUS
 10
3.3083126551945261
 20
-11.37406947921323
 30
0.0
 40
0.8906723995727782
 50
94.994589319075317
 51
155.1663289573039
1001
GENIUS_GENOBJ-N-FIL_13
1002
{
1000
OWNER
1000
GEN
1002
}
1001
GENIUS_GENODEF_13
1002
{
1000
HIER
1070
     0
1002
}
1002
{
1000
MANEDIT
1070
     0
1002
}
1002
{
1000
NOSEL
1070
     0
1002
}
1002
{
1000
BEHIND
1070
     0
1002
}
1002
{
1000
OTHER
1070
     0
1002
}
1002
{
1000
REACTOR
1002
}
  0
ARC
  5
425D
  8
247
  6
CONTINUOUS
 10
4.160145888667782
 20
-12.22645888621258
 30
0.0
 40
1.392781735586712
 50
15.84609655577912
 51
82.325137004169065
  0
ARC
  5
425E
  8
247
  6
CONTINUOUS
 10
4.4592434315272831
 20
-11.64221272584035
 30
0.0
 40
1.324563662670287
 50
249.7136016704969
 51
321.78874565640888
1001
GENIUS_GENOBJ-N-FIL_13
1002
{
1000
OWNER
1000
GEN
1002
}
1001
GENIUS_GENODEF_13
1002
{
1000
HIER
1070
     0
1002
}
1002
{
1000
MANEDIT
1070
     0
1002
}
1002
{
1000
NOSEL
1070
     0
1002
}
1002
{
1000
BEHIND
1070
     0
1002
}
1002
{
1000
OTHER
1070
     0
1002
}
1002
{
1000
REACTOR
1002
}
  0
LINE
  5
425F
  8
247
  6
CONTINUOUS
 10
4.346153846219976
 20
-11.53846153876
 30
0.0
 11
4.346153846219976
 21
-10.84615384648
 31
0.0
  0
LINE
  5
4260
  8
247
  6
CONTINUOUS
 10
2.500000000139976
 20
-17.250000000069999
 30
0.0
 11
2.500000000139976
 21
-16.576923077020009
 31
0.0
  0
LINE
  5
43CC
  8
241
  6
CONTINUOUS
 10
52.700000000015301
 20
-18.0
 30
0.0
 11
52.700000000015301
 21
18.0
 31
0.0
  0
LINE
  5
43CD
  8
241
  6
CONTINUOUS
 10
54.300000000013853
 20
-18.0
 30
0.0
 11
54.300000000013853
 21
18.000000000000011
 31
0.0
  0
LINE
  5
43CE
  8
241
  6
CONTINUOUS
 10
55.700000000009851
 20
-18.0
 30
0.0
 11
55.700000000009958
 21
18.0
 31
0.0
  0
LINE
  5
43CF
  8
241
  6
CONTINUOUS
 10
57.300000000013853
 20
-18.0
 30
0.0
 11
57.300000000013853
 21
18.0
 31
0.0
  0
LINE
  5
43D7
  8
241
  6
CONTINUOUS
 10
64.00000000000739
 20
-17.99999999999995
 30
0.0
 11
64.000000000007219
 21
18.0
 31
0.0
  0
LINE
  5
43D8
  8
240
  6
CONTINUOUS
 10
22.399999999999661
 20
-22.38786204584672
 30
0.0
 11
29.767949192420961
 21
-18.133974596225009
 31
0.0
  0
ARC
  5
43D9
  8
240
  6
CONTINUOUS
 10
30.267949192420961
 20
-19.000000000009091
 30
0.0
 40
1.0
 50
90.0
 51
120.00000000000919
1001
GENIUS_GENOREF_13
1005
43E4
  0
LINE
  5
43DA
  8
240
  6
CONTINUOUS
 10
22.3999999999997
 20
22.387862045846841
 30
0.0
 11
29.767949192420961
 21
18.133974596225009
 31
0.0
  0
ARC
  5
43DB
  8
240
  6
CONTINUOUS
 10
22.89999999999986
 20
23.253887449631179
 30
0.0
 40
1.0
 50
205.84193276325411
 51
239.99999999998849
  0
ARC
  5
43DC
  8
240
  6
CONTINUOUS
 10
30.267949192420961
 20
19.000000000009091
 30
0.0
 40
1.0
 50
239.99999999999071
 51
270.0
1001
GENIUS_GENODEF_13
1002
{
1000
HIER
1070
     0
1002
}
1002
{
1000
MANEDIT
1070
     0
1002
}
1002
{
1000
NOSEL
1070
     0
1002
}
1002
{
1000
BEHIND
1070
     0
1002
}
1002
{
1000
OTHER
1070
     0
1002
}
1002
{
1000
REACTOR
1002
}
1001
GENIUS_GENOBJ-N-FIL_13
1002
{
1000
OWNER
1000
GEN
1002
}
  0
LINE
  5
43DD
  8
241
  6
CONTINUOUS
 10
30.000000000006111
 20
-18.0
 30
0.0
 11
30.000000000006171
 21
18.036566956002261
 31
0.0
  0
ARC
  5
43E0
  8
240
  6
CONTINUOUS
 10
22.89999999999986
 20
-23.253887449631179
 30
0.0
 40
1.0
 50
120.000000000011
 51
154.15806723679759
  0
POINT
  5
43E4
  8
0
 10
-158.37943192594079
 20
-127.7522369451671
 30
0.0
1001
GENIUS_GENOENT_13
1002
{
1000
MYREF
1005
43E4
1002
}
1002
{
1000
GRP
1005
0
1002
}
1001
GENIUS_GENOLIS_13
1002
{
1000
ENT
1005
0
1005
43D9
1002
}
1001
GENIUS_GENODEF_13
1002
{
1000
HIER
1070
     1
1002
}
1002
{
1000
MANEDIT
1070
     0
1002
}
1002
{
1000
NOSEL
1070
     0
1002
}
1002
{
1000
BEHIND
1070
     0
1002
}
1002
{
1000
OTHER
1070
     0
1002
}
1002
{
1000
REACTOR
1002
}
1001
GENIUS_GENOBJ-N-FIL_13
1002
{
1000
OWNER
1000
GEN
1002
}
  0
LINE
  5
43EB
  8
240
  6
CONTINUOUS
 10
22.000000000000529
 20
22.817997555275749
 30
0.0
 11
22.000000000000568
 21
31.5
 31
0.0
  0
LINE
  5
43ED
  8
241
  6
CONTINUOUS
 10
22.000000000000131
 20
-22.817997555276559
 30
0.0
 11
22.000000000000529
 21
22.817997555275749
 31
0.0
  0
LINE
  5
4429
  8
241
  6
CONTINUOUS
 10
72.000000000013557
 20
-17.99999999999995
 30
0.0
 11
72.000000000013614
 21
18.0
 31
0.0
  0
LINE
  5
442B
  8
240
  6
CONTINUOUS
 10
30.267949192420961
 20
-18.0
 30
0.0
 11
72.000000000013586
 21
-17.99999999999994
 31
0.0
  0
LINE
  5
442F
  8
240
  6
CONTINUOUS
 10
72.000000000013586
 20
-17.99999999999994
 30
0.0
 11
80.000000000009408
 21
-15.856406460549611
 31
0.0
  0
LINE
  5
444D
  8
240
  6
CONTINUOUS
 10
72.000000000013586
 20
18.0
 30
0.0
 11
80.000000000009408
 21
15.85640646054966
 31
0.0
  0
LINE
  5
444E
  8
240
  6
CONTINUOUS
 10
80.000000000007759
 20
-15.856406460549611
 30
0.0
 11
80.000000000009408
 21
15.85640646054966
 31
0.0
  0
LINE
  5
4451
  8
240
  6
CONTINUOUS
 10
30.267949192420961
 20
18.000000000000028
 30
0.0
 11
72.000000000013586
 21
18.0
 31
0.0
  0
INSERT
  5
449A
  8
250
  6
CONTINUOUS
  2
*U4
 10
5.0000000000085834
 20
0.0
 30
0.0
  0
LINE
  5
449B
  8
250
  6
CONTINUOUS
 10
82.987695020008573
 20
28.094157549999998
 30
0.0
 11
98.454361690008596
 21
28.094157549999998
 31
0.0
1001
ITEMNAME
1000
LNSP2
  0
LINE
  5
449C
  8
250
  6
CONTINUOUS
 10
72.500000000013543
 20
-18.0
 30
0.0
 11
93.000000000008583
 21
-18.0
 31
0.0
  0
LINE
  5
449D
  8
250
  6
CONTINUOUS
 10
72.500000000013614
 20
18.0
 30
0.0
 11
93.000000000008583
 21
18.0
 31
0.0
  0
LINE
  5
449E
  8
250
  6
CONTINUOUS
 10
92.000000000008583
 20
-15.77
 30
0.0
 11
92.000000000008583
 21
15.77
 31
0.0
  0
POLYLINE
  5
449F
  8
250
  6
CONTINUOUS
 66
     1
 10
0.0
 20
0.0
 30
0.0
1001
ACAD
1000
DSTYLE
1002
{
1070
     6
1000
OPEN
1070
    41
1040
2.0
1070
    42
1040
2.0
1070
    44
1040
2.0
1070
    79
1070
     2
1070
   140
1040
4.0
1070
   179
1070
     3
1070
   371
1070
    -1
1070
   372
1070
    -1
1002
}
  0
VERTEX
  5
44A0
  8
250
  6
CONTINUOUS
 10
77.468544249068145
 20
18.534707988111808
 30
0.0
  0
VERTEX
  5
44A1
  8
250
  6
CONTINUOUS
 10
82.987695020008573
 20
28.094157549999998
 30
0.0
  0
SEQEND
  5
44A2
  8
250
  6
CONTINUOUS
  0
LINE
  5
44A3
  8
250
  6
CONTINUOUS
 10
77.757219383753466
 20
18.36804132160189
 30
0.0
 11
76.468544250008577
 21
16.802657180000001
 31
0.0
  0
LINE
  5
44A4
  8
250
  6
CONTINUOUS
 10
77.179869114382853
 20
18.701374654621748
 30
0.0
 11
76.468544250008577
 21
16.802657180000001
 31
0.0
  0
LINE
  5
44A5
  8
250
  6
CONTINUOUS
 10
76.468544250008577
 20
16.802657180000001
 30
0.0
 11
77.468544249068145
 21
18.534707988111808
 31
0.0
  0
TEXT
  5
44A6
  8
250
  6
CONTINUOUS
 10
91.000000000008569
 20
-3.9333333333333318
 30
0.0
 40
2.799999999999998
  1
\U+220536
 50
90.0
1001
ACAD
1000
MTEXTBEGIN
1070
    73
1070
     1
1070
    44
1040
1.0
1070
    74
1070
     0
1000
MTEXTEND
1000
MTEXTBEGIN
1070
    73
1070
     1
1070
    44
1040
1.0
1070
    74
1070
     0
1000
MTEXTEND
  0
LINE
  5
44A7
  8
250
  6
CONTINUOUS
 10
91.628333333341885
 20
15.77
 30
0.0
 11
92.000000000008583
 21
18.0
 31
0.0
  0
LINE
  5
44A8
  8
250
  6
CONTINUOUS
 10
92.371666666675239
 20
15.77
 30
0.0
 11
92.000000000008583
 21
18.0
 31
0.0
  0
LINE
  5
44A9
  8
250
  6
CONTINUOUS
 10
92.000000000008583
 20
18.0
 30
0.0
 11
92.000000000008583
 21
15.77
 31
0.0
  0
LINE
  5
44AA
  8
250
  6
CONTINUOUS
 10
92.371666666675239
 20
-15.77
 30
0.0
 11
92.000000000008583
 21
-18.0
 31
0.0
  0
LINE
  5
44AB
  8
250
  6
CONTINUOUS
 10
91.628333333341885
 20
-15.77
 30
0.0
 11
92.000000000008583
 21
-18.0
 31
0.0
  0
LINE
  5
44AC
  8
250
  6
CONTINUOUS
 10
92.000000000008583
 20
-18.0
 30
0.0
 11
92.000000000008583
 21
-15.77
 31
0.0
  0
LINE
  5
44AD
  8
243
  6
HIDDEN2
 10
31.50000000000858
 20
8.0
 30
0.0
 11
73.500000000008583
 21
8.0
 31
0.0
  0
LINE
  5
44AE
  8
245
  6
CENTER2
 10
46.000000000008583
 20
19.0
 30
0.0
 11
46.000000000008583
 21
7.0
 31
0.0
  0
LINE
  5
44AF
  8
243
  6
HIDDEN2
 10
80.000000000008569
 20
11.199999999999999
 30
0.0
 11
73.500000000008583
 21
11.199999999999999
 31
0.0
  0
LINE
  5
44B0
  8
243
  6
HIDDEN2
 10
31.50000000000858
 20
-8.0
 30
0.0
 11
73.500000000008583
 21
-8.0
 31
0.0
  0
LINE
  5
44B1
  8
243
  6
HIDDEN2
 10
73.500000000008583
 20
-11.199999999999999
 30
0.0
 11
73.500000000008583
 21
11.199999999999999
 31
0.0
  0
LINE
  5
44B2
  8
243
  6
HIDDEN2
 10
80.000000000008569
 20
-11.199999999999999
 30
0.0
 11
73.500000000008583
 21
-11.199999999999999
 31
0.0
  0
TEXT
  5
44C5
  8
241
  6
CONTINUOUS
 10
-38.0
 20
56.0
 30
0.0
 40
5.0
  1
C6-MGT6-80
  7
YOKO
 11
-38.0
 21
56.0
 31
0.0
 73
     1
  0
LINE
  5
44C6
  8
250
  6
CONTINUOUS
 10
0.0
 20
31.9925
 30
0.0
 11
0.0
 21
43.0
 31
0.0
  0
LINE
  5
44C7
  8
250
  6
CONTINUOUS
 10
80.0
 20
16.374044550757262
 30
0.0
 11
80.0
 21
43.0
 31
0.0
  0
LINE
  5
44C8
  8
250
  6
CONTINUOUS
 10
2.2299999999999991
 20
42.0
 30
0.0
 11
77.769999999999996
 21
42.0
 31
0.0
  0
LINE
  5
44C9
  8
250
  6
CONTINUOUS
 10
2.2299999999999991
 20
41.62833333333333
 30
0.0
 11
0.0
 21
42.0
 31
0.0
  0
LINE
  5
44CA
  8
250
  6
CONTINUOUS
 10
2.2299999999999991
 20
42.371666666666663
 30
0.0
 11
0.0
 21
42.0
 31
0.0
  0
LINE
  5
44CB
  8
250
  6
CONTINUOUS
 10
0.0
 20
42.0
 30
0.0
 11
2.2299999999999991
 21
42.0
 31
0.0
  0
LINE
  5
44CC
  8
250
  6
CONTINUOUS
 10
77.769999999999996
 20
42.371666666666663
 30
0.0
 11
80.0
 21
42.0
 31
0.0
  0
LINE
  5
44CD
  8
250
  6
CONTINUOUS
 10
77.769999999999996
 20
41.62833333333333
 30
0.0
 11
80.0
 21
42.0
 31
0.0
  0
LINE
  5
44CE
  8
250
  6
CONTINUOUS
 10
80.0
 20
42.0
 30
0.0
 11
77.769999999999996
 21
42.0
 31
0.0
  0
TEXT
  5
44CF
  8
250
  6
CONTINUOUS
 10
37.142857142857139
 20
43.0
 30
0.0
 40
3.0
  1
80
1001
ACAD
1000
MTEXTBEGIN
1070
    73
1070
     1
1070
    44
1040
1.0
1070
    74
1070
     0
1000
MTEXTEND
1000
MTEXTBEGIN
1070
    73
1070
     1
1070
    44
1040
1.0
1070
    74
1070
     0
1000
MTEXTEND
1000
MTEXTBEGIN
1070
    73
1070
     1
1070
    44
1040
1.0
1070
    74
1070
     0
1000
MTEXTEND
  0
VIEWPORT
  5
22
 67
     1
  8
0
 10
261.51769911504419
 20
148.5
 30
0.0
 40
523.0353982300885
 41
297.0
 68
     1
 69
     1
1001
ACAD
1000
MVIEW
1002
{
1070
    16
1010
0.0
1020
0.0
1030
0.0
1010
0.0
1020
0.0
1030
1.0
1040
0.0
1040
297.0
1040
261.51769911504419
1040
148.5
1040
50.0
1040
0.0
1040
0.0
1070
     0
1070
   100
1070
     1
1070
     1
1070
     0
1070
     0
1070
     0
1070
     0
1040
0.0
1040
0.0
1040
0.0
1040
1.0
1040
1.0
1040
10.0
1040
10.0
1070
     0
1002
{
1002
}
1002
}
1001
GENIUS_GENODEF_13
1002
{
1000
HIER
1070
     0
1002
}
1002
{
1000
MANEDIT
1070
     0
1002
}
1002
{
1000
NOSEL
1070
     0
1002
}
1002
{
1000
BEHIND
1070
     0
1002
}
1002
{
1000
OTHER
1070
     0
1002
}
1002
{
1000
REACTOR
1002
}
1001
GENIUS_GENOBJ-N-SDF_13
1002
{
1000
OWNER
1000
GEN
1002
}
1001
GENIUS_GENSCREG_15
1000
PF
1040
1.0
1000
DF
1040
1.0
1000
MIN
1011
0.0
1021
0.0
1031
0.0
1021
0.0
1031
0.0
1000
MAX
1011
523.0353982300885
1021
0.0
1031
0.0
1021
297.0
1031
0.0
1000
FLAGS
1070
     4
  0
ENDSEC
  0
EOF
