  0
SECTION
  2
HEADER
  9
$ACADVER
  1
AC1009
  9
$INSBASE
 10
0.0
 20
0.0
 30
0.0
  9
$EXTMIN
 10
-38.99999999999995
 20
-31.5
 30
0.0
  9
$EXTMAX
 10
109.0
 20
68.000000000000071
 30
0.0
  9
$LIMMIN
 10
0.0
 20
0.0
  9
$LIMMAX
 10
297.0
 20
210.0
  9
$ORTHOMODE
 70
     0
  9
$REGENMODE
 70
     1
  9
$FILLMODE
 70
     1
  9
$QTEXTMODE
 70
     0
  9
$MIRRTEXT
 70
     1
  9
$DRAGMODE
 70
     2
  9
$LTSCALE
 40
10.0
  9
$OSMODE
 70
    32
  9
$ATTMODE
 70
     1
  9
$TEXTSIZE
 40
3.0
  9
$TRACEWID
 40
1.0
  9
$TEXTSTYLE
  7
YOKO
  9
$CLAYER
  8
240
  9
$CELTYPE
  6
BYLAYER
  9
$CECOLOR
 62
   256
  9
$DIMSCALE
 40
1.0
  9
$DIMASZ
 40
2.2299999999999991
  9
$DIMEXO
 40
0.5
  9
$DIMDLI
 40
7.0
  9
$DIMRND
 40
0.0
  9
$DIMDLE
 40
0.0
  9
$DIMEXE
 40
1.0
  9
$DIMTP
 40
0.0
  9
$DIMTM
 40
0.01
  9
$DIMTXT
 40
2.7999999999999989
  9
$DIMCEN
 40
0.0
  9
$DIMTSZ
 40
0.0
  9
$DIMTOL
 70
     0
  9
$DIMLIM
 70
     0
  9
$DIMTIH
 70
     0
  9
$DIMTOH
 70
     0
  9
$DIMSE1
 70
     0
  9
$DIMSE2
 70
     0
  9
$DIMTAD
 70
     3
  9
$DIMZIN
 70
     9
  9
$DIMBLK
  1
OPEN
  9
$DIMASO
 70
     1
  9
$DIMSHO
 70
     1
  9
$DIMPOST
  1

  9
$DIMAPOST
  1

  9
$DIMALT
 70
     0
  9
$DIMALTD
 70
     2
  9
$DIMALTF
 40
25.399999999999999
  9
$DIMLFAC
 40
1.0
  9
$DIMTOFL
 70
     1
  9
$DIMTVP
 40
0.0
  9
$DIMTIX
 70
     1
  9
$DIMSOXD
 70
     0
  9
$DIMSAH
 70
     0
  9
$DIMBLK1
  1

  9
$DIMBLK2
  1

  9
$DIMSTYLE
  2
BIGT
  9
$DIMCLRD
 70
   256
  9
$DIMCLRE
 70
   256
  9
$DIMCLRT
 70
    40
  9
$DIMTFAC
 40
1.0
  9
$DIMGAP
 40
1.0
  9
$LUNITS
 70
     2
  9
$LUPREC
 70
     6
  9
$SKETCHINC
 40
1.0
  9
$FILLETRAD
 40
0.0
  9
$AUNITS
 70
     0
  9
$AUPREC
 70
     6
  9
$MENU
  1
.
  9
$ELEVATION
 40
0.0
  9
$PELEVATION
 40
0.0
  9
$THICKNESS
 40
0.0
  9
$LIMCHECK
 70
     0
  9
$BLIPMODE
 70
     0
  9
$CHAMFERA
 40
0.2
  9
$CHAMFERB
 40
0.2
  9
$SKPOLY
 70
     0
  9
$TDCREATE
 40
2457501.6231110878
  9
$TDUPDATE
 40
2457504.7059276858
  9
$TDINDWG
 40
0.0830443981
  9
$TDUSRTIMER
 40
0.0830443056
  9
$USRTIMER
 70
     1
  9
$ANGBASE
 50
0.0
  9
$ANGDIR
 70
     0
  9
$PDMODE
 70
     1
  9
$PDSIZE
 40
0.0
  9
$PLINEWID
 40
0.0
  9
$COORDS
 70
     1
  9
$SPLFRAME
 70
     0
  9
$SPLINETYPE
 70
     6
  9
$SPLINESEGS
 70
     4
  9
$ATTDIA
 70
     1
  9
$ATTREQ
 70
     1
  9
$HANDLING
 70
     1
  9
$HANDSEED
  5
44ED
  9
$SURFTAB1
 70
     6
  9
$SURFTAB2
 70
     6
  9
$SURFTYPE
 70
     6
  9
$SURFU
 70
     6
  9
$SURFV
 70
     6
  9
$UCSNAME
  2

  9
$UCSORG
 10
0.0
 20
0.0
 30
0.0
  9
$UCSXDIR
 10
1.0
 20
0.0
 30
0.0
  9
$UCSYDIR
 10
0.0
 20
1.0
 30
0.0
  9
$PUCSNAME
  2

  9
$PUCSORG
 10
0.0
 20
0.0
 30
0.0
  9
$PUCSXDIR
 10
1.0
 20
0.0
 30
0.0
  9
$PUCSYDIR
 10
0.0
 20
1.0
 30
0.0
  9
$USERI1
 70
     1
  9
$USERI2
 70
     0
  9
$USERI3
 70
     0
  9
$USERI4
 70
     0
  9
$USERI5
 70
     0
  9
$USERR1
 40
0.0
  9
$USERR2
 40
0.0
  9
$USERR3
 40
0.0
  9
$USERR4
 40
0.0
  9
$USERR5
 40
0.0
  9
$WORLDVIEW
 70
     1
  9
$SHADEDGE
 70
     3
  9
$SHADEDIF
 70
    70
  9
$TILEMODE
 70
     1
  9
$MAXACTVP
 70
    16
  9
$PLIMCHECK
 70
     0
  9
$PEXTMIN
 10
1.0000000000000000E+020
 20
1.0000000000000000E+020
 30
1.0000000000000000E+020
  9
$PEXTMAX
 10
-1.0000000000000000E+020
 20
-1.0000000000000000E+020
 30
-1.0000000000000000E+020
  9
$PLIMMIN
 10
0.0
 20
0.0
  9
$PLIMMAX
 10
420.0
 20
297.0
  9
$UNITMODE
 70
     0
  9
$VISRETAIN
 70
     1
  9
$PLINEGEN
 70
     0
  9
$PSLTSCALE
 70
     1
  0
ENDSEC
  0
SECTION
  2
TABLES
  0
TABLE
  2
VPORT
 70
     1
  0
VPORT
  2
*ACTIVE
 70
     0
 10
0.0
 20
0.0
 11
1.0
 21
1.0
 12
37.658508436636573
 22
25.79592848263546
 13
0.0
 23
0.0
 14
7.0
 24
7.0
 15
7.0
 25
7.0
 16
0.0
 26
0.0
 36
1.0
 17
0.0
 27
0.0
 37
0.0
 40
170.3797058660011
 41
1.3121801432958029
 42
50.0
 43
0.0
 44
0.0
 50
0.0
 51
0.0
 71
     0
 72
  2000
 73
     1
 74
     0
 75
     0
 76
     1
 77
     0
 78
     0
  0
ENDTAB
  0
TABLE
  2
LTYPE
 70
    16
  0
LTYPE
  2
CONTINUOUS
 70
     0
  3
Solid line
 72
    65
 73
     0
 40
0.0
  0
LTYPE
  2
CENTER2
 70
     0
  3
___ _ ___ _ ___ _ ___ _ ___ _ ___ _ ___ _ ___ _
 72
    65
 73
     4
 40
1.125
 49
0.75
 49
-0.125
 49
0.125
 49
-0.125
  0
LTYPE
  2
HIDDEN2
 70
     0
  3
_ _ _ _ _ _ _ _ _ _ _ _ _ _ _ _ _ _ _ _ _ _ _ _
 72
    65
 73
     2
 40
0.1875
 49
0.125
 49
-0.0625
  0
LTYPE
  2
PHANTOM2
 70
     0
  3
___ _ _ ___ _ _ ___ _ _ ___ _ _ ___ _ _ ___ _ _
 72
    65
 73
     6
 40
1.25
 49
0.625
 49
-0.125
 49
0.125
 49
-0.125
 49
0.125
 49
-0.125
  0
LTYPE
  2
AM_ISO02W050
 70
     0
  3
__ __ __ __ __ __ __ __ __ __ __ __ __ __ __
 72
    65
 73
     2
 40
7.5
 49
6.0
 49
-1.5
  0
LTYPE
  2
AMCONSTR
 70
     0
  3
_______________________
 72
    65
 73
     2
 40
9999.0
 49
9999.0
 49
0.0
  0
LTYPE
  2
ACISOWELD
 70
     0
  3
_ _ _ _ _
 72
    65
 73
     2
 40
2.0
 49
2.0
 49
-1.0
  0
LTYPE
  2
ACISOTGB
 70
     0
  3
__ . . __ . .
 72
    65
 73
     6
 40
9.0
 49
4.0
 49
-1.0
 49
1.0
 49
-1.0
 49
1.0
 49
-1.0
  0
LTYPE
  2
ACISOTGL
 70
     0
  3
_ _ _ _ _
 72
    65
 73
     2
 40
3.0
 49
2.0
 49
-1.0
  0
LTYPE
  2
ACJISTGB
 70
     0
  3
__ . . __ . .
 72
    65
 73
     6
 40
9.0
 49
4.0
 49
-1.0
 49
1.0
 49
-1.0
 49
1.0
 49
-1.0
  0
LTYPE
  2
ACJISTGL
 70
     0
  3
_ _ _ _ _
 72
    65
 73
     2
 40
3.0
 49
2.0
 49
-1.0
  0
ENDTAB
  0
TABLE
  2
LAYER
 70
     8
  0
LAYER
  2
0
 70
     0
 62
     7
  6
CONTINUOUS
  0
LAYER
  2
DEFPOINTS
 70
     0
 62
     7
  6
CONTINUOUS
  0
LAYER
  2
245
 70
     0
 62
     2
  6
CENTER2
  0
LAYER
  2
240
 70
     0
 62
     4
  6
CONTINUOUS
  0
LAYER
  2
241
 70
     0
 62
   211
  6
CONTINUOUS
  0
LAYER
  2
243
 70
     0
 62
   211
  6
HIDDEN2
  0
LAYER
  2
247
 70
     0
 62
    60
  6
CONTINUOUS
  0
LAYER
  2
250
 70
     0
 62
     3
  6
CONTINUOUS
  0
ENDTAB
  0
TABLE
  2
STYLE
 70
     7
  0
STYLE
  2
STANDARD
 70
     0
 40
0.0
 41
1.0
 50
0.0
 71
     0
 42
3.0
  3
romans.shx
  4
extfont.shx
  0
STYLE
  2
ACISOTS
 70
     0
 40
1.0
 41
1.0
 50
0.0
 71
     0
 42
3.0
  3
amgdt.shx
  4
extfont.shx
  0
STYLE
  2
ACISOGDT
 70
     0
 40
0.0
 41
1.0
 50
0.0
 71
     0
 42
3.0
  3
amgdt.shx
  4
extfont.shx
  0
STYLE
  2
ACJISTS
 70
     0
 40
1.0
 41
1.0
 50
0.0
 71
     0
 42
3.0
  3
amgdt.shx
  4
extfont.shx
  0
STYLE
  2
ACJISGDT
 70
     0
 40
0.0
 41
1.0
 50
0.0
 71
     0
 42
3.0
  3
amgdt.shx
  4
extfont.shx
  0
STYLE
  2
YOKO
 70
     0
 40
0.0
 41
1.0
 50
0.0
 71
     0
 42
3.0
  3
romans.shx
  4
extfont.shx
  0
ENDTAB
  0
TABLE
  2
VIEW
 70
     0
  0
ENDTAB
  0
TABLE
  2
UCS
 70
     0
  0
ENDTAB
  0
TABLE
  2
APPID
 70
    37
  0
APPID
  2
ACAD
 70
     0
  0
APPID
  2
GLOBAL
 70
     0
  0
APPID
  2
DETAIL
 70
     0
  0
APPID
  2
GRPNAME
 70
     0
  0
APPID
  2
GPARA
 70
     0
  0
APPID
  2
MCAD_NO_VIS
 70
     0
  0
APPID
  2
ACAD_TEMP_GRAPHIC
 70
     0
  0
APPID
  2
ACATTRIBSERVICES
 70
     0
  0
APPID
  2
GENIUS_GENSCREG_15
 70
     0
  0
APPID
  2
GENIUS_GENODEF_13
 70
     0
  0
APPID
  2
GENIUS_GENOBJ-N-SDF_13
 70
     0
  0
APPID
  2
GENIUS_GENREC_14
 70
     0
  0
APPID
  2
GENIUS_GENOBJ-N-REC_13
 70
     0
  0
APPID
  2
GENIUS_GENDIMSH_14
 70
     0
  0
APPID
  2
GENIUS_GENOBJ-N-DIM_13
 70
     0
  0
APPID
  2
GENIUS_GENDIM_13
 70
     0
  0
APPID
  2
GENIUS_GENDTOL_13
 70
     0
  0
APPID
  2
GENIUS_GENOLIS_13
 70
     0
  0
APPID
  2
GENIUS_GENOENT_13
 70
     0
  0
APPID
  2
GENIUS_GENOBJ-F-FEM_13
 70
     0
  0
APPID
  2
GENIUS_GENOREF_13
 70
     0
  0
APPID
  2
GENIUS_GEFFEM_13
 70
     0
  0
APPID
  2
GENIUS_GEFFEMP_13
 70
     0
  0
APPID
  2
AD_DRAW
 70
     0
  0
APPID
  2
DESIGNERASSEMBLIES
 70
     0
  0
APPID
  2
ACADM_DIM_EDIT
 70
     0
  0
APPID
  2
AMDT_DM_ADJ
 70
     0
  0
APPID
  2
ITEMNAME
 70
     0
  0
APPID
  2
GENIUS_GENOBJ-N-FIL_13
 70
     0
  0
APPID
  2
GENIUS_GENFIL_13
 70
     0
  0
APPID
  2
GENIUS_GENOBJ-N-CHA_13
 70
     0
  0
APPID
  2
ACAD_NAV_VCDISPLAY
 70
     0
  0
APPID
  2
ACAD_EXEMPT_FROM_CAD_STANDARDS
 70
     0
  0
APPID
  2
ACAD_DSTYLE_DIMJAG
 70
     0
  0
APPID
  2
ACAD_DSTYLE_DIMBREAK
 70
     0
  0
APPID
  2
ACAECLAYERSTANDARD
 70
     0
  0
APPID
  2
ACAD_MLEADERVER
 70
     0
  0
ENDTAB
  0
TABLE
  2
DIMSTYLE
 70
    29
  0
DIMSTYLE
  2
BIGT
 70
     0
  3

  4

  5
OPEN
  6

  7

 40
1.0
 41
2.2299999999999991
 42
0.5
 43
7.0
 44
1.0
 45
0.0
 46
0.0
 47
0.0
 48
0.01
140
2.7999999999999989
141
0.0
142
0.0
143
25.399999999999999
144
1.0
145
0.0
146
1.0
147
1.0
 71
     0
 72
     0
 73
     0
 74
     0
 75
     0
 76
     0
 77
     3
 78
     9
170
     0
171
     2
172
     1
173
     0
174
     1
175
     0
176
   256
177
   256
178
    40
  0
DIMSTYLE
  2
AM_ISO
 70
     0
  3

  4
"
  5

  6

  7

 40
1.0
 41
2.5
 42
1.0
 43
10.0
 44
1.0
 45
0.0
 46
0.0
 47
0.1
 48
0.1
140
3.5
141
0.0
142
0.0
143
0.0393701
144
1.0
145
0.0
146
0.71
147
1.5
 71
     0
 72
     0
 73
     0
 74
     0
 75
     0
 76
     0
 77
     1
 78
     8
170
     0
171
     2
172
     1
173
     0
174
     0
175
     0
176
   256
177
   256
178
     2
  0
DIMSTYLE
  2
AM_ISO$3
 70
     0
  3

  4
"
  5

  6

  7

 40
1.0
 41
2.5
 42
1.0
 43
10.0
 44
1.0
 45
0.0
 46
0.0
 47
0.1
 48
0.1
140
3.5
141
0.0
142
0.0
143
0.0393701
144
1.0
145
0.0
146
0.71
147
1.5
 71
     0
 72
     0
 73
     0
 74
     1
 75
     0
 76
     0
 77
     1
 78
     8
170
     0
171
     2
172
     0
173
     0
174
     0
175
     0
176
   256
177
   256
178
     2
  0
DIMSTYLE
  2
AM_ISO$4
 70
     0
  3

  4
"
  5

  6

  7

 40
1.0
 41
2.5
 42
1.0
 43
10.0
 44
1.0
 45
0.0
 46
0.0
 47
0.1
 48
0.1
140
3.5
141
0.0
142
0.0
143
0.0393701
144
1.0
145
0.0
146
0.71
147
1.5
 71
     0
 72
     0
 73
     0
 74
     1
 75
     0
 76
     0
 77
     1
 78
     8
170
     0
171
     2
172
     0
173
     0
174
     0
175
     0
176
   256
177
   256
178
     2
  0
DIMSTYLE
  2
AM_ISO$6
 70
     0
  3

  4
"
  5

  6

  7

 40
1.0
 41
2.5
 42
1.0
 43
10.0
 44
1.0
 45
0.0
 46
0.0
 47
0.1
 48
0.1
140
3.5
141
0.0
142
0.0
143
0.0393701
144
1.0
145
0.0
146
0.71
147
1.5
 71
     0
 72
     0
 73
     0
 74
     0
 75
     0
 76
     0
 77
     0
 78
     8
170
     0
171
     2
172
     1
173
     0
174
     0
175
     0
176
   256
177
   256
178
     2
  0
DIMSTYLE
  2
AM_ISO$7
 70
     0
  3

  4
"
  5

  6

  7

 40
1.0
 41
2.5
 42
1.0
 43
10.0
 44
1.0
 45
0.0
 46
0.0
 47
0.1
 48
0.1
140
5.0
141
0.0
142
0.0
143
0.0393701
144
1.0
145
0.0
146
0.71
147
1.5
 71
     0
 72
     0
 73
     0
 74
     0
 75
     0
 76
     0
 77
     1
 78
     8
170
     0
171
     2
172
     1
173
     0
174
     0
175
     0
176
   256
177
   256
178
     2
  0
DIMSTYLE
  2
AM_ISO$SF
 70
     0
  3

  4
"
  5

  6

  7

 40
1.0
 41
2.5
 42
1.0
 43
10.0
 44
1.0
 45
0.0
 46
0.0
 47
0.1
 48
0.1
140
3.5
141
0.0
142
0.0
143
0.0393701
144
1.0
145
0.0
146
0.71
147
1.5
 71
     0
 72
     0
 73
     0
 74
     0
 75
     1
 76
     1
 77
     1
 78
     8
170
     0
171
     2
172
     1
173
     0
174
     0
175
     0
176
   256
177
   256
178
     2
  0
DIMSTYLE
  2
AM_ISO$SH
 70
     0
  3

  4
"
  5

  6
GENAXEH
  7

 40
1.0
 41
2.5
 42
1.0
 43
10.0
 44
1.0
 45
0.0
 46
0.0
 47
0.1
 48
0.1
140
3.5
141
0.0
142
0.0
143
0.0393701
144
2.0
145
0.0
146
0.71
147
1.5
 71
     0
 72
     0
 73
     0
 74
     0
 75
     1
 76
     1
 77
     1
 78
     8
170
     0
171
     2
172
     1
173
     1
174
     0
175
     0
176
   256
177
   256
178
     2
  0
DIMSTYLE
  2
BIGT$2
 70
     0
  3

  4

  5
OPEN
  6

  7

 40
1.0
 41
2.2299999999999991
 42
0.5
 43
7.0
 44
1.0
 45
0.0
 46
0.0
 47
0.0
 48
0.01
140
2.7999999999999989
141
0.0
142
0.0
143
25.399999999999999
144
1.0
145
0.0
146
1.0
147
1.0
 71
     0
 72
     0
 73
     0
 74
     0
 75
     0
 76
     0
 77
     3
 78
     9
170
     0
171
     2
172
     1
173
     0
174
     0
175
     0
176
   256
177
   256
178
    40
  0
DIMSTYLE
  2
BIGT$3
 70
     0
  3

  4

  5
OPEN
  6

  7

 40
1.0
 41
2.2299999999999991
 42
0.5
 43
2.5
 44
1.0
 45
0.0
 46
0.0
 47
0.0
 48
0.01
140
2.7999999999999989
141
0.0
142
0.0
143
25.399999999999999
144
1.0
145
0.0
146
1.0
147
1.0
 71
     0
 72
     0
 73
     0
 74
     0
 75
     0
 76
     0
 77
     3
 78
     9
170
     0
171
     2
172
     1
173
     0
174
     0
175
     0
176
   256
177
   256
178
    40
  0
DIMSTYLE
  2
BIGT$7
 70
     0
  3

  4

  5
OPEN
  6

  7

 40
0.0
 41
2.2299999999999991
 42
0.5
 43
7.0
 44
1.0
 45
0.0
 46
0.0
 47
0.0
 48
0.01
140
2.7999999999999989
141
0.0
142
0.0
143
25.399999999999999
144
1.0
145
0.0
146
1.0
147
1.0
 71
     0
 72
     0
 73
     0
 74
     0
 75
     0
 76
     0
 77
     3
 78
     9
170
     0
171
     2
172
     0
173
     0
174
     0
175
     0
176
   256
177
   256
178
    40
  0
DIMSTYLE
  2
BIGT$6
 70
     0
  3

  4

  5
OPEN
  6

  7

 40
1.0
 41
2.2299999999999991
 42
0.5
 43
2.5
 44
1.0
 45
0.0
 46
0.0
 47
0.0
 48
0.01
140
2.7999999999999989
141
0.0
142
0.0
143
25.399999999999999
144
1.0
145
0.0
146
1.0
147
1.0
 71
     0
 72
     0
 73
     0
 74
     0
 75
     0
 76
     0
 77
     3
 78
     9
170
     0
171
     2
172
     1
173
     0
174
     0
175
     0
176
   256
177
   256
178
    40
  0
DIMSTYLE
  2
BIGT$0
 70
     0
  3

  4

  5
OPEN
  6

  7

 40
1.0
 41
2.2299999999999991
 42
0.5
 43
7.0
 44
1.0
 45
0.0
 46
0.0
 47
0.0
 48
0.01
140
2.7999999999999989
141
0.0
142
0.0
143
25.399999999999999
144
1.0
145
0.0
146
1.0
147
1.0
 71
     0
 72
     0
 73
     0
 74
     0
 75
     0
 76
     0
 77
     3
 78
     9
170
     0
171
     2
172
     1
173
     0
174
     1
175
     0
176
   256
177
   256
178
    40
  0
DIMSTYLE
  2
BIGT$4
 70
     0
  3

  4

  5
OPEN
  6

  7

 40
1.0
 41
2.2299999999999991
 42
0.5
 43
2.5
 44
1.0
 45
0.0
 46
0.0
 47
0.0
 48
0.01
140
2.7999999999999989
141
0.0
142
0.0
143
25.399999999999999
144
1.0
145
0.0
146
1.0
147
1.0
 71
     0
 72
     0
 73
     0
 74
     0
 75
     0
 76
     0
 77
     3
 78
     9
170
     0
171
     2
172
     1
173
     0
174
     0
175
     0
176
   256
177
   256
178
    40
  0
DIMSTYLE
  2
BIGT$SH
 70
     0
  3

  4

  5
OPEN
  6

  7

 40
1.0
 41
2.2299999999999991
 42
0.5
 43
7.0
 44
1.0
 45
0.0
 46
0.0
 47
0.0
 48
0.0
140
2.7999999999999989
141
0.0
142
0.0
143
25.399999999999999
144
1.0
145
0.0
146
1.0
147
1.0
 71
     0
 72
     0
 73
     0
 74
     0
 75
     0
 76
     0
 77
     3
 78
     9
170
     0
171
     2
172
     1
173
     0
174
     0
175
     0
176
   256
177
   256
178
    40
  0
DIMSTYLE
  2
BIGT$SF
 70
     0
  3

  4

  5
OPEN
  6

  7

 40
1.0
 41
2.2299999999999991
 42
0.5
 43
7.0
 44
1.0
 45
0.0
 46
0.0
 47
0.0
 48
0.0
140
2.7999999999999989
141
0.0
142
0.0
143
25.399999999999999
144
1.0
145
0.0
146
1.0
147
1.0
 71
     0
 72
     0
 73
     0
 74
     0
 75
     0
 76
     0
 77
     3
 78
     9
170
     0
171
     2
172
     1
173
     0
174
     0
175
     0
176
   256
177
   256
178
    40
  0
DIMSTYLE
  2
TECHNICAL_OSAKA
 70
     0
  3

  4
"
  5
OPEN30
  6

  7

 40
1.0
 41
2.5
 42
1.0
 43
10.0
 44
1.0
 45
0.0
 46
0.0
 47
0.1
 48
0.1
140
2.7999999999999989
141
0.0
142
0.0
143
0.0393701
144
1.0
145
0.0
146
0.71
147
1.5
 71
     0
 72
     0
 73
     0
 74
     0
 75
     0
 76
     0
 77
     3
 78
     8
170
     0
171
     2
172
     1
173
     0
174
     0
175
     0
176
   256
177
   256
178
    40
  0
DIMSTYLE
  2
TECHNICAL_OSAKA$3
 70
     0
  3

  4
"
  5
OPEN30
  6

  7

 40
1.0
 41
2.5
 42
1.0
 43
10.0
 44
1.0
 45
0.0
 46
0.0
 47
0.1
 48
0.1
140
2.7999999999999989
141
0.0
142
0.0
143
0.0393701
144
1.0
145
0.0
146
0.71
147
1.5
 71
     0
 72
     0
 73
     0
 74
     1
 75
     0
 76
     0
 77
     3
 78
     8
170
     0
171
     2
172
     0
173
     0
174
     0
175
     0
176
   256
177
   256
178
    40
  0
DIMSTYLE
  2
TECHNICAL_OSAKA$4
 70
     0
  3

  4
"
  5
OPEN30
  6

  7

 40
1.0
 41
2.5
 42
1.0
 43
10.0
 44
1.0
 45
0.0
 46
0.0
 47
0.1
 48
0.1
140
2.7999999999999989
141
0.0
142
0.0
143
0.0393701
144
1.0
145
0.0
146
0.71
147
1.5
 71
     0
 72
     0
 73
     0
 74
     1
 75
     0
 76
     0
 77
     3
 78
     8
170
     0
171
     2
172
     0
173
     0
174
     0
175
     0
176
   256
177
   256
178
    40
  0
DIMSTYLE
  2
TECHNICAL_OSAKA$6
 70
     0
  3

  4
"
  5
OPEN30
  6

  7

 40
1.0
 41
2.5
 42
1.0
 43
10.0
 44
1.0
 45
0.0
 46
0.0
 47
0.1
 48
0.1
140
2.7999999999999989
141
0.0
142
0.0
143
0.0393701
144
1.0
145
0.0
146
0.71
147
1.5
 71
     0
 72
     0
 73
     0
 74
     0
 75
     0
 76
     0
 77
     0
 78
     8
170
     0
171
     2
172
     1
173
     0
174
     0
175
     0
176
   256
177
   256
178
    40
  0
DIMSTYLE
  2
TECHNICAL_OSAKA$7
 70
     0
  3

  4
"
  5
OPEN30
  6

  7

 40
1.0
 41
2.5
 42
1.0
 43
10.0
 44
1.0
 45
0.0
 46
0.0
 47
0.1
 48
0.1
140
2.7999999999999989
141
0.0
142
0.0
143
0.0393701
144
1.0
145
0.0
146
0.71
147
1.5
 71
     0
 72
     0
 73
     0
 74
     0
 75
     0
 76
     0
 77
     3
 78
     8
170
     0
171
     2
172
     1
173
     0
174
     0
175
     0
176
   256
177
   256
178
    40
  0
DIMSTYLE
  2
TECHNICAL_OSAKA$SF
 70
     0
  3

  4
"
  5
OPEN30
  6
OPEN30
  7
OPEN30
 40
1.0
 41
2.5
 42
1.0
 43
10.0
 44
1.0
 45
0.0
 46
0.0
 47
0.1
 48
0.1
140
3.5
141
0.0
142
0.0
143
0.0393701
144
1.0
145
0.0
146
0.71
147
1.5
 71
     0
 72
     0
 73
     0
 74
     0
 75
     1
 76
     1
 77
     3
 78
     8
170
     0
171
     2
172
     1
173
     0
174
     0
175
     0
176
   256
177
   256
178
    40
  0
DIMSTYLE
  2
TECHNICAL_OSAKA$SH
 70
     0
  3

  4
"
  5
OPEN30
  6
GENAXEH
  7
OPEN30
 40
1.0
 41
2.5
 42
1.0
 43
10.0
 44
1.0
 45
0.0
 46
0.0
 47
0.1
 48
0.1
140
3.5
141
0.0
142
0.0
143
0.0393701
144
2.0
145
0.0
146
0.71
147
1.5
 71
     0
 72
     0
 73
     0
 74
     0
 75
     1
 76
     1
 77
     3
 78
     8
170
     0
171
     2
172
     1
173
     1
174
     0
175
     0
176
   256
177
   256
178
    40
  0
ENDTAB
  0
ENDSEC
  0
SECTION
  2
BLOCKS
  0
BLOCK
  8
0
  2
$MODEL_SPACE
 70
     0
 10
0.0
 20
0.0
 30
0.0
  3
$MODEL_SPACE
  1

  0
ENDBLK
  5
1C
  8
0
  0
BLOCK
 67
     1
  8
0
  2
$PAPER_SPACE
 70
     0
 10
0.0
 20
0.0
 30
0.0
  3
$PAPER_SPACE
  1

  0
ENDBLK
  5
19
 67
     1
  8
0
  0
BLOCK
  8
0
  2
_OPEN
 70
     0
 10
0.0
 20
0.0
 30
0.0
  3
_OPEN
  1

  0
LINE
  5
43F4
  8
0
  6
BYBLOCK
 62
     0
 10
-1.0
 20
0.1666666666666666
 30
0.0
 11
0.0
 21
0.0
 31
0.0
  0
LINE
  5
43F5
  8
0
  6
BYBLOCK
 62
     0
 10
-1.0
 20
-0.1666666666666666
 30
0.0
 11
0.0
 21
0.0
 31
0.0
  0
LINE
  5
43F6
  8
0
  6
BYBLOCK
 62
     0
 10
0.0
 20
0.0
 30
0.0
 11
-1.0
 21
0.0
 31
0.0
  0
ENDBLK
  5
43F7
  8
0
  0
BLOCK
  8
0
  2
GENAXEH
 70
     0
 10
0.0
 20
0.0
 30
0.0
  3
GENAXEH
  1

  0
LINE
  5
442F
  8
0
 10
-1.0
 20
0.0
 30
0.0
 11
1.0
 21
0.0
 31
0.0
  0
ENDBLK
  5
4430
  8
0
  0
BLOCK
  8
0
  2
_OPEN30
 70
     0
 10
0.0
 20
0.0
 30
0.0
  3
_OPEN30
  1

  0
LINE
  5
446B
  8
0
  6
BYBLOCK
 62
     0
 10
-1.0
 20
0.26794919
 30
0.0
 11
0.0
 21
0.0
 31
0.0
  0
LINE
  5
446C
  8
0
  6
BYBLOCK
 62
     0
 10
0.0
 20
0.0
 30
0.0
 11
-1.0
 21
-0.26794919
 31
0.0
  0
LINE
  5
446D
  8
0
  6
BYBLOCK
 62
     0
 10
0.0
 20
0.0
 30
0.0
 11
-1.0
 21
0.0
 31
0.0
  0
ENDBLK
  5
446E
  8
0
  0
BLOCK
  8
0
  2
*U4
 70
     1
 10
0.0
 20
0.0
 30
0.0
  3
*U4
  1

  0
TEXT
  5
4283
  8
250
 10
17.0
 20
-4.0380952380952362
 30
0.0
 40
3.0
  1
\U+2205
 50
90.0
  0
TEXT
  5
4284
  8
250
 10
16.899999999999999
 20
-1.3238095238095211
 30
0.0
 40
2.799999999999998
  1
10
 50
90.0
  0
ENDBLK
  5
4285
  8
0
  0
BLOCK
  8
0
  2
*U5
 70
     1
 10
0.0
 20
0.0
 30
0.0
  3
*U5
  1

  0
TEXT
  5
4288
  8
250
 10
10.0
 20
-12.299999999999979
 30
0.0
 40
3.0
  1
max.\U+03C63.25
 50
90.0
  0
ENDBLK
  5
4289
  8
0
  0
ENDSEC
  0
SECTION
  2
ENTITIES
  0
LINE
  5
422C
  8
240
  6
CONTINUOUS
 10
-37.999999999999972
 20
-19.7249230954402
 30
0.0
 11
-37.999999999999972
 21
22.524923095440219
 31
0.0
1001
GRPNAME
1000
PASTMD30
  0
LINE
  5
422D
  8
240
  6
CONTINUOUS
 10
-37.999999999999972
 20
-19.7249230954402
 30
0.0
 11
0.0
 21
-20.6750065918194
 31
0.0
1001
GRPNAME
1000
PASTMD30
  0
LINE
  5
422E
  8
243
  6
HIDDEN2
 10
-37.999999999999972
 20
-18.0
 30
0.0
 11
-31.80000000000004
 21
-18.0
 31
0.0
1001
GRPNAME
1000
PASTMD30
  0
LINE
  5
422F
  8
243
  6
HIDDEN2
 10
-29.871855430570321
 20
-19.928144569429652
 30
0.0
 11
-31.79999999999993
 21
-18.0
 31
0.0
1001
GRPNAME
1000
PASTMD30
  0
LINE
  5
4230
  8
243
  6
HIDDEN2
 10
-31.80000000000004
 20
-19.879936718533649
 30
0.0
 11
-31.80000000000004
 21
-18.0
 31
0.0
1001
GRPNAME
1000
PASTMD30
  0
LINE
  5
4231
  8
240
  6
CONTINUOUS
 10
0.0
 20
-31.5
 30
0.0
 11
0.0
 21
-20.6750065918194
 31
0.0
1001
GRPNAME
1000
PASTMD30
  0
LINE
  5
4232
  8
240
  6
CONTINUOUS
 10
-37.999999999999972
 20
22.524923095440219
 30
0.0
 11
0.0
 21
23.475006591819412
 31
0.0
1001
GRPNAME
1000
PASTMD30
  0
LINE
  5
4233
  8
240
  6
CONTINUOUS
 10
0.0
 20
31.5
 30
0.0
 11
0.0
 21
23.475006591819412
 31
0.0
1001
GRPNAME
1000
PASTMD30
  0
LINE
  5
4234
  8
240
  6
CONTINUOUS
 10
22.000000000000242
 20
-31.5
 30
0.0
 11
22.00000000000033
 21
-12.999999999999959
 31
0.0
  0
LINE
  5
4235
  8
240
  6
CONTINUOUS
 10
0.0
 20
31.5
 30
0.0
 11
22.000000000000242
 21
31.5
 31
0.0
  0
LINE
  5
4236
  8
240
  6
CONTINUOUS
 10
0.0
 20
-31.5
 30
0.0
 11
22.000000000000242
 21
-31.5
 31
0.0
  0
LINE
  5
4237
  8
241
  6
CONTINUOUS
 10
9.9499999999999869
 20
8.9923414211634736
 30
0.0
 11
9.9499999999999869
 21
30.18137425657125
 31
0.0
1001
GRPNAME
1000
PASTMD30
  0
LINE
  5
4238
  8
241
  6
CONTINUOUS
 10
9.9499999999999869
 20
30.18137425657125
 30
0.0
 11
14.05000000000001
 21
30.18137425657125
 31
0.0
1001
GRPNAME
1000
PASTMD30
  0
LINE
  5
4239
  8
241
  6
CONTINUOUS
 10
14.05000000000055
 20
8.9923414211634736
 30
0.0
 11
14.05000000000001
 21
30.18137425657125
 31
0.0
1001
GRPNAME
1000
PASTMD30
  0
LINE
  5
423A
  8
241
  6
CONTINUOUS
 10
9.9499999999999869
 20
8.9923414211634736
 30
0.0
 11
14.05000000000055
 21
8.9923414211634736
 31
0.0
1001
GRPNAME
1000
PASTMD30
  0
LINE
  5
423B
  8
241
  6
CONTINUOUS
 10
0.0
 20
-20.675006591819429
 30
0.0
 11
0.0
 21
23.47500659181938
 31
0.0
  0
LINE
  5
423C
  8
250
  6
CONTINUOUS
 10
-18.76198996755296
 20
-21.987243911098801
 30
0.0
 11
-17.325117192479748
 21
-20.24184059399283
 31
0.0
  0
LINE
  5
423D
  8
250
  6
CONTINUOUS
 10
-18.11824441740653
 20
-22.358910577765482
 30
0.0
 11
-17.325117192479748
 21
-20.24184059399283
 31
0.0
  0
LINE
  5
423E
  8
250
  6
CONTINUOUS
 10
-17.325117192479748
 20
-20.24184059399283
 30
0.0
 11
-18.44011719247975
 21
-22.17307724443214
 31
0.0
  0
POLYLINE
  5
423F
  8
250
  6
CONTINUOUS
 66
     1
 10
0.0
 20
0.0
 30
0.0
  0
VERTEX
  5
4240
  8
250
  6
CONTINUOUS
 10
-18.44011719247975
 20
-22.17307724443214
 30
0.0
  0
VERTEX
  5
4241
  8
250
  6
CONTINUOUS
 10
-23.825018556117701
 20
-31.5
 30
0.0
  0
SEQEND
  5
4242
  8
250
  6
CONTINUOUS
  0
TEXT
  5
4243
  8
250
  6
CONTINUOUS
 10
-31.691685222784368
 20
-30.5
 30
0.0
 40
2.799999999999998
  1
C6
  7
YOKO
1001
ITEMNAME
1000
LNSP3
  0
LINE
  5
4244
  8
250
  6
CONTINUOUS
 10
-23.825018556117701
 20
-31.5
 30
0.0
 11
-34.091685222784371
 21
-31.5
 31
0.0
1001
ITEMNAME
1000
LNSP2
  0
ARC
  5
4245
  8
241
  6
CONTINUOUS
 10
-16.228827256943418
 20
19.586857838866582
 30
0.0
 40
32.07882725694369
 50
340.71513450902091
 51
19.284865490980941
  0
ARC
  5
4246
  8
241
  6
CONTINUOUS
 10
40.228827256943717
 20
19.58685783886736
 30
0.0
 40
32.07882725694374
 50
160.71513450901909
 51
199.28486549098051
  0
LINE
  5
4247
  8
241
  6
CONTINUOUS
 10
9.9499999999999869
 20
-8.9923414211634736
 30
0.0
 11
9.9499999999999869
 21
-30.18137425657125
 31
0.0
1001
GRPNAME
1000
PASTMD30
  0
LINE
  5
4248
  8
241
  6
CONTINUOUS
 10
9.9499999999999869
 20
-30.18137425657125
 30
0.0
 11
14.05000000000001
 21
-30.18137425657125
 31
0.0
1001
GRPNAME
1000
PASTMD30
  0
LINE
  5
4249
  8
241
  6
CONTINUOUS
 10
14.05000000000055
 20
-8.9923414211634736
 30
0.0
 11
14.05000000000001
 21
-30.18137425657125
 31
0.0
1001
GRPNAME
1000
PASTMD30
  0
LINE
  5
424A
  8
241
  6
CONTINUOUS
 10
9.9499999999999869
 20
-8.9923414211634736
 30
0.0
 11
14.05000000000055
 21
-8.9923414211634736
 31
0.0
1001
GRPNAME
1000
PASTMD30
  0
ARC
  5
424B
  8
241
  6
CONTINUOUS
 10
-16.228827256943418
 20
-19.586857838866582
 30
0.0
 40
32.07882725694369
 50
340.71513450901892
 51
19.284865490979119
  0
ARC
  5
424C
  8
241
  6
CONTINUOUS
 10
40.228827256943717
 20
-19.58685783886736
 30
0.0
 40
32.07882725694374
 50
160.71513450901909
 51
199.28486549098051
  0
LINE
  5
424D
  8
247
  6
CONTINUOUS
 10
6.0
 20
-17.250000000069999
 30
0.0
 11
6.0
 21
-10.557692308029999
 31
0.0
  0
ARC
  5
424E
  8
247
  6
CONTINUOUS
 10
4.2500000000699742
 20
-17.250000000069999
 30
0.0
 40
1.7499999999299991
 50
180.0
 51
0.0
  0
ARC
  5
424F
  8
247
  6
CONTINUOUS
 10
4.2500000000699742
 20
-10.557692308029999
 30
0.0
 40
1.7499999999299991
 50
0.0
 51
180.0
  0
LINE
  5
4250
  8
247
  6
CONTINUOUS
 10
2.500000000140004
 20
-16.38461538472
 30
0.0
 11
5.5000000000200071
 21
-17.244851541962021
 31
0.0
  0
LINE
  5
4251
  8
247
  6
CONTINUOUS
 10
3.923076923160008
 20
-15.48498381833582
 30
0.0
 11
3.923076923160008
 21
-16.79267612597582
 31
0.0
  0
ARC
  5
4252
  8
247
  6
CONTINUOUS
 10
3.04959866770298
 20
-15.14514381608978
 30
0.0
 40
0.5538165441895349
 50
72.997889675291773
 51
172.92416621851191
  0
ARC
  5
4253
  8
247
  6
CONTINUOUS
 10
2.936033044465773
 20
-15.56687832302879
 30
0.0
 40
0.9904354236226808
 50
4.7429368522022122
 51
73.849226273266297
1001
GENIUS_GENOBJ-N-FIL_13
1002
{
1000
OWNER
1000
GEN
1002
}
1001
GENIUS_GENODEF_13
1002
{
1000
HIER
1070
     0
1002
}
1002
{
1000
MANEDIT
1070
     0
1002
}
1002
{
1000
NOSEL
1070
     0
1002
}
1002
{
1000
BEHIND
1070
     0
1002
}
1002
{
1000
OTHER
1070
     0
1002
}
1002
{
1000
REACTOR
1002
}
  0
LINE
  5
4254
  8
247
  6
CONTINUOUS
 10
5.5000000000200071
 20
-15.937159234321991
 30
0.0
 11
5.5000000000200071
 21
-17.244851541962021
 31
0.0
  0
LINE
  5
4255
  8
247
  6
CONTINUOUS
 10
2.500000000140004
 20
-16.38461538472
 30
0.0
 11
2.500000000140004
 21
-15.07692307707998
 31
0.0
  0
ARC
  5
4256
  8
247
  6
CONTINUOUS
 10
4.4820242326655348
 20
-15.56091963654697
 30
0.0
 40
0.5640818586791229
 50
65.990941652528889
 51
172.26344345906909
  0
ARC
  5
4257
  8
247
  6
CONTINUOUS
 10
4.487429039186563
 20
-16.03826268534706
 30
0.0
 40
1.0176059446230981
 50
5.7019851642581241
 51
77.277338436822376
1001
GENIUS_GENOBJ-N-FIL_13
1002
{
1000
OWNER
1000
GEN
1002
}
1001
GENIUS_GENODEF_13
1002
{
1000
HIER
1070
     0
1002
}
1002
{
1000
MANEDIT
1070
     0
1002
}
1002
{
1000
NOSEL
1070
     0
1002
}
1002
{
1000
BEHIND
1070
     0
1002
}
1002
{
1000
OTHER
1070
     0
1002
}
1002
{
1000
REACTOR
1002
}
  0
LINE
  5
4258
  8
247
  6
CONTINUOUS
 10
5.5000000000200071
 20
-14.283313080541999
 30
0.0
 11
2.500000000140004
 21
-13.423076923300011
 31
0.0
  0
LINE
  5
4259
  8
247
  6
CONTINUOUS
 10
2.500000000140004
 20
-11.00000000032
 30
0.0
 11
2.500000000140004
 21
-11.565736619456599
 31
0.0
  0
LINE
  5
425A
  8
247
  6
CONTINUOUS
 10
5.5000000000200071
 20
-12.461538461799989
 30
0.0
 11
5.5000000000200071
 21
-11.846153846440011
 31
0.0
  0
ARC
  5
425B
  8
247
  6
CONTINUOUS
 10
4.5832851359733668
 20
-10.708791209122859
 30
0.0
 40
2.2526500823422122
 50
202.3594881415259
 51
254.99324854284609
  0
ARC
  5
425C
  8
247
  6
CONTINUOUS
 10
3.3083126551945261
 20
-11.37406947921323
 30
0.0
 40
0.8906723995727782
 50
94.994589319075317
 51
155.1663289573039
1001
GENIUS_GENOBJ-N-FIL_13
1002
{
1000
OWNER
1000
GEN
1002
}
1001
GENIUS_GENODEF_13
1002
{
1000
HIER
1070
     0
1002
}
1002
{
1000
MANEDIT
1070
     0
1002
}
1002
{
1000
NOSEL
1070
     0
1002
}
1002
{
1000
BEHIND
1070
     0
1002
}
1002
{
1000
OTHER
1070
     0
1002
}
1002
{
1000
REACTOR
1002
}
  0
ARC
  5
425D
  8
247
  6
CONTINUOUS
 10
4.160145888667782
 20
-12.22645888621258
 30
0.0
 40
1.392781735586712
 50
15.84609655577912
 51
82.325137004169065
  0
ARC
  5
425E
  8
247
  6
CONTINUOUS
 10
4.4592434315272831
 20
-11.64221272584035
 30
0.0
 40
1.324563662670287
 50
249.7136016704969
 51
321.78874565640888
1001
GENIUS_GENOBJ-N-FIL_13
1002
{
1000
OWNER
1000
GEN
1002
}
1001
GENIUS_GENODEF_13
1002
{
1000
HIER
1070
     0
1002
}
1002
{
1000
MANEDIT
1070
     0
1002
}
1002
{
1000
NOSEL
1070
     0
1002
}
1002
{
1000
BEHIND
1070
     0
1002
}
1002
{
1000
OTHER
1070
     0
1002
}
1002
{
1000
REACTOR
1002
}
  0
LINE
  5
425F
  8
247
  6
CONTINUOUS
 10
4.346153846219976
 20
-11.53846153876
 30
0.0
 11
4.346153846219976
 21
-10.84615384648
 31
0.0
  0
LINE
  5
4260
  8
247
  6
CONTINUOUS
 10
2.500000000139976
 20
-17.250000000069999
 30
0.0
 11
2.500000000139976
 21
-16.576923077020009
 31
0.0
  0
LINE
  5
42C1
  8
250
  6
CONTINUOUS
 10
90.5
 20
-4.9999999999999991
 30
0.0
 11
109.0
 21
-5.0
 31
0.0
  0
LINE
  5
42C2
  8
250
  6
CONTINUOUS
 10
90.5
 20
4.9999999999999991
 30
0.0
 11
109.0
 21
4.999999999999992
 31
0.0
  0
LINE
  5
42C3
  8
250
  6
CONTINUOUS
 10
108.0
 20
-3.0000000000000031
 30
0.0
 11
108.0
 21
2.9999999999999911
 31
0.0
  0
INSERT
  5
42C4
  8
250
  6
CONTINUOUS
  2
_OPEN
 10
108.0
 20
-5.0
 30
0.0
 41
2.0
 42
2.0
 43
2.0
 50
270.0
  0
INSERT
  5
42C5
  8
250
  6
CONTINUOUS
  2
_OPEN
 10
108.0
 20
4.999999999999992
 30
0.0
 41
2.0
 42
2.0
 43
2.0
 50
90.0
  0
INSERT
  5
42C6
  8
250
  6
CONTINUOUS
  2
*U4
 10
90.0
 20
0.0
 30
0.0
  0
LINE
  5
42C7
  8
240
  6
CONTINUOUS
 10
78.759807619999975
 20
5.0
 30
0.0
 11
90.0
 21
4.9999999999999991
 31
0.0
1001
GRPNAME
1000
PASTMD01
  0
LINE
  5
42C8
  8
240
  6
CONTINUOUS
 10
78.759807619999975
 20
-5.0
 30
0.0
 11
90.0
 21
-5.0
 31
0.0
1001
GRPNAME
1000
PASTMD01
  0
LINE
  5
42C9
  8
245
  6
CENTER2
 10
91.0
 20
0.0
 30
0.0
 11
-38.99999999999995
 21
0.0000000000000143
 31
0.0
  0
LINE
  5
42CA
  8
240
  6
CONTINUOUS
 10
77.0
 20
-5.149999999999987
 30
0.0
 11
78.5
 21
-5.1500000000000004
 31
0.0
  0
LINE
  5
42CB
  8
240
  6
CONTINUOUS
 10
77.0
 20
-5.149999999999987
 30
0.0
 11
77.0
 21
-4.3499999999999961
 31
0.0
1001
GRPNAME
1000
PASTMD01
  0
LINE
  5
42CC
  8
240
  6
CONTINUOUS
 10
77.0
 20
-4.3499999999999961
 30
0.0
 11
75.995999999973748
 21
-4.349999999999949
 31
0.0
  0
LINE
  5
42CD
  8
240
  6
CONTINUOUS
 10
78.759807619999975
 20
-5.0
 30
0.0
 11
78.5
 21
-5.1500000000000004
 31
0.0
  0
LINE
  5
42CE
  8
240
  6
CONTINUOUS
 10
77.0
 20
5.149999999999987
 30
0.0
 11
78.5
 21
5.1500000000000004
 31
0.0
  0
LINE
  5
42CF
  8
241
  6
CONTINUOUS
 10
77.0
 20
4.3499999999999961
 30
0.0
 11
77.0
 21
-4.3500000000000121
 31
0.0
1001
GRPNAME
1000
PASTMD01
  0
LINE
  5
42D0
  8
240
  6
CONTINUOUS
 10
77.0
 20
5.149999999999987
 30
0.0
 11
77.0
 21
4.3499999999999961
 31
0.0
1001
GRPNAME
1000
PASTMD01
  0
LINE
  5
42D1
  8
240
  6
CONTINUOUS
 10
75.996000000016409
 20
4.3499999999999952
 30
0.0
 11
77.0
 21
4.3499999999999961
 31
0.0
  0
LINE
  5
42D2
  8
241
  6
CONTINUOUS
 10
78.5
 20
5.1500000000000004
 30
0.0
 11
78.5
 21
-5.150000000000019
 31
0.0
  0
LINE
  5
42D3
  8
240
  6
CONTINUOUS
 10
78.759807619999975
 20
5.0
 30
0.0
 11
78.5
 21
5.1500000000000004
 31
0.0
  0
LINE
  5
42D4
  8
240
  6
CONTINUOUS
 10
90.0
 20
4.9999999999999991
 30
0.0
 11
90.0
 21
-5.0
 31
0.0
  0
LINE
  5
42D5
  8
243
  6
HIDDEN2
 10
87.252146975984061
 20
2.886065155432048
 30
0.0
 11
77.023414471627945
 21
2.3499999999984
 31
0.0
  0
LINE
  5
42D6
  8
243
  6
HIDDEN2
 10
87.252146975984061
 20
-2.886065155432048
 30
0.0
 11
77.023414471626992
 21
-2.349999999998349
 31
0.0
  0
LINE
  5
42D7
  8
243
  6
HIDDEN2
 10
77.023414471627945
 20
2.3499999999984
 30
0.0
 11
70.199999999999989
 21
2.3500000000001182
 31
0.0
  0
LINE
  5
42D8
  8
243
  6
HIDDEN2
 10
70.199999999999989
 20
-2.3500000000000401
 30
0.0
 11
70.199999999999989
 21
2.3500000000001182
 31
0.0
  0
LINE
  5
42D9
  8
243
  6
HIDDEN2
 10
88.400000000000034
 20
-3.0299762058498181
 30
0.0
 11
88.0
 21
-2.6299762058498111
 31
0.0
  0
LINE
  5
42DA
  8
243
  6
HIDDEN2
 10
87.399999999999977
 20
-2.629976205849843
 30
0.0
 11
87.252146975984061
 21
-2.886065155432048
 31
0.0
1001
GRPNAME
1000
00000007
  0
LINE
  5
42DB
  8
243
  6
HIDDEN2
 10
87.399999999999977
 20
-2.629976205849843
 30
0.0
 11
88.0
 21
-2.6299762058498111
 31
0.0
1001
GRPNAME
1000
00000007
  0
LINE
  5
42DC
  8
243
  6
HIDDEN2
 10
88.700000000000017
 20
-3.0299762058498181
 30
0.0
 11
89.000000000000028
 21
-2.72997620584984
 31
0.0
1001
GRPNAME
1000
00000007
  0
LINE
  5
42DD
  8
243
  6
HIDDEN2
 10
88.400000000000034
 20
-3.0299762058498181
 30
0.0
 11
88.700000000000017
 21
-3.0299762058498181
 31
0.0
1001
GRPNAME
1000
00000007
  0
LINE
  5
42DE
  8
243
  6
HIDDEN2
 10
88.999999999999957
 20
2.7299762058495221
 30
0.0
 11
89.000000000000028
 21
-2.72997620584984
 31
0.0
1001
GRPNAME
1000
00000007
  0
LINE
  5
42DF
  8
243
  6
HIDDEN2
 10
88.400000000000034
 20
3.0299762058497031
 30
0.0
 11
88.0
 21
2.6299762058497
 31
0.0
  0
LINE
  5
42E0
  8
243
  6
HIDDEN2
 10
87.399999999999977
 20
2.629976205849728
 30
0.0
 11
88.0
 21
2.6299762058497
 31
0.0
1001
GRPNAME
1000
00000007
  0
LINE
  5
42E1
  8
243
  6
HIDDEN2
 10
87.399999999999977
 20
2.629976205849728
 30
0.0
 11
87.252146975984061
 21
2.8860651554319352
 31
0.0
1001
GRPNAME
1000
00000007
  0
LINE
  5
42E2
  8
243
  6
HIDDEN2
 10
88.700000000000017
 20
3.0299762058497031
 30
0.0
 11
88.999999999999957
 21
2.7299762058495221
 31
0.0
1001
GRPNAME
1000
00000007
  0
LINE
  5
42E3
  8
243
  6
HIDDEN2
 10
88.400000000000034
 20
3.0299762058497031
 30
0.0
 11
88.700000000000017
 21
3.0299762058497031
 31
0.0
1001
GRPNAME
1000
00000007
  0
LINE
  5
42E4
  8
243
  6
HIDDEN2
 10
77.023414471626992
 20
-2.349999999998349
 30
0.0
 11
70.199999999999989
 21
-2.3500000000000401
 31
0.0
  0
LINE
  5
42E5
  8
250
  6
CONTINUOUS
 10
89.499999999999986
 20
-1.6000000000000001
 30
0.0
 11
102.0
 21
-1.6000000000000041
 31
0.0
  0
LINE
  5
42E6
  8
250
  6
CONTINUOUS
 10
89.500000000000014
 20
1.6000000000000041
 30
0.0
 11
102.0
 21
1.6000000000000001
 31
0.0
  0
LINE
  5
42E7
  8
250
  6
CONTINUOUS
 10
101.0
 20
-3.8300000000000032
 30
0.0
 11
101.0
 21
-6.0600000000000014
 31
0.0
  0
LINE
  5
42E8
  8
250
  6
CONTINUOUS
 10
101.0
 20
3.8300000000000001
 30
0.0
 11
101.0
 21
6.0599999999999961
 31
0.0
  0
LINE
  5
42E9
  8
250
  6
CONTINUOUS
 10
101.0
 20
-1.6000000000000041
 30
0.0
 11
101.0
 21
1.6000000000000001
 31
0.0
  0
INSERT
  5
42EA
  8
250
  6
CONTINUOUS
  2
_OPEN
 10
101.0
 20
-1.6000000000000041
 30
0.0
 41
2.2299999999999991
 42
2.2299999999999991
 43
2.2299999999999991
 50
90.0
  0
INSERT
  5
42EB
  8
250
  6
CONTINUOUS
  2
_OPEN
 10
101.0
 20
1.6000000000000001
 30
0.0
 41
2.2299999999999991
 42
2.2299999999999991
 43
2.2299999999999991
 50
270.0
  0
INSERT
  5
42EC
  8
250
  6
CONTINUOUS
  2
*U5
 10
90.0
 20
0.0
 30
0.0
  0
LINE
  5
42ED
  8
240
  6
CONTINUOUS
 10
75.996000000016409
 20
-4.3499999999999712
 30
0.0
 11
75.996000000019606
 21
-4.9999999999999982
 31
0.0
  0
LINE
  5
42EE
  8
241
  6
CONTINUOUS
 10
75.995999999973748
 20
-4.349999999999949
 30
0.0
 11
75.996000000016409
 21
4.3499999999999952
 31
0.0
  0
LINE
  5
42EF
  8
243
  6
HIDDEN2
 10
88.999999999999986
 20
1.6000000000000001
 30
0.0
 11
70.199999999999989
 21
1.6000000000000001
 31
0.0
  0
LINE
  5
42F0
  8
243
  6
HIDDEN2
 10
88.999999999999986
 20
-1.6000000000000001
 30
0.0
 11
70.199999999999989
 21
-1.6000000000000001
 31
0.0
  0
LINE
  5
42F1
  8
240
  6
CONTINUOUS
 10
75.996000000016409
 20
4.3499999999999774
 30
0.0
 11
75.996000000019649
 21
5.0
 31
0.0
  0
LINE
  5
42F2
  8
240
  6
CONTINUOUS
 10
75.996000000019606
 20
-4.9999999999999982
 30
0.0
 11
39.822794919245212
 21
-4.9999999999999902
 31
0.0
  0
LINE
  5
42F3
  8
240
  6
CONTINUOUS
 10
75.996000000019649
 20
5.0
 30
0.0
 11
39.822794919245197
 21
5.0000000000000044
 31
0.0
  0
ARC
  5
4303
  8
240
  6
CONTINUOUS
 10
28.000000000000021
 20
-12.999999999999989
 30
0.0
 40
6.0
 50
90.0
 51
180.0
  0
LINE
  5
4304
  8
240
  6
CONTINUOUS
 10
36.358693304107511
 20
-6.9999999999998979
 30
0.0
 11
27.999999999999989
 21
-6.9999999999999902
 31
0.0
  0
LINE
  5
4305
  8
240
  6
CONTINUOUS
 10
39.822794919245212
 20
-4.9999999999999902
 30
0.0
 11
36.358693304107511
 21
-6.9999999999998979
 31
0.0
  0
ARC
  5
4306
  8
240
  6
CONTINUOUS
 10
28.000000000000021
 20
13.0
 30
0.0
 40
6.0
 50
180.0
 51
270.0
  0
LINE
  5
4307
  8
240
  6
CONTINUOUS
 10
36.358693304107511
 20
6.9999999999999112
 30
0.0
 11
27.999999999999989
 21
7.0000000000000044
 31
0.0
  0
LINE
  5
4308
  8
240
  6
CONTINUOUS
 10
39.822794919245197
 20
5.0000000000000044
 30
0.0
 11
36.358693304107511
 21
6.9999999999999112
 31
0.0
  0
LINE
  5
4309
  8
240
  6
CONTINUOUS
 10
22.000000000000469
 20
13.00000000000003
 30
0.0
 11
22.000000000000568
 21
31.5
 31
0.0
  0
LINE
  5
4312
  8
241
  6
CONTINUOUS
 10
22.000000000000021
 20
13.0
 30
0.0
 11
22.00000000000033
 21
-12.999999999999959
 31
0.0
  0
LINE
  5
4313
  8
241
  6
CONTINUOUS
 10
36.358693304107511
 20
6.9999999999999112
 30
0.0
 11
36.358693304107511
 21
-6.9999999999998979
 31
0.0
  0
LINE
  5
4314
  8
241
  6
CONTINUOUS
 10
39.822794919245197
 20
5.0000000000000044
 30
0.0
 11
39.822794919245212
 21
-4.9999999999999902
 31
0.0
  0
TEXT
  5
4335
  8
241
  6
CONTINUOUS
 10
-38.0
 20
63.000000000000007
 30
0.0
 40
5.0
  1
C6-MEGA3S-90
  7
YOKO
 11
-38.0
 21
63.000000000000007
 31
0.0
 73
     1
  0
LINE
  5
4336
  8
250
  6
CONTINUOUS
 10
0.0
 20
32.0
 30
0.0
 11
0.0
 21
50.0
 31
0.0
  0
LINE
  5
4337
  8
250
  6
CONTINUOUS
 10
90.0
 20
5.4999999999999991
 30
0.0
 11
90.0
 21
50.0
 31
0.0
  0
LINE
  5
4338
  8
250
  6
CONTINUOUS
 10
2.2299999999999991
 20
49.000000000000007
 30
0.0
 11
87.769999999999996
 21
49.000000000000007
 31
0.0
  0
LINE
  5
4339
  8
250
  6
CONTINUOUS
 10
2.2299999999999991
 20
48.628333333333337
 30
0.0
 11
0.0
 21
49.000000000000007
 31
0.0
  0
LINE
  5
433A
  8
250
  6
CONTINUOUS
 10
2.2299999999999991
 20
49.37166666666667
 30
0.0
 11
0.0
 21
49.000000000000007
 31
0.0
  0
LINE
  5
433B
  8
250
  6
CONTINUOUS
 10
0.0
 20
49.000000000000007
 30
0.0
 11
2.2299999999999991
 21
49.000000000000007
 31
0.0
  0
LINE
  5
433C
  8
250
  6
CONTINUOUS
 10
87.769999999999996
 20
49.371666666666677
 30
0.0
 11
90.0
 21
49.000000000000007
 31
0.0
  0
LINE
  5
433D
  8
250
  6
CONTINUOUS
 10
87.769999999999996
 20
48.628333333333337
 30
0.0
 11
90.0
 21
49.000000000000007
 31
0.0
  0
LINE
  5
433E
  8
250
  6
CONTINUOUS
 10
90.0
 20
49.000000000000007
 30
0.0
 11
87.769999999999996
 21
49.000000000000007
 31
0.0
  0
TEXT
  5
433F
  8
250
  6
CONTINUOUS
 10
42.142857142857132
 20
50.0
 30
0.0
 40
3.0
  1
90
  0
LINE
  5
4340
  8
250
  6
CONTINUOUS
 10
9.0
 20
3.2000000000000099
 30
0.0
 11
9.0
 21
43.0
 31
0.0
  0
LINE
  5
4341
  8
250
  6
CONTINUOUS
 10
90.0
 20
5.4999999999999982
 30
0.0
 11
90.0
 21
43.0
 31
0.0
  0
LINE
  5
4342
  8
250
  6
CONTINUOUS
 10
11.23
 20
42.0
 30
0.0
 11
87.769999999999996
 21
42.0
 31
0.0
  0
LINE
  5
4343
  8
250
  6
CONTINUOUS
 10
11.23
 20
41.62833333333333
 30
0.0
 11
9.0
 21
42.0
 31
0.0
  0
LINE
  5
4344
  8
250
  6
CONTINUOUS
 10
11.23
 20
42.371666666666663
 30
0.0
 11
9.0
 21
42.0
 31
0.0
  0
LINE
  5
4345
  8
250
  6
CONTINUOUS
 10
9.0
 20
42.0
 30
0.0
 11
11.23
 21
42.0
 31
0.0
  0
LINE
  5
4346
  8
250
  6
CONTINUOUS
 10
87.769999999999996
 20
42.371666666666663
 30
0.0
 11
90.0
 21
42.0
 31
0.0
  0
LINE
  5
4347
  8
250
  6
CONTINUOUS
 10
87.769999999999996
 20
41.62833333333333
 30
0.0
 11
90.0
 21
42.0
 31
0.0
  0
LINE
  5
4348
  8
250
  6
CONTINUOUS
 10
90.0
 20
42.0
 30
0.0
 11
87.769999999999996
 21
42.0
 31
0.0
  0
TEXT
  5
4349
  8
250
  6
CONTINUOUS
 10
38.528571428571432
 20
43.0
 30
0.0
 40
3.0
  1
üimax.81üj
  0
VIEWPORT
  5
22
 67
     1
  8
0
 10
261.51769911504419
 20
148.5
 30
0.0
 40
523.0353982300885
 41
297.0
 68
     1
 69
     1
1001
ACAD
1000
MVIEW
1002
{
1070
    16
1010
0.0
1020
0.0
1030
0.0
1010
0.0
1020
0.0
1030
1.0
1040
0.0
1040
297.0
1040
261.51769911504419
1040
148.5
1040
50.0
1040
0.0
1040
0.0
1070
     0
1070
   100
1070
     1
1070
     1
1070
     0
1070
     0
1070
     0
1070
     0
1040
0.0
1040
0.0
1040
0.0
1040
1.0
1040
1.0
1040
10.0
1040
10.0
1070
     0
1002
{
1002
}
1002
}
1001
GENIUS_GENODEF_13
1002
{
1000
HIER
1070
     0
1002
}
1002
{
1000
MANEDIT
1070
     0
1002
}
1002
{
1000
NOSEL
1070
     0
1002
}
1002
{
1000
BEHIND
1070
     0
1002
}
1002
{
1000
OTHER
1070
     0
1002
}
1002
{
1000
REACTOR
1002
}
1001
GENIUS_GENOBJ-N-SDF_13
1002
{
1000
OWNER
1000
GEN
1002
}
1001
GENIUS_GENSCREG_15
1000
PF
1040
1.0
1000
DF
1040
1.0
1000
MIN
1011
0.0
1021
0.0
1031
0.0
1021
0.0
1031
0.0
1000
MAX
1011
523.0353982300885
1021
0.0
1031
0.0
1021
297.0
1031
0.0
1000
FLAGS
1070
     4
  0
ENDSEC
  0
EOF
