  0
SECTION
  2
HEADER
  9
$ACADVER
  1
AC1009
  9
$INSBASE
 10
0.0
 20
0.0
 30
0.0
  9
$EXTMIN
 10
-41.285714285714292
 20
-35.350000000000037
 30
0.0
  9
$EXTMAX
 10
115.89999999999949
 20
67.999999999999986
 30
0.0
  9
$LIMMIN
 10
0.0
 20
0.0
  9
$LIMMAX
 10
297.0
 20
210.0
  9
$ORTHOMODE
 70
     1
  9
$REGENMODE
 70
     1
  9
$FILLMODE
 70
     1
  9
$QTEXTMODE
 70
     0
  9
$MIRRTEXT
 70
     1
  9
$DRAGMODE
 70
     2
  9
$LTSCALE
 40
10.0
  9
$OSMODE
 70
    37
  9
$ATTMODE
 70
     1
  9
$TEXTSIZE
 40
3.0
  9
$TRACEWID
 40
1.0
  9
$TEXTSTYLE
  7
YOKO
  9
$CLAYER
  8
240
  9
$CELTYPE
  6
BYLAYER
  9
$CECOLOR
 62
   256
  9
$DIMSCALE
 40
1.0
  9
$DIMASZ
 40
2.2299999999999991
  9
$DIMEXO
 40
0.5
  9
$DIMDLI
 40
7.0
  9
$DIMRND
 40
0.0
  9
$DIMDLE
 40
0.0
  9
$DIMEXE
 40
1.0
  9
$DIMTP
 40
0.0
  9
$DIMTM
 40
0.01
  9
$DIMTXT
 40
2.7999999999999989
  9
$DIMCEN
 40
0.0
  9
$DIMTSZ
 40
0.0
  9
$DIMTOL
 70
     0
  9
$DIMLIM
 70
     0
  9
$DIMTIH
 70
     0
  9
$DIMTOH
 70
     0
  9
$DIMSE1
 70
     0
  9
$DIMSE2
 70
     0
  9
$DIMTAD
 70
     3
  9
$DIMZIN
 70
     9
  9
$DIMBLK
  1
OPEN
  9
$DIMASO
 70
     1
  9
$DIMSHO
 70
     1
  9
$DIMPOST
  1

  9
$DIMAPOST
  1

  9
$DIMALT
 70
     0
  9
$DIMALTD
 70
     2
  9
$DIMALTF
 40
25.399999999999999
  9
$DIMLFAC
 40
1.0
  9
$DIMTOFL
 70
     1
  9
$DIMTVP
 40
0.0
  9
$DIMTIX
 70
     1
  9
$DIMSOXD
 70
     0
  9
$DIMSAH
 70
     0
  9
$DIMBLK1
  1

  9
$DIMBLK2
  1

  9
$DIMSTYLE
  2
BIGT
  9
$DIMCLRD
 70
   256
  9
$DIMCLRE
 70
   256
  9
$DIMCLRT
 70
    40
  9
$DIMTFAC
 40
1.0
  9
$DIMGAP
 40
1.0
  9
$LUNITS
 70
     2
  9
$LUPREC
 70
     6
  9
$SKETCHINC
 40
1.0
  9
$FILLETRAD
 40
0.0
  9
$AUNITS
 70
     0
  9
$AUPREC
 70
     6
  9
$MENU
  1
.
  9
$ELEVATION
 40
0.0
  9
$PELEVATION
 40
0.0
  9
$THICKNESS
 40
0.0
  9
$LIMCHECK
 70
     0
  9
$BLIPMODE
 70
     0
  9
$CHAMFERA
 40
0.2
  9
$CHAMFERB
 40
0.2
  9
$SKPOLY
 70
     0
  9
$TDCREATE
 40
2458143.6667859261
  9
$TDUPDATE
 40
2458144.6964288419
  9
$TDINDWG
 40
0.0069181713
  9
$TDUSRTIMER
 40
0.0069181366
  9
$USRTIMER
 70
     1
  9
$ANGBASE
 50
0.0
  9
$ANGDIR
 70
     0
  9
$PDMODE
 70
     1
  9
$PDSIZE
 40
0.0
  9
$PLINEWID
 40
0.0
  9
$COORDS
 70
     1
  9
$SPLFRAME
 70
     0
  9
$SPLINETYPE
 70
     6
  9
$SPLINESEGS
 70
     4
  9
$ATTDIA
 70
     1
  9
$ATTREQ
 70
     1
  9
$HANDLING
 70
     1
  9
$HANDSEED
  5
450F
  9
$SURFTAB1
 70
     6
  9
$SURFTAB2
 70
     6
  9
$SURFTYPE
 70
     6
  9
$SURFU
 70
     6
  9
$SURFV
 70
     6
  9
$UCSNAME
  2

  9
$UCSORG
 10
0.0
 20
0.0
 30
0.0
  9
$UCSXDIR
 10
1.0
 20
0.0
 30
0.0
  9
$UCSYDIR
 10
0.0
 20
1.0
 30
0.0
  9
$PUCSNAME
  2

  9
$PUCSORG
 10
0.0
 20
0.0
 30
0.0
  9
$PUCSXDIR
 10
1.0
 20
0.0
 30
0.0
  9
$PUCSYDIR
 10
0.0
 20
1.0
 30
0.0
  9
$USERI1
 70
     1
  9
$USERI2
 70
     0
  9
$USERI3
 70
     0
  9
$USERI4
 70
     0
  9
$USERI5
 70
     0
  9
$USERR1
 40
0.0
  9
$USERR2
 40
0.0
  9
$USERR3
 40
0.0
  9
$USERR4
 40
0.0
  9
$USERR5
 40
0.0
  9
$WORLDVIEW
 70
     1
  9
$SHADEDGE
 70
     3
  9
$SHADEDIF
 70
    70
  9
$TILEMODE
 70
     1
  9
$MAXACTVP
 70
    16
  9
$PLIMCHECK
 70
     0
  9
$PEXTMIN
 10
1.0000000000000000E+020
 20
1.0000000000000000E+020
 30
1.0000000000000000E+020
  9
$PEXTMAX
 10
-1.0000000000000000E+020
 20
-1.0000000000000000E+020
 30
-1.0000000000000000E+020
  9
$PLIMMIN
 10
0.0
 20
0.0
  9
$PLIMMAX
 10
420.0
 20
297.0
  9
$UNITMODE
 70
     0
  9
$VISRETAIN
 70
     1
  9
$PLINEGEN
 70
     0
  9
$PSLTSCALE
 70
     1
  0
ENDSEC
  0
SECTION
  2
TABLES
  0
TABLE
  2
VPORT
 70
     1
  0
VPORT
  2
*ACTIVE
 70
     0
 10
0.0
 20
0.0
 11
1.0
 21
1.0
 12
45.310475974761196
 22
26.445003870218301
 13
0.0
 23
0.0
 14
7.0
 24
7.0
 15
7.0
 25
7.0
 16
0.0
 26
0.0
 36
1.0
 17
0.0
 27
0.0
 37
0.0
 40
173.0850326555726
 41
1.5040556199304751
 42
50.0
 43
0.0
 44
0.0
 50
0.0
 51
0.0
 71
     0
 72
  2000
 73
     1
 74
     0
 75
     1
 76
     1
 77
     0
 78
     0
  0
ENDTAB
  0
TABLE
  2
LTYPE
 70
    21
  0
LTYPE
  2
CONTINUOUS
 70
     0
  3
Solid line
 72
    65
 73
     0
 40
0.0
  0
LTYPE
  2
CENTER2
 70
     0
  3
___ _ ___ _ ___ _ ___ _ ___ _ ___ _ ___ _ ___ _
 72
    65
 73
     4
 40
1.125
 49
0.75
 49
-0.125
 49
0.125
 49
-0.125
  0
LTYPE
  2
HIDDEN2
 70
     0
  3
_ _ _ _ _ _ _ _ _ _ _ _ _ _ _ _ _ _ _ _ _ _ _ _
 72
    65
 73
     2
 40
0.1875
 49
0.125
 49
-0.0625
  0
LTYPE
  2
AM_ISO02W050
 70
     0
  3
__ __ __ __ __ __ __ __ __ __ __ __ __ __ __
 72
    65
 73
     2
 40
7.5
 49
6.0
 49
-1.5
  0
LTYPE
  2
AMCONSTR
 70
     0
  3
_______________________
 72
    65
 73
     2
 40
9999.0
 49
9999.0
 49
0.0
  0
LTYPE
  2
ACISOWELD
 70
     0
  3
_ _ _ _ _
 72
    65
 73
     2
 40
2.0
 49
2.0
 49
-1.0
  0
LTYPE
  2
ACISOTGB
 70
     0
  3
__ . . __ . .
 72
    65
 73
     6
 40
9.0
 49
4.0
 49
-1.0
 49
1.0
 49
-1.0
 49
1.0
 49
-1.0
  0
LTYPE
  2
ACISOTGL
 70
     0
  3
_ _ _ _ _
 72
    65
 73
     2
 40
3.0
 49
2.0
 49
-1.0
  0
LTYPE
  2
AM_ISO08W050
 70
     0
  3
____ . ____ . ____ . ____ . ____ . ____ . ____
 72
    65
 73
     4
 40
18.0
 49
12.0
 49
-1.5
 49
3.0
 49
-1.5
  0
LTYPE
  2
AM_ISO09W050
 70
     0
  3
_____ . . _____ . . _____ . . ____ .. ____
 72
    65
 73
     6
 40
22.5
 49
12.0
 49
-1.5
 49
3.0
 49
-1.5
 49
3.0
 49
-1.5
  0
LTYPE
  2
AM_ISO08W050X2
 70
     0
  3
__ . __ . __ . __ . __ . __
 72
    65
 73
     4
 40
9.0
 49
6.0
 49
-0.75
 49
1.5
 49
-0.75
  0
LTYPE
  2
AM_ISO02W050X2
 70
     0
  3
 _ _ _ _ _ _ _ _ _ _ _ _
 72
    65
 73
     2
 40
3.75
 49
3.0
 49
-0.75
  0
LTYPE
  2
AMZIGZAG
 70
     0
  3
/\/-/\/-/\/-/\/-/\/-/\/
 72
    65
 73
     2
 40
11.0001
 49
0.0001
 49
-11.0
  0
ENDTAB
  0
TABLE
  2
LAYER
 70
     8
  0
LAYER
  2
0
 70
     0
 62
     7
  6
CONTINUOUS
  0
LAYER
  2
DEFPOINTS
 70
     0
 62
     7
  6
CONTINUOUS
  0
LAYER
  2
245
 70
     0
 62
     2
  6
CENTER2
  0
LAYER
  2
240
 70
     0
 62
     4
  6
CONTINUOUS
  0
LAYER
  2
241
 70
     0
 62
   211
  6
CONTINUOUS
  0
LAYER
  2
243
 70
     0
 62
   211
  6
HIDDEN2
  0
LAYER
  2
247
 70
     0
 62
    60
  6
CONTINUOUS
  0
LAYER
  2
250
 70
     0
 62
     3
  6
CONTINUOUS
  0
ENDTAB
  0
TABLE
  2
STYLE
 70
     8
  0
STYLE
  2
STANDARD
 70
     0
 40
0.0
 41
1.0
 50
0.0
 71
     0
 42
3.0
  3
romans.shx
  4
extfont.shx
  0
STYLE
  2
ACISOGDT
 70
     0
 40
0.0
 41
1.0
 50
0.0
 71
     0
 42
3.0
  3
amgdt.shx
  4
extfont.shx
  0
STYLE
  2
YOKO
 70
     0
 40
0.0
 41
1.0
 50
0.0
 71
     0
 42
3.0
  3
romans.shx
  4
extfont.shx
  0
STYLE
  2

 70
     1
 40
0.0
 41
1.0
 50
0.0
 71
     0
 42
3.0
  3
genltshp.shx
  4

  0
ENDTAB
  0
TABLE
  2
VIEW
 70
     0
  0
ENDTAB
  0
TABLE
  2
UCS
 70
     0
  0
ENDTAB
  0
TABLE
  2
APPID
 70
    39
  0
APPID
  2
ACAD
 70
     0
  0
APPID
  2
GLOBAL
 70
     0
  0
APPID
  2
DETAIL
 70
     0
  0
APPID
  2
GRPNAME
 70
     0
  0
APPID
  2
GPARA
 70
     0
  0
APPID
  2
MCAD_NO_VIS
 70
     0
  0
APPID
  2
ACAD_TEMP_GRAPHIC
 70
     0
  0
APPID
  2
ACATTRIBSERVICES
 70
     0
  0
APPID
  2
GENIUS_GENSCREG_15
 70
     0
  0
APPID
  2
GENIUS_GENODEF_13
 70
     0
  0
APPID
  2
GENIUS_GENOBJ-N-SDF_13
 70
     0
  0
APPID
  2
GENIUS_GENREC_14
 70
     0
  0
APPID
  2
GENIUS_GENOBJ-N-REC_13
 70
     0
  0
APPID
  2
GENIUS_GENDIMSH_14
 70
     0
  0
APPID
  2
GENIUS_GENOBJ-N-DIM_13
 70
     0
  0
APPID
  2
GENIUS_GENDIM_13
 70
     0
  0
APPID
  2
GENIUS_GENDTOL_13
 70
     0
  0
APPID
  2
GENIUS_GENOLIS_13
 70
     0
  0
APPID
  2
GENIUS_GENOENT_13
 70
     0
  0
APPID
  2
GENIUS_GENOBJ-F-FEM_13
 70
     0
  0
APPID
  2
GENIUS_GENOREF_13
 70
     0
  0
APPID
  2
GENIUS_GEFFEM_13
 70
     0
  0
APPID
  2
GENIUS_GEFFEMP_13
 70
     0
  0
APPID
  2
AD_DRAW
 70
     0
  0
APPID
  2
DESIGNERASSEMBLIES
 70
     0
  0
APPID
  2
ACADM_DIM_EDIT
 70
     0
  0
APPID
  2
AMDT_DM_ADJ
 70
     0
  0
APPID
  2
ITEMNAME
 70
     0
  0
APPID
  2
GENIUS_GENOBJ-N-FIL_13
 70
     0
  0
APPID
  2
GENIUS_GENFIL_13
 70
     0
  0
APPID
  2
GENIUS_GENOBJ-N-CHA_13
 70
     0
  0
APPID
  2
ACAECLAYERSTANDARD
 70
     0
  0
APPID
  2
ACAD_NAV_VCDISPLAY
 70
     0
  0
APPID
  2
ACAD_EXEMPT_FROM_CAD_STANDARDS
 70
     0
  0
APPID
  2
ASK_MEN_XD
 70
     0
  0
APPID
  2
ACAD_DSTYLE_DIMJAG
 70
     0
  0
APPID
  2
ACAD_DSTYLE_DIMBREAK
 70
     0
  0
APPID
  2
ACAD_DSTYLE_DIMINSPECT
 70
     0
  0
APPID
  2
ACAD_MLEADERVER
 70
     0
  0
ENDTAB
  0
TABLE
  2
DIMSTYLE
 70
    29
  0
DIMSTYLE
  2
BIGT
 70
     0
  3

  4

  5
OPEN
  6

  7

 40
1.0
 41
2.2299999999999991
 42
0.5
 43
7.0
 44
1.0
 45
0.0
 46
0.0
 47
0.0
 48
0.01
140
2.7999999999999989
141
0.0
142
0.0
143
25.399999999999999
144
1.0
145
0.0
146
1.0
147
1.0
 71
     0
 72
     0
 73
     0
 74
     0
 75
     0
 76
     0
 77
     3
 78
     9
170
     0
171
     2
172
     1
173
     0
174
     1
175
     0
176
   256
177
   256
178
    40
  0
DIMSTYLE
  2
AM_ISO
 70
     0
  3

  4
"
  5

  6

  7

 40
1.0
 41
2.5
 42
1.0
 43
10.0
 44
1.0
 45
0.0
 46
0.0
 47
0.1
 48
0.1
140
3.5
141
0.0
142
0.0
143
0.0393701
144
1.0
145
0.0
146
0.71
147
1.5
 71
     0
 72
     0
 73
     0
 74
     0
 75
     0
 76
     0
 77
     1
 78
     8
170
     0
171
     2
172
     1
173
     0
174
     0
175
     0
176
   256
177
   256
178
     2
  0
DIMSTYLE
  2
AM_ISO$3
 70
     0
  3

  4
"
  5

  6

  7

 40
1.0
 41
2.5
 42
1.0
 43
10.0
 44
1.0
 45
0.0
 46
0.0
 47
0.1
 48
0.1
140
3.5
141
0.0
142
0.0
143
0.0393701
144
1.0
145
0.0
146
0.71
147
1.5
 71
     0
 72
     0
 73
     0
 74
     1
 75
     0
 76
     0
 77
     1
 78
     8
170
     0
171
     2
172
     0
173
     0
174
     0
175
     0
176
   256
177
   256
178
     2
  0
DIMSTYLE
  2
AM_ISO$4
 70
     0
  3

  4
"
  5

  6

  7

 40
1.0
 41
2.5
 42
1.0
 43
10.0
 44
1.0
 45
0.0
 46
0.0
 47
0.1
 48
0.1
140
3.5
141
0.0
142
0.0
143
0.0393701
144
1.0
145
0.0
146
0.71
147
1.5
 71
     0
 72
     0
 73
     0
 74
     1
 75
     0
 76
     0
 77
     1
 78
     8
170
     0
171
     2
172
     0
173
     0
174
     0
175
     0
176
   256
177
   256
178
     2
  0
DIMSTYLE
  2
AM_ISO$6
 70
     0
  3

  4
"
  5

  6

  7

 40
1.0
 41
2.5
 42
1.0
 43
10.0
 44
1.0
 45
0.0
 46
0.0
 47
0.1
 48
0.1
140
3.5
141
0.0
142
0.0
143
0.0393701
144
1.0
145
0.0
146
0.71
147
1.5
 71
     0
 72
     0
 73
     0
 74
     0
 75
     0
 76
     0
 77
     0
 78
     8
170
     0
171
     2
172
     1
173
     0
174
     0
175
     0
176
   256
177
   256
178
     2
  0
DIMSTYLE
  2
AM_ISO$7
 70
     0
  3

  4
"
  5

  6

  7

 40
1.0
 41
2.5
 42
1.0
 43
10.0
 44
1.0
 45
0.0
 46
0.0
 47
0.1
 48
0.1
140
5.0
141
0.0
142
0.0
143
0.0393701
144
1.0
145
0.0
146
0.71
147
1.5
 71
     0
 72
     0
 73
     0
 74
     0
 75
     0
 76
     0
 77
     1
 78
     8
170
     0
171
     2
172
     1
173
     0
174
     0
175
     0
176
   256
177
   256
178
     2
  0
DIMSTYLE
  2
AM_ISO$SF
 70
     0
  3

  4
"
  5

  6

  7

 40
1.0
 41
2.5
 42
1.0
 43
10.0
 44
1.0
 45
0.0
 46
0.0
 47
0.1
 48
0.1
140
3.5
141
0.0
142
0.0
143
0.0393701
144
1.0
145
0.0
146
0.71
147
1.5
 71
     0
 72
     0
 73
     0
 74
     0
 75
     1
 76
     1
 77
     1
 78
     8
170
     0
171
     2
172
     1
173
     0
174
     0
175
     0
176
   256
177
   256
178
     2
  0
DIMSTYLE
  2
AM_ISO$SH
 70
     0
  3

  4
"
  5

  6
GENAXEH
  7

 40
1.0
 41
2.5
 42
1.0
 43
10.0
 44
1.0
 45
0.0
 46
0.0
 47
0.1
 48
0.1
140
3.5
141
0.0
142
0.0
143
0.0393701
144
2.0
145
0.0
146
0.71
147
1.5
 71
     0
 72
     0
 73
     0
 74
     0
 75
     1
 76
     1
 77
     1
 78
     8
170
     0
171
     2
172
     1
173
     1
174
     0
175
     0
176
   256
177
   256
178
     2
  0
ENDTAB
  0
ENDSEC
  0
SECTION
  2
BLOCKS
  0
BLOCK
  8
0
  2
$MODEL_SPACE
 70
     0
 10
0.0
 20
0.0
 30
0.0
  3
$MODEL_SPACE
  1

  0
ENDBLK
  5
1C
  8
0
  0
BLOCK
 67
     1
  8
0
  2
$PAPER_SPACE
 70
     0
 10
0.0
 20
0.0
 30
0.0
  3
$PAPER_SPACE
  1

  0
ENDBLK
  5
19
 67
     1
  8
0
  0
BLOCK
  8
0
  2
_OPEN
 70
     0
 10
0.0
 20
0.0
 30
0.0
  3
_OPEN
  1

  0
LINE
  5
3E1A
  8
0
  6
BYBLOCK
 62
     0
 10
-1.0
 20
0.1666666666666666
 30
0.0
 11
0.0
 21
0.0
 31
0.0
  0
LINE
  5
3E1B
  8
0
  6
BYBLOCK
 62
     0
 10
-1.0
 20
-0.1666666666666666
 30
0.0
 11
0.0
 21
0.0
 31
0.0
  0
LINE
  5
3E1C
  8
0
  6
BYBLOCK
 62
     0
 10
0.0
 20
0.0
 30
0.0
 11
-1.0
 21
0.0
 31
0.0
  0
ENDBLK
  5
3E1D
  8
0
  0
BLOCK
  8
0
  2
GENAXEH
 70
     0
 10
0.0
 20
0.0
 30
0.0
  3
GENAXEH
  1

  0
LINE
  5
3E45
  8
0
 10
-1.0
 20
0.0
 30
0.0
 11
1.0
 21
0.0
 31
0.0
  0
ENDBLK
  5
3E46
  8
0
  0
ENDSEC
  0
SECTION
  2
ENTITIES
  0
LINE
  5
42A0
  8
245
  6
CENTER2
 10
-38.999999999999972
 20
0.0
 30
0.0
 11
93.499364540351053
 21
0.0
 31
0.0
  0
LINE
  5
42A1
  8
240
  6
CONTINUOUS
 10
-37.999999999999972
 20
-19.7249230954402
 30
0.0
 11
-37.999999999999972
 21
22.524923095440219
 31
0.0
1001
GRPNAME
1000
PASTMD30
  0
LINE
  5
42A2
  8
240
  6
CONTINUOUS
 10
-37.999999999999972
 20
-19.7249230954402
 30
0.0
 11
0.0
 21
-20.6750065918194
 31
0.0
1001
GRPNAME
1000
PASTMD30
  0
LINE
  5
42A3
  8
243
  6
HIDDEN2
 10
-37.999999999999972
 20
-18.0
 30
0.0
 11
-31.80000000000004
 21
-18.0
 31
0.0
1001
GRPNAME
1000
PASTMD30
  0
LINE
  5
42A4
  8
243
  6
HIDDEN2
 10
-29.871855430570321
 20
-19.928144569429652
 30
0.0
 11
-31.79999999999993
 21
-18.0
 31
0.0
1001
GRPNAME
1000
PASTMD30
  0
LINE
  5
42A5
  8
243
  6
HIDDEN2
 10
-31.80000000000004
 20
-19.879936718533649
 30
0.0
 11
-31.80000000000004
 21
-18.0
 31
0.0
1001
GRPNAME
1000
PASTMD30
  0
LINE
  5
42A6
  8
240
  6
CONTINUOUS
 10
0.0
 20
-31.5
 30
0.0
 11
0.0
 21
-20.6750065918194
 31
0.0
1001
GRPNAME
1000
PASTMD30
  0
LINE
  5
42A7
  8
240
  6
CONTINUOUS
 10
-37.999999999999972
 20
22.524923095440219
 30
0.0
 11
0.0
 21
23.475006591819412
 31
0.0
1001
GRPNAME
1000
PASTMD30
  0
LINE
  5
42A8
  8
240
  6
CONTINUOUS
 10
0.0
 20
31.5
 30
0.0
 11
0.0
 21
23.475006591819412
 31
0.0
1001
GRPNAME
1000
PASTMD30
  0
LINE
  5
42A9
  8
241
  6
CONTINUOUS
 10
22.000000000000242
 20
-31.5
 30
0.0
 11
22.000000000000568
 21
31.5
 31
0.0
  0
LINE
  5
42AA
  8
240
  6
CONTINUOUS
 10
0.0
 20
31.5
 30
0.0
 11
22.000000000000242
 21
31.5
 31
0.0
  0
LINE
  5
42AB
  8
240
  6
CONTINUOUS
 10
0.0
 20
-31.5
 30
0.0
 11
22.000000000000242
 21
-31.5
 31
0.0
  0
LINE
  5
42AC
  8
241
  6
CONTINUOUS
 10
9.9499999999999869
 20
8.9923414211634736
 30
0.0
 11
9.9499999999999869
 21
30.18137425657125
 31
0.0
1001
GRPNAME
1000
PASTMD30
  0
LINE
  5
42AD
  8
241
  6
CONTINUOUS
 10
9.9499999999999869
 20
30.18137425657125
 30
0.0
 11
14.05000000000001
 21
30.18137425657125
 31
0.0
1001
GRPNAME
1000
PASTMD30
  0
LINE
  5
42AE
  8
241
  6
CONTINUOUS
 10
14.05000000000055
 20
8.9923414211634736
 30
0.0
 11
14.05000000000001
 21
30.18137425657125
 31
0.0
1001
GRPNAME
1000
PASTMD30
  0
LINE
  5
42AF
  8
241
  6
CONTINUOUS
 10
9.9499999999999869
 20
8.9923414211634736
 30
0.0
 11
14.05000000000055
 21
8.9923414211634736
 31
0.0
1001
GRPNAME
1000
PASTMD30
  0
LINE
  5
42B0
  8
241
  6
CONTINUOUS
 10
0.0
 20
-20.675006591819429
 30
0.0
 11
0.0
 21
23.47500659181938
 31
0.0
  0
LINE
  5
42B1
  8
250
  6
CONTINUOUS
 10
-18.76198996755296
 20
-21.987243911098801
 30
0.0
 11
-17.325117192479748
 21
-20.24184059399283
 31
0.0
  0
LINE
  5
42B2
  8
250
  6
CONTINUOUS
 10
-18.11824441740653
 20
-22.358910577765482
 30
0.0
 11
-17.325117192479748
 21
-20.24184059399283
 31
0.0
  0
LINE
  5
42B3
  8
250
  6
CONTINUOUS
 10
-17.325117192479748
 20
-20.24184059399283
 30
0.0
 11
-18.44011719247975
 21
-22.17307724443214
 31
0.0
  0
POLYLINE
  5
42B4
  8
250
  6
CONTINUOUS
 66
     1
 10
0.0
 20
0.0
 30
0.0
  0
VERTEX
  5
42B5
  8
250
  6
CONTINUOUS
 10
-18.44011719247975
 20
-22.17307724443214
 30
0.0
  0
VERTEX
  5
42B6
  8
250
  6
CONTINUOUS
 10
-23.825018556117701
 20
-31.5
 30
0.0
  0
SEQEND
  5
42B7
  8
250
  6
CONTINUOUS
  0
TEXT
  5
42B8
  8
250
  6
CONTINUOUS
 10
-31.691685222784368
 20
-30.5
 30
0.0
 40
2.799999999999998
  1
C6
  7
YOKO
1001
ITEMNAME
1000
LNSP3
  0
LINE
  5
42B9
  8
250
  6
CONTINUOUS
 10
-23.825018556117701
 20
-31.5
 30
0.0
 11
-34.091685222784371
 21
-31.5
 31
0.0
1001
ITEMNAME
1000
LNSP2
  0
ARC
  5
42BA
  8
241
  6
CONTINUOUS
 10
-16.228827256943418
 20
19.586857838866582
 30
0.0
 40
32.07882725694369
 50
340.71513450902091
 51
19.284865490980941
  0
ARC
  5
42BB
  8
241
  6
CONTINUOUS
 10
40.228827256943717
 20
19.58685783886736
 30
0.0
 40
32.07882725694374
 50
160.71513450901909
 51
199.28486549098051
  0
LINE
  5
42BC
  8
241
  6
CONTINUOUS
 10
9.9499999999999869
 20
-8.9923414211634736
 30
0.0
 11
9.9499999999999869
 21
-30.18137425657125
 31
0.0
1001
GRPNAME
1000
PASTMD30
  0
LINE
  5
42BD
  8
241
  6
CONTINUOUS
 10
9.9499999999999869
 20
-30.18137425657125
 30
0.0
 11
14.05000000000001
 21
-30.18137425657125
 31
0.0
1001
GRPNAME
1000
PASTMD30
  0
LINE
  5
42BE
  8
241
  6
CONTINUOUS
 10
14.05000000000055
 20
-8.9923414211634736
 30
0.0
 11
14.05000000000001
 21
-30.18137425657125
 31
0.0
1001
GRPNAME
1000
PASTMD30
  0
LINE
  5
42BF
  8
241
  6
CONTINUOUS
 10
9.9499999999999869
 20
-8.9923414211634736
 30
0.0
 11
14.05000000000055
 21
-8.9923414211634736
 31
0.0
1001
GRPNAME
1000
PASTMD30
  0
ARC
  5
42C0
  8
241
  6
CONTINUOUS
 10
-16.228827256943418
 20
-19.586857838866582
 30
0.0
 40
32.07882725694369
 50
340.71513450901892
 51
19.284865490979119
  0
ARC
  5
42C1
  8
241
  6
CONTINUOUS
 10
40.228827256943717
 20
-19.58685783886736
 30
0.0
 40
32.07882725694374
 50
160.71513450901909
 51
199.28486549098051
  0
LINE
  5
42C2
  8
247
  6
CONTINUOUS
 10
6.0
 20
-17.250000000069999
 30
0.0
 11
6.0
 21
-10.557692308029999
 31
0.0
  0
ARC
  5
42C3
  8
247
  6
CONTINUOUS
 10
4.2500000000699742
 20
-17.250000000069999
 30
0.0
 40
1.7499999999299991
 50
180.0
 51
0.0
  0
ARC
  5
42C4
  8
247
  6
CONTINUOUS
 10
4.2500000000699742
 20
-10.557692308029999
 30
0.0
 40
1.7499999999299991
 50
0.0
 51
180.0
  0
LINE
  5
42C5
  8
247
  6
CONTINUOUS
 10
2.500000000140004
 20
-16.38461538472
 30
0.0
 11
5.5000000000200071
 21
-17.244851541962021
 31
0.0
  0
LINE
  5
42C6
  8
247
  6
CONTINUOUS
 10
3.923076923160008
 20
-15.48498381833582
 30
0.0
 11
3.923076923160008
 21
-16.79267612597582
 31
0.0
  0
ARC
  5
42C7
  8
247
  6
CONTINUOUS
 10
3.04959866770298
 20
-15.14514381608978
 30
0.0
 40
0.5538165441895349
 50
72.997889675291773
 51
172.92416621851191
  0
ARC
  5
42C8
  8
247
  6
CONTINUOUS
 10
2.936033044465773
 20
-15.56687832302879
 30
0.0
 40
0.9904354236226808
 50
4.7429368522022122
 51
73.849226273266297
1001
GENIUS_GENOBJ-N-FIL_13
1002
{
1000
OWNER
1000
GEN
1002
}
1001
GENIUS_GENODEF_13
1002
{
1000
HIER
1070
     0
1002
}
1002
{
1000
MANEDIT
1070
     0
1002
}
1002
{
1000
NOSEL
1070
     0
1002
}
1002
{
1000
BEHIND
1070
     0
1002
}
1002
{
1000
OTHER
1070
     0
1002
}
1002
{
1000
REACTOR
1002
}
  0
LINE
  5
42C9
  8
247
  6
CONTINUOUS
 10
5.5000000000200071
 20
-15.937159234321991
 30
0.0
 11
5.5000000000200071
 21
-17.244851541962021
 31
0.0
  0
LINE
  5
42CA
  8
247
  6
CONTINUOUS
 10
2.500000000140004
 20
-16.38461538472
 30
0.0
 11
2.500000000140004
 21
-15.07692307707998
 31
0.0
  0
ARC
  5
42CB
  8
247
  6
CONTINUOUS
 10
4.4820242326655348
 20
-15.56091963654697
 30
0.0
 40
0.5640818586791229
 50
65.990941652528889
 51
172.26344345906909
  0
ARC
  5
42CC
  8
247
  6
CONTINUOUS
 10
4.487429039186563
 20
-16.03826268534706
 30
0.0
 40
1.0176059446230981
 50
5.7019851642581241
 51
77.277338436822376
1001
GENIUS_GENOBJ-N-FIL_13
1002
{
1000
OWNER
1000
GEN
1002
}
1001
GENIUS_GENODEF_13
1002
{
1000
HIER
1070
     0
1002
}
1002
{
1000
MANEDIT
1070
     0
1002
}
1002
{
1000
NOSEL
1070
     0
1002
}
1002
{
1000
BEHIND
1070
     0
1002
}
1002
{
1000
OTHER
1070
     0
1002
}
1002
{
1000
REACTOR
1002
}
  0
LINE
  5
42CD
  8
247
  6
CONTINUOUS
 10
5.5000000000200071
 20
-14.283313080541999
 30
0.0
 11
2.500000000140004
 21
-13.423076923300011
 31
0.0
  0
LINE
  5
42CE
  8
247
  6
CONTINUOUS
 10
2.500000000140004
 20
-11.00000000032
 30
0.0
 11
2.500000000140004
 21
-11.565736619456599
 31
0.0
  0
LINE
  5
42CF
  8
247
  6
CONTINUOUS
 10
5.5000000000200071
 20
-12.461538461799989
 30
0.0
 11
5.5000000000200071
 21
-11.846153846440011
 31
0.0
  0
ARC
  5
42D0
  8
247
  6
CONTINUOUS
 10
4.5832851359733668
 20
-10.708791209122859
 30
0.0
 40
2.2526500823422122
 50
202.3594881415259
 51
254.99324854284609
  0
ARC
  5
42D1
  8
247
  6
CONTINUOUS
 10
3.3083126551945261
 20
-11.37406947921323
 30
0.0
 40
0.8906723995727782
 50
94.994589319075317
 51
155.1663289573039
1001
GENIUS_GENOBJ-N-FIL_13
1002
{
1000
OWNER
1000
GEN
1002
}
1001
GENIUS_GENODEF_13
1002
{
1000
HIER
1070
     0
1002
}
1002
{
1000
MANEDIT
1070
     0
1002
}
1002
{
1000
NOSEL
1070
     0
1002
}
1002
{
1000
BEHIND
1070
     0
1002
}
1002
{
1000
OTHER
1070
     0
1002
}
1002
{
1000
REACTOR
1002
}
  0
ARC
  5
42D2
  8
247
  6
CONTINUOUS
 10
4.160145888667782
 20
-12.22645888621258
 30
0.0
 40
1.392781735586712
 50
15.84609655577912
 51
82.325137004169065
  0
ARC
  5
42D3
  8
247
  6
CONTINUOUS
 10
4.4592434315272831
 20
-11.64221272584035
 30
0.0
 40
1.324563662670287
 50
249.7136016704969
 51
321.78874565640888
1001
GENIUS_GENOBJ-N-FIL_13
1002
{
1000
OWNER
1000
GEN
1002
}
1001
GENIUS_GENODEF_13
1002
{
1000
HIER
1070
     0
1002
}
1002
{
1000
MANEDIT
1070
     0
1002
}
1002
{
1000
NOSEL
1070
     0
1002
}
1002
{
1000
BEHIND
1070
     0
1002
}
1002
{
1000
OTHER
1070
     0
1002
}
1002
{
1000
REACTOR
1002
}
  0
LINE
  5
42D4
  8
247
  6
CONTINUOUS
 10
4.346153846219976
 20
-11.53846153876
 30
0.0
 11
4.346153846219976
 21
-10.84615384648
 31
0.0
  0
LINE
  5
42D5
  8
247
  6
CONTINUOUS
 10
2.500000000139976
 20
-17.250000000069999
 30
0.0
 11
2.500000000139976
 21
-16.576923077020009
 31
0.0
  0
LINE
  5
4326
  8
240
  6
CONTINUOUS
 10
22.099999999979659
 20
31.40000000002059
 30
0.0
 11
42.199999999996713
 21
31.39999999998761
 31
0.0
  0
LINE
  5
4327
  8
241
  6
CONTINUOUS
 10
35.099999999998218
 20
31.39999999999997
 30
0.0
 11
35.099999999998317
 21
-31.400000000000041
 31
0.0
  0
LINE
  5
4328
  8
240
  6
CONTINUOUS
 10
90.899999999999935
 20
-23.91000000004156
 30
0.0
 11
88.899999999998144
 21
-23.90999999999433
 31
0.0
  0
LINE
  5
4329
  8
240
  6
CONTINUOUS
 10
90.899999999999935
 20
-23.91000000004156
 30
0.0
 11
90.900000000000063
 21
23.91000000004134
 31
0.0
  0
LINE
  5
432A
  8
241
  6
CONTINUOUS
 10
88.899999999998656
 20
23.909999999993602
 30
0.0
 11
88.899999999999054
 21
-23.909999999993769
 31
0.0
  0
LINE
  5
432B
  8
240
  6
CONTINUOUS
 10
90.899999999999935
 20
23.91000000004134
 30
0.0
 11
88.899999999999665
 21
23.909999999994149
 31
0.0
  0
LINE
  5
432C
  8
243
  6
HIDDEN2
 10
23.900000000000009
 20
15.87499999999997
 30
0.0
 11
90.900000000000063
 21
15.87500000000006
 31
0.0
1001
GRPNAME
1000
PASTMD64
  0
LINE
  5
432D
  8
243
  6
HIDDEN2
 10
23.900000000000009
 20
-15.87499999999986
 30
0.0
 11
90.899999999999935
 21
-15.875000000000121
 31
0.0
1001
GRPNAME
1000
PASTMD64
  0
LINE
  5
432E
  8
240
  6
CONTINUOUS
 10
45.699999999999669
 20
-35.350000000000037
 30
0.0
 11
53.999999999999631
 21
-35.350000000000037
 31
0.0
  0
LINE
  5
432F
  8
240
  6
CONTINUOUS
 10
53.999999999999631
 20
-35.000000000000071
 30
0.0
 11
75.162612902726707
 21
-34.999999999999957
 31
0.0
  0
ARC
  5
4330
  8
240
  6
CONTINUOUS
 10
45.699999999999669
 20
-33.35000000000003
 30
0.0
 40
2.0
 50
180.0
 51
270.0
  0
LINE
  5
4331
  8
240
  6
CONTINUOUS
 10
88.899999999999665
 20
23.909999999994149
 30
0.0
 11
88.899999999999665
 21
27.19916984716113
 31
0.0
  0
ARC
  5
4332
  8
240
  6
CONTINUOUS
 10
42.199999999999093
 20
-32.90000000000002
 30
0.0
 40
1.5
 50
359.99999999999972
 51
90.0
1001
ASK_MEN_XD
1005
0
1070
     1
1005
0
1070
     1
  0
LINE
  5
4333
  8
241
  6
CONTINUOUS
 10
53.999999999999631
 20
-35.000000000000071
 30
0.0
 11
53.999999999999638
 21
35.350000000000151
 31
0.0
1001
GRPNAME
1000
PASTMD1C
  0
LINE
  5
4334
  8
240
  6
CONTINUOUS
 10
86.268080573302356
 20
-30.957940330304801
 30
0.0
 11
75.162612902727318
 21
-34.99999999999941
 31
0.0
  0
ARC
  5
4335
  8
240
  6
CONTINUOUS
 10
84.899999999999622
 20
-27.19916984716118
 30
0.0
 40
4.0
 50
290.0
 51
0.0
  0
LINE
  5
4336
  8
241
  6
CONTINUOUS
 10
75.162612902727318
 20
-34.99999999999941
 30
0.0
 11
75.162612902727204
 21
34.99999999999995
 31
0.0
  0
LINE
  5
4337
  8
241
  6
CONTINUOUS
 10
43.699999999999669
 20
-32.90000000000002
 30
0.0
 11
43.699999999999669
 21
32.900000000000091
 31
0.0
  0
LINE
  5
4338
  8
240
  6
CONTINUOUS
 10
43.69999999999969
 20
-32.90000000000002
 30
0.0
 11
43.699999999999669
 21
-33.35000000000003
 31
0.0
  0
LINE
  5
4339
  8
240
  6
CONTINUOUS
 10
45.69999999999974
 20
35.350000000000072
 30
0.0
 11
53.999999999999709
 21
35.350000000000051
 31
0.0
  0
LINE
  5
433A
  8
240
  6
CONTINUOUS
 10
53.999999999999552
 20
35.000000000000092
 30
0.0
 11
75.162612902726792
 21
34.999999999999922
 31
0.0
  0
ARC
  5
433B
  8
240
  6
CONTINUOUS
 10
45.69999999999974
 20
33.350000000000072
 30
0.0
 40
2.0
 50
90.0
 51
179.9999999999998
  0
ARC
  5
433C
  8
240
  6
CONTINUOUS
 10
42.199999999999179
 20
32.900000000000091
 30
0.0
 40
1.5
 50
270.0
 51
0.0000000000001386
1001
ASK_MEN_XD
1005
0
1070
     1
1005
0
1070
     1
  0
LINE
  5
433D
  8
240
  6
CONTINUOUS
 10
86.268080573302356
 20
30.957940330304741
 30
0.0
 11
75.162612902727361
 21
34.999999999999382
 31
0.0
  0
ARC
  5
433E
  8
240
  6
CONTINUOUS
 10
84.899999999999622
 20
27.19916984716113
 30
0.0
 40
4.0
 50
359.99999999999977
 51
69.999999999999957
  0
LINE
  5
433F
  8
240
  6
CONTINUOUS
 10
43.699999999999783
 20
32.900000000000091
 30
0.0
 11
43.699999999999747
 21
33.350000000000072
 31
0.0
  0
LINE
  5
4340
  8
250
  6
CONTINUOUS
 10
108.89999999999949
 20
-15.875000000000099
 30
0.0
 11
91.399999999999949
 21
-15.875000000000069
 31
0.0
  0
LINE
  5
4341
  8
250
  6
CONTINUOUS
 10
108.89999999999949
 20
15.87500000000006
 30
0.0
 11
91.400000000000048
 21
15.87500000000006
 31
0.0
  0
LINE
  5
4342
  8
250
  6
CONTINUOUS
 10
107.89999999999949
 20
-14.000000000000121
 30
0.0
 11
107.89999999999949
 21
14.00000000000003
 31
0.0
  0
LINE
  5
4343
  8
250
  6
CONTINUOUS
 10
108.23333333333279
 20
-13.875000000000091
 30
0.0
 11
107.89999999999949
 21
-15.875000000000099
 31
0.0
  0
LINE
  5
4344
  8
250
  6
CONTINUOUS
 10
107.56666666666619
 20
-13.875000000000091
 30
0.0
 11
107.89999999999949
 21
-15.875000000000099
 31
0.0
  0
LINE
  5
4345
  8
250
  6
CONTINUOUS
 10
107.89999999999949
 20
-15.875000000000099
 30
0.0
 11
107.89999999999949
 21
-13.875000000000091
 31
0.0
  0
LINE
  5
4346
  8
250
  6
CONTINUOUS
 10
107.56666666666619
 20
13.87500000000003
 30
0.0
 11
107.89999999999949
 21
15.87500000000006
 31
0.0
  0
LINE
  5
4347
  8
250
  6
CONTINUOUS
 10
108.23333333333279
 20
13.87500000000003
 30
0.0
 11
107.89999999999949
 21
15.87500000000006
 31
0.0
  0
LINE
  5
4348
  8
250
  6
CONTINUOUS
 10
107.89999999999949
 20
15.87500000000006
 30
0.0
 11
107.89999999999949
 21
13.87500000000003
 31
0.0
  0
TEXT
  5
4349
  8
250
  6
CONTINUOUS
 10
106.89999999999949
 20
-6.8820933728615721
 30
0.0
 40
2.799999999999998
  1
\U+22051.250
 50
90.0
  0
LINE
  5
434A
  8
250
  6
CONTINUOUS
 10
75.662612902726707
 20
-34.999999999999957
 30
0.0
 11
115.89999999999949
 21
-34.999999999999957
 31
0.0
  0
LINE
  5
434B
  8
250
  6
CONTINUOUS
 10
75.662612902725925
 20
34.999999999999922
 30
0.0
 11
115.89999999999949
 21
34.999999999999922
 31
0.0
  0
LINE
  5
434C
  8
250
  6
CONTINUOUS
 10
114.89999999999949
 20
-32.999999999999972
 30
0.0
 11
114.89999999999949
 21
32.999999999999922
 31
0.0
  0
LINE
  5
434D
  8
250
  6
CONTINUOUS
 10
115.23333333333279
 20
-32.999999999999972
 30
0.0
 11
114.89999999999949
 21
-34.999999999999957
 31
0.0
  0
LINE
  5
434E
  8
250
  6
CONTINUOUS
 10
114.56666666666609
 20
-32.999999999999972
 30
0.0
 11
114.89999999999949
 21
-34.999999999999957
 31
0.0
  0
LINE
  5
434F
  8
250
  6
CONTINUOUS
 10
114.89999999999949
 20
-34.999999999999957
 30
0.0
 11
114.89999999999949
 21
-32.999999999999972
 31
0.0
  0
LINE
  5
4350
  8
250
  6
CONTINUOUS
 10
114.56666666666619
 20
32.999999999999922
 30
0.0
 11
114.89999999999949
 21
34.999999999999922
 31
0.0
  0
LINE
  5
4351
  8
250
  6
CONTINUOUS
 10
115.23333333333279
 20
32.999999999999922
 30
0.0
 11
114.89999999999949
 21
34.999999999999922
 31
0.0
  0
LINE
  5
4352
  8
250
  6
CONTINUOUS
 10
114.89999999999949
 20
34.999999999999922
 30
0.0
 11
114.89999999999949
 21
32.999999999999922
 31
0.0
  0
LINE
  5
4353
  8
240
  6
CONTINUOUS
 10
53.999999999999631
 20
-35.350000000000037
 30
0.0
 11
53.999999999999631
 21
-35.000000000000071
 31
0.0
  0
LINE
  5
4354
  8
240
  6
CONTINUOUS
 10
53.999999999999709
 20
35.350000000000051
 30
0.0
 11
53.999999999999552
 21
35.000000000000092
 31
0.0
  0
LINE
  5
4355
  8
240
  6
CONTINUOUS
 10
88.899999999998144
 20
-23.90999999999433
 30
0.0
 11
88.899999999999665
 21
-27.19916984716118
 31
0.0
  0
TEXT
  5
4356
  8
250
  6
CONTINUOUS
 10
93.649271175935155
 20
19.613517841677641
 30
0.0
 40
2.799999999999998
  1
Coolant
  7
YOKO
 11
93.649271175935155
 21
19.613517841677641
 31
0.0
 73
     1
  0
LINE
  5
4357
  8
250
  6
CONTINUOUS
 10
107.17856228415479
 20
18.371666666666759
 30
0.0
 11
109.4085622841548
 21
18.000000000000099
 31
0.0
  0
LINE
  5
4358
  8
250
  6
CONTINUOUS
 10
107.17856228415479
 20
17.628333333333419
 30
0.0
 11
109.4085622841548
 21
18.000000000000099
 31
0.0
  0
LINE
  5
4359
  8
250
  6
CONTINUOUS
 10
109.4085622841548
 20
18.000000000000099
 30
0.0
 11
107.17856228415479
 21
18.000000000000099
 31
0.0
  0
LINE
  5
435A
  8
250
  6
CONTINUOUS
 10
107.17856228415479
 20
18.000000000000099
 30
0.0
 11
93.899999999999167
 21
18.000000000000099
 31
0.0
  0
LINE
  5
435B
  8
250
  6
CONTINUOUS
 10
107.17856228415501
 20
-17.628333333333419
 30
0.0
 11
109.408562284155
 21
-18.000000000000082
 31
0.0
  0
LINE
  5
435C
  8
250
  6
CONTINUOUS
 10
107.17856228415501
 20
-18.371666666666759
 30
0.0
 11
109.408562284155
 21
-18.000000000000082
 31
0.0
  0
LINE
  5
435D
  8
250
  6
CONTINUOUS
 10
109.408562284155
 20
-18.000000000000082
 30
0.0
 11
107.17856228415501
 21
-18.000000000000082
 31
0.0
  0
LINE
  5
435E
  8
250
  6
CONTINUOUS
 10
107.17856228415501
 20
-18.000000000000082
 30
0.0
 11
93.89999999999938
 21
-18.000000000000082
 31
0.0
  0
TEXT
  5
435F
  8
250
  6
CONTINUOUS
 10
93.48690084179205
 20
-22.815545675999481
 30
0.0
 40
2.799999999999998
  1
Coolant
  7
YOKO
 11
93.48690084179205
 21
-22.815545675999481
 31
0.0
 73
     1
  0
TEXT
  5
4360
  8
250
  6
CONTINUOUS
 10
114.0361863956963
 20
-6.5833310467632682
 30
0.0
 40
2.799999999999998
  1
\U+2205
 50
90.0
  0
TEXT
  5
4361
  8
250
  6
CONTINUOUS
 10
114.0361863956963
 20
-4.0499977134299341
 30
0.0
 40
2.799999999999998
  1
2.756
 50
90.0
  0
TEXT
  5
4362
  8
241
  6
CONTINUOUS
 10
-42.0
 20
62.999999999999929
 30
0.0
 40
5.0
  1
C6-MEGA1.250DS-3.5A
  7
YOKO
 11
-42.0
 21
62.999999999999929
 31
0.0
 73
     1
  0
LINE
  5
438A
  8
240
  6
CONTINUOUS
 10
22.100000000000339
 20
-31.39999999999992
 30
0.0
 11
22.00000000000054
 21
-31.499999999999702
 31
0.0
  0
LINE
  5
438B
  8
240
  6
CONTINUOUS
 10
42.1999999999991
 20
-31.400000000000059
 30
0.0
 11
22.100000000000339
 21
-31.39999999999992
 31
0.0
  0
LINE
  5
438C
  8
241
  6
CONTINUOUS
 10
31.099999999998431
 20
-31.400000000000201
 30
0.0
 11
31.099999999998431
 21
31.400000000005811
 31
0.0
  0
LINE
  5
438D
  8
241
  6
CONTINUOUS
 10
33.099999999998431
 20
-31.40000000000035
 30
0.0
 11
33.099999999998417
 21
31.400000000002539
 31
0.0
  0
LINE
  5
4390
  8
241
  6
CONTINUOUS
 10
26.39999999999921
 20
-31.40000000000148
 30
0.0
 11
26.39999999999921
 21
31.400000000013531
 31
0.0
  0
LINE
  5
4391
  8
241
  6
CONTINUOUS
 10
27.599999999999511
 20
-31.400000000001739
 30
0.0
 11
27.60000000000819
 21
31.40000000001157
 31
0.0
  0
LINE
  5
4392
  8
240
  6
CONTINUOUS
 10
22.099999999979659
 20
31.40000000002059
 30
0.0
 11
22.00000000000054
 21
31.499999999999702
 31
0.0
  0
LINE
  5
43F1
  8
250
  6
CONTINUOUS
 10
90.900000000000063
 20
24.41000000004134
 30
0.0
 11
90.900000000000063
 21
43.350001000183532
 31
0.0
  0
LINE
  5
43F2
  8
250
  6
CONTINUOUS
 10
8.9999999999999716
 20
15.07499999999669
 30
0.0
 11
8.9999999999999734
 21
43.350001000183532
 31
0.0
  0
LINE
  5
43F3
  8
250
  6
CONTINUOUS
 10
88.670000000000059
 20
42.350001000183532
 30
0.0
 11
11.22999999999997
 21
42.350001000183532
 31
0.0
  0
LINE
  5
43F7
  8
250
  6
CONTINUOUS
 10
0.0
 20
32.0
 30
0.0
 11
0.0000000000000011
 21
50.0
 31
0.0
  0
LINE
  5
43F8
  8
250
  6
CONTINUOUS
 10
90.899999999999935
 20
24.41000000004134
 30
0.0
 11
90.899999999999935
 21
50.0
 31
0.0
  0
LINE
  5
43F9
  8
250
  6
CONTINUOUS
 10
2.23
 20
49.0
 30
0.0
 11
88.669999999999945
 21
49.0
 31
0.0
  0
TEXT
  5
43FD
  8
250
  6
CONTINUOUS
 10
42.159995439944531
 20
43.350001000183532
 30
0.0
 40
2.7999999999999989
  1
(max.3.22)
  0
LINE
  5
43FE
  8
250
  6
CONTINUOUS
 10
11.22999999999997
 20
41.978334333516862
 30
0.0
 11
8.9999999999999734
 21
42.350001000183532
 31
0.0
  0
LINE
  5
43FF
  8
250
  6
CONTINUOUS
 10
11.22999999999997
 20
42.721667666850202
 30
0.0
 11
8.9999999999999734
 21
42.350001000183532
 31
0.0
  0
LINE
  5
4400
  8
250
  6
CONTINUOUS
 10
8.9999999999999734
 20
42.350001000183532
 30
0.0
 11
11.22999999999997
 21
42.350001000183532
 31
0.0
  0
LINE
  5
4401
  8
250
  6
CONTINUOUS
 10
88.670000000000059
 20
42.721667666850202
 30
0.0
 11
90.900000000000063
 21
42.350001000183532
 31
0.0
  0
LINE
  5
4402
  8
250
  6
CONTINUOUS
 10
88.670000000000059
 20
41.978334333516862
 30
0.0
 11
90.900000000000063
 21
42.350001000183532
 31
0.0
  0
LINE
  5
4403
  8
250
  6
CONTINUOUS
 10
90.900000000000063
 20
42.350001000183532
 30
0.0
 11
88.670000000000059
 21
42.350001000183532
 31
0.0
  0
TEXT
  5
4404
  8
250
  6
CONTINUOUS
 10
39.516666666666637
 20
50.0
 30
0.0
 40
2.7999999999999989
  1
3.579
  0
LINE
  5
4405
  8
250
  6
CONTINUOUS
 10
88.669999999999945
 20
49.37166666666667
 30
0.0
 11
90.899999999999935
 21
49.0
 31
0.0
  0
LINE
  5
4406
  8
250
  6
CONTINUOUS
 10
88.669999999999945
 20
48.62833333333333
 30
0.0
 11
90.899999999999935
 21
49.0
 31
0.0
  0
LINE
  5
4407
  8
250
  6
CONTINUOUS
 10
90.899999999999935
 20
49.0
 30
0.0
 11
88.669999999999945
 21
49.0
 31
0.0
  0
LINE
  5
4408
  8
250
  6
CONTINUOUS
 10
2.23
 20
48.62833333333333
 30
0.0
 11
0.0000000000000011
 21
49.0
 31
0.0
  0
LINE
  5
4409
  8
250
  6
CONTINUOUS
 10
2.23
 20
49.37166666666667
 30
0.0
 11
0.0000000000000011
 21
49.0
 31
0.0
  0
LINE
  5
440A
  8
250
  6
CONTINUOUS
 10
0.0000000000000011
 20
49.0
 30
0.0
 11
2.23
 21
49.0
 31
0.0
  0
VIEWPORT
  5
22
 67
     1
  8
0
 10
261.51769911504419
 20
148.5
 30
0.0
 40
523.0353982300885
 41
297.0
 68
     1
 69
     1
1001
ACAD
1000
MVIEW
1002
{
1070
    16
1010
0.0
1020
0.0
1030
0.0
1010
0.0
1020
0.0
1030
1.0
1040
0.0
1040
297.0
1040
261.51769911504419
1040
148.5
1040
50.0
1040
0.0
1040
0.0
1070
     0
1070
   100
1070
     1
1070
     1
1070
     0
1070
     0
1070
     0
1070
     0
1040
0.0
1040
0.0
1040
0.0
1040
1.0
1040
1.0
1040
10.0
1040
10.0
1070
     0
1002
{
1002
}
1002
}
1001
GENIUS_GENODEF_13
1002
{
1000
HIER
1070
     0
1002
}
1002
{
1000
MANEDIT
1070
     0
1002
}
1002
{
1000
NOSEL
1070
     0
1002
}
1002
{
1000
BEHIND
1070
     0
1002
}
1002
{
1000
OTHER
1070
     0
1002
}
1002
{
1000
REACTOR
1002
}
1001
GENIUS_GENOBJ-N-SDF_13
1002
{
1000
OWNER
1000
GEN
1002
}
1001
GENIUS_GENSCREG_15
1000
PF
1040
1.0
1000
DF
1040
1.0
1000
MIN
1011
0.0
1021
0.0
1031
0.0
1021
0.0
1031
0.0
1000
MAX
1011
523.0353982300885
1021
0.0
1031
0.0
1021
297.0
1031
0.0
1000
FLAGS
1070
     4
  0
ENDSEC
  0
EOF
