  0
SECTION
  2
HEADER
  9
$ACADVER
  1
AC1015
  9
$ACADMAINTVER
 70
    20
  9
$DWGCODEPAGE
  3
ANSI_932
  9
$INSBASE
 10
0.0
 20
0.0
 30
0.0
  9
$EXTMIN
 10
-39.01400649968298
 20
-57.01080239844839
 30
-0.0015258207003583
  9
$EXTMAX
 10
210.0055397646565
 20
68.00949152443729
 30
0.0000000349246037
  9
$LIMMIN
 10
0.0
 20
0.0
  9
$LIMMAX
 10
420.0
 20
297.0
  9
$ORTHOMODE
 70
     1
  9
$REGENMODE
 70
     1
  9
$FILLMODE
 70
     1
  9
$QTEXTMODE
 70
     0
  9
$MIRRTEXT
 70
     1
  9
$LTSCALE
 40
10.0
  9
$ATTMODE
 70
     1
  9
$TEXTSIZE
 40
3.0
  9
$TRACEWID
 40
1.0
  9
$TEXTSTYLE
  7
YOKO
  9
$CLAYER
  8
245
  9
$CELTYPE
  6
ByLayer
  9
$CECOLOR
 62
   256
  9
$CELTSCALE
 40
1.0
  9
$DISPSILH
 70
     0
  9
$DIMSCALE
 40
1.0
  9
$DIMASZ
 40
2.0
  9
$DIMEXO
 40
0.5
  9
$DIMDLI
 40
2.5
  9
$DIMRND
 40
0.0
  9
$DIMDLE
 40
0.0
  9
$DIMEXE
 40
1.0
  9
$DIMTP
 40
0.0
  9
$DIMTM
 40
0.0
  9
$DIMTXT
 40
2.799999999999999
  9
$DIMCEN
 40
0.0
  9
$DIMTSZ
 40
0.0
  9
$DIMTOL
 70
     0
  9
$DIMLIM
 70
     0
  9
$DIMTIH
 70
     0
  9
$DIMTOH
 70
     0
  9
$DIMSE1
 70
     0
  9
$DIMSE2
 70
     0
  9
$DIMTAD
 70
     3
  9
$DIMZIN
 70
     8
  9
$DIMBLK
  1

  9
$DIMASO
 70
     1
  9
$DIMSHO
 70
     1
  9
$DIMPOST
  1
<>
  9
$DIMAPOST
  1

  9
$DIMALT
 70
     0
  9
$DIMALTD
 70
     2
  9
$DIMALTF
 40
25.4
  9
$DIMLFAC
 40
1.0
  9
$DIMTOFL
 70
     1
  9
$DIMTVP
 40
0.0
  9
$DIMTIX
 70
     1
  9
$DIMSOXD
 70
     0
  9
$DIMSAH
 70
     1
  9
$DIMBLK1
  1
OPEN
  9
$DIMBLK2
  1
OPEN
  9
$DIMSTYLE
  2
BIGT
  9
$DIMCLRD
 70
   256
  9
$DIMCLRE
 70
   256
  9
$DIMCLRT
 70
    40
  9
$DIMTFAC
 40
1.0
  9
$DIMGAP
 40
1.0
  9
$DIMJUST
 70
     0
  9
$DIMSD1
 70
     0
  9
$DIMSD2
 70
     0
  9
$DIMTOLJ
 70
     1
  9
$DIMTZIN
 70
     0
  9
$DIMALTZ
 70
     0
  9
$DIMALTTZ
 70
     0
  9
$DIMUPT
 70
     0
  9
$DIMDEC
 70
     3
  9
$DIMTDEC
 70
     4
  9
$DIMALTU
 70
     2
  9
$DIMALTTD
 70
     2
  9
$DIMTXSTY
  7
STANDARD
  9
$DIMAUNIT
 70
     0
  9
$DIMADEC
 70
     0
  9
$DIMALTRND
 40
0.0
  9
$DIMAZIN
 70
     0
  9
$DIMDSEP
 70
    46
  9
$DIMATFIT
 70
     0
  9
$DIMFRAC
 70
     0
  9
$DIMLDRBLK
  1
OPEN
  9
$DIMLUNIT
 70
     2
  9
$DIMLWD
 70
    -2
  9
$DIMLWE
 70
    -2
  9
$DIMTMOVE
 70
     0
  9
$LUNITS
 70
     2
  9
$LUPREC
 70
     2
  9
$SKETCHINC
 40
1.0
  9
$FILLETRAD
 40
16.0
  9
$AUNITS
 70
     0
  9
$AUPREC
 70
     3
  9
$MENU
  1
.
  9
$ELEVATION
 40
0.0
  9
$PELEVATION
 40
0.0
  9
$THICKNESS
 40
0.0
  9
$LIMCHECK
 70
     0
  9
$CHAMFERA
 40
0.2
  9
$CHAMFERB
 40
0.2
  9
$CHAMFERC
 40
0.0
  9
$CHAMFERD
 40
0.0
  9
$SKPOLY
 70
     0
  9
$TDCREATE
 40
2455106.573907870
  9
$TDUCREATE
 40
2455106.198907870
  9
$TDUPDATE
 40
2457869.580285151
  9
$TDUUPDATE
 40
2457869.205285151
  9
$TDINDWG
 40
0.0392373727
  9
$TDUSRTIMER
 40
0.0392373611
  9
$USRTIMER
 70
     1
  9
$ANGBASE
 50
0.0
  9
$ANGDIR
 70
     0
  9
$PDMODE
 70
     0
  9
$PDSIZE
 40
-5.0
  9
$PLINEWID
 40
0.0
  9
$SPLFRAME
 70
     0
  9
$SPLINETYPE
 70
     6
  9
$SPLINESEGS
 70
     8
  9
$HANDSEED
  5
189F
  9
$SURFTAB1
 70
     6
  9
$SURFTAB2
 70
     6
  9
$SURFTYPE
 70
     6
  9
$SURFU
 70
     6
  9
$SURFV
 70
     6
  9
$UCSBASE
  2

  9
$UCSNAME
  2

  9
$UCSORG
 10
0.0
 20
0.0
 30
0.0
  9
$UCSXDIR
 10
1.0
 20
0.0
 30
0.0
  9
$UCSYDIR
 10
0.0
 20
1.0
 30
0.0
  9
$UCSORTHOREF
  2

  9
$UCSORTHOVIEW
 70
     0
  9
$UCSORGTOP
 10
0.0
 20
0.0
 30
0.0
  9
$UCSORGBOTTOM
 10
0.0
 20
0.0
 30
0.0
  9
$UCSORGLEFT
 10
0.0
 20
0.0
 30
0.0
  9
$UCSORGRIGHT
 10
0.0
 20
0.0
 30
0.0
  9
$UCSORGFRONT
 10
0.0
 20
0.0
 30
0.0
  9
$UCSORGBACK
 10
0.0
 20
0.0
 30
0.0
  9
$PUCSBASE
  2

  9
$PUCSNAME
  2

  9
$PUCSORG
 10
0.0
 20
0.0
 30
0.0
  9
$PUCSXDIR
 10
1.0
 20
0.0
 30
0.0
  9
$PUCSYDIR
 10
0.0
 20
1.0
 30
0.0
  9
$PUCSORTHOREF
  2

  9
$PUCSORTHOVIEW
 70
     0
  9
$PUCSORGTOP
 10
0.0
 20
0.0
 30
0.0
  9
$PUCSORGBOTTOM
 10
0.0
 20
0.0
 30
0.0
  9
$PUCSORGLEFT
 10
0.0
 20
0.0
 30
0.0
  9
$PUCSORGRIGHT
 10
0.0
 20
0.0
 30
0.0
  9
$PUCSORGFRONT
 10
0.0
 20
0.0
 30
0.0
  9
$PUCSORGBACK
 10
0.0
 20
0.0
 30
0.0
  9
$USERI1
 70
     1
  9
$USERI2
 70
     0
  9
$USERI3
 70
     0
  9
$USERI4
 70
     0
  9
$USERI5
 70
     0
  9
$USERR1
 40
0.0
  9
$USERR2
 40
0.0
  9
$USERR3
 40
0.0
  9
$USERR4
 40
0.0
  9
$USERR5
 40
0.0
  9
$WORLDVIEW
 70
     1
  9
$SHADEDGE
 70
     3
  9
$SHADEDIF
 70
    70
  9
$TILEMODE
 70
     1
  9
$MAXACTVP
 70
    16
  9
$PINSBASE
 10
0.0
 20
0.0
 30
0.0
  9
$PLIMCHECK
 70
     0
  9
$PEXTMIN
 10
1.000000000000000E+20
 20
1.000000000000000E+20
 30
1.000000000000000E+20
  9
$PEXTMAX
 10
-1.000000000000000E+20
 20
-1.000000000000000E+20
 30
-1.000000000000000E+20
  9
$PLIMMIN
 10
0.0
 20
0.0
  9
$PLIMMAX
 10
420.0
 20
297.0
  9
$UNITMODE
 70
     0
  9
$VISRETAIN
 70
     0
  9
$PLINEGEN
 70
     0
  9
$PSLTSCALE
 70
     1
  9
$TREEDEPTH
 70
  3020
  9
$CMLSTYLE
  2
Standard
  9
$CMLJUST
 70
     0
  9
$CMLSCALE
 40
1.0
  9
$PROXYGRAPHICS
 70
     1
  9
$MEASUREMENT
 70
     0
  9
$CELWEIGHT
370
    -1
  9
$ENDCAPS
280
     0
  9
$JOINSTYLE
280
     0
  9
$LWDISPLAY
290
     0
  9
$INSUNITS
 70
     0
  9
$HYPERLINKBASE
  1

  9
$STYLESHEET
  1

  9
$XEDIT
290
     1
  9
$CEPSNTYPE
380
     0
  9
$PSTYLEMODE
290
     1
  9
$FINGERPRINTGUID
  2
{9158C5B5-1D03-4B55-AE27-34E8C40DEFE2}
  9
$VERSIONGUID
  2
{36CF719C-78D5-44AA-ABD2-EFA12159EC3E}
  9
$EXTNAMES
290
     1
  9
$PSVPSCALE
 40
0.0
  9
$OLESTARTUP
290
     0
  0
ENDSEC
  0
SECTION
  2
CLASSES
  0
CLASS
  1
ACDBDICTIONARYWDFLT
  2
AcDbDictionaryWithDefault
  3
ObjectDBX Classes
 90
        0
280
     0
281
     0
  0
CLASS
  1
MATERIAL
  2
AcDbMaterial
  3
ObjectDBX Classes
 90
     1153
280
     0
281
     0
  0
CLASS
  1
VISUALSTYLE
  2
AcDbVisualStyle
  3
ObjectDBX Classes
 90
     4095
280
     0
281
     0
  0
CLASS
  1
SCALE
  2
AcDbScale
  3
ObjectDBX Classes
 90
     1153
280
     0
281
     0
  0
CLASS
  1
TABLESTYLE
  2
AcDbTableStyle
  3
ObjectDBX Classes
 90
     4095
280
     0
281
     0
  0
CLASS
  1
MLEADERSTYLE
  2
AcDbMLeaderStyle
  3
ACDB_MLEADERSTYLE_CLASS
 90
     4095
280
     0
281
     0
  0
CLASS
  1
ACDBSECTIONVIEWSTYLE
  2
AcDbSectionViewStyle
  3
ObjectDBX Classes
 90
     1025
280
     0
281
     0
  0
CLASS
  1
ACDBDETAILVIEWSTYLE
  2
AcDbDetailViewStyle
  3
ObjectDBX Classes
 90
     1025
280
     0
281
     0
  0
CLASS
  1
SORTENTSTABLE
  2
AcDbSortentsTable
  3
ObjectDBX Classes
 90
        0
280
     0
281
     0
  0
CLASS
  1
DICTIONARYVAR
  2
AcDbDictionaryVar
  3
ObjectDBX Classes
 90
        0
280
     0
281
     0
  0
CLASS
  1
CELLSTYLEMAP
  2
AcDbCellStyleMap
  3
ObjectDBX Classes
 90
     1152
280
     0
281
     0
  0
CLASS
  1
ACDBPLACEHOLDER
  2
AcDbPlaceHolder
  3
ObjectDBX Classes
 90
        0
280
     0
281
     0
  0
CLASS
  1
LAYOUT
  2
AcDbLayout
  3
ObjectDBX Classes
 90
        0
280
     0
281
     0
  0
ENDSEC
  0
SECTION
  2
TABLES
  0
TABLE
  2
VPORT
  5
161C
330
0
100
AcDbSymbolTable
 70
     1
  0
VPORT
  5
1689
330
161C
100
AcDbSymbolTableRecord
100
AcDbViewportTableRecord
  2
*ACTIVE
 70
     0
 10
0.0
 20
0.0
 11
1.0
 21
1.0
 12
85.49576663248677
 22
5.499344562994458
 13
0.0
 23
0.0
 14
7.0
 24
7.0
 15
7.0
 25
7.0
 16
0.0
 26
0.0
 36
1.0
 17
0.0
 27
0.0
 37
0.0
 40
130.5195081702062
 41
1.914539400665926
 42
50.0
 43
0.0
 44
0.0
 50
0.0
 51
0.0
 71
     0
 72
  2000
 73
     1
 74
     0
 75
     0
 76
     0
 77
     0
 78
     0
281
     0
 65
     1
110
0.0
120
0.0
130
0.0
111
1.0
121
0.0
131
0.0
112
0.0
122
1.0
132
0.0
 79
     0
146
0.0
1001
ACAD_NAV_VCDISPLAY
1070
     3
  0
ENDTAB
  0
TABLE
  2
LTYPE
  5
1619
330
0
100
AcDbSymbolTable
 70
     4
  0
LTYPE
  5
166E
330
1619
100
AcDbSymbolTableRecord
100
AcDbLinetypeTableRecord
  2
ByBlock
 70
     0
  3

 72
    65
 73
     0
 40
0.0
  0
LTYPE
  5
166F
330
1619
100
AcDbSymbolTableRecord
100
AcDbLinetypeTableRecord
  2
ByLayer
 70
     0
  3

 72
    65
 73
     0
 40
0.0
  0
LTYPE
  5
1670
330
1619
100
AcDbSymbolTableRecord
100
AcDbLinetypeTableRecord
  2
CONTINUOUS
 70
     0
  3
Solid line
 72
    65
 73
     0
 40
0.0
  0
LTYPE
  5
168A
330
1619
100
AcDbSymbolTableRecord
100
AcDbLinetypeTableRecord
  2
CENTER2
 70
     0
  3
___ _ ___ _ ___ _ ___ _ ___ _ ___ _ ___ _ ___ _
 72
    65
 73
     4
 40
1.125
 49
0.75
 74
     0
 49
-0.125
 74
     0
 49
0.125
 74
     0
 49
-0.125
 74
     0
  0
LTYPE
  5
168B
330
1619
100
AcDbSymbolTableRecord
100
AcDbLinetypeTableRecord
  2
HIDDEN2
 70
     0
  3
_ _ _ _ _ _ _ _ _ _ _ _ _ _ _ _ _ _ _ _ _ _ _ _
 72
    65
 73
     2
 40
0.1875
 49
0.125
 74
     0
 49
-0.0625
 74
     0
  0
LTYPE
  5
168C
330
1619
100
AcDbSymbolTableRecord
100
AcDbLinetypeTableRecord
  2
PHANTOM2
 70
     0
  3
___ _ _ ___ _ _ ___ _ _ ___ _ _ ___ _ _ ___ _ _
 72
    65
 73
     6
 40
1.25
 49
0.625
 74
     0
 49
-0.125
 74
     0
 49
0.125
 74
     0
 49
-0.125
 74
     0
 49
0.125
 74
     0
 49
-0.125
 74
     0
  0
ENDTAB
  0
TABLE
  2
LAYER
  5
1616
102
{ACAD_XDICTIONARY
360
176D
102
}
330
0
100
AcDbSymbolTable
 70
     8
  0
LAYER
  5
1668
102
{ACAD_XDICTIONARY
360
17F4
102
}
330
1616
100
AcDbSymbolTableRecord
100
AcDbLayerTableRecord
  2
0
 70
     0
 62
     7
  6
CONTINUOUS
370
    -3
390
1623
  0
LAYER
  5
1687
102
{ACAD_XDICTIONARY
360
17F6
102
}
330
1616
100
AcDbSymbolTableRecord
100
AcDbLayerTableRecord
  2
245
 70
     0
 62
     2
  6
CENTER2
370
    -3
390
1623
  0
LAYER
  5
1697
102
{ACAD_XDICTIONARY
360
17F8
102
}
330
1616
100
AcDbSymbolTableRecord
100
AcDbLayerTableRecord
  2
240
 70
     0
 62
     4
  6
CONTINUOUS
370
    -3
390
1623
  0
LAYER
  5
1698
102
{ACAD_XDICTIONARY
360
17FA
102
}
330
1616
100
AcDbSymbolTableRecord
100
AcDbLayerTableRecord
  2
241
 70
     0
 62
   211
  6
CONTINUOUS
370
    -3
390
1623
  0
LAYER
  5
1699
102
{ACAD_XDICTIONARY
360
17FC
102
}
330
1616
100
AcDbSymbolTableRecord
100
AcDbLayerTableRecord
  2
242
 70
     0
 62
     3
  6
CONTINUOUS
370
    -3
390
1623
  0
LAYER
  5
169B
102
{ACAD_XDICTIONARY
360
17FE
102
}
330
1616
100
AcDbSymbolTableRecord
100
AcDbLayerTableRecord
  2
250
 70
     0
 62
     3
  6
CONTINUOUS
370
    -3
390
1623
  0
LAYER
  5
16EC
102
{ACAD_XDICTIONARY
360
1800
102
}
330
1616
100
AcDbSymbolTableRecord
100
AcDbLayerTableRecord
  2
243
 70
     0
 62
   211
  6
HIDDEN2
370
    -3
390
1623
  0
LAYER
  5
16ED
102
{ACAD_XDICTIONARY
360
1802
102
}
330
1616
100
AcDbSymbolTableRecord
100
AcDbLayerTableRecord
  2
247
 70
     0
 62
    60
  6
CONTINUOUS
370
    -3
390
1623
  0
ENDTAB
  0
TABLE
  2
STYLE
  5
1617
330
0
100
AcDbSymbolTable
 70
     2
  0
STYLE
  5
1669
330
1617
100
AcDbSymbolTableRecord
100
AcDbTextStyleTableRecord
  2
STANDARD
 70
     0
 40
0.0
 41
1.0
 50
0.0
 71
     0
 42
2.799999999999998
  3
romans.shx
  4
BIGFONT.SHX
  0
STYLE
  5
1688
330
1617
100
AcDbSymbolTableRecord
100
AcDbTextStyleTableRecord
  2
YOKO
 70
     0
 40
0.0
 41
1.0
 50
0.0
 71
     0
 42
3.0
  3
romans.shx
  4
extfont.shx
  0
ENDTAB
  0
TABLE
  2
VIEW
  5
161A
330
0
100
AcDbSymbolTable
 70
     0
  0
ENDTAB
  0
TABLE
  2
UCS
  5
161B
330
0
100
AcDbSymbolTable
 70
     0
  0
ENDTAB
  0
TABLE
  2
APPID
  5
161D
330
0
100
AcDbSymbolTable
 70
    24
  0
APPID
  5
166A
330
161D
100
AcDbSymbolTableRecord
100
AcDbRegAppTableRecord
  2
ACAD
 70
     0
  0
APPID
  5
1671
330
161D
100
AcDbSymbolTableRecord
100
AcDbRegAppTableRecord
  2
AcadAnnotative
 70
     0
  0
APPID
  5
169F
330
161D
100
AcDbSymbolTableRecord
100
AcDbRegAppTableRecord
  2
GLOBAL
 70
     0
  0
APPID
  5
16A0
330
161D
100
AcDbSymbolTableRecord
100
AcDbRegAppTableRecord
  2
DETAIL
 70
     0
  0
APPID
  5
16A1
330
161D
100
AcDbSymbolTableRecord
100
AcDbRegAppTableRecord
  2
GRPNAME
 70
     0
  0
APPID
  5
16A2
330
161D
100
AcDbSymbolTableRecord
100
AcDbRegAppTableRecord
  2
GPARA
 70
     0
  0
APPID
  5
16A3
330
161D
100
AcDbSymbolTableRecord
100
AcDbRegAppTableRecord
  2
DCO15
 70
     0
  0
APPID
  5
16A4
330
161D
100
AcDbSymbolTableRecord
100
AcDbRegAppTableRecord
  2
ITEMNAME
 70
     0
  0
APPID
  5
16A5
330
161D
100
AcDbSymbolTableRecord
100
AcDbRegAppTableRecord
  2
GRADE_0
 70
     0
  0
APPID
  5
16A6
330
161D
100
AcDbSymbolTableRecord
100
AcDbRegAppTableRecord
  2
CONTENTBLOCKICON
 70
     0
  0
APPID
  5
16A7
330
161D
100
AcDbSymbolTableRecord
100
AcDbRegAppTableRecord
  2
MCAD_NO_VIS
 70
     0
  0
APPID
  5
16A8
330
161D
100
AcDbSymbolTableRecord
100
AcDbRegAppTableRecord
  2
ACAD_TEMP_GRAPHIC
 70
     0
  0
APPID
  5
16A9
330
161D
100
AcDbSymbolTableRecord
100
AcDbRegAppTableRecord
  2
ACATTRIBSERVICES
 70
     0
  0
APPID
  5
16AA
330
161D
100
AcDbSymbolTableRecord
100
AcDbRegAppTableRecord
  2
DESIGNERASSEMBLIES
 70
     0
  0
APPID
  5
16AB
330
161D
100
AcDbSymbolTableRecord
100
AcDbRegAppTableRecord
  2
ACAD_DSTYLE_DIMJAG
 70
     0
  0
APPID
  5
16AC
330
161D
100
AcDbSymbolTableRecord
100
AcDbRegAppTableRecord
  2
ACAD_DSTYLE_DIMBREAK
 70
     0
  0
APPID
  5
16AD
330
161D
100
AcDbSymbolTableRecord
100
AcDbRegAppTableRecord
  2
GENIUS_GENSCREG_15
 70
     0
  0
APPID
  5
16AE
330
161D
100
AcDbSymbolTableRecord
100
AcDbRegAppTableRecord
  2
GENIUS_GENOBJ-N-SDF_13
 70
     0
  0
APPID
  5
16AF
330
161D
100
AcDbSymbolTableRecord
100
AcDbRegAppTableRecord
  2
GENIUS_GENODEF_13
 70
     0
  0
APPID
  5
16B0
330
161D
100
AcDbSymbolTableRecord
100
AcDbRegAppTableRecord
  2
ACAD_NAV_VCDISPLAY
 70
     0
  0
APPID
  5
16B1
330
161D
100
AcDbSymbolTableRecord
100
AcDbRegAppTableRecord
  2
ACAD_MLEADERVER
 70
     0
  0
APPID
  5
16EE
330
161D
100
AcDbSymbolTableRecord
100
AcDbRegAppTableRecord
  2
GENIUS_GENOBJ-N-FIL_13
 70
     0
  0
APPID
  5
176C
330
161D
100
AcDbSymbolTableRecord
100
AcDbRegAppTableRecord
  2
ACAD_PSEXT
 70
     0
  0
APPID
  5
1796
330
161D
100
AcDbSymbolTableRecord
100
AcDbRegAppTableRecord
  2
ACAD_DSTYLE_DIMRADIAL_EXTENSION
 70
     0
  0
ENDTAB
  0
TABLE
  2
DIMSTYLE
  5
161E
330
0
100
AcDbSymbolTable
 70
     1
100
AcDbDimStyleTable
 71
     1
340
16B2
  0
DIMSTYLE
105
16B2
330
161E
100
AcDbSymbolTableRecord
100
AcDbDimStyleTableRecord
  2
BIGT
 70
     0
 41
2.229999999999999
 42
0.5
 43
2.5
 44
1.0
 73
     0
 74
     0
 77
     3
 78
     8
140
2.799999999999998
141
0.0
147
1.0
172
     1
173
     1
174
     1
176
   256
177
   256
178
    40
271
     2
272
     2
279
     2
284
     8
285
     8
286
     8
340
1688
  0
ENDTAB
  0
TABLE
  2
BLOCK_RECORD
  5
1615
330
0
100
AcDbSymbolTable
 70
     2
  0
BLOCK_RECORD
  5
1683
102
{ACAD_XDICTIONARY
360
17A2
102
}
330
1615
100
AcDbSymbolTableRecord
100
AcDbBlockTableRecord
  2
*Model_Space
340
1686
  0
BLOCK_RECORD
  5
167F
330
1615
100
AcDbSymbolTableRecord
100
AcDbBlockTableRecord
  2
*Paper_Space
340
1682
  0
BLOCK_RECORD
  5
16C4
330
1615
100
AcDbSymbolTableRecord
100
AcDbBlockTableRecord
  2
_OPEN
340
0
102
{BLKREFS
331
17F1
331
17F2
331
17D3
331
17D4
102
}
  0
BLOCK_RECORD
  5
16C6
330
1615
100
AcDbSymbolTableRecord
100
AcDbBlockTableRecord
  2
矢印なし
340
0
102
{BLKREFS
331
6E6
102
}
  0
ENDTAB
  0
ENDSEC
  0
SECTION
  2
BLOCKS
  0
BLOCK
  5
1684
330
1683
100
AcDbEntity
  8
0
100
AcDbBlockBegin
  2
*Model_Space
 70
     0
 10
0.0
 20
0.0
 30
0.0
  3
*Model_Space
  1

  0
ENDBLK
  5
1685
330
1683
100
AcDbEntity
  8
0
100
AcDbBlockEnd
  0
BLOCK
  5
1680
330
167F
100
AcDbEntity
 67
     1
  8
0
100
AcDbBlockBegin
  2
*Paper_Space
 70
     0
 10
0.0
 20
0.0
 30
0.0
  3
*Paper_Space
  1

  0
ENDBLK
  5
1681
330
167F
100
AcDbEntity
 67
     1
  8
0
100
AcDbBlockEnd
  0
BLOCK
  5
16C5
330
16C4
100
AcDbEntity
  8
0
100
AcDbBlockBegin
  2
_OPEN
 70
     0
 10
0.0
 20
0.0
 30
0.0
  3
_OPEN
  1

  0
LINE
  5
595
330
16C4
100
AcDbEntity
  8
0
  6
ByBlock
 62
     0
100
AcDbLine
 10
-1.0
 20
0.16666667
 30
0.0
 11
0.0
 21
0.0
 31
0.0
  0
LINE
  5
596
330
16C4
100
AcDbEntity
  8
0
  6
ByBlock
 62
     0
100
AcDbLine
 10
-1.0
 20
-0.16666667
 30
0.0
 11
0.0
 21
0.0
 31
0.0
  0
LINE
  5
597
330
16C4
100
AcDbEntity
  8
0
  6
ByBlock
 62
     0
100
AcDbLine
 10
0.0
 20
0.0
 30
0.0
 11
-1.0
 21
0.0
 31
0.0
  0
ENDBLK
  5
599
330
16C4
100
AcDbEntity
  8
0
100
AcDbBlockEnd
  0
BLOCK
  5
16C7
330
16C6
100
AcDbEntity
  8
0
100
AcDbBlockBegin
  2
矢印なし
 70
     0
 10
0.0
 20
0.0
 30
0.0
  3
矢印なし
  1

  0
ENDBLK
  5
6E5
330
16C6
100
AcDbEntity
  8
0
100
AcDbBlockEnd
  0
ENDSEC
  0
SECTION
  2
ENTITIES
  0
INSERT
  5
6E6
330
1683
100
AcDbEntity
  8
245
100
AcDbBlockReference
  2
矢印なし
 10
175.62382697
 20
90.55123571999999
 30
0.0
  0
TEXT
  5
807
330
1683
100
AcDbEntity
  8
241
  6
Continuous
100
AcDbText
 10
-38.0
 20
63.0
 30
0.0
 40
5.0
  1
C6-180-BH20R-32100
  7
YOKO
 11
-38.0
 21
63.0
 31
0.0
100
AcDbText
 73
     1
  0
LINE
  5
E7B
330
1683
100
AcDbEntity
  8
245
  6
CENTER2
100
AcDbLine
 10
125.99657199
 20
-0.0035268
 30
0.0
 11
209.9965717
 21
-0.0035268
 31
0.0
  0
CIRCLE
  5
E7C
330
1683
100
AcDbEntity
  8
242
  6
PHANTOM2
100
AcDbCircle
 10
167.99657184
 20
-0.00695496
 30
0.0
 40
40.0
  0
LINE
  5
E7D
330
1683
100
AcDbEntity
  8
241
  6
Continuous
100
AcDbLine
 10
146.56936971
 20
-23.08984495
 30
0.0
 11
200.66429582
 21
-23.08984495
 31
0.0
  0
LINE
  5
E7E
330
1683
100
AcDbEntity
  8
241
  6
Continuous
100
AcDbLine
 10
139.46562674
 20
-13.34667271
 30
0.0
 11
205.70667566
 21
-13.34667271
 31
0.0
  0
ARC
  5
E7F
330
1683
100
AcDbEntity
  8
240
  6
Continuous
100
AcDbCircle
 10
186.32229953
 20
15.49647321
 30
0.0
 40
16.0
100
AcDbArc
 50
40.22818476
 51
90.0
  0
LINE
  5
E81
330
1683
100
AcDbEntity
  8
240
  6
Continuous
100
AcDbLine
 10
23.93301270776024
 20
-31.5
 30
0.0
 11
80.47656211000001
 21
-26.55308043
 31
0.0
  0
LINE
  5
E82
330
1683
100
AcDbEntity
  8
240
100
AcDbLine
 10
100.0
 20
31.5
 30
0.0
 11
0.0
 21
31.5
 31
0.0
  0
LINE
  5
E83
330
1683
100
AcDbEntity
  8
245
  6
CENTER2
100
AcDbLine
 10
-39.0
 20
0.0
 30
0.0
 11
100.93301271
 21
0.0
 31
0.0
  0
LINE
  5
E84
330
1683
100
AcDbEntity
  8
241
  6
Continuous
100
AcDbLine
 10
49.49999502
 20
18.61324801
 30
0.0
 11
46.99999501999999
 21
20.05662369
 31
0.0
  0
CIRCLE
  5
E85
330
1683
100
AcDbEntity
  8
242
  6
Continuous
100
AcDbCircle
 10
49.49999502
 20
21.49999936
 30
0.0
 40
4.25
  0
CIRCLE
  5
E86
330
1683
100
AcDbEntity
  8
241
  6
Continuous
100
AcDbCircle
 10
49.49999502
 20
21.49999444
 30
0.0
 40
5.0
  0
LINE
  5
E87
330
1683
100
AcDbEntity
  8
241
  6
Continuous
100
AcDbLine
 10
46.99999501999999
 20
22.94337503
 30
0.0
 11
49.49999502
 21
24.38675071
 31
0.0
  0
LINE
  5
E88
330
1683
100
AcDbEntity
  8
245
  6
CENTER2
100
AcDbLine
 10
43.49999502
 20
21.4999999
 30
0.0
 11
95.49999502
 21
21.4999952
 31
0.0
  0
LINE
  5
E89
330
1683
100
AcDbEntity
  8
243
  6
HIDDEN2
100
AcDbLine
 10
34.99999502
 20
11.4998
 30
0.0
 11
99.99999502000001
 21
11.4998
 31
0.0
  0
LINE
  5
E92
330
1683
100
AcDbEntity
  8
241
  6
Continuous
100
AcDbLine
 10
46.99999501999999
 20
20.05662369
 30
0.0
 11
46.99999501999999
 21
22.94337503
 31
0.0
  0
LINE
  5
E93
330
1683
100
AcDbEntity
  8
243
  6
HIDDEN2
100
AcDbLine
 10
34.99999502
 20
11.4998
 30
0.0
 11
34.99999502
 21
31.5
 31
0.0
  0
LINE
  5
EB2
330
1683
100
AcDbEntity
  8
241
  6
Continuous
100
AcDbLine
 10
188.0
 20
11.49647321
 30
0.0
 11
188.0
 21
31.40827138
 31
0.0
  0
LINE
  5
EB3
330
1683
100
AcDbEntity
  8
241
  6
Continuous
100
AcDbLine
 10
168.0
 20
11.50044171
 30
0.0
 11
168.0
 21
31.49647321
 31
0.0
  0
LINE
  5
EB4
330
1683
100
AcDbEntity
  8
240
  6
Continuous
100
AcDbLine
 10
100.0
 20
31.5
 30
0.0
 11
100.0
 21
-7.686291499999997
 31
0.0
  0
LINE
  5
EB6
330
1683
100
AcDbEntity
  8
245
  6
CENTER2
100
AcDbLine
 10
168.0
 20
41.99304489999999
 30
0.0
 11
168.0
 21
-42.00695481
 31
0.0
  0
LINE
  5
EB7
330
1683
100
AcDbEntity
  8
241
  6
Continuous
100
AcDbLine
 10
91.99999502
 20
22.94337567
 30
0.0
 11
91.99999502
 21
20.05662433
 31
0.0
  0
LINE
  5
EB8
330
1683
100
AcDbEntity
  8
241
  6
Continuous
100
AcDbLine
 10
86.99999502
 20
20.05662433
 30
0.0
 11
86.99999502
 21
22.94337567
 31
0.0
  0
CIRCLE
  5
EB9
330
1683
100
AcDbEntity
  8
241
  6
Continuous
100
AcDbCircle
 10
89.49999502
 20
21.49999508
 30
0.0
 40
5.0
  0
LINE
  5
EBA
330
1683
100
AcDbEntity
  8
245
  6
CENTER2
100
AcDbLine
 10
89.49999502
 20
15.49999508
 30
0.0
 11
89.49999502
 21
27.49999508
 31
0.0
  0
CIRCLE
  5
EBB
330
1683
100
AcDbEntity
  8
242
  6
Continuous
100
AcDbCircle
 10
89.49999502
 20
21.5
 30
0.0
 40
4.25
  0
LINE
  5
EBC
330
1683
100
AcDbEntity
  8
241
  6
Continuous
100
AcDbLine
 10
71.99999502
 20
22.94337323
 30
0.0
 11
71.99999502
 21
20.05662188
 31
0.0
  0
LINE
  5
EBD
330
1683
100
AcDbEntity
  8
241
  6
Continuous
100
AcDbLine
 10
66.99999502
 20
20.05662188
 30
0.0
 11
66.99999502
 21
22.94337323
 31
0.0
  0
CIRCLE
  5
EBE
330
1683
100
AcDbEntity
  8
241
  6
Continuous
100
AcDbCircle
 10
69.49999502
 20
21.49999263
 30
0.0
 40
5.0
  0
LINE
  5
EBF
330
1683
100
AcDbEntity
  8
245
  6
CENTER2
100
AcDbLine
 10
69.49999502
 20
15.49999263
 30
0.0
 11
69.49999502
 21
27.49999263
 31
0.0
  0
CIRCLE
  5
EC0
330
1683
100
AcDbEntity
  8
242
  6
Continuous
100
AcDbCircle
 10
69.49999502
 20
21.49999755
 30
0.0
 40
4.25
  0
LINE
  5
EC1
330
1683
100
AcDbEntity
  8
241
  6
Continuous
100
AcDbLine
 10
51.99999502
 20
22.94337503
 30
0.0
 11
51.99999502
 21
20.05662369
 31
0.0
  0
LINE
  5
EC2
330
1683
100
AcDbEntity
  8
245
  6
CENTER2
100
AcDbLine
 10
49.49999502
 20
15.49999444
 30
0.0
 11
49.49999502
 21
27.49999444
 31
0.0
  0
ARC
  5
EC3
330
1683
100
AcDbEntity
  8
240
  6
Continuous
100
AcDbCircle
 10
79.43069319999998
 20
-14.59874406
 30
0.0
 40
12.0
100
AcDbArc
 50
275.0
 51
315.0
  0
LINE
  5
EC4
330
1683
100
AcDbEntity
  8
241
  6
Continuous
100
AcDbLine
 10
51.99999502
 20
20.05662369
 30
0.0
 11
49.49999502
 21
18.61324801
 31
0.0
  0
LINE
  5
EC5
330
1683
100
AcDbEntity
  8
241
  6
Continuous
100
AcDbLine
 10
69.49999502
 20
18.61324621
 30
0.0
 11
66.99999502
 21
20.05662188
 31
0.0
  0
LINE
  5
EC6
330
1683
100
AcDbEntity
  8
241
  6
Continuous
100
AcDbLine
 10
71.99999502
 20
20.05662188
 30
0.0
 11
69.49999502
 21
18.61324621
 31
0.0
  0
LINE
  5
EC7
330
1683
100
AcDbEntity
  8
240
  6
Continuous
100
AcDbLine
 10
97.65685425
 20
-13.34314575
 30
0.0
 11
87.91597456999998
 21
-23.08402543
 31
0.0
  0
ARC
  5
EC8
330
1683
100
AcDbEntity
  8
240
  6
Continuous
100
AcDbCircle
 10
92.0
 20
-7.686291499999997
 30
0.0
 40
8.0
100
AcDbArc
 50
315.0
 51
0.0
  0
LINE
  5
EC9
330
1683
100
AcDbEntity
  8
241
  6
Continuous
100
AcDbLine
 10
91.99999502
 20
20.05662433
 30
0.0
 11
89.49999502
 21
18.61324865
 31
0.0
  0
LINE
  5
ECA
330
1683
100
AcDbEntity
  8
241
  6
Continuous
100
AcDbLine
 10
89.49999502
 20
18.61324865
 30
0.0
 11
86.99999502
 21
20.05662433
 31
0.0
  0
LINE
  5
ECC
330
1683
100
AcDbEntity
  8
240
  6
Continuous
100
AcDbLine
 10
168.0
 20
-31.50352681
 30
0.0
 11
186.3222995333496
 21
-31.50352681
 31
0.0
  0
ARC
  5
ECD
330
1683
100
AcDbEntity
  8
241
  6
Continuous
100
AcDbCircle
 10
154.5
 20
4.74358752
 30
0.0
 40
6.956658273837439
100
AcDbArc
 50
191.16551386
 51
348.83448614
  0
POLYLINE
  5
ECE
330
1683
100
AcDbEntity
  8
241
  6
Continuous
100
AcDb3dPolyline
 66
     1
 10
0.0
 20
0.0
 30
0.0
 70
     8
  0
VERTEX
  5
12CB
330
ECE
100
AcDbEntity
  8
241
  6
Continuous
100
AcDbVertex
100
AcDb3dPolylineVertex
 10
161.325
 20
3.396469999999998
 30
0.0
 70
    32
  0
VERTEX
  5
12CC
330
ECE
100
AcDbEntity
  8
241
  6
Continuous
100
AcDbVertex
100
AcDb3dPolylineVertex
 10
161.352
 20
3.54143
 30
0.0
 70
    32
  0
VERTEX
  5
12CD
330
ECE
100
AcDbEntity
  8
241
  6
Continuous
100
AcDbVertex
100
AcDb3dPolylineVertex
 10
161.377
 20
3.68694
 30
0.0
 70
    32
  0
VERTEX
  5
12CE
330
ECE
100
AcDbEntity
  8
241
  6
Continuous
100
AcDbVertex
100
AcDb3dPolylineVertex
 10
161.4
 20
3.832959999999998
 30
0.0
 70
    32
  0
VERTEX
  5
12CF
330
ECE
100
AcDbEntity
  8
241
  6
Continuous
100
AcDbVertex
100
AcDb3dPolylineVertex
 10
161.421
 20
3.97943
 30
0.0
 70
    32
  0
VERTEX
  5
12D0
330
ECE
100
AcDbEntity
  8
241
  6
Continuous
100
AcDbVertex
100
AcDb3dPolylineVertex
 10
161.439
 20
4.126319999999998
 30
0.0
 70
    32
  0
VERTEX
  5
12D1
330
ECE
100
AcDbEntity
  8
241
  6
Continuous
100
AcDbVertex
100
AcDb3dPolylineVertex
 10
161.455
 20
4.273559999999998
 30
0.0
 70
    32
  0
VERTEX
  5
12D2
330
ECE
100
AcDbEntity
  8
241
  6
Continuous
100
AcDbVertex
100
AcDb3dPolylineVertex
 10
161.468
 20
4.421119999999998
 30
0.0
 70
    32
  0
VERTEX
  5
12D3
330
ECE
100
AcDbEntity
  8
241
  6
Continuous
100
AcDbVertex
100
AcDb3dPolylineVertex
 10
161.479
 20
4.568929999999999
 30
0.0
 70
    32
  0
VERTEX
  5
12D4
330
ECE
100
AcDbEntity
  8
241
  6
Continuous
100
AcDbVertex
100
AcDb3dPolylineVertex
 10
161.488
 20
4.71696
 30
0.0
 70
    32
  0
VERTEX
  5
12D5
330
ECE
100
AcDbEntity
  8
241
  6
Continuous
100
AcDbVertex
100
AcDb3dPolylineVertex
 10
161.494
 20
4.86514
 30
0.0
 70
    32
  0
VERTEX
  5
12D6
330
ECE
100
AcDbEntity
  8
241
  6
Continuous
100
AcDbVertex
100
AcDb3dPolylineVertex
 10
161.498
 20
5.01344
 30
0.0
 70
    32
  0
VERTEX
  5
12D7
330
ECE
100
AcDbEntity
  8
241
  6
Continuous
100
AcDbVertex
100
AcDb3dPolylineVertex
 10
161.5
 20
5.161789999999998
 30
0.0
 70
    32
  0
VERTEX
  5
12D8
330
ECE
100
AcDbEntity
  8
241
  6
Continuous
100
AcDbVertex
100
AcDb3dPolylineVertex
 10
161.499
 20
5.310159999999998
 30
0.0
 70
    32
  0
VERTEX
  5
12D9
330
ECE
100
AcDbEntity
  8
241
  6
Continuous
100
AcDbVertex
100
AcDb3dPolylineVertex
 10
161.496
 20
5.45848
 30
0.0
 70
    32
  0
VERTEX
  5
12DA
330
ECE
100
AcDbEntity
  8
241
  6
Continuous
100
AcDbVertex
100
AcDb3dPolylineVertex
 10
161.491
 20
5.60672
 30
0.0
 70
    32
  0
VERTEX
  5
12DB
330
ECE
100
AcDbEntity
  8
241
  6
Continuous
100
AcDbVertex
100
AcDb3dPolylineVertex
 10
161.483
 20
5.754819999999998
 30
0.0
 70
    32
  0
VERTEX
  5
12DC
330
ECE
100
AcDbEntity
  8
241
  6
Continuous
100
AcDbVertex
100
AcDb3dPolylineVertex
 10
161.4729999999999
 20
5.902719999999998
 30
0.0
 70
    32
  0
VERTEX
  5
12DD
330
ECE
100
AcDbEntity
  8
241
  6
Continuous
100
AcDbVertex
100
AcDb3dPolylineVertex
 10
161.46
 20
6.05039
 30
0.0
 70
    32
  0
VERTEX
  5
12DE
330
ECE
100
AcDbEntity
  8
241
  6
Continuous
100
AcDbVertex
100
AcDb3dPolylineVertex
 10
161.446
 20
6.197769999999998
 30
0.0
 70
    32
  0
VERTEX
  5
12DF
330
ECE
100
AcDbEntity
  8
241
  6
Continuous
100
AcDbVertex
100
AcDb3dPolylineVertex
 10
161.429
 20
6.344809999999998
 30
0.0
 70
    32
  0
VERTEX
  5
12E0
330
ECE
100
AcDbEntity
  8
241
  6
Continuous
100
AcDbVertex
100
AcDb3dPolylineVertex
 10
161.409
 20
6.49146
 30
0.0
 70
    32
  0
VERTEX
  5
12E1
330
ECE
100
AcDbEntity
  8
241
  6
Continuous
100
AcDbVertex
100
AcDb3dPolylineVertex
 10
161.387
 20
6.63768
 30
0.0
 70
    32
  0
VERTEX
  5
12E2
330
ECE
100
AcDbEntity
  8
241
  6
Continuous
100
AcDbVertex
100
AcDb3dPolylineVertex
 10
161.363
 20
6.78341
 30
0.0
 70
    32
  0
VERTEX
  5
12E3
330
ECE
100
AcDbEntity
  8
241
  6
Continuous
100
AcDbVertex
100
AcDb3dPolylineVertex
 10
161.337
 20
6.9286
 30
0.0
 70
    32
  0
VERTEX
  5
12E4
330
ECE
100
AcDbEntity
  8
241
  6
Continuous
100
AcDbVertex
100
AcDb3dPolylineVertex
 10
161.308
 20
7.073199999999999
 30
0.0
 70
    32
  0
VERTEX
  5
12E5
330
ECE
100
AcDbEntity
  8
241
  6
Continuous
100
AcDbVertex
100
AcDb3dPolylineVertex
 10
161.277
 20
7.217179999999999
 30
0.0
 70
    32
  0
VERTEX
  5
12E6
330
ECE
100
AcDbEntity
  8
241
  6
Continuous
100
AcDbVertex
100
AcDb3dPolylineVertex
 10
161.244
 20
7.360469999999998
 30
0.0
 70
    32
  0
VERTEX
  5
12E7
330
ECE
100
AcDbEntity
  8
241
  6
Continuous
100
AcDbVertex
100
AcDb3dPolylineVertex
 10
161.208
 20
7.503029999999998
 30
0.0
 70
    32
  0
VERTEX
  5
12E8
330
ECE
100
AcDbEntity
  8
241
  6
Continuous
100
AcDbVertex
100
AcDb3dPolylineVertex
 10
161.17
 20
7.64481
 30
0.0
 70
    32
  0
VERTEX
  5
12E9
330
ECE
100
AcDbEntity
  8
241
  6
Continuous
100
AcDbVertex
100
AcDb3dPolylineVertex
 10
161.13
 20
7.785769999999998
 30
0.0
 70
    32
  0
VERTEX
  5
12EA
330
ECE
100
AcDbEntity
  8
241
  6
Continuous
100
AcDbVertex
100
AcDb3dPolylineVertex
 10
161.088
 20
7.925849999999998
 30
0.0
 70
    32
  0
VERTEX
  5
12EB
330
ECE
100
AcDbEntity
  8
241
  6
Continuous
100
AcDbVertex
100
AcDb3dPolylineVertex
 10
161.043
 20
8.06501
 30
0.0
 70
    32
  0
VERTEX
  5
12EC
330
ECE
100
AcDbEntity
  8
241
  6
Continuous
100
AcDbVertex
100
AcDb3dPolylineVertex
 10
160.996
 20
8.20321
 30
0.0
 70
    32
  0
VERTEX
  5
12ED
330
ECE
100
AcDbEntity
  8
241
  6
Continuous
100
AcDbVertex
100
AcDb3dPolylineVertex
 10
160.947
 20
8.340389999999999
 30
0.0
 70
    32
  0
VERTEX
  5
12EE
330
ECE
100
AcDbEntity
  8
241
  6
Continuous
100
AcDbVertex
100
AcDb3dPolylineVertex
 10
160.896
 20
8.476499999999997
 30
0.0
 70
    32
  0
VERTEX
  5
12EF
330
ECE
100
AcDbEntity
  8
241
  6
Continuous
100
AcDbVertex
100
AcDb3dPolylineVertex
 10
160.843
 20
8.61152
 30
0.0
 70
    32
  0
VERTEX
  5
12F0
330
ECE
100
AcDbEntity
  8
241
  6
Continuous
100
AcDbVertex
100
AcDb3dPolylineVertex
 10
160.7879999999999
 20
8.74538
 30
0.0
 70
    32
  0
VERTEX
  5
12F1
330
ECE
100
AcDbEntity
  8
241
  6
Continuous
100
AcDbVertex
100
AcDb3dPolylineVertex
 10
160.73
 20
8.878039999999996
 30
0.0
 70
    32
  0
VERTEX
  5
12F2
330
ECE
100
AcDbEntity
  8
241
  6
Continuous
100
AcDbVertex
100
AcDb3dPolylineVertex
 10
160.67
 20
9.00946
 30
0.0
 70
    32
  0
VERTEX
  5
12F3
330
ECE
100
AcDbEntity
  8
241
  6
Continuous
100
AcDbVertex
100
AcDb3dPolylineVertex
 10
160.609
 20
9.139599999999999
 30
0.0
 70
    32
  0
VERTEX
  5
12F4
330
ECE
100
AcDbEntity
  8
241
  6
Continuous
100
AcDbVertex
100
AcDb3dPolylineVertex
 10
160.545
 20
9.268399999999999
 30
0.0
 70
    32
  0
VERTEX
  5
12F5
330
ECE
100
AcDbEntity
  8
241
  6
Continuous
100
AcDbVertex
100
AcDb3dPolylineVertex
 10
160.479
 20
9.395839999999999
 30
0.0
 70
    32
  0
VERTEX
  5
12F6
330
ECE
100
AcDbEntity
  8
241
  6
Continuous
100
AcDbVertex
100
AcDb3dPolylineVertex
 10
160.411
 20
9.52185
 30
0.0
 70
    32
  0
VERTEX
  5
12F7
330
ECE
100
AcDbEntity
  8
241
  6
Continuous
100
AcDbVertex
100
AcDb3dPolylineVertex
 10
160.341
 20
9.646409999999999
 30
0.0
 70
    32
  0
VERTEX
  5
12F8
330
ECE
100
AcDbEntity
  8
241
  6
Continuous
100
AcDbVertex
100
AcDb3dPolylineVertex
 10
160.27
 20
9.76947
 30
0.0
 70
    32
  0
VERTEX
  5
12F9
330
ECE
100
AcDbEntity
  8
241
  6
Continuous
100
AcDbVertex
100
AcDb3dPolylineVertex
 10
160.196
 20
9.89098
 30
0.0
 70
    32
  0
VERTEX
  5
12FA
330
ECE
100
AcDbEntity
  8
241
  6
Continuous
100
AcDbVertex
100
AcDb3dPolylineVertex
 10
160.12
 20
10.0109
 30
0.0
 70
    32
  0
VERTEX
  5
12FB
330
ECE
100
AcDbEntity
  8
241
  6
Continuous
100
AcDbVertex
100
AcDb3dPolylineVertex
 10
160.043
 20
10.1292
 30
0.0
 70
    32
  0
VERTEX
  5
12FC
330
ECE
100
AcDbEntity
  8
241
  6
Continuous
100
AcDbVertex
100
AcDb3dPolylineVertex
 10
159.963
 20
10.2459
 30
0.0
 70
    32
  0
VERTEX
  5
12FD
330
ECE
100
AcDbEntity
  8
241
  6
Continuous
100
AcDbVertex
100
AcDb3dPolylineVertex
 10
159.882
 20
10.3608
 30
0.0
 70
    32
  0
VERTEX
  5
12FE
330
ECE
100
AcDbEntity
  8
241
  6
Continuous
100
AcDbVertex
100
AcDb3dPolylineVertex
 10
159.799
 20
10.474
 30
0.0
 70
    32
  0
VERTEX
  5
12FF
330
ECE
100
AcDbEntity
  8
241
  6
Continuous
100
AcDbVertex
100
AcDb3dPolylineVertex
 10
159.714
 20
10.5854
 30
0.0
 70
    32
  0
VERTEX
  5
1300
330
ECE
100
AcDbEntity
  8
241
  6
Continuous
100
AcDbVertex
100
AcDb3dPolylineVertex
 10
159.628
 20
10.695
 30
0.0
 70
    32
  0
VERTEX
  5
1301
330
ECE
100
AcDbEntity
  8
241
  6
Continuous
100
AcDbVertex
100
AcDb3dPolylineVertex
 10
159.539
 20
10.8028
 30
0.0
 70
    32
  0
VERTEX
  5
1302
330
ECE
100
AcDbEntity
  8
241
  6
Continuous
100
AcDbVertex
100
AcDb3dPolylineVertex
 10
159.449
 20
10.9086
 30
0.0
 70
    32
  0
VERTEX
  5
1303
330
ECE
100
AcDbEntity
  8
241
  6
Continuous
100
AcDbVertex
100
AcDb3dPolylineVertex
 10
159.358
 20
11.0126
 30
0.0
 70
    32
  0
VERTEX
  5
1304
330
ECE
100
AcDbEntity
  8
241
  6
Continuous
100
AcDbVertex
100
AcDb3dPolylineVertex
 10
159.264
 20
11.1146
 30
0.0
 70
    32
  0
VERTEX
  5
1305
330
ECE
100
AcDbEntity
  8
241
  6
Continuous
100
AcDbVertex
100
AcDb3dPolylineVertex
 10
159.169
 20
11.2145
 30
0.0
 70
    32
  0
VERTEX
  5
1306
330
ECE
100
AcDbEntity
  8
241
  6
Continuous
100
AcDbVertex
100
AcDb3dPolylineVertex
 10
159.0729999999999
 20
11.3125
 30
0.0
 70
    32
  0
VERTEX
  5
1307
330
ECE
100
AcDbEntity
  8
241
  6
Continuous
100
AcDbVertex
100
AcDb3dPolylineVertex
 10
158.975
 20
11.4084
 30
0.0
 70
    32
  0
VERTEX
  5
1308
330
ECE
100
AcDbEntity
  8
241
  6
Continuous
100
AcDbVertex
100
AcDb3dPolylineVertex
 10
158.875
 20
11.5022
 30
0.0
 70
    32
  0
VERTEX
  5
1309
330
ECE
100
AcDbEntity
  8
241
  6
Continuous
100
AcDbVertex
100
AcDb3dPolylineVertex
 10
158.774
 20
11.5938
 30
0.0
 70
    32
  0
VERTEX
  5
130A
330
ECE
100
AcDbEntity
  8
241
  6
Continuous
100
AcDbVertex
100
AcDb3dPolylineVertex
 10
158.672
 20
11.6833
 30
0.0
 70
    32
  0
VERTEX
  5
130B
330
ECE
100
AcDbEntity
  8
241
  6
Continuous
100
AcDbVertex
100
AcDb3dPolylineVertex
 10
158.568
 20
11.7707
 30
0.0
 70
    32
  0
VERTEX
  5
130C
330
ECE
100
AcDbEntity
  8
241
  6
Continuous
100
AcDbVertex
100
AcDb3dPolylineVertex
 10
158.463
 20
11.8558
 30
0.0
 70
    32
  0
VERTEX
  5
130D
330
ECE
100
AcDbEntity
  8
241
  6
Continuous
100
AcDbVertex
100
AcDb3dPolylineVertex
 10
158.356
 20
11.9386
 30
0.0
 70
    32
  0
VERTEX
  5
130E
330
ECE
100
AcDbEntity
  8
241
  6
Continuous
100
AcDbVertex
100
AcDb3dPolylineVertex
 10
158.248
 20
12.0192
 30
0.0
 70
    32
  0
VERTEX
  5
130F
330
ECE
100
AcDbEntity
  8
241
  6
Continuous
100
AcDbVertex
100
AcDb3dPolylineVertex
 10
158.139
 20
12.0975
 30
0.0
 70
    32
  0
VERTEX
  5
1310
330
ECE
100
AcDbEntity
  8
241
  6
Continuous
100
AcDbVertex
100
AcDb3dPolylineVertex
 10
158.029
 20
12.1735
 30
0.0
 70
    32
  0
VERTEX
  5
1311
330
ECE
100
AcDbEntity
  8
241
  6
Continuous
100
AcDbVertex
100
AcDb3dPolylineVertex
 10
157.917
 20
12.2471
 30
0.0
 70
    32
  0
VERTEX
  5
1312
330
ECE
100
AcDbEntity
  8
241
  6
Continuous
100
AcDbVertex
100
AcDb3dPolylineVertex
 10
157.804
 20
12.3183
 30
0.0
 70
    32
  0
VERTEX
  5
1313
330
ECE
100
AcDbEntity
  8
241
  6
Continuous
100
AcDbVertex
100
AcDb3dPolylineVertex
 10
157.69
 20
12.3871
 30
0.0
 70
    32
  0
VERTEX
  5
1314
330
ECE
100
AcDbEntity
  8
241
  6
Continuous
100
AcDbVertex
100
AcDb3dPolylineVertex
 10
157.576
 20
12.4536
 30
0.0
 70
    32
  0
VERTEX
  5
1315
330
ECE
100
AcDbEntity
  8
241
  6
Continuous
100
AcDbVertex
100
AcDb3dPolylineVertex
 10
157.46
 20
12.5175
 30
0.0
 70
    32
  0
VERTEX
  5
1316
330
ECE
100
AcDbEntity
  8
241
  6
Continuous
100
AcDbVertex
100
AcDb3dPolylineVertex
 10
157.343
 20
12.579
 30
0.0
 70
    32
  0
VERTEX
  5
1317
330
ECE
100
AcDbEntity
  8
241
  6
Continuous
100
AcDbVertex
100
AcDb3dPolylineVertex
 10
157.225
 20
12.638
 30
0.0
 70
    32
  0
VERTEX
  5
1318
330
ECE
100
AcDbEntity
  8
241
  6
Continuous
100
AcDbVertex
100
AcDb3dPolylineVertex
 10
157.106
 20
12.6945
 30
0.0
 70
    32
  0
VERTEX
  5
1319
330
ECE
100
AcDbEntity
  8
241
  6
Continuous
100
AcDbVertex
100
AcDb3dPolylineVertex
 10
156.986
 20
12.7485
 30
0.0
 70
    32
  0
VERTEX
  5
131A
330
ECE
100
AcDbEntity
  8
241
  6
Continuous
100
AcDbVertex
100
AcDb3dPolylineVertex
 10
156.866
 20
12.7999
 30
0.0
 70
    32
  0
VERTEX
  5
131B
330
ECE
100
AcDbEntity
  8
241
  6
Continuous
100
AcDbVertex
100
AcDb3dPolylineVertex
 10
156.744
 20
12.8488
 30
0.0
 70
    32
  0
VERTEX
  5
131C
330
ECE
100
AcDbEntity
  8
241
  6
Continuous
100
AcDbVertex
100
AcDb3dPolylineVertex
 10
156.622
 20
12.895
 30
0.0
 70
    32
  0
VERTEX
  5
131D
330
ECE
100
AcDbEntity
  8
241
  6
Continuous
100
AcDbVertex
100
AcDb3dPolylineVertex
 10
156.5
 20
12.9387
 30
0.0
 70
    32
  0
VERTEX
  5
131E
330
ECE
100
AcDbEntity
  8
241
  6
Continuous
100
AcDbVertex
100
AcDb3dPolylineVertex
 10
156.376
 20
12.9798
 30
0.0
 70
    32
  0
VERTEX
  5
131F
330
ECE
100
AcDbEntity
  8
241
  6
Continuous
100
AcDbVertex
100
AcDb3dPolylineVertex
 10
156.252
 20
13.0183
 30
0.0
 70
    32
  0
VERTEX
  5
1320
330
ECE
100
AcDbEntity
  8
241
  6
Continuous
100
AcDbVertex
100
AcDb3dPolylineVertex
 10
156.127
 20
13.0541
 30
0.0
 70
    32
  0
VERTEX
  5
1321
330
ECE
100
AcDbEntity
  8
241
  6
Continuous
100
AcDbVertex
100
AcDb3dPolylineVertex
 10
156.002
 20
13.0872
 30
0.0
 70
    32
  0
VERTEX
  5
1322
330
ECE
100
AcDbEntity
  8
241
  6
Continuous
100
AcDbVertex
100
AcDb3dPolylineVertex
 10
155.876
 20
13.1177
 30
0.0
 70
    32
  0
VERTEX
  5
1323
330
ECE
100
AcDbEntity
  8
241
  6
Continuous
100
AcDbVertex
100
AcDb3dPolylineVertex
 10
155.75
 20
13.1456
 30
0.0
 70
    32
  0
VERTEX
  5
1324
330
ECE
100
AcDbEntity
  8
241
  6
Continuous
100
AcDbVertex
100
AcDb3dPolylineVertex
 10
155.624
 20
13.1707
 30
0.0
 70
    32
  0
VERTEX
  5
1325
330
ECE
100
AcDbEntity
  8
241
  6
Continuous
100
AcDbVertex
100
AcDb3dPolylineVertex
 10
155.497
 20
13.1932
 30
0.0
 70
    32
  0
VERTEX
  5
1326
330
ECE
100
AcDbEntity
  8
241
  6
Continuous
100
AcDbVertex
100
AcDb3dPolylineVertex
 10
155.369
 20
13.213
 30
0.0
 70
    32
  0
VERTEX
  5
1327
330
ECE
100
AcDbEntity
  8
241
  6
Continuous
100
AcDbVertex
100
AcDb3dPolylineVertex
 10
155.242
 20
13.2301
 30
0.0
 70
    32
  0
VERTEX
  5
1328
330
ECE
100
AcDbEntity
  8
241
  6
Continuous
100
AcDbVertex
100
AcDb3dPolylineVertex
 10
155.114
 20
13.2444
 30
0.0
 70
    32
  0
VERTEX
  5
1329
330
ECE
100
AcDbEntity
  8
241
  6
Continuous
100
AcDbVertex
100
AcDb3dPolylineVertex
 10
154.986
 20
13.2561
 30
0.0
 70
    32
  0
VERTEX
  5
132A
330
ECE
100
AcDbEntity
  8
241
  6
Continuous
100
AcDbVertex
100
AcDb3dPolylineVertex
 10
154.857
 20
13.265
 30
0.0
 70
    32
  0
VERTEX
  5
132B
330
ECE
100
AcDbEntity
  8
241
  6
Continuous
100
AcDbVertex
100
AcDb3dPolylineVertex
 10
154.729
 20
13.2712
 30
0.0
 70
    32
  0
VERTEX
  5
132C
330
ECE
100
AcDbEntity
  8
241
  6
Continuous
100
AcDbVertex
100
AcDb3dPolylineVertex
 10
154.6
 20
13.2747
 30
0.0
 70
    32
  0
VERTEX
  5
132D
330
ECE
100
AcDbEntity
  8
241
  6
Continuous
100
AcDbVertex
100
AcDb3dPolylineVertex
 10
154.472
 20
13.2755
 30
0.0
 70
    32
  0
VERTEX
  5
132E
330
ECE
100
AcDbEntity
  8
241
  6
Continuous
100
AcDbVertex
100
AcDb3dPolylineVertex
 10
154.343
 20
13.2735
 30
0.0
 70
    32
  0
VERTEX
  5
132F
330
ECE
100
AcDbEntity
  8
241
  6
Continuous
100
AcDbVertex
100
AcDb3dPolylineVertex
 10
154.215
 20
13.2688
 30
0.0
 70
    32
  0
VERTEX
  5
1330
330
ECE
100
AcDbEntity
  8
241
  6
Continuous
100
AcDbVertex
100
AcDb3dPolylineVertex
 10
154.087
 20
13.2614
 30
0.0
 70
    32
  0
VERTEX
  5
1331
330
ECE
100
AcDbEntity
  8
241
  6
Continuous
100
AcDbVertex
100
AcDb3dPolylineVertex
 10
153.959
 20
13.2513
 30
0.0
 70
    32
  0
VERTEX
  5
1332
330
ECE
100
AcDbEntity
  8
241
  6
Continuous
100
AcDbVertex
100
AcDb3dPolylineVertex
 10
153.831
 20
13.2385
 30
0.0
 70
    32
  0
VERTEX
  5
1333
330
ECE
100
AcDbEntity
  8
241
  6
Continuous
100
AcDbVertex
100
AcDb3dPolylineVertex
 10
153.703
 20
13.2229
 30
0.0
 70
    32
  0
VERTEX
  5
1334
330
ECE
100
AcDbEntity
  8
241
  6
Continuous
100
AcDbVertex
100
AcDb3dPolylineVertex
 10
153.575
 20
13.2047
 30
0.0
 70
    32
  0
VERTEX
  5
1335
330
ECE
100
AcDbEntity
  8
241
  6
Continuous
100
AcDbVertex
100
AcDb3dPolylineVertex
 10
153.448
 20
13.1837
 30
0.0
 70
    32
  0
VERTEX
  5
1336
330
ECE
100
AcDbEntity
  8
241
  6
Continuous
100
AcDbVertex
100
AcDb3dPolylineVertex
 10
153.321
 20
13.1601
 30
0.0
 70
    32
  0
VERTEX
  5
1337
330
ECE
100
AcDbEntity
  8
241
  6
Continuous
100
AcDbVertex
100
AcDb3dPolylineVertex
 10
153.195
 20
13.1338
 30
0.0
 70
    32
  0
VERTEX
  5
1338
330
ECE
100
AcDbEntity
  8
241
  6
Continuous
100
AcDbVertex
100
AcDb3dPolylineVertex
 10
153.069
 20
13.1048
 30
0.0
 70
    32
  0
VERTEX
  5
1339
330
ECE
100
AcDbEntity
  8
241
  6
Continuous
100
AcDbVertex
100
AcDb3dPolylineVertex
 10
152.943
 20
13.0731
 30
0.0
 70
    32
  0
VERTEX
  5
133A
330
ECE
100
AcDbEntity
  8
241
  6
Continuous
100
AcDbVertex
100
AcDb3dPolylineVertex
 10
152.818
 20
13.0388
 30
0.0
 70
    32
  0
VERTEX
  5
133B
330
ECE
100
AcDbEntity
  8
241
  6
Continuous
100
AcDbVertex
100
AcDb3dPolylineVertex
 10
152.694
 20
13.0018
 30
0.0
 70
    32
  0
VERTEX
  5
133C
330
ECE
100
AcDbEntity
  8
241
  6
Continuous
100
AcDbVertex
100
AcDb3dPolylineVertex
 10
152.57
 20
12.9622
 30
0.0
 70
    32
  0
VERTEX
  5
133D
330
ECE
100
AcDbEntity
  8
241
  6
Continuous
100
AcDbVertex
100
AcDb3dPolylineVertex
 10
152.447
 20
12.92
 30
0.0
 70
    32
  0
VERTEX
  5
133E
330
ECE
100
AcDbEntity
  8
241
  6
Continuous
100
AcDbVertex
100
AcDb3dPolylineVertex
 10
152.324
 20
12.8752
 30
0.0
 70
    32
  0
VERTEX
  5
133F
330
ECE
100
AcDbEntity
  8
241
  6
Continuous
100
AcDbVertex
100
AcDb3dPolylineVertex
 10
152.202
 20
12.8278
 30
0.0
 70
    32
  0
VERTEX
  5
1340
330
ECE
100
AcDbEntity
  8
241
  6
Continuous
100
AcDbVertex
100
AcDb3dPolylineVertex
 10
152.082
 20
12.7778
 30
0.0
 70
    32
  0
VERTEX
  5
1341
330
ECE
100
AcDbEntity
  8
241
  6
Continuous
100
AcDbVertex
100
AcDb3dPolylineVertex
 10
151.961
 20
12.7252
 30
0.0
 70
    32
  0
VERTEX
  5
1342
330
ECE
100
AcDbEntity
  8
241
  6
Continuous
100
AcDbVertex
100
AcDb3dPolylineVertex
 10
151.842
 20
12.6702
 30
0.0
 70
    32
  0
VERTEX
  5
1343
330
ECE
100
AcDbEntity
  8
241
  6
Continuous
100
AcDbVertex
100
AcDb3dPolylineVertex
 10
151.724
 20
12.6126
 30
0.0
 70
    32
  0
VERTEX
  5
1344
330
ECE
100
AcDbEntity
  8
241
  6
Continuous
100
AcDbVertex
100
AcDb3dPolylineVertex
 10
151.606
 20
12.5525
 30
0.0
 70
    32
  0
VERTEX
  5
1345
330
ECE
100
AcDbEntity
  8
241
  6
Continuous
100
AcDbVertex
100
AcDb3dPolylineVertex
 10
151.49
 20
12.4899
 30
0.0
 70
    32
  0
VERTEX
  5
1346
330
ECE
100
AcDbEntity
  8
241
  6
Continuous
100
AcDbVertex
100
AcDb3dPolylineVertex
 10
151.374
 20
12.4249
 30
0.0
 70
    32
  0
VERTEX
  5
1347
330
ECE
100
AcDbEntity
  8
241
  6
Continuous
100
AcDbVertex
100
AcDb3dPolylineVertex
 10
151.26
 20
12.3574
 30
0.0
 70
    32
  0
VERTEX
  5
1348
330
ECE
100
AcDbEntity
  8
241
  6
Continuous
100
AcDbVertex
100
AcDb3dPolylineVertex
 10
151.146
 20
12.2875
 30
0.0
 70
    32
  0
VERTEX
  5
1349
330
ECE
100
AcDbEntity
  8
241
  6
Continuous
100
AcDbVertex
100
AcDb3dPolylineVertex
 10
151.034
 20
12.2152
 30
0.0
 70
    32
  0
VERTEX
  5
134A
330
ECE
100
AcDbEntity
  8
241
  6
Continuous
100
AcDbVertex
100
AcDb3dPolylineVertex
 10
150.923
 20
12.1406
 30
0.0
 70
    32
  0
VERTEX
  5
134B
330
ECE
100
AcDbEntity
  8
241
  6
Continuous
100
AcDbVertex
100
AcDb3dPolylineVertex
 10
150.813
 20
12.0636
 30
0.0
 70
    32
  0
SEQEND
  5
134C
330
ECE
100
AcDbEntity
  8
241
  6
Continuous
  0
POLYLINE
  5
ECF
330
1683
100
AcDbEntity
  8
241
  6
Continuous
100
AcDb3dPolyline
 66
     1
 10
0.0
 20
0.0
 30
0.0
 70
     8
  0
VERTEX
  5
134D
330
ECF
100
AcDbEntity
  8
241
  6
Continuous
100
AcDbVertex
100
AcDb3dPolylineVertex
 10
159.38
 20
-0.214058
 30
0.0
 70
    32
  0
VERTEX
  5
134E
330
ECF
100
AcDbEntity
  8
241
  6
Continuous
100
AcDbVertex
100
AcDb3dPolylineVertex
 10
159.448
 20
-0.139395
 30
0.0
 70
    32
  0
VERTEX
  5
134F
330
ECF
100
AcDbEntity
  8
241
  6
Continuous
100
AcDbVertex
100
AcDb3dPolylineVertex
 10
159.514
 20
-0.063714
 30
0.0
 70
    32
  0
VERTEX
  5
1350
330
ECF
100
AcDbEntity
  8
241
  6
Continuous
100
AcDbVertex
100
AcDb3dPolylineVertex
 10
159.579
 20
0.0129615
 30
0.0
 70
    32
  0
VERTEX
  5
1351
330
ECF
100
AcDbEntity
  8
241
  6
Continuous
100
AcDbVertex
100
AcDb3dPolylineVertex
 10
159.642
 20
0.0906077
 30
0.0
 70
    32
  0
VERTEX
  5
1352
330
ECF
100
AcDbEntity
  8
241
  6
Continuous
100
AcDbVertex
100
AcDb3dPolylineVertex
 10
159.704
 20
0.169201
 30
0.0
 70
    32
  0
VERTEX
  5
1353
330
ECF
100
AcDbEntity
  8
241
  6
Continuous
100
AcDbVertex
100
AcDb3dPolylineVertex
 10
159.763
 20
0.248717
 30
0.0
 70
    32
  0
VERTEX
  5
1354
330
ECF
100
AcDbEntity
  8
241
  6
Continuous
100
AcDbVertex
100
AcDb3dPolylineVertex
 10
159.822
 20
0.329131
 30
0.0
 70
    32
  0
VERTEX
  5
1355
330
ECF
100
AcDbEntity
  8
241
  6
Continuous
100
AcDbVertex
100
AcDb3dPolylineVertex
 10
159.878
 20
0.410419
 30
0.0
 70
    32
  0
VERTEX
  5
1356
330
ECF
100
AcDbEntity
  8
241
  6
Continuous
100
AcDbVertex
100
AcDb3dPolylineVertex
 10
159.933
 20
0.4925550000000002
 30
0.0
 70
    32
  0
VERTEX
  5
1357
330
ECF
100
AcDbEntity
  8
241
  6
Continuous
100
AcDbVertex
100
AcDb3dPolylineVertex
 10
159.987
 20
0.5755150000000002
 30
0.0
 70
    32
  0
VERTEX
  5
1358
330
ECF
100
AcDbEntity
  8
241
  6
Continuous
100
AcDbVertex
100
AcDb3dPolylineVertex
 10
160.038
 20
0.6592720000000001
 30
0.0
 70
    32
  0
VERTEX
  5
1359
330
ECF
100
AcDbEntity
  8
241
  6
Continuous
100
AcDbVertex
100
AcDb3dPolylineVertex
 10
160.088
 20
0.7438010000000001
 30
0.0
 70
    32
  0
VERTEX
  5
135A
330
ECF
100
AcDbEntity
  8
241
  6
Continuous
100
AcDbVertex
100
AcDb3dPolylineVertex
 10
160.137
 20
0.829077
 30
0.0
 70
    32
  0
VERTEX
  5
135B
330
ECF
100
AcDbEntity
  8
241
  6
Continuous
100
AcDbVertex
100
AcDb3dPolylineVertex
 10
160.183
 20
0.915071
 30
0.0
 70
    32
  0
VERTEX
  5
135C
330
ECF
100
AcDbEntity
  8
241
  6
Continuous
100
AcDbVertex
100
AcDb3dPolylineVertex
 10
160.228
 20
1.001759999999998
 30
0.0
 70
    32
  0
VERTEX
  5
135D
330
ECF
100
AcDbEntity
  8
241
  6
Continuous
100
AcDbVertex
100
AcDb3dPolylineVertex
 10
160.271
 20
1.08911
 30
0.0
 70
    32
  0
VERTEX
  5
135E
330
ECF
100
AcDbEntity
  8
241
  6
Continuous
100
AcDbVertex
100
AcDb3dPolylineVertex
 10
160.312
 20
1.17711
 30
0.0
 70
    32
  0
VERTEX
  5
135F
330
ECF
100
AcDbEntity
  8
241
  6
Continuous
100
AcDbVertex
100
AcDb3dPolylineVertex
 10
160.352
 20
1.26571
 30
0.0
 70
    32
  0
VERTEX
  5
1360
330
ECF
100
AcDbEntity
  8
241
  6
Continuous
100
AcDbVertex
100
AcDb3dPolylineVertex
 10
160.389
 20
1.35491
 30
0.0
 70
    32
  0
VERTEX
  5
1361
330
ECF
100
AcDbEntity
  8
241
  6
Continuous
100
AcDbVertex
100
AcDb3dPolylineVertex
 10
160.425
 20
1.44466
 30
0.0
 70
    32
  0
VERTEX
  5
1362
330
ECF
100
AcDbEntity
  8
241
  6
Continuous
100
AcDbVertex
100
AcDb3dPolylineVertex
 10
160.459
 20
1.534939999999999
 30
0.0
 70
    32
  0
VERTEX
  5
1363
330
ECF
100
AcDbEntity
  8
241
  6
Continuous
100
AcDbVertex
100
AcDb3dPolylineVertex
 10
160.491
 20
1.62572
 30
0.0
 70
    32
  0
VERTEX
  5
1364
330
ECF
100
AcDbEntity
  8
241
  6
Continuous
100
AcDbVertex
100
AcDb3dPolylineVertex
 10
160.521
 20
1.716979999999999
 30
0.0
 70
    32
  0
VERTEX
  5
1365
330
ECF
100
AcDbEntity
  8
241
  6
Continuous
100
AcDbVertex
100
AcDb3dPolylineVertex
 10
160.55
 20
1.808679999999999
 30
0.0
 70
    32
  0
VERTEX
  5
1366
330
ECF
100
AcDbEntity
  8
241
  6
Continuous
100
AcDbVertex
100
AcDb3dPolylineVertex
 10
160.576
 20
1.9008
 30
0.0
 70
    32
  0
VERTEX
  5
1367
330
ECF
100
AcDbEntity
  8
241
  6
Continuous
100
AcDbVertex
100
AcDb3dPolylineVertex
 10
160.601
 20
1.993309999999999
 30
0.0
 70
    32
  0
VERTEX
  5
1368
330
ECF
100
AcDbEntity
  8
241
  6
Continuous
100
AcDbVertex
100
AcDb3dPolylineVertex
 10
160.624
 20
2.08618
 30
0.0
 70
    32
  0
VERTEX
  5
1369
330
ECF
100
AcDbEntity
  8
241
  6
Continuous
100
AcDbVertex
100
AcDb3dPolylineVertex
 10
160.645
 20
2.17939
 30
0.0
 70
    32
  0
VERTEX
  5
136A
330
ECF
100
AcDbEntity
  8
241
  6
Continuous
100
AcDbVertex
100
AcDb3dPolylineVertex
 10
160.664
 20
2.272899999999999
 30
0.0
 70
    32
  0
VERTEX
  5
136B
330
ECF
100
AcDbEntity
  8
241
  6
Continuous
100
AcDbVertex
100
AcDb3dPolylineVertex
 10
160.681
 20
2.36668
 30
0.0
 70
    32
  0
VERTEX
  5
136C
330
ECF
100
AcDbEntity
  8
241
  6
Continuous
100
AcDbVertex
100
AcDb3dPolylineVertex
 10
160.697
 20
2.46072
 30
0.0
 70
    32
  0
VERTEX
  5
136D
330
ECF
100
AcDbEntity
  8
241
  6
Continuous
100
AcDbVertex
100
AcDb3dPolylineVertex
 10
160.71
 20
2.554959999999999
 30
0.0
 70
    32
  0
VERTEX
  5
136E
330
ECF
100
AcDbEntity
  8
241
  6
Continuous
100
AcDbVertex
100
AcDb3dPolylineVertex
 10
160.721
 20
2.649399999999999
 30
0.0
 70
    32
  0
VERTEX
  5
136F
330
ECF
100
AcDbEntity
  8
241
  6
Continuous
100
AcDbVertex
100
AcDb3dPolylineVertex
 10
160.731
 20
2.743999999999999
 30
0.0
 70
    32
  0
VERTEX
  5
1370
330
ECF
100
AcDbEntity
  8
241
  6
Continuous
100
AcDbVertex
100
AcDb3dPolylineVertex
 10
160.738
 20
2.838729999999998
 30
0.0
 70
    32
  0
VERTEX
  5
1371
330
ECF
100
AcDbEntity
  8
241
  6
Continuous
100
AcDbVertex
100
AcDb3dPolylineVertex
 10
160.744
 20
2.933549999999998
 30
0.0
 70
    32
  0
VERTEX
  5
1372
330
ECF
100
AcDbEntity
  8
241
  6
Continuous
100
AcDbVertex
100
AcDb3dPolylineVertex
 10
160.748
 20
3.028449999999998
 30
0.0
 70
    32
  0
VERTEX
  5
1373
330
ECF
100
AcDbEntity
  8
241
  6
Continuous
100
AcDbVertex
100
AcDb3dPolylineVertex
 10
160.75
 20
3.1234
 30
0.0
 70
    32
  0
VERTEX
  5
1374
330
ECF
100
AcDbEntity
  8
241
  6
Continuous
100
AcDbVertex
100
AcDb3dPolylineVertex
 10
160.75
 20
3.21835
 30
0.0
 70
    32
  0
VERTEX
  5
1375
330
ECF
100
AcDbEntity
  8
241
  6
Continuous
100
AcDbVertex
100
AcDb3dPolylineVertex
 10
160.748
 20
3.31329
 30
0.0
 70
    32
  0
VERTEX
  5
1376
330
ECF
100
AcDbEntity
  8
241
  6
Continuous
100
AcDbVertex
100
AcDb3dPolylineVertex
 10
160.744
 20
3.40819
 30
0.0
 70
    32
  0
VERTEX
  5
1377
330
ECF
100
AcDbEntity
  8
241
  6
Continuous
100
AcDbVertex
100
AcDb3dPolylineVertex
 10
160.738
 20
3.503009999999998
 30
0.0
 70
    32
  0
VERTEX
  5
1378
330
ECF
100
AcDbEntity
  8
241
  6
Continuous
100
AcDbVertex
100
AcDb3dPolylineVertex
 10
160.73
 20
3.59773
 30
0.0
 70
    32
  0
VERTEX
  5
1379
330
ECF
100
AcDbEntity
  8
241
  6
Continuous
100
AcDbVertex
100
AcDb3dPolylineVertex
 10
160.721
 20
3.692319999999998
 30
0.0
 70
    32
  0
VERTEX
  5
137A
330
ECF
100
AcDbEntity
  8
241
  6
Continuous
100
AcDbVertex
100
AcDb3dPolylineVertex
 10
160.709
 20
3.786739999999998
 30
0.0
 70
    32
  0
VERTEX
  5
137B
330
ECF
100
AcDbEntity
  8
241
  6
Continuous
100
AcDbVertex
100
AcDb3dPolylineVertex
 10
160.695
 20
3.880969999999998
 30
0.0
 70
    32
  0
VERTEX
  5
137C
330
ECF
100
AcDbEntity
  8
241
  6
Continuous
100
AcDbVertex
100
AcDb3dPolylineVertex
 10
160.68
 20
3.97499
 30
0.0
 70
    32
  0
VERTEX
  5
137D
330
ECF
100
AcDbEntity
  8
241
  6
Continuous
100
AcDbVertex
100
AcDb3dPolylineVertex
 10
160.663
 20
4.068749999999998
 30
0.0
 70
    32
  0
VERTEX
  5
137E
330
ECF
100
AcDbEntity
  8
241
  6
Continuous
100
AcDbVertex
100
AcDb3dPolylineVertex
 10
160.644
 20
4.162239999999998
 30
0.0
 70
    32
  0
VERTEX
  5
137F
330
ECF
100
AcDbEntity
  8
241
  6
Continuous
100
AcDbVertex
100
AcDb3dPolylineVertex
 10
160.622
 20
4.255419999999999
 30
0.0
 70
    32
  0
VERTEX
  5
1380
330
ECF
100
AcDbEntity
  8
241
  6
Continuous
100
AcDbVertex
100
AcDb3dPolylineVertex
 10
160.599
 20
4.348269999999998
 30
0.0
 70
    32
  0
VERTEX
  5
1381
330
ECF
100
AcDbEntity
  8
241
  6
Continuous
100
AcDbVertex
100
AcDb3dPolylineVertex
 10
160.575
 20
4.44075
 30
0.0
 70
    32
  0
VERTEX
  5
1382
330
ECF
100
AcDbEntity
  8
241
  6
Continuous
100
AcDbVertex
100
AcDb3dPolylineVertex
 10
160.548
 20
4.532849999999998
 30
0.0
 70
    32
  0
VERTEX
  5
1383
330
ECF
100
AcDbEntity
  8
241
  6
Continuous
100
AcDbVertex
100
AcDb3dPolylineVertex
 10
160.519
 20
4.624519999999998
 30
0.0
 70
    32
  0
VERTEX
  5
1384
330
ECF
100
AcDbEntity
  8
241
  6
Continuous
100
AcDbVertex
100
AcDb3dPolylineVertex
 10
160.489
 20
4.71574
 30
0.0
 70
    32
  0
VERTEX
  5
1385
330
ECF
100
AcDbEntity
  8
241
  6
Continuous
100
AcDbVertex
100
AcDb3dPolylineVertex
 10
160.457
 20
4.80649
 30
0.0
 70
    32
  0
VERTEX
  5
1386
330
ECF
100
AcDbEntity
  8
241
  6
Continuous
100
AcDbVertex
100
AcDb3dPolylineVertex
 10
160.422
 20
4.89673
 30
0.0
 70
    32
  0
VERTEX
  5
1387
330
ECF
100
AcDbEntity
  8
241
  6
Continuous
100
AcDbVertex
100
AcDb3dPolylineVertex
 10
160.386
 20
4.986439999999999
 30
0.0
 70
    32
  0
VERTEX
  5
1388
330
ECF
100
AcDbEntity
  8
241
  6
Continuous
100
AcDbVertex
100
AcDb3dPolylineVertex
 10
160.349
 20
5.07559
 30
0.0
 70
    32
  0
VERTEX
  5
1389
330
ECF
100
AcDbEntity
  8
241
  6
Continuous
100
AcDbVertex
100
AcDb3dPolylineVertex
 10
160.309
 20
5.16415
 30
0.0
 70
    32
  0
VERTEX
  5
138A
330
ECF
100
AcDbEntity
  8
241
  6
Continuous
100
AcDbVertex
100
AcDb3dPolylineVertex
 10
160.268
 20
5.2521
 30
0.0
 70
    32
  0
VERTEX
  5
138B
330
ECF
100
AcDbEntity
  8
241
  6
Continuous
100
AcDbVertex
100
AcDb3dPolylineVertex
 10
160.225
 20
5.339409999999999
 30
0.0
 70
    32
  0
VERTEX
  5
138C
330
ECF
100
AcDbEntity
  8
241
  6
Continuous
100
AcDbVertex
100
AcDb3dPolylineVertex
 10
160.18
 20
5.42604
 30
0.0
 70
    32
  0
VERTEX
  5
138D
330
ECF
100
AcDbEntity
  8
241
  6
Continuous
100
AcDbVertex
100
AcDb3dPolylineVertex
 10
160.133
 20
5.511989999999999
 30
0.0
 70
    32
  0
VERTEX
  5
138E
330
ECF
100
AcDbEntity
  8
241
  6
Continuous
100
AcDbVertex
100
AcDb3dPolylineVertex
 10
160.085
 20
5.597209999999998
 30
0.0
 70
    32
  0
VERTEX
  5
138F
330
ECF
100
AcDbEntity
  8
241
  6
Continuous
100
AcDbVertex
100
AcDb3dPolylineVertex
 10
160.035
 20
5.68168
 30
0.0
 70
    32
  0
VERTEX
  5
1390
330
ECF
100
AcDbEntity
  8
241
  6
Continuous
100
AcDbVertex
100
AcDb3dPolylineVertex
 10
159.983
 20
5.76538
 30
0.0
 70
    32
  0
VERTEX
  5
1391
330
ECF
100
AcDbEntity
  8
241
  6
Continuous
100
AcDbVertex
100
AcDb3dPolylineVertex
 10
159.93
 20
5.848279999999999
 30
0.0
 70
    32
  0
VERTEX
  5
1392
330
ECF
100
AcDbEntity
  8
241
  6
Continuous
100
AcDbVertex
100
AcDb3dPolylineVertex
 10
159.874
 20
5.93036
 30
0.0
 70
    32
  0
VERTEX
  5
1393
330
ECF
100
AcDbEntity
  8
241
  6
Continuous
100
AcDbVertex
100
AcDb3dPolylineVertex
 10
159.818
 20
6.01158
 30
0.0
 70
    32
  0
VERTEX
  5
1394
330
ECF
100
AcDbEntity
  8
241
  6
Continuous
100
AcDbVertex
100
AcDb3dPolylineVertex
 10
159.759
 20
6.09193
 30
0.0
 70
    32
  0
VERTEX
  5
1395
330
ECF
100
AcDbEntity
  8
241
  6
Continuous
100
AcDbVertex
100
AcDb3dPolylineVertex
 10
159.699
 20
6.17138
 30
0.0
 70
    32
  0
VERTEX
  5
1396
330
ECF
100
AcDbEntity
  8
241
  6
Continuous
100
AcDbVertex
100
AcDb3dPolylineVertex
 10
159.637
 20
6.249909999999998
 30
0.0
 70
    32
  0
VERTEX
  5
1397
330
ECF
100
AcDbEntity
  8
241
  6
Continuous
100
AcDbVertex
100
AcDb3dPolylineVertex
 10
159.574
 20
6.32748
 30
0.0
 70
    32
  0
VERTEX
  5
1398
330
ECF
100
AcDbEntity
  8
241
  6
Continuous
100
AcDbVertex
100
AcDb3dPolylineVertex
 10
159.509
 20
6.40409
 30
0.0
 70
    32
  0
VERTEX
  5
1399
330
ECF
100
AcDbEntity
  8
241
  6
Continuous
100
AcDbVertex
100
AcDb3dPolylineVertex
 10
159.443
 20
6.479689999999998
 30
0.0
 70
    32
  0
VERTEX
  5
139A
330
ECF
100
AcDbEntity
  8
241
  6
Continuous
100
AcDbVertex
100
AcDb3dPolylineVertex
 10
159.375
 20
6.55428
 30
0.0
 70
    32
  0
VERTEX
  5
139B
330
ECF
100
AcDbEntity
  8
241
  6
Continuous
100
AcDbVertex
100
AcDb3dPolylineVertex
 10
159.306
 20
6.62783
 30
0.0
 70
    32
  0
VERTEX
  5
139C
330
ECF
100
AcDbEntity
  8
241
  6
Continuous
100
AcDbVertex
100
AcDb3dPolylineVertex
 10
159.235
 20
6.70031
 30
0.0
 70
    32
  0
VERTEX
  5
139D
330
ECF
100
AcDbEntity
  8
241
  6
Continuous
100
AcDbVertex
100
AcDb3dPolylineVertex
 10
159.163
 20
6.7717
 30
0.0
 70
    32
  0
VERTEX
  5
139E
330
ECF
100
AcDbEntity
  8
241
  6
Continuous
100
AcDbVertex
100
AcDb3dPolylineVertex
 10
159.089
 20
6.84198
 30
0.0
 70
    32
  0
VERTEX
  5
139F
330
ECF
100
AcDbEntity
  8
241
  6
Continuous
100
AcDbVertex
100
AcDb3dPolylineVertex
 10
159.014
 20
6.911139999999998
 30
0.0
 70
    32
  0
VERTEX
  5
13A0
330
ECF
100
AcDbEntity
  8
241
  6
Continuous
100
AcDbVertex
100
AcDb3dPolylineVertex
 10
158.937
 20
6.979139999999999
 30
0.0
 70
    32
  0
VERTEX
  5
13A1
330
ECF
100
AcDbEntity
  8
241
  6
Continuous
100
AcDbVertex
100
AcDb3dPolylineVertex
 10
158.859
 20
7.04596
 30
0.0
 70
    32
  0
VERTEX
  5
13A2
330
ECF
100
AcDbEntity
  8
241
  6
Continuous
100
AcDbVertex
100
AcDb3dPolylineVertex
 10
158.78
 20
7.1116
 30
0.0
 70
    32
  0
VERTEX
  5
13A3
330
ECF
100
AcDbEntity
  8
241
  6
Continuous
100
AcDbVertex
100
AcDb3dPolylineVertex
 10
158.7
 20
7.176019999999998
 30
0.0
 70
    32
  0
VERTEX
  5
13A4
330
ECF
100
AcDbEntity
  8
241
  6
Continuous
100
AcDbVertex
100
AcDb3dPolylineVertex
 10
158.618
 20
7.2392
 30
0.0
 70
    32
  0
VERTEX
  5
13A5
330
ECF
100
AcDbEntity
  8
241
  6
Continuous
100
AcDbVertex
100
AcDb3dPolylineVertex
 10
158.535
 20
7.301139999999998
 30
0.0
 70
    32
  0
VERTEX
  5
13A6
330
ECF
100
AcDbEntity
  8
241
  6
Continuous
100
AcDbVertex
100
AcDb3dPolylineVertex
 10
158.45
 20
7.361799999999998
 30
0.0
 70
    32
  0
VERTEX
  5
13A7
330
ECF
100
AcDbEntity
  8
241
  6
Continuous
100
AcDbVertex
100
AcDb3dPolylineVertex
 10
158.365
 20
7.42117
 30
0.0
 70
    32
  0
VERTEX
  5
13A8
330
ECF
100
AcDbEntity
  8
241
  6
Continuous
100
AcDbVertex
100
AcDb3dPolylineVertex
 10
158.278
 20
7.47923
 30
0.0
 70
    32
  0
VERTEX
  5
13A9
330
ECF
100
AcDbEntity
  8
241
  6
Continuous
100
AcDbVertex
100
AcDb3dPolylineVertex
 10
158.19
 20
7.53596
 30
0.0
 70
    32
  0
VERTEX
  5
13AA
330
ECF
100
AcDbEntity
  8
241
  6
Continuous
100
AcDbVertex
100
AcDb3dPolylineVertex
 10
158.101
 20
7.59135
 30
0.0
 70
    32
  0
VERTEX
  5
13AB
330
ECF
100
AcDbEntity
  8
241
  6
Continuous
100
AcDbVertex
100
AcDb3dPolylineVertex
 10
158.011
 20
7.64538
 30
0.0
 70
    32
  0
VERTEX
  5
13AC
330
ECF
100
AcDbEntity
  8
241
  6
Continuous
100
AcDbVertex
100
AcDb3dPolylineVertex
 10
157.92
 20
7.69803
 30
0.0
 70
    32
  0
VERTEX
  5
13AD
330
ECF
100
AcDbEntity
  8
241
  6
Continuous
100
AcDbVertex
100
AcDb3dPolylineVertex
 10
157.827
 20
7.74928
 30
0.0
 70
    32
  0
VERTEX
  5
13AE
330
ECF
100
AcDbEntity
  8
241
  6
Continuous
100
AcDbVertex
100
AcDb3dPolylineVertex
 10
157.734
 20
7.799129999999999
 30
0.0
 70
    32
  0
VERTEX
  5
13AF
330
ECF
100
AcDbEntity
  8
241
  6
Continuous
100
AcDbVertex
100
AcDb3dPolylineVertex
 10
157.64
 20
7.84755
 30
0.0
 70
    32
  0
VERTEX
  5
13B0
330
ECF
100
AcDbEntity
  8
241
  6
Continuous
100
AcDbVertex
100
AcDb3dPolylineVertex
 10
157.544
 20
7.89453
 30
0.0
 70
    32
  0
VERTEX
  5
13B1
330
ECF
100
AcDbEntity
  8
241
  6
Continuous
100
AcDbVertex
100
AcDb3dPolylineVertex
 10
157.448
 20
7.94005
 30
0.0
 70
    32
  0
VERTEX
  5
13B2
330
ECF
100
AcDbEntity
  8
241
  6
Continuous
100
AcDbVertex
100
AcDb3dPolylineVertex
 10
157.351
 20
7.984099999999998
 30
0.0
 70
    32
  0
VERTEX
  5
13B3
330
ECF
100
AcDbEntity
  8
241
  6
Continuous
100
AcDbVertex
100
AcDb3dPolylineVertex
 10
157.253
 20
8.02668
 30
0.0
 70
    32
  0
VERTEX
  5
13B4
330
ECF
100
AcDbEntity
  8
241
  6
Continuous
100
AcDbVertex
100
AcDb3dPolylineVertex
 10
157.154
 20
8.06775
 30
0.0
 70
    32
  0
VERTEX
  5
13B5
330
ECF
100
AcDbEntity
  8
241
  6
Continuous
100
AcDbVertex
100
AcDb3dPolylineVertex
 10
157.054
 20
8.107319999999999
 30
0.0
 70
    32
  0
VERTEX
  5
13B6
330
ECF
100
AcDbEntity
  8
241
  6
Continuous
100
AcDbVertex
100
AcDb3dPolylineVertex
 10
156.954
 20
8.145369999999998
 30
0.0
 70
    32
  0
VERTEX
  5
13B7
330
ECF
100
AcDbEntity
  8
241
  6
Continuous
100
AcDbVertex
100
AcDb3dPolylineVertex
 10
156.8529999999999
 20
8.181889999999999
 30
0.0
 70
    32
  0
VERTEX
  5
13B8
330
ECF
100
AcDbEntity
  8
241
  6
Continuous
100
AcDbVertex
100
AcDb3dPolylineVertex
 10
156.751
 20
8.21686
 30
0.0
 70
    32
  0
VERTEX
  5
13B9
330
ECF
100
AcDbEntity
  8
241
  6
Continuous
100
AcDbVertex
100
AcDb3dPolylineVertex
 10
156.648
 20
8.25028
 30
0.0
 70
    32
  0
VERTEX
  5
13BA
330
ECF
100
AcDbEntity
  8
241
  6
Continuous
100
AcDbVertex
100
AcDb3dPolylineVertex
 10
156.545
 20
8.28214
 30
0.0
 70
    32
  0
VERTEX
  5
13BB
330
ECF
100
AcDbEntity
  8
241
  6
Continuous
100
AcDbVertex
100
AcDb3dPolylineVertex
 10
156.441
 20
8.312419999999999
 30
0.0
 70
    32
  0
VERTEX
  5
13BC
330
ECF
100
AcDbEntity
  8
241
  6
Continuous
100
AcDbVertex
100
AcDb3dPolylineVertex
 10
156.336
 20
8.34111
 30
0.0
 70
    32
  0
VERTEX
  5
13BD
330
ECF
100
AcDbEntity
  8
241
  6
Continuous
100
AcDbVertex
100
AcDb3dPolylineVertex
 10
156.231
 20
8.368219999999999
 30
0.0
 70
    32
  0
VERTEX
  5
13BE
330
ECF
100
AcDbEntity
  8
241
  6
Continuous
100
AcDbVertex
100
AcDb3dPolylineVertex
 10
156.126
 20
8.39372
 30
0.0
 70
    32
  0
VERTEX
  5
13BF
330
ECF
100
AcDbEntity
  8
241
  6
Continuous
100
AcDbVertex
100
AcDb3dPolylineVertex
 10
156.02
 20
8.417619999999999
 30
0.0
 70
    32
  0
VERTEX
  5
13C0
330
ECF
100
AcDbEntity
  8
241
  6
Continuous
100
AcDbVertex
100
AcDb3dPolylineVertex
 10
155.913
 20
8.439899999999997
 30
0.0
 70
    32
  0
VERTEX
  5
13C1
330
ECF
100
AcDbEntity
  8
241
  6
Continuous
100
AcDbVertex
100
AcDb3dPolylineVertex
 10
155.806
 20
8.460549999999999
 30
0.0
 70
    32
  0
VERTEX
  5
13C2
330
ECF
100
AcDbEntity
  8
241
  6
Continuous
100
AcDbVertex
100
AcDb3dPolylineVertex
 10
155.699
 20
8.47958
 30
0.0
 70
    32
  0
VERTEX
  5
13C3
330
ECF
100
AcDbEntity
  8
241
  6
Continuous
100
AcDbVertex
100
AcDb3dPolylineVertex
 10
155.591
 20
8.496969999999999
 30
0.0
 70
    32
  0
VERTEX
  5
13C4
330
ECF
100
AcDbEntity
  8
241
  6
Continuous
100
AcDbVertex
100
AcDb3dPolylineVertex
 10
155.483
 20
8.512729999999999
 30
0.0
 70
    32
  0
VERTEX
  5
13C5
330
ECF
100
AcDbEntity
  8
241
  6
Continuous
100
AcDbVertex
100
AcDb3dPolylineVertex
 10
155.374
 20
8.52683
 30
0.0
 70
    32
  0
VERTEX
  5
13C6
330
ECF
100
AcDbEntity
  8
241
  6
Continuous
100
AcDbVertex
100
AcDb3dPolylineVertex
 10
155.266
 20
8.539289999999999
 30
0.0
 70
    32
  0
VERTEX
  5
13C7
330
ECF
100
AcDbEntity
  8
241
  6
Continuous
100
AcDbVertex
100
AcDb3dPolylineVertex
 10
155.157
 20
8.5501
 30
0.0
 70
    32
  0
VERTEX
  5
13C8
330
ECF
100
AcDbEntity
  8
241
  6
Continuous
100
AcDbVertex
100
AcDb3dPolylineVertex
 10
155.048
 20
8.55925
 30
0.0
 70
    32
  0
VERTEX
  5
13C9
330
ECF
100
AcDbEntity
  8
241
  6
Continuous
100
AcDbVertex
100
AcDb3dPolylineVertex
 10
154.938
 20
8.566729999999997
 30
0.0
 70
    32
  0
VERTEX
  5
13CA
330
ECF
100
AcDbEntity
  8
241
  6
Continuous
100
AcDbVertex
100
AcDb3dPolylineVertex
 10
154.829
 20
8.572560000000001
 30
0.0
 70
    32
  0
VERTEX
  5
13CB
330
ECF
100
AcDbEntity
  8
241
  6
Continuous
100
AcDbVertex
100
AcDb3dPolylineVertex
 10
154.719
 20
8.576719999999998
 30
0.0
 70
    32
  0
VERTEX
  5
13CC
330
ECF
100
AcDbEntity
  8
241
  6
Continuous
100
AcDbVertex
100
AcDb3dPolylineVertex
 10
154.61
 20
8.579219999999999
 30
0.0
 70
    32
  0
VERTEX
  5
13CD
330
ECF
100
AcDbEntity
  8
241
  6
Continuous
100
AcDbVertex
100
AcDb3dPolylineVertex
 10
154.5
 20
8.580060000000001
 30
0.0
 70
    32
  0
SEQEND
  5
13CE
330
ECF
100
AcDbEntity
  8
241
  6
Continuous
  0
POLYLINE
  5
ED0
330
1683
100
AcDbEntity
  8
241
  6
Continuous
100
AcDb3dPolyline
 66
     1
 10
0.0
 20
0.0
 30
0.0
 70
     8
  0
VERTEX
  5
13CF
330
ED0
100
AcDbEntity
  8
241
  6
Continuous
100
AcDbVertex
100
AcDb3dPolylineVertex
 10
154.5
 20
8.580060000000001
 30
0.0
 70
    32
  0
VERTEX
  5
13D0
330
ED0
100
AcDbEntity
  8
241
  6
Continuous
100
AcDbVertex
100
AcDb3dPolylineVertex
 10
154.39
 20
8.579219999999999
 30
0.0
 70
    32
  0
VERTEX
  5
13D1
330
ED0
100
AcDbEntity
  8
241
  6
Continuous
100
AcDbVertex
100
AcDb3dPolylineVertex
 10
154.281
 20
8.576719999999998
 30
0.0
 70
    32
  0
VERTEX
  5
13D2
330
ED0
100
AcDbEntity
  8
241
  6
Continuous
100
AcDbVertex
100
AcDb3dPolylineVertex
 10
154.171
 20
8.572560000000001
 30
0.0
 70
    32
  0
VERTEX
  5
13D3
330
ED0
100
AcDbEntity
  8
241
  6
Continuous
100
AcDbVertex
100
AcDb3dPolylineVertex
 10
154.062
 20
8.566729999999997
 30
0.0
 70
    32
  0
VERTEX
  5
13D4
330
ED0
100
AcDbEntity
  8
241
  6
Continuous
100
AcDbVertex
100
AcDb3dPolylineVertex
 10
153.952
 20
8.55925
 30
0.0
 70
    32
  0
VERTEX
  5
13D5
330
ED0
100
AcDbEntity
  8
241
  6
Continuous
100
AcDbVertex
100
AcDb3dPolylineVertex
 10
153.843
 20
8.5501
 30
0.0
 70
    32
  0
VERTEX
  5
13D6
330
ED0
100
AcDbEntity
  8
241
  6
Continuous
100
AcDbVertex
100
AcDb3dPolylineVertex
 10
153.734
 20
8.539289999999999
 30
0.0
 70
    32
  0
VERTEX
  5
13D7
330
ED0
100
AcDbEntity
  8
241
  6
Continuous
100
AcDbVertex
100
AcDb3dPolylineVertex
 10
153.626
 20
8.52683
 30
0.0
 70
    32
  0
VERTEX
  5
13D8
330
ED0
100
AcDbEntity
  8
241
  6
Continuous
100
AcDbVertex
100
AcDb3dPolylineVertex
 10
153.517
 20
8.512729999999999
 30
0.0
 70
    32
  0
VERTEX
  5
13D9
330
ED0
100
AcDbEntity
  8
241
  6
Continuous
100
AcDbVertex
100
AcDb3dPolylineVertex
 10
153.409
 20
8.496969999999999
 30
0.0
 70
    32
  0
VERTEX
  5
13DA
330
ED0
100
AcDbEntity
  8
241
  6
Continuous
100
AcDbVertex
100
AcDb3dPolylineVertex
 10
153.301
 20
8.47958
 30
0.0
 70
    32
  0
VERTEX
  5
13DB
330
ED0
100
AcDbEntity
  8
241
  6
Continuous
100
AcDbVertex
100
AcDb3dPolylineVertex
 10
153.194
 20
8.460549999999999
 30
0.0
 70
    32
  0
VERTEX
  5
13DC
330
ED0
100
AcDbEntity
  8
241
  6
Continuous
100
AcDbVertex
100
AcDb3dPolylineVertex
 10
153.087
 20
8.439899999999997
 30
0.0
 70
    32
  0
VERTEX
  5
13DD
330
ED0
100
AcDbEntity
  8
241
  6
Continuous
100
AcDbVertex
100
AcDb3dPolylineVertex
 10
152.98
 20
8.417619999999999
 30
0.0
 70
    32
  0
VERTEX
  5
13DE
330
ED0
100
AcDbEntity
  8
241
  6
Continuous
100
AcDbVertex
100
AcDb3dPolylineVertex
 10
152.874
 20
8.39372
 30
0.0
 70
    32
  0
VERTEX
  5
13DF
330
ED0
100
AcDbEntity
  8
241
  6
Continuous
100
AcDbVertex
100
AcDb3dPolylineVertex
 10
152.769
 20
8.368219999999999
 30
0.0
 70
    32
  0
VERTEX
  5
13E0
330
ED0
100
AcDbEntity
  8
241
  6
Continuous
100
AcDbVertex
100
AcDb3dPolylineVertex
 10
152.664
 20
8.34111
 30
0.0
 70
    32
  0
VERTEX
  5
13E1
330
ED0
100
AcDbEntity
  8
241
  6
Continuous
100
AcDbVertex
100
AcDb3dPolylineVertex
 10
152.559
 20
8.312419999999999
 30
0.0
 70
    32
  0
VERTEX
  5
13E2
330
ED0
100
AcDbEntity
  8
241
  6
Continuous
100
AcDbVertex
100
AcDb3dPolylineVertex
 10
152.455
 20
8.28214
 30
0.0
 70
    32
  0
VERTEX
  5
13E3
330
ED0
100
AcDbEntity
  8
241
  6
Continuous
100
AcDbVertex
100
AcDb3dPolylineVertex
 10
152.352
 20
8.25028
 30
0.0
 70
    32
  0
VERTEX
  5
13E4
330
ED0
100
AcDbEntity
  8
241
  6
Continuous
100
AcDbVertex
100
AcDb3dPolylineVertex
 10
152.249
 20
8.21686
 30
0.0
 70
    32
  0
VERTEX
  5
13E5
330
ED0
100
AcDbEntity
  8
241
  6
Continuous
100
AcDbVertex
100
AcDb3dPolylineVertex
 10
152.147
 20
8.181889999999999
 30
0.0
 70
    32
  0
VERTEX
  5
13E6
330
ED0
100
AcDbEntity
  8
241
  6
Continuous
100
AcDbVertex
100
AcDb3dPolylineVertex
 10
152.046
 20
8.145369999999998
 30
0.0
 70
    32
  0
VERTEX
  5
13E7
330
ED0
100
AcDbEntity
  8
241
  6
Continuous
100
AcDbVertex
100
AcDb3dPolylineVertex
 10
151.946
 20
8.107319999999999
 30
0.0
 70
    32
  0
VERTEX
  5
13E8
330
ED0
100
AcDbEntity
  8
241
  6
Continuous
100
AcDbVertex
100
AcDb3dPolylineVertex
 10
151.846
 20
8.06775
 30
0.0
 70
    32
  0
VERTEX
  5
13E9
330
ED0
100
AcDbEntity
  8
241
  6
Continuous
100
AcDbVertex
100
AcDb3dPolylineVertex
 10
151.747
 20
8.02668
 30
0.0
 70
    32
  0
VERTEX
  5
13EA
330
ED0
100
AcDbEntity
  8
241
  6
Continuous
100
AcDbVertex
100
AcDb3dPolylineVertex
 10
151.649
 20
7.984099999999998
 30
0.0
 70
    32
  0
VERTEX
  5
13EB
330
ED0
100
AcDbEntity
  8
241
  6
Continuous
100
AcDbVertex
100
AcDb3dPolylineVertex
 10
151.552
 20
7.94005
 30
0.0
 70
    32
  0
VERTEX
  5
13EC
330
ED0
100
AcDbEntity
  8
241
  6
Continuous
100
AcDbVertex
100
AcDb3dPolylineVertex
 10
151.456
 20
7.89453
 30
0.0
 70
    32
  0
VERTEX
  5
13ED
330
ED0
100
AcDbEntity
  8
241
  6
Continuous
100
AcDbVertex
100
AcDb3dPolylineVertex
 10
151.36
 20
7.84755
 30
0.0
 70
    32
  0
VERTEX
  5
13EE
330
ED0
100
AcDbEntity
  8
241
  6
Continuous
100
AcDbVertex
100
AcDb3dPolylineVertex
 10
151.266
 20
7.799129999999999
 30
0.0
 70
    32
  0
VERTEX
  5
13EF
330
ED0
100
AcDbEntity
  8
241
  6
Continuous
100
AcDbVertex
100
AcDb3dPolylineVertex
 10
151.173
 20
7.74928
 30
0.0
 70
    32
  0
VERTEX
  5
13F0
330
ED0
100
AcDbEntity
  8
241
  6
Continuous
100
AcDbVertex
100
AcDb3dPolylineVertex
 10
151.08
 20
7.69803
 30
0.0
 70
    32
  0
VERTEX
  5
13F1
330
ED0
100
AcDbEntity
  8
241
  6
Continuous
100
AcDbVertex
100
AcDb3dPolylineVertex
 10
150.989
 20
7.64538
 30
0.0
 70
    32
  0
VERTEX
  5
13F2
330
ED0
100
AcDbEntity
  8
241
  6
Continuous
100
AcDbVertex
100
AcDb3dPolylineVertex
 10
150.899
 20
7.59135
 30
0.0
 70
    32
  0
VERTEX
  5
13F3
330
ED0
100
AcDbEntity
  8
241
  6
Continuous
100
AcDbVertex
100
AcDb3dPolylineVertex
 10
150.81
 20
7.53596
 30
0.0
 70
    32
  0
VERTEX
  5
13F4
330
ED0
100
AcDbEntity
  8
241
  6
Continuous
100
AcDbVertex
100
AcDb3dPolylineVertex
 10
150.722
 20
7.47923
 30
0.0
 70
    32
  0
VERTEX
  5
13F5
330
ED0
100
AcDbEntity
  8
241
  6
Continuous
100
AcDbVertex
100
AcDb3dPolylineVertex
 10
150.635
 20
7.42117
 30
0.0
 70
    32
  0
VERTEX
  5
13F6
330
ED0
100
AcDbEntity
  8
241
  6
Continuous
100
AcDbVertex
100
AcDb3dPolylineVertex
 10
150.55
 20
7.361799999999998
 30
0.0
 70
    32
  0
VERTEX
  5
13F7
330
ED0
100
AcDbEntity
  8
241
  6
Continuous
100
AcDbVertex
100
AcDb3dPolylineVertex
 10
150.465
 20
7.301139999999998
 30
0.0
 70
    32
  0
VERTEX
  5
13F8
330
ED0
100
AcDbEntity
  8
241
  6
Continuous
100
AcDbVertex
100
AcDb3dPolylineVertex
 10
150.382
 20
7.2392
 30
0.0
 70
    32
  0
VERTEX
  5
13F9
330
ED0
100
AcDbEntity
  8
241
  6
Continuous
100
AcDbVertex
100
AcDb3dPolylineVertex
 10
150.3
 20
7.176019999999998
 30
0.0
 70
    32
  0
VERTEX
  5
13FA
330
ED0
100
AcDbEntity
  8
241
  6
Continuous
100
AcDbVertex
100
AcDb3dPolylineVertex
 10
150.22
 20
7.1116
 30
0.0
 70
    32
  0
VERTEX
  5
13FB
330
ED0
100
AcDbEntity
  8
241
  6
Continuous
100
AcDbVertex
100
AcDb3dPolylineVertex
 10
150.141
 20
7.04596
 30
0.0
 70
    32
  0
VERTEX
  5
13FC
330
ED0
100
AcDbEntity
  8
241
  6
Continuous
100
AcDbVertex
100
AcDb3dPolylineVertex
 10
150.063
 20
6.979139999999999
 30
0.0
 70
    32
  0
VERTEX
  5
13FD
330
ED0
100
AcDbEntity
  8
241
  6
Continuous
100
AcDbVertex
100
AcDb3dPolylineVertex
 10
149.986
 20
6.911139999999998
 30
0.0
 70
    32
  0
VERTEX
  5
13FE
330
ED0
100
AcDbEntity
  8
241
  6
Continuous
100
AcDbVertex
100
AcDb3dPolylineVertex
 10
149.911
 20
6.84198
 30
0.0
 70
    32
  0
VERTEX
  5
13FF
330
ED0
100
AcDbEntity
  8
241
  6
Continuous
100
AcDbVertex
100
AcDb3dPolylineVertex
 10
149.837
 20
6.7717
 30
0.0
 70
    32
  0
VERTEX
  5
1400
330
ED0
100
AcDbEntity
  8
241
  6
Continuous
100
AcDbVertex
100
AcDb3dPolylineVertex
 10
149.765
 20
6.70031
 30
0.0
 70
    32
  0
VERTEX
  5
1401
330
ED0
100
AcDbEntity
  8
241
  6
Continuous
100
AcDbVertex
100
AcDb3dPolylineVertex
 10
149.694
 20
6.62783
 30
0.0
 70
    32
  0
VERTEX
  5
1402
330
ED0
100
AcDbEntity
  8
241
  6
Continuous
100
AcDbVertex
100
AcDb3dPolylineVertex
 10
149.625
 20
6.55428
 30
0.0
 70
    32
  0
VERTEX
  5
1403
330
ED0
100
AcDbEntity
  8
241
  6
Continuous
100
AcDbVertex
100
AcDb3dPolylineVertex
 10
149.557
 20
6.479689999999998
 30
0.0
 70
    32
  0
VERTEX
  5
1404
330
ED0
100
AcDbEntity
  8
241
  6
Continuous
100
AcDbVertex
100
AcDb3dPolylineVertex
 10
149.491
 20
6.40409
 30
0.0
 70
    32
  0
VERTEX
  5
1405
330
ED0
100
AcDbEntity
  8
241
  6
Continuous
100
AcDbVertex
100
AcDb3dPolylineVertex
 10
149.426
 20
6.32748
 30
0.0
 70
    32
  0
VERTEX
  5
1406
330
ED0
100
AcDbEntity
  8
241
  6
Continuous
100
AcDbVertex
100
AcDb3dPolylineVertex
 10
149.363
 20
6.249909999999998
 30
0.0
 70
    32
  0
VERTEX
  5
1407
330
ED0
100
AcDbEntity
  8
241
  6
Continuous
100
AcDbVertex
100
AcDb3dPolylineVertex
 10
149.301
 20
6.17138
 30
0.0
 70
    32
  0
VERTEX
  5
1408
330
ED0
100
AcDbEntity
  8
241
  6
Continuous
100
AcDbVertex
100
AcDb3dPolylineVertex
 10
149.241
 20
6.09193
 30
0.0
 70
    32
  0
VERTEX
  5
1409
330
ED0
100
AcDbEntity
  8
241
  6
Continuous
100
AcDbVertex
100
AcDb3dPolylineVertex
 10
149.182
 20
6.01158
 30
0.0
 70
    32
  0
VERTEX
  5
140A
330
ED0
100
AcDbEntity
  8
241
  6
Continuous
100
AcDbVertex
100
AcDb3dPolylineVertex
 10
149.126
 20
5.93036
 30
0.0
 70
    32
  0
VERTEX
  5
140B
330
ED0
100
AcDbEntity
  8
241
  6
Continuous
100
AcDbVertex
100
AcDb3dPolylineVertex
 10
149.07
 20
5.848279999999999
 30
0.0
 70
    32
  0
VERTEX
  5
140C
330
ED0
100
AcDbEntity
  8
241
  6
Continuous
100
AcDbVertex
100
AcDb3dPolylineVertex
 10
149.017
 20
5.76538
 30
0.0
 70
    32
  0
VERTEX
  5
140D
330
ED0
100
AcDbEntity
  8
241
  6
Continuous
100
AcDbVertex
100
AcDb3dPolylineVertex
 10
148.965
 20
5.68168
 30
0.0
 70
    32
  0
VERTEX
  5
140E
330
ED0
100
AcDbEntity
  8
241
  6
Continuous
100
AcDbVertex
100
AcDb3dPolylineVertex
 10
148.915
 20
5.597209999999998
 30
0.0
 70
    32
  0
VERTEX
  5
140F
330
ED0
100
AcDbEntity
  8
241
  6
Continuous
100
AcDbVertex
100
AcDb3dPolylineVertex
 10
148.867
 20
5.511989999999999
 30
0.0
 70
    32
  0
VERTEX
  5
1410
330
ED0
100
AcDbEntity
  8
241
  6
Continuous
100
AcDbVertex
100
AcDb3dPolylineVertex
 10
148.82
 20
5.42604
 30
0.0
 70
    32
  0
VERTEX
  5
1411
330
ED0
100
AcDbEntity
  8
241
  6
Continuous
100
AcDbVertex
100
AcDb3dPolylineVertex
 10
148.775
 20
5.339409999999999
 30
0.0
 70
    32
  0
VERTEX
  5
1412
330
ED0
100
AcDbEntity
  8
241
  6
Continuous
100
AcDbVertex
100
AcDb3dPolylineVertex
 10
148.732
 20
5.2521
 30
0.0
 70
    32
  0
VERTEX
  5
1413
330
ED0
100
AcDbEntity
  8
241
  6
Continuous
100
AcDbVertex
100
AcDb3dPolylineVertex
 10
148.691
 20
5.16415
 30
0.0
 70
    32
  0
VERTEX
  5
1414
330
ED0
100
AcDbEntity
  8
241
  6
Continuous
100
AcDbVertex
100
AcDb3dPolylineVertex
 10
148.651
 20
5.07559
 30
0.0
 70
    32
  0
VERTEX
  5
1415
330
ED0
100
AcDbEntity
  8
241
  6
Continuous
100
AcDbVertex
100
AcDb3dPolylineVertex
 10
148.614
 20
4.986439999999999
 30
0.0
 70
    32
  0
VERTEX
  5
1416
330
ED0
100
AcDbEntity
  8
241
  6
Continuous
100
AcDbVertex
100
AcDb3dPolylineVertex
 10
148.578
 20
4.89673
 30
0.0
 70
    32
  0
VERTEX
  5
1417
330
ED0
100
AcDbEntity
  8
241
  6
Continuous
100
AcDbVertex
100
AcDb3dPolylineVertex
 10
148.543
 20
4.80649
 30
0.0
 70
    32
  0
VERTEX
  5
1418
330
ED0
100
AcDbEntity
  8
241
  6
Continuous
100
AcDbVertex
100
AcDb3dPolylineVertex
 10
148.511
 20
4.71574
 30
0.0
 70
    32
  0
VERTEX
  5
1419
330
ED0
100
AcDbEntity
  8
241
  6
Continuous
100
AcDbVertex
100
AcDb3dPolylineVertex
 10
148.481
 20
4.624519999999998
 30
0.0
 70
    32
  0
VERTEX
  5
141A
330
ED0
100
AcDbEntity
  8
241
  6
Continuous
100
AcDbVertex
100
AcDb3dPolylineVertex
 10
148.452
 20
4.532849999999998
 30
0.0
 70
    32
  0
VERTEX
  5
141B
330
ED0
100
AcDbEntity
  8
241
  6
Continuous
100
AcDbVertex
100
AcDb3dPolylineVertex
 10
148.425
 20
4.44075
 30
0.0
 70
    32
  0
VERTEX
  5
141C
330
ED0
100
AcDbEntity
  8
241
  6
Continuous
100
AcDbVertex
100
AcDb3dPolylineVertex
 10
148.401
 20
4.348269999999998
 30
0.0
 70
    32
  0
VERTEX
  5
141D
330
ED0
100
AcDbEntity
  8
241
  6
Continuous
100
AcDbVertex
100
AcDb3dPolylineVertex
 10
148.378
 20
4.255419999999999
 30
0.0
 70
    32
  0
VERTEX
  5
141E
330
ED0
100
AcDbEntity
  8
241
  6
Continuous
100
AcDbVertex
100
AcDb3dPolylineVertex
 10
148.356
 20
4.162239999999998
 30
0.0
 70
    32
  0
VERTEX
  5
141F
330
ED0
100
AcDbEntity
  8
241
  6
Continuous
100
AcDbVertex
100
AcDb3dPolylineVertex
 10
148.337
 20
4.068749999999998
 30
0.0
 70
    32
  0
VERTEX
  5
1420
330
ED0
100
AcDbEntity
  8
241
  6
Continuous
100
AcDbVertex
100
AcDb3dPolylineVertex
 10
148.32
 20
3.97499
 30
0.0
 70
    32
  0
VERTEX
  5
1421
330
ED0
100
AcDbEntity
  8
241
  6
Continuous
100
AcDbVertex
100
AcDb3dPolylineVertex
 10
148.305
 20
3.880969999999998
 30
0.0
 70
    32
  0
VERTEX
  5
1422
330
ED0
100
AcDbEntity
  8
241
  6
Continuous
100
AcDbVertex
100
AcDb3dPolylineVertex
 10
148.291
 20
3.786739999999998
 30
0.0
 70
    32
  0
VERTEX
  5
1423
330
ED0
100
AcDbEntity
  8
241
  6
Continuous
100
AcDbVertex
100
AcDb3dPolylineVertex
 10
148.279
 20
3.692319999999998
 30
0.0
 70
    32
  0
VERTEX
  5
1424
330
ED0
100
AcDbEntity
  8
241
  6
Continuous
100
AcDbVertex
100
AcDb3dPolylineVertex
 10
148.27
 20
3.59773
 30
0.0
 70
    32
  0
VERTEX
  5
1425
330
ED0
100
AcDbEntity
  8
241
  6
Continuous
100
AcDbVertex
100
AcDb3dPolylineVertex
 10
148.262
 20
3.503009999999998
 30
0.0
 70
    32
  0
VERTEX
  5
1426
330
ED0
100
AcDbEntity
  8
241
  6
Continuous
100
AcDbVertex
100
AcDb3dPolylineVertex
 10
148.256
 20
3.40819
 30
0.0
 70
    32
  0
VERTEX
  5
1427
330
ED0
100
AcDbEntity
  8
241
  6
Continuous
100
AcDbVertex
100
AcDb3dPolylineVertex
 10
148.252
 20
3.31329
 30
0.0
 70
    32
  0
VERTEX
  5
1428
330
ED0
100
AcDbEntity
  8
241
  6
Continuous
100
AcDbVertex
100
AcDb3dPolylineVertex
 10
148.25
 20
3.21835
 30
0.0
 70
    32
  0
VERTEX
  5
1429
330
ED0
100
AcDbEntity
  8
241
  6
Continuous
100
AcDbVertex
100
AcDb3dPolylineVertex
 10
148.25
 20
3.1234
 30
0.0
 70
    32
  0
VERTEX
  5
142A
330
ED0
100
AcDbEntity
  8
241
  6
Continuous
100
AcDbVertex
100
AcDb3dPolylineVertex
 10
148.252
 20
3.028449999999998
 30
0.0
 70
    32
  0
VERTEX
  5
142B
330
ED0
100
AcDbEntity
  8
241
  6
Continuous
100
AcDbVertex
100
AcDb3dPolylineVertex
 10
148.256
 20
2.933549999999998
 30
0.0
 70
    32
  0
VERTEX
  5
142C
330
ED0
100
AcDbEntity
  8
241
  6
Continuous
100
AcDbVertex
100
AcDb3dPolylineVertex
 10
148.262
 20
2.838729999999998
 30
0.0
 70
    32
  0
VERTEX
  5
142D
330
ED0
100
AcDbEntity
  8
241
  6
Continuous
100
AcDbVertex
100
AcDb3dPolylineVertex
 10
148.269
 20
2.743999999999999
 30
0.0
 70
    32
  0
VERTEX
  5
142E
330
ED0
100
AcDbEntity
  8
241
  6
Continuous
100
AcDbVertex
100
AcDb3dPolylineVertex
 10
148.279
 20
2.649399999999999
 30
0.0
 70
    32
  0
VERTEX
  5
142F
330
ED0
100
AcDbEntity
  8
241
  6
Continuous
100
AcDbVertex
100
AcDb3dPolylineVertex
 10
148.29
 20
2.554959999999999
 30
0.0
 70
    32
  0
VERTEX
  5
1430
330
ED0
100
AcDbEntity
  8
241
  6
Continuous
100
AcDbVertex
100
AcDb3dPolylineVertex
 10
148.303
 20
2.46072
 30
0.0
 70
    32
  0
VERTEX
  5
1431
330
ED0
100
AcDbEntity
  8
241
  6
Continuous
100
AcDbVertex
100
AcDb3dPolylineVertex
 10
148.319
 20
2.36668
 30
0.0
 70
    32
  0
VERTEX
  5
1432
330
ED0
100
AcDbEntity
  8
241
  6
Continuous
100
AcDbVertex
100
AcDb3dPolylineVertex
 10
148.336
 20
2.272899999999999
 30
0.0
 70
    32
  0
VERTEX
  5
1433
330
ED0
100
AcDbEntity
  8
241
  6
Continuous
100
AcDbVertex
100
AcDb3dPolylineVertex
 10
148.355
 20
2.17939
 30
0.0
 70
    32
  0
VERTEX
  5
1434
330
ED0
100
AcDbEntity
  8
241
  6
Continuous
100
AcDbVertex
100
AcDb3dPolylineVertex
 10
148.376
 20
2.08618
 30
0.0
 70
    32
  0
VERTEX
  5
1435
330
ED0
100
AcDbEntity
  8
241
  6
Continuous
100
AcDbVertex
100
AcDb3dPolylineVertex
 10
148.399
 20
1.993309999999999
 30
0.0
 70
    32
  0
VERTEX
  5
1436
330
ED0
100
AcDbEntity
  8
241
  6
Continuous
100
AcDbVertex
100
AcDb3dPolylineVertex
 10
148.424
 20
1.9008
 30
0.0
 70
    32
  0
VERTEX
  5
1437
330
ED0
100
AcDbEntity
  8
241
  6
Continuous
100
AcDbVertex
100
AcDb3dPolylineVertex
 10
148.45
 20
1.808679999999999
 30
0.0
 70
    32
  0
VERTEX
  5
1438
330
ED0
100
AcDbEntity
  8
241
  6
Continuous
100
AcDbVertex
100
AcDb3dPolylineVertex
 10
148.479
 20
1.716979999999999
 30
0.0
 70
    32
  0
VERTEX
  5
1439
330
ED0
100
AcDbEntity
  8
241
  6
Continuous
100
AcDbVertex
100
AcDb3dPolylineVertex
 10
148.509
 20
1.62572
 30
0.0
 70
    32
  0
VERTEX
  5
143A
330
ED0
100
AcDbEntity
  8
241
  6
Continuous
100
AcDbVertex
100
AcDb3dPolylineVertex
 10
148.541
 20
1.534939999999999
 30
0.0
 70
    32
  0
VERTEX
  5
143B
330
ED0
100
AcDbEntity
  8
241
  6
Continuous
100
AcDbVertex
100
AcDb3dPolylineVertex
 10
148.575
 20
1.44466
 30
0.0
 70
    32
  0
VERTEX
  5
143C
330
ED0
100
AcDbEntity
  8
241
  6
Continuous
100
AcDbVertex
100
AcDb3dPolylineVertex
 10
148.611
 20
1.35491
 30
0.0
 70
    32
  0
VERTEX
  5
143D
330
ED0
100
AcDbEntity
  8
241
  6
Continuous
100
AcDbVertex
100
AcDb3dPolylineVertex
 10
148.648
 20
1.26571
 30
0.0
 70
    32
  0
VERTEX
  5
143E
330
ED0
100
AcDbEntity
  8
241
  6
Continuous
100
AcDbVertex
100
AcDb3dPolylineVertex
 10
148.688
 20
1.17711
 30
0.0
 70
    32
  0
VERTEX
  5
143F
330
ED0
100
AcDbEntity
  8
241
  6
Continuous
100
AcDbVertex
100
AcDb3dPolylineVertex
 10
148.7289999999999
 20
1.08911
 30
0.0
 70
    32
  0
VERTEX
  5
1440
330
ED0
100
AcDbEntity
  8
241
  6
Continuous
100
AcDbVertex
100
AcDb3dPolylineVertex
 10
148.772
 20
1.001759999999998
 30
0.0
 70
    32
  0
VERTEX
  5
1441
330
ED0
100
AcDbEntity
  8
241
  6
Continuous
100
AcDbVertex
100
AcDb3dPolylineVertex
 10
148.817
 20
0.915071
 30
0.0
 70
    32
  0
VERTEX
  5
1442
330
ED0
100
AcDbEntity
  8
241
  6
Continuous
100
AcDbVertex
100
AcDb3dPolylineVertex
 10
148.863
 20
0.829077
 30
0.0
 70
    32
  0
VERTEX
  5
1443
330
ED0
100
AcDbEntity
  8
241
  6
Continuous
100
AcDbVertex
100
AcDb3dPolylineVertex
 10
148.912
 20
0.7438010000000001
 30
0.0
 70
    32
  0
VERTEX
  5
1444
330
ED0
100
AcDbEntity
  8
241
  6
Continuous
100
AcDbVertex
100
AcDb3dPolylineVertex
 10
148.962
 20
0.6592720000000001
 30
0.0
 70
    32
  0
VERTEX
  5
1445
330
ED0
100
AcDbEntity
  8
241
  6
Continuous
100
AcDbVertex
100
AcDb3dPolylineVertex
 10
149.013
 20
0.5755150000000002
 30
0.0
 70
    32
  0
VERTEX
  5
1446
330
ED0
100
AcDbEntity
  8
241
  6
Continuous
100
AcDbVertex
100
AcDb3dPolylineVertex
 10
149.067
 20
0.4925550000000002
 30
0.0
 70
    32
  0
VERTEX
  5
1447
330
ED0
100
AcDbEntity
  8
241
  6
Continuous
100
AcDbVertex
100
AcDb3dPolylineVertex
 10
149.122
 20
0.410419
 30
0.0
 70
    32
  0
VERTEX
  5
1448
330
ED0
100
AcDbEntity
  8
241
  6
Continuous
100
AcDbVertex
100
AcDb3dPolylineVertex
 10
149.178
 20
0.329131
 30
0.0
 70
    32
  0
VERTEX
  5
1449
330
ED0
100
AcDbEntity
  8
241
  6
Continuous
100
AcDbVertex
100
AcDb3dPolylineVertex
 10
149.237
 20
0.248717
 30
0.0
 70
    32
  0
VERTEX
  5
144A
330
ED0
100
AcDbEntity
  8
241
  6
Continuous
100
AcDbVertex
100
AcDb3dPolylineVertex
 10
149.296
 20
0.169201
 30
0.0
 70
    32
  0
VERTEX
  5
144B
330
ED0
100
AcDbEntity
  8
241
  6
Continuous
100
AcDbVertex
100
AcDb3dPolylineVertex
 10
149.358
 20
0.0906077
 30
0.0
 70
    32
  0
VERTEX
  5
144C
330
ED0
100
AcDbEntity
  8
241
  6
Continuous
100
AcDbVertex
100
AcDb3dPolylineVertex
 10
149.421
 20
0.0129615
 30
0.0
 70
    32
  0
VERTEX
  5
144D
330
ED0
100
AcDbEntity
  8
241
  6
Continuous
100
AcDbVertex
100
AcDb3dPolylineVertex
 10
149.486
 20
-0.063714
 30
0.0
 70
    32
  0
VERTEX
  5
144E
330
ED0
100
AcDbEntity
  8
241
  6
Continuous
100
AcDbVertex
100
AcDb3dPolylineVertex
 10
149.552
 20
-0.139395
 30
0.0
 70
    32
  0
VERTEX
  5
144F
330
ED0
100
AcDbEntity
  8
241
  6
Continuous
100
AcDbVertex
100
AcDb3dPolylineVertex
 10
149.62
 20
-0.214058
 30
0.0
 70
    32
  0
SEQEND
  5
1450
330
ED0
100
AcDbEntity
  8
241
  6
Continuous
  0
POLYLINE
  5
1451
330
1683
100
AcDbEntity
  8
241
  6
Continuous
100
AcDb3dPolyline
 66
     1
 10
0.0
 20
0.0
 30
0.0
 70
     8
  0
VERTEX
  5
1452
330
1451
100
AcDbEntity
  8
241
  6
Continuous
100
AcDbVertex
100
AcDb3dPolylineVertex
 10
150.813
 20
12.0636
 30
0.0
 70
    32
  0
VERTEX
  5
1453
330
1451
100
AcDbEntity
  8
241
  6
Continuous
100
AcDbVertex
100
AcDb3dPolylineVertex
 10
150.795
 20
12.0506
 30
0.0
 70
    32
  0
VERTEX
  5
1454
330
1451
100
AcDbEntity
  8
241
  6
Continuous
100
AcDbVertex
100
AcDb3dPolylineVertex
 10
150.777
 20
12.0374
 30
0.0
 70
    32
  0
VERTEX
  5
1455
330
1451
100
AcDbEntity
  8
241
  6
Continuous
100
AcDbVertex
100
AcDb3dPolylineVertex
 10
150.759
 20
12.0242
 30
0.0
 70
    32
  0
VERTEX
  5
1456
330
1451
100
AcDbEntity
  8
241
  6
Continuous
100
AcDbVertex
100
AcDb3dPolylineVertex
 10
150.741
 20
12.0109
 30
0.0
 70
    32
  0
VERTEX
  5
1457
330
1451
100
AcDbEntity
  8
241
  6
Continuous
100
AcDbVertex
100
AcDb3dPolylineVertex
 10
150.722
 20
11.9975
 30
0.0
 70
    32
  0
VERTEX
  5
1458
330
1451
100
AcDbEntity
  8
241
  6
Continuous
100
AcDbVertex
100
AcDb3dPolylineVertex
 10
150.704
 20
11.984
 30
0.0
 70
    32
  0
VERTEX
  5
1459
330
1451
100
AcDbEntity
  8
241
  6
Continuous
100
AcDbVertex
100
AcDb3dPolylineVertex
 10
150.686
 20
11.9704
 30
0.0
 70
    32
  0
VERTEX
  5
145A
330
1451
100
AcDbEntity
  8
241
  6
Continuous
100
AcDbVertex
100
AcDb3dPolylineVertex
 10
150.668
 20
11.9567
 30
0.0
 70
    32
  0
VERTEX
  5
145B
330
1451
100
AcDbEntity
  8
241
  6
Continuous
100
AcDbVertex
100
AcDb3dPolylineVertex
 10
150.65
 20
11.943
 30
0.0
 70
    32
  0
VERTEX
  5
145C
330
1451
100
AcDbEntity
  8
241
  6
Continuous
100
AcDbVertex
100
AcDb3dPolylineVertex
 10
150.632
 20
11.9291
 30
0.0
 70
    32
  0
VERTEX
  5
145D
330
1451
100
AcDbEntity
  8
241
  6
Continuous
100
AcDbVertex
100
AcDb3dPolylineVertex
 10
150.614
 20
11.9152
 30
0.0
 70
    32
  0
VERTEX
  5
145E
330
1451
100
AcDbEntity
  8
241
  6
Continuous
100
AcDbVertex
100
AcDb3dPolylineVertex
 10
150.596
 20
11.9012
 30
0.0
 70
    32
  0
VERTEX
  5
145F
330
1451
100
AcDbEntity
  8
241
  6
Continuous
100
AcDbVertex
100
AcDb3dPolylineVertex
 10
150.578
 20
11.8871
 30
0.0
 70
    32
  0
VERTEX
  5
1460
330
1451
100
AcDbEntity
  8
241
  6
Continuous
100
AcDbVertex
100
AcDb3dPolylineVertex
 10
150.56
 20
11.8729
 30
0.0
 70
    32
  0
VERTEX
  5
1461
330
1451
100
AcDbEntity
  8
241
  6
Continuous
100
AcDbVertex
100
AcDb3dPolylineVertex
 10
150.542
 20
11.8586
 30
0.0
 70
    32
  0
VERTEX
  5
1462
330
1451
100
AcDbEntity
  8
241
  6
Continuous
100
AcDbVertex
100
AcDb3dPolylineVertex
 10
150.524
 20
11.8442
 30
0.0
 70
    32
  0
VERTEX
  5
1463
330
1451
100
AcDbEntity
  8
241
  6
Continuous
100
AcDbVertex
100
AcDb3dPolylineVertex
 10
150.506
 20
11.8298
 30
0.0
 70
    32
  0
VERTEX
  5
1464
330
1451
100
AcDbEntity
  8
241
  6
Continuous
100
AcDbVertex
100
AcDb3dPolylineVertex
 10
150.488
 20
11.8152
 30
0.0
 70
    32
  0
VERTEX
  5
1465
330
1451
100
AcDbEntity
  8
241
  6
Continuous
100
AcDbVertex
100
AcDb3dPolylineVertex
 10
150.47
 20
11.8006
 30
0.0
 70
    32
  0
VERTEX
  5
1466
330
1451
100
AcDbEntity
  8
241
  6
Continuous
100
AcDbVertex
100
AcDb3dPolylineVertex
 10
150.452
 20
11.7859
 30
0.0
 70
    32
  0
VERTEX
  5
1467
330
1451
100
AcDbEntity
  8
241
  6
Continuous
100
AcDbVertex
100
AcDb3dPolylineVertex
 10
150.435
 20
11.7711
 30
0.0
 70
    32
  0
VERTEX
  5
1468
330
1451
100
AcDbEntity
  8
241
  6
Continuous
100
AcDbVertex
100
AcDb3dPolylineVertex
 10
150.417
 20
11.7562
 30
0.0
 70
    32
  0
VERTEX
  5
1469
330
1451
100
AcDbEntity
  8
241
  6
Continuous
100
AcDbVertex
100
AcDb3dPolylineVertex
 10
150.399
 20
11.7412
 30
0.0
 70
    32
  0
VERTEX
  5
146A
330
1451
100
AcDbEntity
  8
241
  6
Continuous
100
AcDbVertex
100
AcDb3dPolylineVertex
 10
150.381
 20
11.7261
 30
0.0
 70
    32
  0
VERTEX
  5
146B
330
1451
100
AcDbEntity
  8
241
  6
Continuous
100
AcDbVertex
100
AcDb3dPolylineVertex
 10
150.363
 20
11.711
 30
0.0
 70
    32
  0
VERTEX
  5
146C
330
1451
100
AcDbEntity
  8
241
  6
Continuous
100
AcDbVertex
100
AcDb3dPolylineVertex
 10
150.346
 20
11.6957
 30
0.0
 70
    32
  0
VERTEX
  5
146D
330
1451
100
AcDbEntity
  8
241
  6
Continuous
100
AcDbVertex
100
AcDb3dPolylineVertex
 10
150.328
 20
11.6804
 30
0.0
 70
    32
  0
VERTEX
  5
146E
330
1451
100
AcDbEntity
  8
241
  6
Continuous
100
AcDbVertex
100
AcDb3dPolylineVertex
 10
150.31
 20
11.665
 30
0.0
 70
    32
  0
VERTEX
  5
146F
330
1451
100
AcDbEntity
  8
241
  6
Continuous
100
AcDbVertex
100
AcDb3dPolylineVertex
 10
150.292
 20
11.6495
 30
0.0
 70
    32
  0
VERTEX
  5
1470
330
1451
100
AcDbEntity
  8
241
  6
Continuous
100
AcDbVertex
100
AcDb3dPolylineVertex
 10
150.275
 20
11.6339
 30
0.0
 70
    32
  0
VERTEX
  5
1471
330
1451
100
AcDbEntity
  8
241
  6
Continuous
100
AcDbVertex
100
AcDb3dPolylineVertex
 10
150.257
 20
11.6182
 30
0.0
 70
    32
  0
VERTEX
  5
1472
330
1451
100
AcDbEntity
  8
241
  6
Continuous
100
AcDbVertex
100
AcDb3dPolylineVertex
 10
150.239
 20
11.6024
 30
0.0
 70
    32
  0
VERTEX
  5
1473
330
1451
100
AcDbEntity
  8
241
  6
Continuous
100
AcDbVertex
100
AcDb3dPolylineVertex
 10
150.222
 20
11.5866
 30
0.0
 70
    32
  0
VERTEX
  5
1474
330
1451
100
AcDbEntity
  8
241
  6
Continuous
100
AcDbVertex
100
AcDb3dPolylineVertex
 10
150.204
 20
11.5706
 30
0.0
 70
    32
  0
VERTEX
  5
1475
330
1451
100
AcDbEntity
  8
241
  6
Continuous
100
AcDbVertex
100
AcDb3dPolylineVertex
 10
150.187
 20
11.5546
 30
0.0
 70
    32
  0
VERTEX
  5
1476
330
1451
100
AcDbEntity
  8
241
  6
Continuous
100
AcDbVertex
100
AcDb3dPolylineVertex
 10
150.169
 20
11.5385
 30
0.0
 70
    32
  0
VERTEX
  5
1477
330
1451
100
AcDbEntity
  8
241
  6
Continuous
100
AcDbVertex
100
AcDb3dPolylineVertex
 10
150.151
 20
11.5223
 30
0.0
 70
    32
  0
VERTEX
  5
1478
330
1451
100
AcDbEntity
  8
241
  6
Continuous
100
AcDbVertex
100
AcDb3dPolylineVertex
 10
150.134
 20
11.506
 30
0.0
 70
    32
  0
VERTEX
  5
1479
330
1451
100
AcDbEntity
  8
241
  6
Continuous
100
AcDbVertex
100
AcDb3dPolylineVertex
 10
150.116
 20
11.4896
 30
0.0
 70
    32
  0
VERTEX
  5
147A
330
1451
100
AcDbEntity
  8
241
  6
Continuous
100
AcDbVertex
100
AcDb3dPolylineVertex
 10
150.099
 20
11.4732
 30
0.0
 70
    32
  0
VERTEX
  5
147B
330
1451
100
AcDbEntity
  8
241
  6
Continuous
100
AcDbVertex
100
AcDb3dPolylineVertex
 10
150.082
 20
11.4566
 30
0.0
 70
    32
  0
VERTEX
  5
147C
330
1451
100
AcDbEntity
  8
241
  6
Continuous
100
AcDbVertex
100
AcDb3dPolylineVertex
 10
150.064
 20
11.44
 30
0.0
 70
    32
  0
VERTEX
  5
147D
330
1451
100
AcDbEntity
  8
241
  6
Continuous
100
AcDbVertex
100
AcDb3dPolylineVertex
 10
150.047
 20
11.4233
 30
0.0
 70
    32
  0
VERTEX
  5
147E
330
1451
100
AcDbEntity
  8
241
  6
Continuous
100
AcDbVertex
100
AcDb3dPolylineVertex
 10
150.029
 20
11.4064
 30
0.0
 70
    32
  0
VERTEX
  5
147F
330
1451
100
AcDbEntity
  8
241
  6
Continuous
100
AcDbVertex
100
AcDb3dPolylineVertex
 10
150.012
 20
11.3895
 30
0.0
 70
    32
  0
VERTEX
  5
1480
330
1451
100
AcDbEntity
  8
241
  6
Continuous
100
AcDbVertex
100
AcDb3dPolylineVertex
 10
149.995
 20
11.3726
 30
0.0
 70
    32
  0
VERTEX
  5
1481
330
1451
100
AcDbEntity
  8
241
  6
Continuous
100
AcDbVertex
100
AcDb3dPolylineVertex
 10
149.978
 20
11.3555
 30
0.0
 70
    32
  0
VERTEX
  5
1482
330
1451
100
AcDbEntity
  8
241
  6
Continuous
100
AcDbVertex
100
AcDb3dPolylineVertex
 10
149.96
 20
11.3383
 30
0.0
 70
    32
  0
VERTEX
  5
1483
330
1451
100
AcDbEntity
  8
241
  6
Continuous
100
AcDbVertex
100
AcDb3dPolylineVertex
 10
149.943
 20
11.3211
 30
0.0
 70
    32
  0
VERTEX
  5
1484
330
1451
100
AcDbEntity
  8
241
  6
Continuous
100
AcDbVertex
100
AcDb3dPolylineVertex
 10
149.926
 20
11.3038
 30
0.0
 70
    32
  0
VERTEX
  5
1485
330
1451
100
AcDbEntity
  8
241
  6
Continuous
100
AcDbVertex
100
AcDb3dPolylineVertex
 10
149.909
 20
11.2864
 30
0.0
 70
    32
  0
VERTEX
  5
1486
330
1451
100
AcDbEntity
  8
241
  6
Continuous
100
AcDbVertex
100
AcDb3dPolylineVertex
 10
149.892
 20
11.2689
 30
0.0
 70
    32
  0
VERTEX
  5
1487
330
1451
100
AcDbEntity
  8
241
  6
Continuous
100
AcDbVertex
100
AcDb3dPolylineVertex
 10
149.874
 20
11.2513
 30
0.0
 70
    32
  0
VERTEX
  5
1488
330
1451
100
AcDbEntity
  8
241
  6
Continuous
100
AcDbVertex
100
AcDb3dPolylineVertex
 10
149.857
 20
11.2336
 30
0.0
 70
    32
  0
VERTEX
  5
1489
330
1451
100
AcDbEntity
  8
241
  6
Continuous
100
AcDbVertex
100
AcDb3dPolylineVertex
 10
149.84
 20
11.2159
 30
0.0
 70
    32
  0
VERTEX
  5
148A
330
1451
100
AcDbEntity
  8
241
  6
Continuous
100
AcDbVertex
100
AcDb3dPolylineVertex
 10
149.8229999999999
 20
11.1981
 30
0.0
 70
    32
  0
VERTEX
  5
148B
330
1451
100
AcDbEntity
  8
241
  6
Continuous
100
AcDbVertex
100
AcDb3dPolylineVertex
 10
149.806
 20
11.1802
 30
0.0
 70
    32
  0
VERTEX
  5
148C
330
1451
100
AcDbEntity
  8
241
  6
Continuous
100
AcDbVertex
100
AcDb3dPolylineVertex
 10
149.79
 20
11.1622
 30
0.0
 70
    32
  0
VERTEX
  5
148D
330
1451
100
AcDbEntity
  8
241
  6
Continuous
100
AcDbVertex
100
AcDb3dPolylineVertex
 10
149.773
 20
11.1442
 30
0.0
 70
    32
  0
VERTEX
  5
148E
330
1451
100
AcDbEntity
  8
241
  6
Continuous
100
AcDbVertex
100
AcDb3dPolylineVertex
 10
149.756
 20
11.126
 30
0.0
 70
    32
  0
VERTEX
  5
148F
330
1451
100
AcDbEntity
  8
241
  6
Continuous
100
AcDbVertex
100
AcDb3dPolylineVertex
 10
149.739
 20
11.1078
 30
0.0
 70
    32
  0
VERTEX
  5
1490
330
1451
100
AcDbEntity
  8
241
  6
Continuous
100
AcDbVertex
100
AcDb3dPolylineVertex
 10
149.722
 20
11.0896
 30
0.0
 70
    32
  0
VERTEX
  5
1491
330
1451
100
AcDbEntity
  8
241
  6
Continuous
100
AcDbVertex
100
AcDb3dPolylineVertex
 10
149.706
 20
11.0712
 30
0.0
 70
    32
  0
VERTEX
  5
1492
330
1451
100
AcDbEntity
  8
241
  6
Continuous
100
AcDbVertex
100
AcDb3dPolylineVertex
 10
149.689
 20
11.0528
 30
0.0
 70
    32
  0
VERTEX
  5
1493
330
1451
100
AcDbEntity
  8
241
  6
Continuous
100
AcDbVertex
100
AcDb3dPolylineVertex
 10
149.672
 20
11.0343
 30
0.0
 70
    32
  0
VERTEX
  5
1494
330
1451
100
AcDbEntity
  8
241
  6
Continuous
100
AcDbVertex
100
AcDb3dPolylineVertex
 10
149.656
 20
11.0157
 30
0.0
 70
    32
  0
VERTEX
  5
1495
330
1451
100
AcDbEntity
  8
241
  6
Continuous
100
AcDbVertex
100
AcDb3dPolylineVertex
 10
149.639
 20
10.997
 30
0.0
 70
    32
  0
VERTEX
  5
1496
330
1451
100
AcDbEntity
  8
241
  6
Continuous
100
AcDbVertex
100
AcDb3dPolylineVertex
 10
149.622
 20
10.9783
 30
0.0
 70
    32
  0
VERTEX
  5
1497
330
1451
100
AcDbEntity
  8
241
  6
Continuous
100
AcDbVertex
100
AcDb3dPolylineVertex
 10
149.606
 20
10.9595
 30
0.0
 70
    32
  0
VERTEX
  5
1498
330
1451
100
AcDbEntity
  8
241
  6
Continuous
100
AcDbVertex
100
AcDb3dPolylineVertex
 10
149.59
 20
10.9406
 30
0.0
 70
    32
  0
VERTEX
  5
1499
330
1451
100
AcDbEntity
  8
241
  6
Continuous
100
AcDbVertex
100
AcDb3dPolylineVertex
 10
149.573
 20
10.9216
 30
0.0
 70
    32
  0
VERTEX
  5
149A
330
1451
100
AcDbEntity
  8
241
  6
Continuous
100
AcDbVertex
100
AcDb3dPolylineVertex
 10
149.557
 20
10.9026
 30
0.0
 70
    32
  0
VERTEX
  5
149B
330
1451
100
AcDbEntity
  8
241
  6
Continuous
100
AcDbVertex
100
AcDb3dPolylineVertex
 10
149.54
 20
10.8835
 30
0.0
 70
    32
  0
VERTEX
  5
149C
330
1451
100
AcDbEntity
  8
241
  6
Continuous
100
AcDbVertex
100
AcDb3dPolylineVertex
 10
149.524
 20
10.8643
 30
0.0
 70
    32
  0
VERTEX
  5
149D
330
1451
100
AcDbEntity
  8
241
  6
Continuous
100
AcDbVertex
100
AcDb3dPolylineVertex
 10
149.5079999999999
 20
10.845
 30
0.0
 70
    32
  0
VERTEX
  5
149E
330
1451
100
AcDbEntity
  8
241
  6
Continuous
100
AcDbVertex
100
AcDb3dPolylineVertex
 10
149.492
 20
10.8256
 30
0.0
 70
    32
  0
VERTEX
  5
149F
330
1451
100
AcDbEntity
  8
241
  6
Continuous
100
AcDbVertex
100
AcDb3dPolylineVertex
 10
149.476
 20
10.8062
 30
0.0
 70
    32
  0
VERTEX
  5
14A0
330
1451
100
AcDbEntity
  8
241
  6
Continuous
100
AcDbVertex
100
AcDb3dPolylineVertex
 10
149.46
 20
10.7867
 30
0.0
 70
    32
  0
VERTEX
  5
14A1
330
1451
100
AcDbEntity
  8
241
  6
Continuous
100
AcDbVertex
100
AcDb3dPolylineVertex
 10
149.443
 20
10.7672
 30
0.0
 70
    32
  0
VERTEX
  5
14A2
330
1451
100
AcDbEntity
  8
241
  6
Continuous
100
AcDbVertex
100
AcDb3dPolylineVertex
 10
149.427
 20
10.7475
 30
0.0
 70
    32
  0
VERTEX
  5
14A3
330
1451
100
AcDbEntity
  8
241
  6
Continuous
100
AcDbVertex
100
AcDb3dPolylineVertex
 10
149.411
 20
10.7278
 30
0.0
 70
    32
  0
VERTEX
  5
14A4
330
1451
100
AcDbEntity
  8
241
  6
Continuous
100
AcDbVertex
100
AcDb3dPolylineVertex
 10
149.396
 20
10.708
 30
0.0
 70
    32
  0
VERTEX
  5
14A5
330
1451
100
AcDbEntity
  8
241
  6
Continuous
100
AcDbVertex
100
AcDb3dPolylineVertex
 10
149.38
 20
10.6881
 30
0.0
 70
    32
  0
VERTEX
  5
14A6
330
1451
100
AcDbEntity
  8
241
  6
Continuous
100
AcDbVertex
100
AcDb3dPolylineVertex
 10
149.364
 20
10.6682
 30
0.0
 70
    32
  0
VERTEX
  5
14A7
330
1451
100
AcDbEntity
  8
241
  6
Continuous
100
AcDbVertex
100
AcDb3dPolylineVertex
 10
149.348
 20
10.6482
 30
0.0
 70
    32
  0
VERTEX
  5
14A8
330
1451
100
AcDbEntity
  8
241
  6
Continuous
100
AcDbVertex
100
AcDb3dPolylineVertex
 10
149.332
 20
10.6281
 30
0.0
 70
    32
  0
VERTEX
  5
14A9
330
1451
100
AcDbEntity
  8
241
  6
Continuous
100
AcDbVertex
100
AcDb3dPolylineVertex
 10
149.317
 20
10.6079
 30
0.0
 70
    32
  0
VERTEX
  5
14AA
330
1451
100
AcDbEntity
  8
241
  6
Continuous
100
AcDbVertex
100
AcDb3dPolylineVertex
 10
149.301
 20
10.5877
 30
0.0
 70
    32
  0
VERTEX
  5
14AB
330
1451
100
AcDbEntity
  8
241
  6
Continuous
100
AcDbVertex
100
AcDb3dPolylineVertex
 10
149.285
 20
10.5674
 30
0.0
 70
    32
  0
VERTEX
  5
14AC
330
1451
100
AcDbEntity
  8
241
  6
Continuous
100
AcDbVertex
100
AcDb3dPolylineVertex
 10
149.27
 20
10.547
 30
0.0
 70
    32
  0
VERTEX
  5
14AD
330
1451
100
AcDbEntity
  8
241
  6
Continuous
100
AcDbVertex
100
AcDb3dPolylineVertex
 10
149.254
 20
10.5265
 30
0.0
 70
    32
  0
VERTEX
  5
14AE
330
1451
100
AcDbEntity
  8
241
  6
Continuous
100
AcDbVertex
100
AcDb3dPolylineVertex
 10
149.239
 20
10.506
 30
0.0
 70
    32
  0
VERTEX
  5
14AF
330
1451
100
AcDbEntity
  8
241
  6
Continuous
100
AcDbVertex
100
AcDb3dPolylineVertex
 10
149.223
 20
10.4854
 30
0.0
 70
    32
  0
VERTEX
  5
14B0
330
1451
100
AcDbEntity
  8
241
  6
Continuous
100
AcDbVertex
100
AcDb3dPolylineVertex
 10
149.208
 20
10.4647
 30
0.0
 70
    32
  0
VERTEX
  5
14B1
330
1451
100
AcDbEntity
  8
241
  6
Continuous
100
AcDbVertex
100
AcDb3dPolylineVertex
 10
149.1929999999999
 20
10.4439
 30
0.0
 70
    32
  0
VERTEX
  5
14B2
330
1451
100
AcDbEntity
  8
241
  6
Continuous
100
AcDbVertex
100
AcDb3dPolylineVertex
 10
149.177
 20
10.4231
 30
0.0
 70
    32
  0
VERTEX
  5
14B3
330
1451
100
AcDbEntity
  8
241
  6
Continuous
100
AcDbVertex
100
AcDb3dPolylineVertex
 10
149.162
 20
10.4022
 30
0.0
 70
    32
  0
VERTEX
  5
14B4
330
1451
100
AcDbEntity
  8
241
  6
Continuous
100
AcDbVertex
100
AcDb3dPolylineVertex
 10
149.147
 20
10.3812
 30
0.0
 70
    32
  0
VERTEX
  5
14B5
330
1451
100
AcDbEntity
  8
241
  6
Continuous
100
AcDbVertex
100
AcDb3dPolylineVertex
 10
149.132
 20
10.3602
 30
0.0
 70
    32
  0
VERTEX
  5
14B6
330
1451
100
AcDbEntity
  8
241
  6
Continuous
100
AcDbVertex
100
AcDb3dPolylineVertex
 10
149.117
 20
10.3391
 30
0.0
 70
    32
  0
VERTEX
  5
14B7
330
1451
100
AcDbEntity
  8
241
  6
Continuous
100
AcDbVertex
100
AcDb3dPolylineVertex
 10
149.102
 20
10.3179
 30
0.0
 70
    32
  0
VERTEX
  5
14B8
330
1451
100
AcDbEntity
  8
241
  6
Continuous
100
AcDbVertex
100
AcDb3dPolylineVertex
 10
149.087
 20
10.2966
 30
0.0
 70
    32
  0
VERTEX
  5
14B9
330
1451
100
AcDbEntity
  8
241
  6
Continuous
100
AcDbVertex
100
AcDb3dPolylineVertex
 10
149.072
 20
10.2753
 30
0.0
 70
    32
  0
VERTEX
  5
14BA
330
1451
100
AcDbEntity
  8
241
  6
Continuous
100
AcDbVertex
100
AcDb3dPolylineVertex
 10
149.057
 20
10.2539
 30
0.0
 70
    32
  0
VERTEX
  5
14BB
330
1451
100
AcDbEntity
  8
241
  6
Continuous
100
AcDbVertex
100
AcDb3dPolylineVertex
 10
149.042
 20
10.2324
 30
0.0
 70
    32
  0
VERTEX
  5
14BC
330
1451
100
AcDbEntity
  8
241
  6
Continuous
100
AcDbVertex
100
AcDb3dPolylineVertex
 10
149.027
 20
10.2109
 30
0.0
 70
    32
  0
VERTEX
  5
14BD
330
1451
100
AcDbEntity
  8
241
  6
Continuous
100
AcDbVertex
100
AcDb3dPolylineVertex
 10
149.013
 20
10.1892
 30
0.0
 70
    32
  0
VERTEX
  5
14BE
330
1451
100
AcDbEntity
  8
241
  6
Continuous
100
AcDbVertex
100
AcDb3dPolylineVertex
 10
148.998
 20
10.1676
 30
0.0
 70
    32
  0
VERTEX
  5
14BF
330
1451
100
AcDbEntity
  8
241
  6
Continuous
100
AcDbVertex
100
AcDb3dPolylineVertex
 10
148.983
 20
10.1458
 30
0.0
 70
    32
  0
VERTEX
  5
14C0
330
1451
100
AcDbEntity
  8
241
  6
Continuous
100
AcDbVertex
100
AcDb3dPolylineVertex
 10
148.969
 20
10.124
 30
0.0
 70
    32
  0
VERTEX
  5
14C1
330
1451
100
AcDbEntity
  8
241
  6
Continuous
100
AcDbVertex
100
AcDb3dPolylineVertex
 10
148.954
 20
10.1021
 30
0.0
 70
    32
  0
VERTEX
  5
14C2
330
1451
100
AcDbEntity
  8
241
  6
Continuous
100
AcDbVertex
100
AcDb3dPolylineVertex
 10
148.94
 20
10.0801
 30
0.0
 70
    32
  0
VERTEX
  5
14C3
330
1451
100
AcDbEntity
  8
241
  6
Continuous
100
AcDbVertex
100
AcDb3dPolylineVertex
 10
148.925
 20
10.058
 30
0.0
 70
    32
  0
VERTEX
  5
14C4
330
1451
100
AcDbEntity
  8
241
  6
Continuous
100
AcDbVertex
100
AcDb3dPolylineVertex
 10
148.911
 20
10.0359
 30
0.0
 70
    32
  0
VERTEX
  5
14C5
330
1451
100
AcDbEntity
  8
241
  6
Continuous
100
AcDbVertex
100
AcDb3dPolylineVertex
 10
148.897
 20
10.0137
 30
0.0
 70
    32
  0
VERTEX
  5
14C6
330
1451
100
AcDbEntity
  8
241
  6
Continuous
100
AcDbVertex
100
AcDb3dPolylineVertex
 10
148.882
 20
9.991489999999997
 30
0.0
 70
    32
  0
VERTEX
  5
14C7
330
1451
100
AcDbEntity
  8
241
  6
Continuous
100
AcDbVertex
100
AcDb3dPolylineVertex
 10
148.868
 20
9.96916
 30
0.0
 70
    32
  0
VERTEX
  5
14C8
330
1451
100
AcDbEntity
  8
241
  6
Continuous
100
AcDbVertex
100
AcDb3dPolylineVertex
 10
148.854
 20
9.94677
 30
0.0
 70
    32
  0
VERTEX
  5
14C9
330
1451
100
AcDbEntity
  8
241
  6
Continuous
100
AcDbVertex
100
AcDb3dPolylineVertex
 10
148.84
 20
9.92431
 30
0.0
 70
    32
  0
VERTEX
  5
14CA
330
1451
100
AcDbEntity
  8
241
  6
Continuous
100
AcDbVertex
100
AcDb3dPolylineVertex
 10
148.826
 20
9.90177
 30
0.0
 70
    32
  0
VERTEX
  5
14CB
330
1451
100
AcDbEntity
  8
241
  6
Continuous
100
AcDbVertex
100
AcDb3dPolylineVertex
 10
148.812
 20
9.87917
 30
0.0
 70
    32
  0
VERTEX
  5
14CC
330
1451
100
AcDbEntity
  8
241
  6
Continuous
100
AcDbVertex
100
AcDb3dPolylineVertex
 10
148.798
 20
9.85649
 30
0.0
 70
    32
  0
VERTEX
  5
14CD
330
1451
100
AcDbEntity
  8
241
  6
Continuous
100
AcDbVertex
100
AcDb3dPolylineVertex
 10
148.784
 20
9.83375
 30
0.0
 70
    32
  0
VERTEX
  5
14CE
330
1451
100
AcDbEntity
  8
241
  6
Continuous
100
AcDbVertex
100
AcDb3dPolylineVertex
 10
148.77
 20
9.810939999999996
 30
0.0
 70
    32
  0
VERTEX
  5
14CF
330
1451
100
AcDbEntity
  8
241
  6
Continuous
100
AcDbVertex
100
AcDb3dPolylineVertex
 10
148.756
 20
9.788059999999999
 30
0.0
 70
    32
  0
VERTEX
  5
14D0
330
1451
100
AcDbEntity
  8
241
  6
Continuous
100
AcDbVertex
100
AcDb3dPolylineVertex
 10
148.743
 20
9.765109999999999
 30
0.0
 70
    32
  0
VERTEX
  5
14D1
330
1451
100
AcDbEntity
  8
241
  6
Continuous
100
AcDbVertex
100
AcDb3dPolylineVertex
 10
148.7289999999999
 20
9.742089999999999
 30
0.0
 70
    32
  0
VERTEX
  5
14D2
330
1451
100
AcDbEntity
  8
241
  6
Continuous
100
AcDbVertex
100
AcDb3dPolylineVertex
 10
148.716
 20
9.71901
 30
0.0
 70
    32
  0
VERTEX
  5
14D3
330
1451
100
AcDbEntity
  8
241
  6
Continuous
100
AcDbVertex
100
AcDb3dPolylineVertex
 10
148.702
 20
9.69585
 30
0.0
 70
    32
  0
VERTEX
  5
14D4
330
1451
100
AcDbEntity
  8
241
  6
Continuous
100
AcDbVertex
100
AcDb3dPolylineVertex
 10
148.689
 20
9.672629999999999
 30
0.0
 70
    32
  0
VERTEX
  5
14D5
330
1451
100
AcDbEntity
  8
241
  6
Continuous
100
AcDbVertex
100
AcDb3dPolylineVertex
 10
148.675
 20
9.64933
 30
0.0
 70
    32
  0
VERTEX
  5
14D6
330
1451
100
AcDbEntity
  8
241
  6
Continuous
100
AcDbVertex
100
AcDb3dPolylineVertex
 10
148.662
 20
9.62597
 30
0.0
 70
    32
  0
VERTEX
  5
14D7
330
1451
100
AcDbEntity
  8
241
  6
Continuous
100
AcDbVertex
100
AcDb3dPolylineVertex
 10
148.649
 20
9.60255
 30
0.0
 70
    32
  0
VERTEX
  5
14D8
330
1451
100
AcDbEntity
  8
241
  6
Continuous
100
AcDbVertex
100
AcDb3dPolylineVertex
 10
148.635
 20
9.57905
 30
0.0
 70
    32
  0
VERTEX
  5
14D9
330
1451
100
AcDbEntity
  8
241
  6
Continuous
100
AcDbVertex
100
AcDb3dPolylineVertex
 10
148.622
 20
9.555489999999997
 30
0.0
 70
    32
  0
VERTEX
  5
14DA
330
1451
100
AcDbEntity
  8
241
  6
Continuous
100
AcDbVertex
100
AcDb3dPolylineVertex
 10
148.609
 20
9.531859999999999
 30
0.0
 70
    32
  0
VERTEX
  5
14DB
330
1451
100
AcDbEntity
  8
241
  6
Continuous
100
AcDbVertex
100
AcDb3dPolylineVertex
 10
148.596
 20
9.50816
 30
0.0
 70
    32
  0
VERTEX
  5
14DC
330
1451
100
AcDbEntity
  8
241
  6
Continuous
100
AcDbVertex
100
AcDb3dPolylineVertex
 10
148.583
 20
9.484389999999999
 30
0.0
 70
    32
  0
VERTEX
  5
14DD
330
1451
100
AcDbEntity
  8
241
  6
Continuous
100
AcDbVertex
100
AcDb3dPolylineVertex
 10
148.57
 20
9.46056
 30
0.0
 70
    32
  0
VERTEX
  5
14DE
330
1451
100
AcDbEntity
  8
241
  6
Continuous
100
AcDbVertex
100
AcDb3dPolylineVertex
 10
148.557
 20
9.436659999999999
 30
0.0
 70
    32
  0
VERTEX
  5
14DF
330
1451
100
AcDbEntity
  8
241
  6
Continuous
100
AcDbVertex
100
AcDb3dPolylineVertex
 10
148.544
 20
9.412689999999999
 30
0.0
 70
    32
  0
VERTEX
  5
14E0
330
1451
100
AcDbEntity
  8
241
  6
Continuous
100
AcDbVertex
100
AcDb3dPolylineVertex
 10
148.532
 20
9.388659999999999
 30
0.0
 70
    32
  0
VERTEX
  5
14E1
330
1451
100
AcDbEntity
  8
241
  6
Continuous
100
AcDbVertex
100
AcDb3dPolylineVertex
 10
148.519
 20
9.36456
 30
0.0
 70
    32
  0
VERTEX
  5
14E2
330
1451
100
AcDbEntity
  8
241
  6
Continuous
100
AcDbVertex
100
AcDb3dPolylineVertex
 10
148.506
 20
9.340389999999999
 30
0.0
 70
    32
  0
VERTEX
  5
14E3
330
1451
100
AcDbEntity
  8
241
  6
Continuous
100
AcDbVertex
100
AcDb3dPolylineVertex
 10
148.494
 20
9.316159999999999
 30
0.0
 70
    32
  0
VERTEX
  5
14E4
330
1451
100
AcDbEntity
  8
241
  6
Continuous
100
AcDbVertex
100
AcDb3dPolylineVertex
 10
148.481
 20
9.291859999999999
 30
0.0
 70
    32
  0
VERTEX
  5
14E5
330
1451
100
AcDbEntity
  8
241
  6
Continuous
100
AcDbVertex
100
AcDb3dPolylineVertex
 10
148.469
 20
9.267489999999996
 30
0.0
 70
    32
  0
VERTEX
  5
14E6
330
1451
100
AcDbEntity
  8
241
  6
Continuous
100
AcDbVertex
100
AcDb3dPolylineVertex
 10
148.456
 20
9.243059999999999
 30
0.0
 70
    32
  0
VERTEX
  5
14E7
330
1451
100
AcDbEntity
  8
241
  6
Continuous
100
AcDbVertex
100
AcDb3dPolylineVertex
 10
148.444
 20
9.218569999999999
 30
0.0
 70
    32
  0
VERTEX
  5
14E8
330
1451
100
AcDbEntity
  8
241
  6
Continuous
100
AcDbVertex
100
AcDb3dPolylineVertex
 10
148.432
 20
9.193999999999999
 30
0.0
 70
    32
  0
VERTEX
  5
14E9
330
1451
100
AcDbEntity
  8
241
  6
Continuous
100
AcDbVertex
100
AcDb3dPolylineVertex
 10
148.42
 20
9.169369999999997
 30
0.0
 70
    32
  0
VERTEX
  5
14EA
330
1451
100
AcDbEntity
  8
241
  6
Continuous
100
AcDbVertex
100
AcDb3dPolylineVertex
 10
148.407
 20
9.144679999999999
 30
0.0
 70
    32
  0
VERTEX
  5
14EB
330
1451
100
AcDbEntity
  8
241
  6
Continuous
100
AcDbVertex
100
AcDb3dPolylineVertex
 10
148.395
 20
9.11992
 30
0.0
 70
    32
  0
VERTEX
  5
14EC
330
1451
100
AcDbEntity
  8
241
  6
Continuous
100
AcDbVertex
100
AcDb3dPolylineVertex
 10
148.383
 20
9.09509
 30
0.0
 70
    32
  0
VERTEX
  5
14ED
330
1451
100
AcDbEntity
  8
241
  6
Continuous
100
AcDbVertex
100
AcDb3dPolylineVertex
 10
148.372
 20
9.070209999999999
 30
0.0
 70
    32
  0
VERTEX
  5
14EE
330
1451
100
AcDbEntity
  8
241
  6
Continuous
100
AcDbVertex
100
AcDb3dPolylineVertex
 10
148.36
 20
9.045249999999999
 30
0.0
 70
    32
  0
VERTEX
  5
14EF
330
1451
100
AcDbEntity
  8
241
  6
Continuous
100
AcDbVertex
100
AcDb3dPolylineVertex
 10
148.348
 20
9.020229999999999
 30
0.0
 70
    32
  0
VERTEX
  5
14F0
330
1451
100
AcDbEntity
  8
241
  6
Continuous
100
AcDbVertex
100
AcDb3dPolylineVertex
 10
148.336
 20
8.99515
 30
0.0
 70
    32
  0
VERTEX
  5
14F1
330
1451
100
AcDbEntity
  8
241
  6
Continuous
100
AcDbVertex
100
AcDb3dPolylineVertex
 10
148.324
 20
8.97
 30
0.0
 70
    32
  0
VERTEX
  5
14F2
330
1451
100
AcDbEntity
  8
241
  6
Continuous
100
AcDbVertex
100
AcDb3dPolylineVertex
 10
148.313
 20
8.944779999999997
 30
0.0
 70
    32
  0
VERTEX
  5
14F3
330
1451
100
AcDbEntity
  8
241
  6
Continuous
100
AcDbVertex
100
AcDb3dPolylineVertex
 10
148.301
 20
8.91951
 30
0.0
 70
    32
  0
VERTEX
  5
14F4
330
1451
100
AcDbEntity
  8
241
  6
Continuous
100
AcDbVertex
100
AcDb3dPolylineVertex
 10
148.29
 20
8.894160000000002
 30
0.0
 70
    32
  0
VERTEX
  5
14F5
330
1451
100
AcDbEntity
  8
241
  6
Continuous
100
AcDbVertex
100
AcDb3dPolylineVertex
 10
148.278
 20
8.868759999999998
 30
0.0
 70
    32
  0
VERTEX
  5
14F6
330
1451
100
AcDbEntity
  8
241
  6
Continuous
100
AcDbVertex
100
AcDb3dPolylineVertex
 10
148.267
 20
8.843289999999997
 30
0.0
 70
    32
  0
VERTEX
  5
14F7
330
1451
100
AcDbEntity
  8
241
  6
Continuous
100
AcDbVertex
100
AcDb3dPolylineVertex
 10
148.256
 20
8.817759999999998
 30
0.0
 70
    32
  0
VERTEX
  5
14F8
330
1451
100
AcDbEntity
  8
241
  6
Continuous
100
AcDbVertex
100
AcDb3dPolylineVertex
 10
148.245
 20
8.79216
 30
0.0
 70
    32
  0
VERTEX
  5
14F9
330
1451
100
AcDbEntity
  8
241
  6
Continuous
100
AcDbVertex
100
AcDb3dPolylineVertex
 10
148.234
 20
8.766519999999998
 30
0.0
 70
    32
  0
VERTEX
  5
14FA
330
1451
100
AcDbEntity
  8
241
  6
Continuous
100
AcDbVertex
100
AcDb3dPolylineVertex
 10
148.223
 20
8.74085
 30
0.0
 70
    32
  0
VERTEX
  5
14FB
330
1451
100
AcDbEntity
  8
241
  6
Continuous
100
AcDbVertex
100
AcDb3dPolylineVertex
 10
148.212
 20
8.715149999999999
 30
0.0
 70
    32
  0
VERTEX
  5
14FC
330
1451
100
AcDbEntity
  8
241
  6
Continuous
100
AcDbVertex
100
AcDb3dPolylineVertex
 10
148.201
 20
8.68942
 30
0.0
 70
    32
  0
VERTEX
  5
14FD
330
1451
100
AcDbEntity
  8
241
  6
Continuous
100
AcDbVertex
100
AcDb3dPolylineVertex
 10
148.19
 20
8.66365
 30
0.0
 70
    32
  0
VERTEX
  5
14FE
330
1451
100
AcDbEntity
  8
241
  6
Continuous
100
AcDbVertex
100
AcDb3dPolylineVertex
 10
148.179
 20
8.63785
 30
0.0
 70
    32
  0
VERTEX
  5
14FF
330
1451
100
AcDbEntity
  8
241
  6
Continuous
100
AcDbVertex
100
AcDb3dPolylineVertex
 10
148.169
 20
8.612019999999999
 30
0.0
 70
    32
  0
VERTEX
  5
1500
330
1451
100
AcDbEntity
  8
241
  6
Continuous
100
AcDbVertex
100
AcDb3dPolylineVertex
 10
148.158
 20
8.586160000000001
 30
0.0
 70
    32
  0
VERTEX
  5
1501
330
1451
100
AcDbEntity
  8
241
  6
Continuous
100
AcDbVertex
100
AcDb3dPolylineVertex
 10
148.148
 20
8.560269999999999
 30
0.0
 70
    32
  0
VERTEX
  5
1502
330
1451
100
AcDbEntity
  8
241
  6
Continuous
100
AcDbVertex
100
AcDb3dPolylineVertex
 10
148.137
 20
8.53434
 30
0.0
 70
    32
  0
VERTEX
  5
1503
330
1451
100
AcDbEntity
  8
241
  6
Continuous
100
AcDbVertex
100
AcDb3dPolylineVertex
 10
148.127
 20
8.508389999999996
 30
0.0
 70
    32
  0
VERTEX
  5
1504
330
1451
100
AcDbEntity
  8
241
  6
Continuous
100
AcDbVertex
100
AcDb3dPolylineVertex
 10
148.117
 20
8.4824
 30
0.0
 70
    32
  0
VERTEX
  5
1505
330
1451
100
AcDbEntity
  8
241
  6
Continuous
100
AcDbVertex
100
AcDb3dPolylineVertex
 10
148.107
 20
8.456389999999997
 30
0.0
 70
    32
  0
VERTEX
  5
1506
330
1451
100
AcDbEntity
  8
241
  6
Continuous
100
AcDbVertex
100
AcDb3dPolylineVertex
 10
148.097
 20
8.430339999999999
 30
0.0
 70
    32
  0
VERTEX
  5
1507
330
1451
100
AcDbEntity
  8
241
  6
Continuous
100
AcDbVertex
100
AcDb3dPolylineVertex
 10
148.087
 20
8.40426
 30
0.0
 70
    32
  0
VERTEX
  5
1508
330
1451
100
AcDbEntity
  8
241
  6
Continuous
100
AcDbVertex
100
AcDb3dPolylineVertex
 10
148.077
 20
8.378160000000001
 30
0.0
 70
    32
  0
VERTEX
  5
1509
330
1451
100
AcDbEntity
  8
241
  6
Continuous
100
AcDbVertex
100
AcDb3dPolylineVertex
 10
148.067
 20
8.352019999999999
 30
0.0
 70
    32
  0
VERTEX
  5
150A
330
1451
100
AcDbEntity
  8
241
  6
Continuous
100
AcDbVertex
100
AcDb3dPolylineVertex
 10
148.057
 20
8.32586
 30
0.0
 70
    32
  0
VERTEX
  5
150B
330
1451
100
AcDbEntity
  8
241
  6
Continuous
100
AcDbVertex
100
AcDb3dPolylineVertex
 10
148.048
 20
8.299669999999997
 30
0.0
 70
    32
  0
VERTEX
  5
150C
330
1451
100
AcDbEntity
  8
241
  6
Continuous
100
AcDbVertex
100
AcDb3dPolylineVertex
 10
148.038
 20
8.273439999999999
 30
0.0
 70
    32
  0
VERTEX
  5
150D
330
1451
100
AcDbEntity
  8
241
  6
Continuous
100
AcDbVertex
100
AcDb3dPolylineVertex
 10
148.029
 20
8.247189999999998
 30
0.0
 70
    32
  0
VERTEX
  5
150E
330
1451
100
AcDbEntity
  8
241
  6
Continuous
100
AcDbVertex
100
AcDb3dPolylineVertex
 10
148.019
 20
8.220909999999998
 30
0.0
 70
    32
  0
VERTEX
  5
150F
330
1451
100
AcDbEntity
  8
241
  6
Continuous
100
AcDbVertex
100
AcDb3dPolylineVertex
 10
148.01
 20
8.19461
 30
0.0
 70
    32
  0
VERTEX
  5
1510
330
1451
100
AcDbEntity
  8
241
  6
Continuous
100
AcDbVertex
100
AcDb3dPolylineVertex
 10
148.001
 20
8.168269999999997
 30
0.0
 70
    32
  0
VERTEX
  5
1511
330
1451
100
AcDbEntity
  8
241
  6
Continuous
100
AcDbVertex
100
AcDb3dPolylineVertex
 10
147.992
 20
8.141910000000001
 30
0.0
 70
    32
  0
VERTEX
  5
1512
330
1451
100
AcDbEntity
  8
241
  6
Continuous
100
AcDbVertex
100
AcDb3dPolylineVertex
 10
147.983
 20
8.11552
 30
0.0
 70
    32
  0
VERTEX
  5
1513
330
1451
100
AcDbEntity
  8
241
  6
Continuous
100
AcDbVertex
100
AcDb3dPolylineVertex
 10
147.974
 20
8.0891
 30
0.0
 70
    32
  0
VERTEX
  5
1514
330
1451
100
AcDbEntity
  8
241
  6
Continuous
100
AcDbVertex
100
AcDb3dPolylineVertex
 10
147.965
 20
8.062649999999999
 30
0.0
 70
    32
  0
VERTEX
  5
1515
330
1451
100
AcDbEntity
  8
241
  6
Continuous
100
AcDbVertex
100
AcDb3dPolylineVertex
 10
147.956
 20
8.036179999999998
 30
0.0
 70
    32
  0
VERTEX
  5
1516
330
1451
100
AcDbEntity
  8
241
  6
Continuous
100
AcDbVertex
100
AcDb3dPolylineVertex
 10
147.947
 20
8.009679999999999
 30
0.0
 70
    32
  0
VERTEX
  5
1517
330
1451
100
AcDbEntity
  8
241
  6
Continuous
100
AcDbVertex
100
AcDb3dPolylineVertex
 10
147.939
 20
7.98316
 30
0.0
 70
    32
  0
VERTEX
  5
1518
330
1451
100
AcDbEntity
  8
241
  6
Continuous
100
AcDbVertex
100
AcDb3dPolylineVertex
 10
147.93
 20
7.956599999999999
 30
0.0
 70
    32
  0
VERTEX
  5
1519
330
1451
100
AcDbEntity
  8
241
  6
Continuous
100
AcDbVertex
100
AcDb3dPolylineVertex
 10
147.922
 20
7.930019999999998
 30
0.0
 70
    32
  0
VERTEX
  5
151A
330
1451
100
AcDbEntity
  8
241
  6
Continuous
100
AcDbVertex
100
AcDb3dPolylineVertex
 10
147.913
 20
7.903419999999998
 30
0.0
 70
    32
  0
VERTEX
  5
151B
330
1451
100
AcDbEntity
  8
241
  6
Continuous
100
AcDbVertex
100
AcDb3dPolylineVertex
 10
147.905
 20
7.876789999999998
 30
0.0
 70
    32
  0
VERTEX
  5
151C
330
1451
100
AcDbEntity
  8
241
  6
Continuous
100
AcDbVertex
100
AcDb3dPolylineVertex
 10
147.897
 20
7.850139999999998
 30
0.0
 70
    32
  0
VERTEX
  5
151D
330
1451
100
AcDbEntity
  8
241
  6
Continuous
100
AcDbVertex
100
AcDb3dPolylineVertex
 10
147.888
 20
7.82346
 30
0.0
 70
    32
  0
VERTEX
  5
151E
330
1451
100
AcDbEntity
  8
241
  6
Continuous
100
AcDbVertex
100
AcDb3dPolylineVertex
 10
147.88
 20
7.79675
 30
0.0
 70
    32
  0
VERTEX
  5
151F
330
1451
100
AcDbEntity
  8
241
  6
Continuous
100
AcDbVertex
100
AcDb3dPolylineVertex
 10
147.872
 20
7.770019999999998
 30
0.0
 70
    32
  0
VERTEX
  5
1520
330
1451
100
AcDbEntity
  8
241
  6
Continuous
100
AcDbVertex
100
AcDb3dPolylineVertex
 10
147.865
 20
7.743269999999998
 30
0.0
 70
    32
  0
VERTEX
  5
1521
330
1451
100
AcDbEntity
  8
241
  6
Continuous
100
AcDbVertex
100
AcDb3dPolylineVertex
 10
147.857
 20
7.716489999999998
 30
0.0
 70
    32
  0
VERTEX
  5
1522
330
1451
100
AcDbEntity
  8
241
  6
Continuous
100
AcDbVertex
100
AcDb3dPolylineVertex
 10
147.849
 20
7.68968
 30
0.0
 70
    32
  0
VERTEX
  5
1523
330
1451
100
AcDbEntity
  8
241
  6
Continuous
100
AcDbVertex
100
AcDb3dPolylineVertex
 10
147.841
 20
7.66286
 30
0.0
 70
    32
  0
VERTEX
  5
1524
330
1451
100
AcDbEntity
  8
241
  6
Continuous
100
AcDbVertex
100
AcDb3dPolylineVertex
 10
147.834
 20
7.63601
 30
0.0
 70
    32
  0
VERTEX
  5
1525
330
1451
100
AcDbEntity
  8
241
  6
Continuous
100
AcDbVertex
100
AcDb3dPolylineVertex
 10
147.826
 20
7.60913
 30
0.0
 70
    32
  0
VERTEX
  5
1526
330
1451
100
AcDbEntity
  8
241
  6
Continuous
100
AcDbVertex
100
AcDb3dPolylineVertex
 10
147.819
 20
7.58223
 30
0.0
 70
    32
  0
VERTEX
  5
1527
330
1451
100
AcDbEntity
  8
241
  6
Continuous
100
AcDbVertex
100
AcDb3dPolylineVertex
 10
147.812
 20
7.55531
 30
0.0
 70
    32
  0
VERTEX
  5
1528
330
1451
100
AcDbEntity
  8
241
  6
Continuous
100
AcDbVertex
100
AcDb3dPolylineVertex
 10
147.804
 20
7.528369999999998
 30
0.0
 70
    32
  0
VERTEX
  5
1529
330
1451
100
AcDbEntity
  8
241
  6
Continuous
100
AcDbVertex
100
AcDb3dPolylineVertex
 10
147.797
 20
7.5014
 30
0.0
 70
    32
  0
VERTEX
  5
152A
330
1451
100
AcDbEntity
  8
241
  6
Continuous
100
AcDbVertex
100
AcDb3dPolylineVertex
 10
147.79
 20
7.47441
 30
0.0
 70
    32
  0
VERTEX
  5
152B
330
1451
100
AcDbEntity
  8
241
  6
Continuous
100
AcDbVertex
100
AcDb3dPolylineVertex
 10
147.783
 20
7.4474
 30
0.0
 70
    32
  0
VERTEX
  5
152C
330
1451
100
AcDbEntity
  8
241
  6
Continuous
100
AcDbVertex
100
AcDb3dPolylineVertex
 10
147.776
 20
7.42037
 30
0.0
 70
    32
  0
VERTEX
  5
152D
330
1451
100
AcDbEntity
  8
241
  6
Continuous
100
AcDbVertex
100
AcDb3dPolylineVertex
 10
147.77
 20
7.39332
 30
0.0
 70
    32
  0
VERTEX
  5
152E
330
1451
100
AcDbEntity
  8
241
  6
Continuous
100
AcDbVertex
100
AcDb3dPolylineVertex
 10
147.763
 20
7.366239999999998
 30
0.0
 70
    32
  0
VERTEX
  5
152F
330
1451
100
AcDbEntity
  8
241
  6
Continuous
100
AcDbVertex
100
AcDb3dPolylineVertex
 10
147.756
 20
7.339139999999998
 30
0.0
 70
    32
  0
VERTEX
  5
1530
330
1451
100
AcDbEntity
  8
241
  6
Continuous
100
AcDbVertex
100
AcDb3dPolylineVertex
 10
147.75
 20
7.312019999999998
 30
0.0
 70
    32
  0
VERTEX
  5
1531
330
1451
100
AcDbEntity
  8
241
  6
Continuous
100
AcDbVertex
100
AcDb3dPolylineVertex
 10
147.743
 20
7.28488
 30
0.0
 70
    32
  0
VERTEX
  5
1532
330
1451
100
AcDbEntity
  8
241
  6
Continuous
100
AcDbVertex
100
AcDb3dPolylineVertex
 10
147.737
 20
7.257719999999999
 30
0.0
 70
    32
  0
VERTEX
  5
1533
330
1451
100
AcDbEntity
  8
241
  6
Continuous
100
AcDbVertex
100
AcDb3dPolylineVertex
 10
147.731
 20
7.230539999999998
 30
0.0
 70
    32
  0
VERTEX
  5
1534
330
1451
100
AcDbEntity
  8
241
  6
Continuous
100
AcDbVertex
100
AcDb3dPolylineVertex
 10
147.724
 20
7.203339999999998
 30
0.0
 70
    32
  0
VERTEX
  5
1535
330
1451
100
AcDbEntity
  8
241
  6
Continuous
100
AcDbVertex
100
AcDb3dPolylineVertex
 10
147.718
 20
7.17612
 30
0.0
 70
    32
  0
VERTEX
  5
1536
330
1451
100
AcDbEntity
  8
241
  6
Continuous
100
AcDbVertex
100
AcDb3dPolylineVertex
 10
147.712
 20
7.14888
 30
0.0
 70
    32
  0
VERTEX
  5
1537
330
1451
100
AcDbEntity
  8
241
  6
Continuous
100
AcDbVertex
100
AcDb3dPolylineVertex
 10
147.706
 20
7.12162
 30
0.0
 70
    32
  0
VERTEX
  5
1538
330
1451
100
AcDbEntity
  8
241
  6
Continuous
100
AcDbVertex
100
AcDb3dPolylineVertex
 10
147.7
 20
7.09433
 30
0.0
 70
    32
  0
VERTEX
  5
1539
330
1451
100
AcDbEntity
  8
241
  6
Continuous
100
AcDbVertex
100
AcDb3dPolylineVertex
 10
147.695
 20
7.067039999999998
 30
0.0
 70
    32
  0
VERTEX
  5
153A
330
1451
100
AcDbEntity
  8
241
  6
Continuous
100
AcDbVertex
100
AcDb3dPolylineVertex
 10
147.689
 20
7.039719999999999
 30
0.0
 70
    32
  0
VERTEX
  5
153B
330
1451
100
AcDbEntity
  8
241
  6
Continuous
100
AcDbVertex
100
AcDb3dPolylineVertex
 10
147.683
 20
7.01238
 30
0.0
 70
    32
  0
VERTEX
  5
153C
330
1451
100
AcDbEntity
  8
241
  6
Continuous
100
AcDbVertex
100
AcDb3dPolylineVertex
 10
147.678
 20
6.985019999999998
 30
0.0
 70
    32
  0
VERTEX
  5
153D
330
1451
100
AcDbEntity
  8
241
  6
Continuous
100
AcDbVertex
100
AcDb3dPolylineVertex
 10
147.672
 20
6.95765
 30
0.0
 70
    32
  0
VERTEX
  5
153E
330
1451
100
AcDbEntity
  8
241
  6
Continuous
100
AcDbVertex
100
AcDb3dPolylineVertex
 10
147.667
 20
6.93026
 30
0.0
 70
    32
  0
VERTEX
  5
153F
330
1451
100
AcDbEntity
  8
241
  6
Continuous
100
AcDbVertex
100
AcDb3dPolylineVertex
 10
147.662
 20
6.902839999999998
 30
0.0
 70
    32
  0
VERTEX
  5
1540
330
1451
100
AcDbEntity
  8
241
  6
Continuous
100
AcDbVertex
100
AcDb3dPolylineVertex
 10
147.656
 20
6.87542
 30
0.0
 70
    32
  0
VERTEX
  5
1541
330
1451
100
AcDbEntity
  8
241
  6
Continuous
100
AcDbVertex
100
AcDb3dPolylineVertex
 10
147.651
 20
6.84797
 30
0.0
 70
    32
  0
VERTEX
  5
1542
330
1451
100
AcDbEntity
  8
241
  6
Continuous
100
AcDbVertex
100
AcDb3dPolylineVertex
 10
147.646
 20
6.82051
 30
0.0
 70
    32
  0
VERTEX
  5
1543
330
1451
100
AcDbEntity
  8
241
  6
Continuous
100
AcDbVertex
100
AcDb3dPolylineVertex
 10
147.641
 20
6.793029999999999
 30
0.0
 70
    32
  0
VERTEX
  5
1544
330
1451
100
AcDbEntity
  8
241
  6
Continuous
100
AcDbVertex
100
AcDb3dPolylineVertex
 10
147.636
 20
6.76553
 30
0.0
 70
    32
  0
VERTEX
  5
1545
330
1451
100
AcDbEntity
  8
241
  6
Continuous
100
AcDbVertex
100
AcDb3dPolylineVertex
 10
147.632
 20
6.738019999999998
 30
0.0
 70
    32
  0
VERTEX
  5
1546
330
1451
100
AcDbEntity
  8
241
  6
Continuous
100
AcDbVertex
100
AcDb3dPolylineVertex
 10
147.627
 20
6.710489999999999
 30
0.0
 70
    32
  0
VERTEX
  5
1547
330
1451
100
AcDbEntity
  8
241
  6
Continuous
100
AcDbVertex
100
AcDb3dPolylineVertex
 10
147.622
 20
6.682939999999998
 30
0.0
 70
    32
  0
VERTEX
  5
1548
330
1451
100
AcDbEntity
  8
241
  6
Continuous
100
AcDbVertex
100
AcDb3dPolylineVertex
 10
147.618
 20
6.65538
 30
0.0
 70
    32
  0
VERTEX
  5
1549
330
1451
100
AcDbEntity
  8
241
  6
Continuous
100
AcDbVertex
100
AcDb3dPolylineVertex
 10
147.613
 20
6.627799999999998
 30
0.0
 70
    32
  0
VERTEX
  5
154A
330
1451
100
AcDbEntity
  8
241
  6
Continuous
100
AcDbVertex
100
AcDb3dPolylineVertex
 10
147.609
 20
6.6002
 30
0.0
 70
    32
  0
VERTEX
  5
154B
330
1451
100
AcDbEntity
  8
241
  6
Continuous
100
AcDbVertex
100
AcDb3dPolylineVertex
 10
147.605
 20
6.5726
 30
0.0
 70
    32
  0
VERTEX
  5
154C
330
1451
100
AcDbEntity
  8
241
  6
Continuous
100
AcDbVertex
100
AcDb3dPolylineVertex
 10
147.601
 20
6.544969999999998
 30
0.0
 70
    32
  0
VERTEX
  5
154D
330
1451
100
AcDbEntity
  8
241
  6
Continuous
100
AcDbVertex
100
AcDb3dPolylineVertex
 10
147.596
 20
6.51733
 30
0.0
 70
    32
  0
VERTEX
  5
154E
330
1451
100
AcDbEntity
  8
241
  6
Continuous
100
AcDbVertex
100
AcDb3dPolylineVertex
 10
147.592
 20
6.489679999999999
 30
0.0
 70
    32
  0
VERTEX
  5
154F
330
1451
100
AcDbEntity
  8
241
  6
Continuous
100
AcDbVertex
100
AcDb3dPolylineVertex
 10
147.589
 20
6.46201
 30
0.0
 70
    32
  0
VERTEX
  5
1550
330
1451
100
AcDbEntity
  8
241
  6
Continuous
100
AcDbVertex
100
AcDb3dPolylineVertex
 10
147.585
 20
6.43433
 30
0.0
 70
    32
  0
VERTEX
  5
1551
330
1451
100
AcDbEntity
  8
241
  6
Continuous
100
AcDbVertex
100
AcDb3dPolylineVertex
 10
147.581
 20
6.40663
 30
0.0
 70
    32
  0
VERTEX
  5
1552
330
1451
100
AcDbEntity
  8
241
  6
Continuous
100
AcDbVertex
100
AcDb3dPolylineVertex
 10
147.577
 20
6.378919999999999
 30
0.0
 70
    32
  0
VERTEX
  5
1553
330
1451
100
AcDbEntity
  8
241
  6
Continuous
100
AcDbVertex
100
AcDb3dPolylineVertex
 10
147.574
 20
6.351189999999999
 30
0.0
 70
    32
  0
VERTEX
  5
1554
330
1451
100
AcDbEntity
  8
241
  6
Continuous
100
AcDbVertex
100
AcDb3dPolylineVertex
 10
147.57
 20
6.32345
 30
0.0
 70
    32
  0
VERTEX
  5
1555
330
1451
100
AcDbEntity
  8
241
  6
Continuous
100
AcDbVertex
100
AcDb3dPolylineVertex
 10
147.567
 20
6.2957
 30
0.0
 70
    32
  0
VERTEX
  5
1556
330
1451
100
AcDbEntity
  8
241
  6
Continuous
100
AcDbVertex
100
AcDb3dPolylineVertex
 10
147.563
 20
6.26794
 30
0.0
 70
    32
  0
VERTEX
  5
1557
330
1451
100
AcDbEntity
  8
241
  6
Continuous
100
AcDbVertex
100
AcDb3dPolylineVertex
 10
147.56
 20
6.240159999999998
 30
0.0
 70
    32
  0
VERTEX
  5
1558
330
1451
100
AcDbEntity
  8
241
  6
Continuous
100
AcDbVertex
100
AcDb3dPolylineVertex
 10
147.557
 20
6.21238
 30
0.0
 70
    32
  0
VERTEX
  5
1559
330
1451
100
AcDbEntity
  8
241
  6
Continuous
100
AcDbVertex
100
AcDb3dPolylineVertex
 10
147.554
 20
6.18459
 30
0.0
 70
    32
  0
VERTEX
  5
155A
330
1451
100
AcDbEntity
  8
241
  6
Continuous
100
AcDbVertex
100
AcDb3dPolylineVertex
 10
147.551
 20
6.156789999999999
 30
0.0
 70
    32
  0
VERTEX
  5
155B
330
1451
100
AcDbEntity
  8
241
  6
Continuous
100
AcDbVertex
100
AcDb3dPolylineVertex
 10
147.548
 20
6.128999999999998
 30
0.0
 70
    32
  0
VERTEX
  5
155C
330
1451
100
AcDbEntity
  8
241
  6
Continuous
100
AcDbVertex
100
AcDb3dPolylineVertex
 10
147.545
 20
6.1012
 30
0.0
 70
    32
  0
VERTEX
  5
155D
330
1451
100
AcDbEntity
  8
241
  6
Continuous
100
AcDbVertex
100
AcDb3dPolylineVertex
 10
147.542
 20
6.0734
 30
0.0
 70
    32
  0
VERTEX
  5
155E
330
1451
100
AcDbEntity
  8
241
  6
Continuous
100
AcDbVertex
100
AcDb3dPolylineVertex
 10
147.54
 20
6.0456
 30
0.0
 70
    32
  0
VERTEX
  5
155F
330
1451
100
AcDbEntity
  8
241
  6
Continuous
100
AcDbVertex
100
AcDb3dPolylineVertex
 10
147.537
 20
6.0178
 30
0.0
 70
    32
  0
VERTEX
  5
1560
330
1451
100
AcDbEntity
  8
241
  6
Continuous
100
AcDbVertex
100
AcDb3dPolylineVertex
 10
147.535
 20
5.99
 30
0.0
 70
    32
  0
VERTEX
  5
1561
330
1451
100
AcDbEntity
  8
241
  6
Continuous
100
AcDbVertex
100
AcDb3dPolylineVertex
 10
147.532
 20
5.96219
 30
0.0
 70
    32
  0
VERTEX
  5
1562
330
1451
100
AcDbEntity
  8
241
  6
Continuous
100
AcDbVertex
100
AcDb3dPolylineVertex
 10
147.53
 20
5.934379999999999
 30
0.0
 70
    32
  0
VERTEX
  5
1563
330
1451
100
AcDbEntity
  8
241
  6
Continuous
100
AcDbVertex
100
AcDb3dPolylineVertex
 10
147.528
 20
5.906579999999999
 30
0.0
 70
    32
  0
VERTEX
  5
1564
330
1451
100
AcDbEntity
  8
241
  6
Continuous
100
AcDbVertex
100
AcDb3dPolylineVertex
 10
147.526
 20
5.878769999999998
 30
0.0
 70
    32
  0
VERTEX
  5
1565
330
1451
100
AcDbEntity
  8
241
  6
Continuous
100
AcDbVertex
100
AcDb3dPolylineVertex
 10
147.524
 20
5.85095
 30
0.0
 70
    32
  0
VERTEX
  5
1566
330
1451
100
AcDbEntity
  8
241
  6
Continuous
100
AcDbVertex
100
AcDb3dPolylineVertex
 10
147.522
 20
5.82314
 30
0.0
 70
    32
  0
VERTEX
  5
1567
330
1451
100
AcDbEntity
  8
241
  6
Continuous
100
AcDbVertex
100
AcDb3dPolylineVertex
 10
147.52
 20
5.795329999999998
 30
0.0
 70
    32
  0
VERTEX
  5
1568
330
1451
100
AcDbEntity
  8
241
  6
Continuous
100
AcDbVertex
100
AcDb3dPolylineVertex
 10
147.518
 20
5.767519999999998
 30
0.0
 70
    32
  0
VERTEX
  5
1569
330
1451
100
AcDbEntity
  8
241
  6
Continuous
100
AcDbVertex
100
AcDb3dPolylineVertex
 10
147.516
 20
5.7397
 30
0.0
 70
    32
  0
VERTEX
  5
156A
330
1451
100
AcDbEntity
  8
241
  6
Continuous
100
AcDbVertex
100
AcDb3dPolylineVertex
 10
147.515
 20
5.71189
 30
0.0
 70
    32
  0
VERTEX
  5
156B
330
1451
100
AcDbEntity
  8
241
  6
Continuous
100
AcDbVertex
100
AcDb3dPolylineVertex
 10
147.513
 20
5.684069999999998
 30
0.0
 70
    32
  0
VERTEX
  5
156C
330
1451
100
AcDbEntity
  8
241
  6
Continuous
100
AcDbVertex
100
AcDb3dPolylineVertex
 10
147.512
 20
5.656259999999998
 30
0.0
 70
    32
  0
VERTEX
  5
156D
330
1451
100
AcDbEntity
  8
241
  6
Continuous
100
AcDbVertex
100
AcDb3dPolylineVertex
 10
147.51
 20
5.62844
 30
0.0
 70
    32
  0
VERTEX
  5
156E
330
1451
100
AcDbEntity
  8
241
  6
Continuous
100
AcDbVertex
100
AcDb3dPolylineVertex
 10
147.5089999999999
 20
5.600619999999998
 30
0.0
 70
    32
  0
VERTEX
  5
156F
330
1451
100
AcDbEntity
  8
241
  6
Continuous
100
AcDbVertex
100
AcDb3dPolylineVertex
 10
147.508
 20
5.572809999999998
 30
0.0
 70
    32
  0
VERTEX
  5
1570
330
1451
100
AcDbEntity
  8
241
  6
Continuous
100
AcDbVertex
100
AcDb3dPolylineVertex
 10
147.507
 20
5.54499
 30
0.0
 70
    32
  0
VERTEX
  5
1571
330
1451
100
AcDbEntity
  8
241
  6
Continuous
100
AcDbVertex
100
AcDb3dPolylineVertex
 10
147.506
 20
5.51718
 30
0.0
 70
    32
  0
VERTEX
  5
1572
330
1451
100
AcDbEntity
  8
241
  6
Continuous
100
AcDbVertex
100
AcDb3dPolylineVertex
 10
147.505
 20
5.489359999999998
 30
0.0
 70
    32
  0
VERTEX
  5
1573
330
1451
100
AcDbEntity
  8
241
  6
Continuous
100
AcDbVertex
100
AcDb3dPolylineVertex
 10
147.504
 20
5.461549999999999
 30
0.0
 70
    32
  0
VERTEX
  5
1574
330
1451
100
AcDbEntity
  8
241
  6
Continuous
100
AcDbVertex
100
AcDb3dPolylineVertex
 10
147.503
 20
5.43373
 30
0.0
 70
    32
  0
VERTEX
  5
1575
330
1451
100
AcDbEntity
  8
241
  6
Continuous
100
AcDbVertex
100
AcDb3dPolylineVertex
 10
147.503
 20
5.40592
 30
0.0
 70
    32
  0
VERTEX
  5
1576
330
1451
100
AcDbEntity
  8
241
  6
Continuous
100
AcDbVertex
100
AcDb3dPolylineVertex
 10
147.502
 20
5.378109999999998
 30
0.0
 70
    32
  0
VERTEX
  5
1577
330
1451
100
AcDbEntity
  8
241
  6
Continuous
100
AcDbVertex
100
AcDb3dPolylineVertex
 10
147.501
 20
5.350299999999998
 30
0.0
 70
    32
  0
VERTEX
  5
1578
330
1451
100
AcDbEntity
  8
241
  6
Continuous
100
AcDbVertex
100
AcDb3dPolylineVertex
 10
147.501
 20
5.32249
 30
0.0
 70
    32
  0
VERTEX
  5
1579
330
1451
100
AcDbEntity
  8
241
  6
Continuous
100
AcDbVertex
100
AcDb3dPolylineVertex
 10
147.501
 20
5.29468
 30
0.0
 70
    32
  0
VERTEX
  5
157A
330
1451
100
AcDbEntity
  8
241
  6
Continuous
100
AcDbVertex
100
AcDb3dPolylineVertex
 10
147.5
 20
5.266869999999999
 30
0.0
 70
    32
  0
VERTEX
  5
157B
330
1451
100
AcDbEntity
  8
241
  6
Continuous
100
AcDbVertex
100
AcDb3dPolylineVertex
 10
147.5
 20
5.239069999999999
 30
0.0
 70
    32
  0
VERTEX
  5
157C
330
1451
100
AcDbEntity
  8
241
  6
Continuous
100
AcDbVertex
100
AcDb3dPolylineVertex
 10
147.5
 20
5.21126
 30
0.0
 70
    32
  0
VERTEX
  5
157D
330
1451
100
AcDbEntity
  8
241
  6
Continuous
100
AcDbVertex
100
AcDb3dPolylineVertex
 10
147.5
 20
5.18346
 30
0.0
 70
    32
  0
VERTEX
  5
157E
330
1451
100
AcDbEntity
  8
241
  6
Continuous
100
AcDbVertex
100
AcDb3dPolylineVertex
 10
147.5
 20
5.15566
 30
0.0
 70
    32
  0
VERTEX
  5
157F
330
1451
100
AcDbEntity
  8
241
  6
Continuous
100
AcDbVertex
100
AcDb3dPolylineVertex
 10
147.5
 20
5.12786
 30
0.0
 70
    32
  0
VERTEX
  5
1580
330
1451
100
AcDbEntity
  8
241
  6
Continuous
100
AcDbVertex
100
AcDb3dPolylineVertex
 10
147.5
 20
5.100069999999998
 30
0.0
 70
    32
  0
VERTEX
  5
1581
330
1451
100
AcDbEntity
  8
241
  6
Continuous
100
AcDbVertex
100
AcDb3dPolylineVertex
 10
147.501
 20
5.072269999999998
 30
0.0
 70
    32
  0
VERTEX
  5
1582
330
1451
100
AcDbEntity
  8
241
  6
Continuous
100
AcDbVertex
100
AcDb3dPolylineVertex
 10
147.501
 20
5.04448
 30
0.0
 70
    32
  0
VERTEX
  5
1583
330
1451
100
AcDbEntity
  8
241
  6
Continuous
100
AcDbVertex
100
AcDb3dPolylineVertex
 10
147.502
 20
5.01669
 30
0.0
 70
    32
  0
VERTEX
  5
1584
330
1451
100
AcDbEntity
  8
241
  6
Continuous
100
AcDbVertex
100
AcDb3dPolylineVertex
 10
147.502
 20
4.988909999999998
 30
0.0
 70
    32
  0
VERTEX
  5
1585
330
1451
100
AcDbEntity
  8
241
  6
Continuous
100
AcDbVertex
100
AcDb3dPolylineVertex
 10
147.503
 20
4.961119999999998
 30
0.0
 70
    32
  0
VERTEX
  5
1586
330
1451
100
AcDbEntity
  8
241
  6
Continuous
100
AcDbVertex
100
AcDb3dPolylineVertex
 10
147.504
 20
4.93334
 30
0.0
 70
    32
  0
VERTEX
  5
1587
330
1451
100
AcDbEntity
  8
241
  6
Continuous
100
AcDbVertex
100
AcDb3dPolylineVertex
 10
147.504
 20
4.905559999999998
 30
0.0
 70
    32
  0
VERTEX
  5
1588
330
1451
100
AcDbEntity
  8
241
  6
Continuous
100
AcDbVertex
100
AcDb3dPolylineVertex
 10
147.505
 20
4.87779
 30
0.0
 70
    32
  0
VERTEX
  5
1589
330
1451
100
AcDbEntity
  8
241
  6
Continuous
100
AcDbVertex
100
AcDb3dPolylineVertex
 10
147.506
 20
4.850019999999998
 30
0.0
 70
    32
  0
VERTEX
  5
158A
330
1451
100
AcDbEntity
  8
241
  6
Continuous
100
AcDbVertex
100
AcDb3dPolylineVertex
 10
147.507
 20
4.82225
 30
0.0
 70
    32
  0
VERTEX
  5
158B
330
1451
100
AcDbEntity
  8
241
  6
Continuous
100
AcDbVertex
100
AcDb3dPolylineVertex
 10
147.508
 20
4.79449
 30
0.0
 70
    32
  0
VERTEX
  5
158C
330
1451
100
AcDbEntity
  8
241
  6
Continuous
100
AcDbVertex
100
AcDb3dPolylineVertex
 10
147.51
 20
4.766729999999999
 30
0.0
 70
    32
  0
VERTEX
  5
158D
330
1451
100
AcDbEntity
  8
241
  6
Continuous
100
AcDbVertex
100
AcDb3dPolylineVertex
 10
147.511
 20
4.73897
 30
0.0
 70
    32
  0
VERTEX
  5
158E
330
1451
100
AcDbEntity
  8
241
  6
Continuous
100
AcDbVertex
100
AcDb3dPolylineVertex
 10
147.512
 20
4.711209999999998
 30
0.0
 70
    32
  0
VERTEX
  5
158F
330
1451
100
AcDbEntity
  8
241
  6
Continuous
100
AcDbVertex
100
AcDb3dPolylineVertex
 10
147.514
 20
4.683469999999998
 30
0.0
 70
    32
  0
VERTEX
  5
1590
330
1451
100
AcDbEntity
  8
241
  6
Continuous
100
AcDbVertex
100
AcDb3dPolylineVertex
 10
147.515
 20
4.655719999999998
 30
0.0
 70
    32
  0
VERTEX
  5
1591
330
1451
100
AcDbEntity
  8
241
  6
Continuous
100
AcDbVertex
100
AcDb3dPolylineVertex
 10
147.517
 20
4.627979999999999
 30
0.0
 70
    32
  0
SEQEND
  5
1592
330
1451
100
AcDbEntity
  8
241
  6
Continuous
  0
POLYLINE
  5
ED2
330
1683
100
AcDbEntity
  8
241
  6
Continuous
100
AcDb3dPolyline
 66
     1
 10
0.0
 20
0.0
 30
0.0
 70
     8
  0
VERTEX
  5
1593
330
ED2
100
AcDbEntity
  8
241
  6
Continuous
100
AcDbVertex
100
AcDb3dPolylineVertex
 10
147.517
 20
4.627979999999999
 30
0.0
 70
    32
  0
VERTEX
  5
1594
330
ED2
100
AcDbEntity
  8
241
  6
Continuous
100
AcDbVertex
100
AcDb3dPolylineVertex
 10
147.518
 20
4.618269999999998
 30
0.0
 70
    32
  0
VERTEX
  5
1595
330
ED2
100
AcDbEntity
  8
241
  6
Continuous
100
AcDbVertex
100
AcDb3dPolylineVertex
 10
147.518
 20
4.608559999999998
 30
0.0
 70
    32
  0
VERTEX
  5
1596
330
ED2
100
AcDbEntity
  8
241
  6
Continuous
100
AcDbVertex
100
AcDb3dPolylineVertex
 10
147.519
 20
4.598849999999998
 30
0.0
 70
    32
  0
VERTEX
  5
1597
330
ED2
100
AcDbEntity
  8
241
  6
Continuous
100
AcDbVertex
100
AcDb3dPolylineVertex
 10
147.52
 20
4.58914
 30
0.0
 70
    32
  0
VERTEX
  5
1598
330
ED2
100
AcDbEntity
  8
241
  6
Continuous
100
AcDbVertex
100
AcDb3dPolylineVertex
 10
147.52
 20
4.57943
 30
0.0
 70
    32
  0
VERTEX
  5
1599
330
ED2
100
AcDbEntity
  8
241
  6
Continuous
100
AcDbVertex
100
AcDb3dPolylineVertex
 10
147.521
 20
4.569719999999998
 30
0.0
 70
    32
  0
VERTEX
  5
159A
330
ED2
100
AcDbEntity
  8
241
  6
Continuous
100
AcDbVertex
100
AcDb3dPolylineVertex
 10
147.521
 20
4.560019999999998
 30
0.0
 70
    32
  0
VERTEX
  5
159B
330
ED2
100
AcDbEntity
  8
241
  6
Continuous
100
AcDbVertex
100
AcDb3dPolylineVertex
 10
147.522
 20
4.550309999999998
 30
0.0
 70
    32
  0
VERTEX
  5
159C
330
ED2
100
AcDbEntity
  8
241
  6
Continuous
100
AcDbVertex
100
AcDb3dPolylineVertex
 10
147.523
 20
4.54061
 30
0.0
 70
    32
  0
VERTEX
  5
159D
330
ED2
100
AcDbEntity
  8
241
  6
Continuous
100
AcDbVertex
100
AcDb3dPolylineVertex
 10
147.523
 20
4.530899999999999
 30
0.0
 70
    32
  0
VERTEX
  5
159E
330
ED2
100
AcDbEntity
  8
241
  6
Continuous
100
AcDbVertex
100
AcDb3dPolylineVertex
 10
147.524
 20
4.5212
 30
0.0
 70
    32
  0
VERTEX
  5
159F
330
ED2
100
AcDbEntity
  8
241
  6
Continuous
100
AcDbVertex
100
AcDb3dPolylineVertex
 10
147.525
 20
4.511499999999998
 30
0.0
 70
    32
  0
VERTEX
  5
15A0
330
ED2
100
AcDbEntity
  8
241
  6
Continuous
100
AcDbVertex
100
AcDb3dPolylineVertex
 10
147.526
 20
4.5018
 30
0.0
 70
    32
  0
VERTEX
  5
15A1
330
ED2
100
AcDbEntity
  8
241
  6
Continuous
100
AcDbVertex
100
AcDb3dPolylineVertex
 10
147.526
 20
4.492099999999998
 30
0.0
 70
    32
  0
VERTEX
  5
15A2
330
ED2
100
AcDbEntity
  8
241
  6
Continuous
100
AcDbVertex
100
AcDb3dPolylineVertex
 10
147.527
 20
4.4824
 30
0.0
 70
    32
  0
VERTEX
  5
15A3
330
ED2
100
AcDbEntity
  8
241
  6
Continuous
100
AcDbVertex
100
AcDb3dPolylineVertex
 10
147.528
 20
4.472699999999998
 30
0.0
 70
    32
  0
VERTEX
  5
15A4
330
ED2
100
AcDbEntity
  8
241
  6
Continuous
100
AcDbVertex
100
AcDb3dPolylineVertex
 10
147.529
 20
4.463009999999998
 30
0.0
 70
    32
  0
VERTEX
  5
15A5
330
ED2
100
AcDbEntity
  8
241
  6
Continuous
100
AcDbVertex
100
AcDb3dPolylineVertex
 10
147.529
 20
4.45331
 30
0.0
 70
    32
  0
VERTEX
  5
15A6
330
ED2
100
AcDbEntity
  8
241
  6
Continuous
100
AcDbVertex
100
AcDb3dPolylineVertex
 10
147.53
 20
4.44362
 30
0.0
 70
    32
  0
VERTEX
  5
15A7
330
ED2
100
AcDbEntity
  8
241
  6
Continuous
100
AcDbVertex
100
AcDb3dPolylineVertex
 10
147.531
 20
4.433919999999998
 30
0.0
 70
    32
  0
VERTEX
  5
15A8
330
ED2
100
AcDbEntity
  8
241
  6
Continuous
100
AcDbVertex
100
AcDb3dPolylineVertex
 10
147.532
 20
4.42423
 30
0.0
 70
    32
  0
VERTEX
  5
15A9
330
ED2
100
AcDbEntity
  8
241
  6
Continuous
100
AcDbVertex
100
AcDb3dPolylineVertex
 10
147.533
 20
4.41454
 30
0.0
 70
    32
  0
VERTEX
  5
15AA
330
ED2
100
AcDbEntity
  8
241
  6
Continuous
100
AcDbVertex
100
AcDb3dPolylineVertex
 10
147.533
 20
4.404849999999998
 30
0.0
 70
    32
  0
VERTEX
  5
15AB
330
ED2
100
AcDbEntity
  8
241
  6
Continuous
100
AcDbVertex
100
AcDb3dPolylineVertex
 10
147.534
 20
4.395159999999998
 30
0.0
 70
    32
  0
VERTEX
  5
15AC
330
ED2
100
AcDbEntity
  8
241
  6
Continuous
100
AcDbVertex
100
AcDb3dPolylineVertex
 10
147.535
 20
4.385469999999998
 30
0.0
 70
    32
  0
VERTEX
  5
15AD
330
ED2
100
AcDbEntity
  8
241
  6
Continuous
100
AcDbVertex
100
AcDb3dPolylineVertex
 10
147.536
 20
4.37579
 30
0.0
 70
    32
  0
VERTEX
  5
15AE
330
ED2
100
AcDbEntity
  8
241
  6
Continuous
100
AcDbVertex
100
AcDb3dPolylineVertex
 10
147.537
 20
4.3661
 30
0.0
 70
    32
  0
VERTEX
  5
15AF
330
ED2
100
AcDbEntity
  8
241
  6
Continuous
100
AcDbVertex
100
AcDb3dPolylineVertex
 10
147.538
 20
4.356419999999999
 30
0.0
 70
    32
  0
VERTEX
  5
15B0
330
ED2
100
AcDbEntity
  8
241
  6
Continuous
100
AcDbVertex
100
AcDb3dPolylineVertex
 10
147.538
 20
4.34674
 30
0.0
 70
    32
  0
VERTEX
  5
15B1
330
ED2
100
AcDbEntity
  8
241
  6
Continuous
100
AcDbVertex
100
AcDb3dPolylineVertex
 10
147.539
 20
4.337049999999998
 30
0.0
 70
    32
  0
VERTEX
  5
15B2
330
ED2
100
AcDbEntity
  8
241
  6
Continuous
100
AcDbVertex
100
AcDb3dPolylineVertex
 10
147.54
 20
4.327369999999998
 30
0.0
 70
    32
  0
VERTEX
  5
15B3
330
ED2
100
AcDbEntity
  8
241
  6
Continuous
100
AcDbVertex
100
AcDb3dPolylineVertex
 10
147.541
 20
4.317689999999998
 30
0.0
 70
    32
  0
VERTEX
  5
15B4
330
ED2
100
AcDbEntity
  8
241
  6
Continuous
100
AcDbVertex
100
AcDb3dPolylineVertex
 10
147.542
 20
4.308019999999999
 30
0.0
 70
    32
  0
VERTEX
  5
15B5
330
ED2
100
AcDbEntity
  8
241
  6
Continuous
100
AcDbVertex
100
AcDb3dPolylineVertex
 10
147.543
 20
4.29834
 30
0.0
 70
    32
  0
VERTEX
  5
15B6
330
ED2
100
AcDbEntity
  8
241
  6
Continuous
100
AcDbVertex
100
AcDb3dPolylineVertex
 10
147.544
 20
4.28866
 30
0.0
 70
    32
  0
VERTEX
  5
15B7
330
ED2
100
AcDbEntity
  8
241
  6
Continuous
100
AcDbVertex
100
AcDb3dPolylineVertex
 10
147.545
 20
4.27899
 30
0.0
 70
    32
  0
VERTEX
  5
15B8
330
ED2
100
AcDbEntity
  8
241
  6
Continuous
100
AcDbVertex
100
AcDb3dPolylineVertex
 10
147.546
 20
4.269319999999998
 30
0.0
 70
    32
  0
VERTEX
  5
15B9
330
ED2
100
AcDbEntity
  8
241
  6
Continuous
100
AcDbVertex
100
AcDb3dPolylineVertex
 10
147.547
 20
4.259649999999998
 30
0.0
 70
    32
  0
VERTEX
  5
15BA
330
ED2
100
AcDbEntity
  8
241
  6
Continuous
100
AcDbVertex
100
AcDb3dPolylineVertex
 10
147.548
 20
4.249979999999998
 30
0.0
 70
    32
  0
VERTEX
  5
15BB
330
ED2
100
AcDbEntity
  8
241
  6
Continuous
100
AcDbVertex
100
AcDb3dPolylineVertex
 10
147.549
 20
4.24031
 30
0.0
 70
    32
  0
VERTEX
  5
15BC
330
ED2
100
AcDbEntity
  8
241
  6
Continuous
100
AcDbVertex
100
AcDb3dPolylineVertex
 10
147.55
 20
4.23064
 30
0.0
 70
    32
  0
VERTEX
  5
15BD
330
ED2
100
AcDbEntity
  8
241
  6
Continuous
100
AcDbVertex
100
AcDb3dPolylineVertex
 10
147.551
 20
4.220979999999999
 30
0.0
 70
    32
  0
VERTEX
  5
15BE
330
ED2
100
AcDbEntity
  8
241
  6
Continuous
100
AcDbVertex
100
AcDb3dPolylineVertex
 10
147.552
 20
4.21131
 30
0.0
 70
    32
  0
VERTEX
  5
15BF
330
ED2
100
AcDbEntity
  8
241
  6
Continuous
100
AcDbVertex
100
AcDb3dPolylineVertex
 10
147.553
 20
4.201649999999998
 30
0.0
 70
    32
  0
VERTEX
  5
15C0
330
ED2
100
AcDbEntity
  8
241
  6
Continuous
100
AcDbVertex
100
AcDb3dPolylineVertex
 10
147.554
 20
4.19199
 30
0.0
 70
    32
  0
VERTEX
  5
15C1
330
ED2
100
AcDbEntity
  8
241
  6
Continuous
100
AcDbVertex
100
AcDb3dPolylineVertex
 10
147.555
 20
4.18233
 30
0.0
 70
    32
  0
VERTEX
  5
15C2
330
ED2
100
AcDbEntity
  8
241
  6
Continuous
100
AcDbVertex
100
AcDb3dPolylineVertex
 10
147.556
 20
4.17267
 30
0.0
 70
    32
  0
VERTEX
  5
15C3
330
ED2
100
AcDbEntity
  8
241
  6
Continuous
100
AcDbVertex
100
AcDb3dPolylineVertex
 10
147.557
 20
4.163009999999998
 30
0.0
 70
    32
  0
VERTEX
  5
15C4
330
ED2
100
AcDbEntity
  8
241
  6
Continuous
100
AcDbVertex
100
AcDb3dPolylineVertex
 10
147.558
 20
4.15336
 30
0.0
 70
    32
  0
VERTEX
  5
15C5
330
ED2
100
AcDbEntity
  8
241
  6
Continuous
100
AcDbVertex
100
AcDb3dPolylineVertex
 10
147.559
 20
4.143699999999999
 30
0.0
 70
    32
  0
VERTEX
  5
15C6
330
ED2
100
AcDbEntity
  8
241
  6
Continuous
100
AcDbVertex
100
AcDb3dPolylineVertex
 10
147.56
 20
4.13405
 30
0.0
 70
    32
  0
VERTEX
  5
15C7
330
ED2
100
AcDbEntity
  8
241
  6
Continuous
100
AcDbVertex
100
AcDb3dPolylineVertex
 10
147.561
 20
4.124399999999998
 30
0.0
 70
    32
  0
VERTEX
  5
15C8
330
ED2
100
AcDbEntity
  8
241
  6
Continuous
100
AcDbVertex
100
AcDb3dPolylineVertex
 10
147.563
 20
4.114749999999999
 30
0.0
 70
    32
  0
VERTEX
  5
15C9
330
ED2
100
AcDbEntity
  8
241
  6
Continuous
100
AcDbVertex
100
AcDb3dPolylineVertex
 10
147.564
 20
4.1051
 30
0.0
 70
    32
  0
VERTEX
  5
15CA
330
ED2
100
AcDbEntity
  8
241
  6
Continuous
100
AcDbVertex
100
AcDb3dPolylineVertex
 10
147.565
 20
4.095449999999998
 30
0.0
 70
    32
  0
VERTEX
  5
15CB
330
ED2
100
AcDbEntity
  8
241
  6
Continuous
100
AcDbVertex
100
AcDb3dPolylineVertex
 10
147.566
 20
4.085809999999998
 30
0.0
 70
    32
  0
VERTEX
  5
15CC
330
ED2
100
AcDbEntity
  8
241
  6
Continuous
100
AcDbVertex
100
AcDb3dPolylineVertex
 10
147.567
 20
4.076169999999998
 30
0.0
 70
    32
  0
VERTEX
  5
15CD
330
ED2
100
AcDbEntity
  8
241
  6
Continuous
100
AcDbVertex
100
AcDb3dPolylineVertex
 10
147.568
 20
4.066519999999998
 30
0.0
 70
    32
  0
VERTEX
  5
15CE
330
ED2
100
AcDbEntity
  8
241
  6
Continuous
100
AcDbVertex
100
AcDb3dPolylineVertex
 10
147.569
 20
4.05688
 30
0.0
 70
    32
  0
VERTEX
  5
15CF
330
ED2
100
AcDbEntity
  8
241
  6
Continuous
100
AcDbVertex
100
AcDb3dPolylineVertex
 10
147.571
 20
4.04725
 30
0.0
 70
    32
  0
VERTEX
  5
15D0
330
ED2
100
AcDbEntity
  8
241
  6
Continuous
100
AcDbVertex
100
AcDb3dPolylineVertex
 10
147.572
 20
4.037609999999999
 30
0.0
 70
    32
  0
VERTEX
  5
15D1
330
ED2
100
AcDbEntity
  8
241
  6
Continuous
100
AcDbVertex
100
AcDb3dPolylineVertex
 10
147.5729999999999
 20
4.027969999999998
 30
0.0
 70
    32
  0
VERTEX
  5
15D2
330
ED2
100
AcDbEntity
  8
241
  6
Continuous
100
AcDbVertex
100
AcDb3dPolylineVertex
 10
147.574
 20
4.01834
 30
0.0
 70
    32
  0
VERTEX
  5
15D3
330
ED2
100
AcDbEntity
  8
241
  6
Continuous
100
AcDbVertex
100
AcDb3dPolylineVertex
 10
147.575
 20
4.008709999999998
 30
0.0
 70
    32
  0
VERTEX
  5
15D4
330
ED2
100
AcDbEntity
  8
241
  6
Continuous
100
AcDbVertex
100
AcDb3dPolylineVertex
 10
147.577
 20
3.99908
 30
0.0
 70
    32
  0
VERTEX
  5
15D5
330
ED2
100
AcDbEntity
  8
241
  6
Continuous
100
AcDbVertex
100
AcDb3dPolylineVertex
 10
147.578
 20
3.98945
 30
0.0
 70
    32
  0
VERTEX
  5
15D6
330
ED2
100
AcDbEntity
  8
241
  6
Continuous
100
AcDbVertex
100
AcDb3dPolylineVertex
 10
147.579
 20
3.97983
 30
0.0
 70
    32
  0
VERTEX
  5
15D7
330
ED2
100
AcDbEntity
  8
241
  6
Continuous
100
AcDbVertex
100
AcDb3dPolylineVertex
 10
147.581
 20
3.9702
 30
0.0
 70
    32
  0
VERTEX
  5
15D8
330
ED2
100
AcDbEntity
  8
241
  6
Continuous
100
AcDbVertex
100
AcDb3dPolylineVertex
 10
147.582
 20
3.96058
 30
0.0
 70
    32
  0
VERTEX
  5
15D9
330
ED2
100
AcDbEntity
  8
241
  6
Continuous
100
AcDbVertex
100
AcDb3dPolylineVertex
 10
147.583
 20
3.950959999999998
 30
0.0
 70
    32
  0
VERTEX
  5
15DA
330
ED2
100
AcDbEntity
  8
241
  6
Continuous
100
AcDbVertex
100
AcDb3dPolylineVertex
 10
147.584
 20
3.94134
 30
0.0
 70
    32
  0
VERTEX
  5
15DB
330
ED2
100
AcDbEntity
  8
241
  6
Continuous
100
AcDbVertex
100
AcDb3dPolylineVertex
 10
147.586
 20
3.931719999999998
 30
0.0
 70
    32
  0
VERTEX
  5
15DC
330
ED2
100
AcDbEntity
  8
241
  6
Continuous
100
AcDbVertex
100
AcDb3dPolylineVertex
 10
147.587
 20
3.922109999999998
 30
0.0
 70
    32
  0
VERTEX
  5
15DD
330
ED2
100
AcDbEntity
  8
241
  6
Continuous
100
AcDbVertex
100
AcDb3dPolylineVertex
 10
147.588
 20
3.91249
 30
0.0
 70
    32
  0
VERTEX
  5
15DE
330
ED2
100
AcDbEntity
  8
241
  6
Continuous
100
AcDbVertex
100
AcDb3dPolylineVertex
 10
147.59
 20
3.90288
 30
0.0
 70
    32
  0
VERTEX
  5
15DF
330
ED2
100
AcDbEntity
  8
241
  6
Continuous
100
AcDbVertex
100
AcDb3dPolylineVertex
 10
147.591
 20
3.893269999999998
 30
0.0
 70
    32
  0
VERTEX
  5
15E0
330
ED2
100
AcDbEntity
  8
241
  6
Continuous
100
AcDbVertex
100
AcDb3dPolylineVertex
 10
147.592
 20
3.883659999999999
 30
0.0
 70
    32
  0
VERTEX
  5
15E1
330
ED2
100
AcDbEntity
  8
241
  6
Continuous
100
AcDbVertex
100
AcDb3dPolylineVertex
 10
147.594
 20
3.87406
 30
0.0
 70
    32
  0
VERTEX
  5
15E2
330
ED2
100
AcDbEntity
  8
241
  6
Continuous
100
AcDbVertex
100
AcDb3dPolylineVertex
 10
147.595
 20
3.86445
 30
0.0
 70
    32
  0
VERTEX
  5
15E3
330
ED2
100
AcDbEntity
  8
241
  6
Continuous
100
AcDbVertex
100
AcDb3dPolylineVertex
 10
147.597
 20
3.854849999999998
 30
0.0
 70
    32
  0
VERTEX
  5
15E4
330
ED2
100
AcDbEntity
  8
241
  6
Continuous
100
AcDbVertex
100
AcDb3dPolylineVertex
 10
147.598
 20
3.84525
 30
0.0
 70
    32
  0
VERTEX
  5
15E5
330
ED2
100
AcDbEntity
  8
241
  6
Continuous
100
AcDbVertex
100
AcDb3dPolylineVertex
 10
147.599
 20
3.835649999999998
 30
0.0
 70
    32
  0
VERTEX
  5
15E6
330
ED2
100
AcDbEntity
  8
241
  6
Continuous
100
AcDbVertex
100
AcDb3dPolylineVertex
 10
147.601
 20
3.82605
 30
0.0
 70
    32
  0
VERTEX
  5
15E7
330
ED2
100
AcDbEntity
  8
241
  6
Continuous
100
AcDbVertex
100
AcDb3dPolylineVertex
 10
147.602
 20
3.816459999999998
 30
0.0
 70
    32
  0
VERTEX
  5
15E8
330
ED2
100
AcDbEntity
  8
241
  6
Continuous
100
AcDbVertex
100
AcDb3dPolylineVertex
 10
147.604
 20
3.806869999999998
 30
0.0
 70
    32
  0
VERTEX
  5
15E9
330
ED2
100
AcDbEntity
  8
241
  6
Continuous
100
AcDbVertex
100
AcDb3dPolylineVertex
 10
147.605
 20
3.79728
 30
0.0
 70
    32
  0
VERTEX
  5
15EA
330
ED2
100
AcDbEntity
  8
241
  6
Continuous
100
AcDbVertex
100
AcDb3dPolylineVertex
 10
147.607
 20
3.78769
 30
0.0
 70
    32
  0
VERTEX
  5
15EB
330
ED2
100
AcDbEntity
  8
241
  6
Continuous
100
AcDbVertex
100
AcDb3dPolylineVertex
 10
147.608
 20
3.778099999999998
 30
0.0
 70
    32
  0
VERTEX
  5
15EC
330
ED2
100
AcDbEntity
  8
241
  6
Continuous
100
AcDbVertex
100
AcDb3dPolylineVertex
 10
147.61
 20
3.768519999999998
 30
0.0
 70
    32
  0
VERTEX
  5
15ED
330
ED2
100
AcDbEntity
  8
241
  6
Continuous
100
AcDbVertex
100
AcDb3dPolylineVertex
 10
147.611
 20
3.75893
 30
0.0
 70
    32
  0
VERTEX
  5
15EE
330
ED2
100
AcDbEntity
  8
241
  6
Continuous
100
AcDbVertex
100
AcDb3dPolylineVertex
 10
147.612
 20
3.74935
 30
0.0
 70
    32
  0
VERTEX
  5
15EF
330
ED2
100
AcDbEntity
  8
241
  6
Continuous
100
AcDbVertex
100
AcDb3dPolylineVertex
 10
147.614
 20
3.73978
 30
0.0
 70
    32
  0
VERTEX
  5
15F0
330
ED2
100
AcDbEntity
  8
241
  6
Continuous
100
AcDbVertex
100
AcDb3dPolylineVertex
 10
147.616
 20
3.730199999999998
 30
0.0
 70
    32
  0
VERTEX
  5
15F1
330
ED2
100
AcDbEntity
  8
241
  6
Continuous
100
AcDbVertex
100
AcDb3dPolylineVertex
 10
147.617
 20
3.72063
 30
0.0
 70
    32
  0
VERTEX
  5
15F2
330
ED2
100
AcDbEntity
  8
241
  6
Continuous
100
AcDbVertex
100
AcDb3dPolylineVertex
 10
147.619
 20
3.71105
 30
0.0
 70
    32
  0
VERTEX
  5
15F3
330
ED2
100
AcDbEntity
  8
241
  6
Continuous
100
AcDbVertex
100
AcDb3dPolylineVertex
 10
147.62
 20
3.70148
 30
0.0
 70
    32
  0
VERTEX
  5
15F4
330
ED2
100
AcDbEntity
  8
241
  6
Continuous
100
AcDbVertex
100
AcDb3dPolylineVertex
 10
147.622
 20
3.691919999999998
 30
0.0
 70
    32
  0
VERTEX
  5
15F5
330
ED2
100
AcDbEntity
  8
241
  6
Continuous
100
AcDbVertex
100
AcDb3dPolylineVertex
 10
147.623
 20
3.68235
 30
0.0
 70
    32
  0
VERTEX
  5
15F6
330
ED2
100
AcDbEntity
  8
241
  6
Continuous
100
AcDbVertex
100
AcDb3dPolylineVertex
 10
147.625
 20
3.672789999999998
 30
0.0
 70
    32
  0
VERTEX
  5
15F7
330
ED2
100
AcDbEntity
  8
241
  6
Continuous
100
AcDbVertex
100
AcDb3dPolylineVertex
 10
147.626
 20
3.66323
 30
0.0
 70
    32
  0
VERTEX
  5
15F8
330
ED2
100
AcDbEntity
  8
241
  6
Continuous
100
AcDbVertex
100
AcDb3dPolylineVertex
 10
147.628
 20
3.653669999999998
 30
0.0
 70
    32
  0
VERTEX
  5
15F9
330
ED2
100
AcDbEntity
  8
241
  6
Continuous
100
AcDbVertex
100
AcDb3dPolylineVertex
 10
147.63
 20
3.644109999999998
 30
0.0
 70
    32
  0
VERTEX
  5
15FA
330
ED2
100
AcDbEntity
  8
241
  6
Continuous
100
AcDbVertex
100
AcDb3dPolylineVertex
 10
147.631
 20
3.63456
 30
0.0
 70
    32
  0
VERTEX
  5
15FB
330
ED2
100
AcDbEntity
  8
241
  6
Continuous
100
AcDbVertex
100
AcDb3dPolylineVertex
 10
147.633
 20
3.62501
 30
0.0
 70
    32
  0
VERTEX
  5
15FC
330
ED2
100
AcDbEntity
  8
241
  6
Continuous
100
AcDbVertex
100
AcDb3dPolylineVertex
 10
147.635
 20
3.615459999999998
 30
0.0
 70
    32
  0
VERTEX
  5
15FD
330
ED2
100
AcDbEntity
  8
241
  6
Continuous
100
AcDbVertex
100
AcDb3dPolylineVertex
 10
147.636
 20
3.605909999999998
 30
0.0
 70
    32
  0
VERTEX
  5
15FE
330
ED2
100
AcDbEntity
  8
241
  6
Continuous
100
AcDbVertex
100
AcDb3dPolylineVertex
 10
147.638
 20
3.596359999999998
 30
0.0
 70
    32
  0
VERTEX
  5
15FF
330
ED2
100
AcDbEntity
  8
241
  6
Continuous
100
AcDbVertex
100
AcDb3dPolylineVertex
 10
147.64
 20
3.586819999999999
 30
0.0
 70
    32
  0
VERTEX
  5
1600
330
ED2
100
AcDbEntity
  8
241
  6
Continuous
100
AcDbVertex
100
AcDb3dPolylineVertex
 10
147.641
 20
3.57728
 30
0.0
 70
    32
  0
VERTEX
  5
1601
330
ED2
100
AcDbEntity
  8
241
  6
Continuous
100
AcDbVertex
100
AcDb3dPolylineVertex
 10
147.643
 20
3.56774
 30
0.0
 70
    32
  0
VERTEX
  5
1602
330
ED2
100
AcDbEntity
  8
241
  6
Continuous
100
AcDbVertex
100
AcDb3dPolylineVertex
 10
147.645
 20
3.558209999999998
 30
0.0
 70
    32
  0
VERTEX
  5
1603
330
ED2
100
AcDbEntity
  8
241
  6
Continuous
100
AcDbVertex
100
AcDb3dPolylineVertex
 10
147.646
 20
3.548669999999998
 30
0.0
 70
    32
  0
VERTEX
  5
1604
330
ED2
100
AcDbEntity
  8
241
  6
Continuous
100
AcDbVertex
100
AcDb3dPolylineVertex
 10
147.648
 20
3.53914
 30
0.0
 70
    32
  0
VERTEX
  5
1605
330
ED2
100
AcDbEntity
  8
241
  6
Continuous
100
AcDbVertex
100
AcDb3dPolylineVertex
 10
147.65
 20
3.529609999999999
 30
0.0
 70
    32
  0
VERTEX
  5
1606
330
ED2
100
AcDbEntity
  8
241
  6
Continuous
100
AcDbVertex
100
AcDb3dPolylineVertex
 10
147.651
 20
3.52009
 30
0.0
 70
    32
  0
VERTEX
  5
1607
330
ED2
100
AcDbEntity
  8
241
  6
Continuous
100
AcDbVertex
100
AcDb3dPolylineVertex
 10
147.653
 20
3.510559999999999
 30
0.0
 70
    32
  0
VERTEX
  5
1608
330
ED2
100
AcDbEntity
  8
241
  6
Continuous
100
AcDbVertex
100
AcDb3dPolylineVertex
 10
147.655
 20
3.50104
 30
0.0
 70
    32
  0
VERTEX
  5
1609
330
ED2
100
AcDbEntity
  8
241
  6
Continuous
100
AcDbVertex
100
AcDb3dPolylineVertex
 10
147.657
 20
3.491519999999998
 30
0.0
 70
    32
  0
VERTEX
  5
160A
330
ED2
100
AcDbEntity
  8
241
  6
Continuous
100
AcDbVertex
100
AcDb3dPolylineVertex
 10
147.659
 20
3.482009999999998
 30
0.0
 70
    32
  0
VERTEX
  5
160B
330
ED2
100
AcDbEntity
  8
241
  6
Continuous
100
AcDbVertex
100
AcDb3dPolylineVertex
 10
147.66
 20
3.47249
 30
0.0
 70
    32
  0
VERTEX
  5
160C
330
ED2
100
AcDbEntity
  8
241
  6
Continuous
100
AcDbVertex
100
AcDb3dPolylineVertex
 10
147.662
 20
3.46298
 30
0.0
 70
    32
  0
VERTEX
  5
160D
330
ED2
100
AcDbEntity
  8
241
  6
Continuous
100
AcDbVertex
100
AcDb3dPolylineVertex
 10
147.664
 20
3.453469999999998
 30
0.0
 70
    32
  0
VERTEX
  5
160E
330
ED2
100
AcDbEntity
  8
241
  6
Continuous
100
AcDbVertex
100
AcDb3dPolylineVertex
 10
147.666
 20
3.443969999999998
 30
0.0
 70
    32
  0
VERTEX
  5
160F
330
ED2
100
AcDbEntity
  8
241
  6
Continuous
100
AcDbVertex
100
AcDb3dPolylineVertex
 10
147.668
 20
3.43446
 30
0.0
 70
    32
  0
VERTEX
  5
1610
330
ED2
100
AcDbEntity
  8
241
  6
Continuous
100
AcDbVertex
100
AcDb3dPolylineVertex
 10
147.669
 20
3.42496
 30
0.0
 70
    32
  0
VERTEX
  5
1611
330
ED2
100
AcDbEntity
  8
241
  6
Continuous
100
AcDbVertex
100
AcDb3dPolylineVertex
 10
147.671
 20
3.415459999999998
 30
0.0
 70
    32
  0
VERTEX
  5
1612
330
ED2
100
AcDbEntity
  8
241
  6
Continuous
100
AcDbVertex
100
AcDb3dPolylineVertex
 10
147.673
 20
3.405969999999998
 30
0.0
 70
    32
  0
VERTEX
  5
1613
330
ED2
100
AcDbEntity
  8
241
  6
Continuous
100
AcDbVertex
100
AcDb3dPolylineVertex
 10
147.675
 20
3.396469999999998
 30
0.0
 70
    32
  0
SEQEND
  5
1614
330
ED2
100
AcDbEntity
  8
241
  6
Continuous
  0
LINE
  5
ED3
330
1683
100
AcDbEntity
  8
241
  6
Continuous
100
AcDbLine
 10
188.0
 20
11.49647321
 30
0.0
 11
168.0
 21
11.49647321
 31
0.0
  0
LINE
  5
ED4
330
1683
100
AcDbEntity
  8
241
  6
Continuous
100
AcDbLine
 10
49.49999502
 20
24.38675071
 30
0.0
 11
51.99999502
 21
22.94337503
 31
0.0
  0
LINE
  5
ED5
330
1683
100
AcDbEntity
  8
241
  6
Continuous
100
AcDbLine
 10
66.99999502
 20
22.94337323
 30
0.0
 11
69.49999502
 21
24.3867489
 31
0.0
  0
LINE
  5
ED6
330
1683
100
AcDbEntity
  8
241
  6
Continuous
100
AcDbLine
 10
69.49999502
 20
24.3867489
 30
0.0
 11
71.99999502
 21
22.94337323
 31
0.0
  0
LINE
  5
ED7
330
1683
100
AcDbEntity
  8
241
  6
Continuous
100
AcDbLine
 10
89.49999502
 20
24.38675135
 30
0.0
 11
91.99999502
 21
22.94337567
 31
0.0
  0
LINE
  5
ED8
330
1683
100
AcDbEntity
  8
241
  6
Continuous
100
AcDbLine
 10
86.99999502
 20
22.94337567
 30
0.0
 11
89.49999502
 21
24.38675135
 31
0.0
  0
LINE
  5
EDA
330
1683
100
AcDbEntity
  8
240
  6
Continuous
100
AcDbLine
 10
168.0
 20
31.49647321
 30
0.0
 11
186.32229953
 21
31.49647321
 31
0.0
  0
ARC
  5
EDB
330
1683
100
AcDbEntity
  8
240
  6
Continuous
100
AcDbCircle
 10
167.99881734
 20
-0.0035268
 30
0.0
 40
40.0
100
AcDbArc
 50
319.7718152406699
 51
40.22820236
  0
LINE
  5
EDE
330
1683
100
AcDbEntity
  8
250
  6
Continuous
100
AcDbLine
 10
101.43301271
 20
0.0
 30
0.0
 11
113.0
 21
0.0
 31
0.0
  0
LINE
  5
EDF
330
1683
100
AcDbEntity
  8
250
  6
Continuous
100
AcDbLine
 10
113.0
 20
31.5
 30
0.0
 11
100.5
 21
31.49999999999999
 31
0.0
  0
LINE
  5
EE0
330
1683
100
AcDbEntity
  8
250
  6
Continuous
100
AcDbLine
 10
112.0
 20
2.229999999999999
 30
0.0
 11
112.0
 21
29.27
 31
0.0
  0
LINE
  5
EF0
330
1683
100
AcDbEntity
  8
250
  6
Continuous
100
AcDbLine
 10
168.0
 20
42.49304489999999
 30
0.0
 11
168.0
 21
49.99647320000001
 31
0.0
  0
LINE
  5
EF1
330
1683
100
AcDbEntity
  8
250
  6
Continuous
100
AcDbLine
 10
188.0
 20
31.90827138
 30
0.0
 11
188.0
 21
49.99647320000001
 31
0.0
  0
LINE
  5
EF2
330
1683
100
AcDbEntity
  8
250
  6
Continuous
100
AcDbLine
 10
170.23
 20
48.99647319999999
 30
0.0
 11
185.77
 21
48.99647319999999
 31
0.0
  0
TEXT
  5
F15
330
1683
100
AcDbEntity
  8
250
  6
Continuous
100
AcDbText
 10
111.0
 20
10.75
 30
0.0
 40
3.0
  1
31.5
 50
90.0
100
AcDbText
1001
ACAD
1000
MTEXTBEGIN
1070
    73
1070
     1
1070
    44
1040
1.0
1070
    74
1070
     0
1000
MTEXTEND
1000
MTEXTBEGIN
1070
    73
1070
     1
1070
    44
1040
1.0
1070
    74
1070
     0
1000
MTEXTEND
  0
LINE
  5
F16
330
1683
100
AcDbEntity
  8
250
  6
Continuous
100
AcDbLine
 10
111.6283333259
 20
29.27
 30
0.0
 11
112.0
 21
31.5
 31
0.0
  0
LINE
  5
F17
330
1683
100
AcDbEntity
  8
250
  6
Continuous
100
AcDbLine
 10
112.3716666741
 20
29.27
 30
0.0
 11
112.0
 21
31.5
 31
0.0
  0
LINE
  5
F18
330
1683
100
AcDbEntity
  8
250
  6
Continuous
100
AcDbLine
 10
112.0
 20
31.5
 30
0.0
 11
112.0
 21
29.27
 31
0.0
  0
LINE
  5
F19
330
1683
100
AcDbEntity
  8
250
  6
Continuous
100
AcDbLine
 10
112.3716666741
 20
2.229999999999999
 30
0.0
 11
112.0
 21
0.0
 31
0.0
  0
LINE
  5
F1A
330
1683
100
AcDbEntity
  8
250
  6
Continuous
100
AcDbLine
 10
111.6283333259
 20
2.229999999999999
 30
0.0
 11
112.0
 21
0.0
 31
0.0
  0
LINE
  5
F1B
330
1683
100
AcDbEntity
  8
250
  6
Continuous
100
AcDbLine
 10
112.0
 20
0.0
 30
0.0
 11
112.0
 21
2.229999999999999
 31
0.0
  0
TEXT
  5
F1C
330
1683
100
AcDbEntity
  8
250
  6
Continuous
100
AcDbText
 10
173.4571428571428
 20
49.99647320000001
 30
0.0
 40
3.0
  1
□20
100
AcDbText
1001
ACAD
1000
MTEXTBEGIN
1070
    73
1070
     1
1070
    44
1040
1.0
1070
    74
1070
     0
1000
MTEXTEND
  0
LINE
  5
F1D
330
1683
100
AcDbEntity
  8
250
  6
Continuous
100
AcDbLine
 10
185.77
 20
49.36813987409998
 30
0.0
 11
188.0
 21
48.99647319999999
 31
0.0
  0
LINE
  5
F1E
330
1683
100
AcDbEntity
  8
250
  6
Continuous
100
AcDbLine
 10
185.77
 20
48.62480652590001
 30
0.0
 11
188.0
 21
48.99647319999999
 31
0.0
  0
LINE
  5
F1F
330
1683
100
AcDbEntity
  8
250
  6
Continuous
100
AcDbLine
 10
188.0
 20
48.99647319999999
 30
0.0
 11
185.77
 21
48.99647319999999
 31
0.0
  0
LINE
  5
F20
330
1683
100
AcDbEntity
  8
250
  6
Continuous
100
AcDbLine
 10
170.23
 20
48.62480652590001
 30
0.0
 11
168.0
 21
48.99647319999999
 31
0.0
  0
LINE
  5
F21
330
1683
100
AcDbEntity
  8
250
  6
Continuous
100
AcDbLine
 10
170.23
 20
49.36813987409998
 30
0.0
 11
168.0
 21
48.99647319999999
 31
0.0
  0
LINE
  5
F22
330
1683
100
AcDbEntity
  8
250
  6
Continuous
100
AcDbLine
 10
168.0
 20
48.99647319999999
 30
0.0
 11
170.23
 21
48.99647319999999
 31
0.0
  0
LINE
  5
1726
330
1683
100
AcDbEntity
  8
240
  6
Continuous
100
AcDbLine
 10
0.0
 20
31.5
 30
0.0
 11
0.0
 21
21.63061199114219
 31
0.0
  0
LINE
  5
1727
330
1683
100
AcDbEntity
  8
240
  6
Continuous
100
AcDbLine
 10
-38.0
 20
-20.68052849476301
 30
0.0
 11
-38.0
 21
20.68052849476314
 31
0.0
  0
LINE
  5
1728
330
1683
100
AcDbEntity
  8
243
  6
HIDDEN2
100
AcDbLine
 10
-38.0
 20
-3.594500000000008
 30
0.0
 11
-31.80000000000001
 21
-3.594500000000008
 31
0.0
  0
LINE
  5
1729
330
1683
100
AcDbEntity
  8
243
  6
HIDDEN2
100
AcDbLine
 10
-38.0
 20
3.594500000000008
 30
0.0
 11
-31.80000000000001
 21
3.594500000000008
 31
0.0
  0
LINE
  5
172A
330
1683
100
AcDbEntity
  8
243
  6
HIDDEN2
100
AcDbLine
 10
-31.80000000000001
 20
-3.594500000000008
 30
0.0
 11
-31.80000000000001
 21
3.594500000000008
 31
0.0
  0
LINE
  5
172B
330
1683
100
AcDbEntity
  8
241
  6
Continuous
100
AcDbLine
 10
22.0
 20
-31.5
 30
0.0
 11
22.0
 21
31.5
 31
0.0
  0
LINE
  5
172C
330
1683
100
AcDbEntity
  8
240
  6
Continuous
100
AcDbLine
 10
0.0
 20
-31.5
 30
0.0
 11
0.0
 21
-21.63061199114185
 31
0.0
  0
LINE
  5
172D
330
1683
100
AcDbEntity
  8
241
  6
Continuous
100
AcDbLine
 10
0.0
 20
-21.63061199114185
 30
0.0
 11
0.0
 21
21.63061199114219
 31
0.0
  0
LINE
  5
172E
330
1683
100
AcDbEntity
  8
250
  6
Continuous
100
AcDbLine
 10
-18.78586727632071
 20
-22.94225232523719
 30
0.0
 11
-17.34899450124752
 21
-21.19684900813123
 31
0.0
  0
LINE
  5
172F
330
1683
100
AcDbEntity
  8
250
  6
Continuous
100
AcDbLine
 10
-18.14212172617428
 20
-23.31391899190386
 30
0.0
 11
-17.34899450124752
 21
-21.19684900813123
 31
0.0
  0
LINE
  5
1730
330
1683
100
AcDbEntity
  8
250
  6
Continuous
100
AcDbLine
 10
-17.34899450124752
 20
-21.19684900813123
 30
0.0
 11
-18.46399450124753
 21
-23.12808565857054
 31
0.0
  0
LWPOLYLINE
  5
1731
330
1683
100
AcDbEntity
  8
250
  6
Continuous
100
AcDbPolyline
 90
        2
 70
     0
 43
0.0
 10
-18.46399450124753
 20
-23.12808565857054
 10
-23.84889586488546
 20
-32.45500841413839
  0
TEXT
  5
1732
330
1683
100
AcDbEntity
  8
250
  6
Continuous
100
AcDbText
 10
-31.71556253155214
 20
-31.45500841413839
 30
0.0
 40
2.799999999999998
  1
C6
  7
YOKO
100
AcDbText
1001
ITEMNAME
1000
LNSP3
  0
LINE
  5
1733
330
1683
100
AcDbEntity
  8
250
  6
Continuous
100
AcDbLine
 10
-23.84889586488546
 20
-32.45500841413839
 30
0.0
 11
-34.11556253155211
 21
-32.45500841413839
 31
0.0
1001
ITEMNAME
1000
LNSP2
  0
LINE
  5
1734
330
1683
100
AcDbEntity
  8
247
  6
Continuous
100
AcDbLine
 10
6.0
 20
-17.25000000007
 30
0.0
 11
6.0
 21
-10.55769230803
 31
0.0
  0
ARC
  5
1735
330
1683
100
AcDbEntity
  8
247
  6
Continuous
100
AcDbCircle
 10
4.250000000069973
 20
-17.25000000007
 30
0.0
 40
1.749999999929999
100
AcDbArc
 50
180.0
 51
0.0
  0
ARC
  5
1736
330
1683
100
AcDbEntity
  8
247
  6
Continuous
100
AcDbCircle
 10
4.250000000069973
 20
-10.55769230803
 30
0.0
 40
1.749999999929999
100
AcDbArc
 50
0.0
 51
180.0
  0
LINE
  5
1737
330
1683
100
AcDbEntity
  8
247
  6
Continuous
100
AcDbLine
 10
2.500000000140004
 20
-16.38461538472
 30
0.0
 11
5.500000000020007
 21
-17.24485154196202
 31
0.0
  0
LINE
  5
1738
330
1683
100
AcDbEntity
  8
247
  6
Continuous
100
AcDbLine
 10
3.923076923160008
 20
-15.48498381833582
 30
0.0
 11
3.923076923160008
 21
-16.79267612597582
 31
0.0
  0
ARC
  5
1739
330
1683
100
AcDbEntity
  8
247
  6
Continuous
100
AcDbCircle
 10
3.04959866770298
 20
-15.14514381608978
 30
0.0
 40
0.5538165441895348
100
AcDbArc
 50
72.99788967529178
 51
172.924166218512
  0
ARC
  5
173A
330
1683
100
AcDbEntity
  8
247
  6
Continuous
100
AcDbCircle
 10
2.936033044465773
 20
-15.56687832302879
 30
0.0
 40
0.9904354236226808
100
AcDbArc
 50
4.742936852202211
 51
73.8492262732663
1001
GENIUS_GENOBJ-N-FIL_13
1002
{
1000
OWNER
1000
GEN
1002
}
1001
GENIUS_GENODEF_13
1002
{
1000
HIER
1070
     0
1002
}
1002
{
1000
MANEDIT
1070
     0
1002
}
1002
{
1000
NOSEL
1070
     0
1002
}
1002
{
1000
BEHIND
1070
     0
1002
}
1002
{
1000
OTHER
1070
     0
1002
}
1002
{
1000
REACTOR
1002
}
  0
LINE
  5
173B
330
1683
100
AcDbEntity
  8
247
  6
Continuous
100
AcDbLine
 10
5.500000000020007
 20
-15.93715923432199
 30
0.0
 11
5.500000000020007
 21
-17.24485154196202
 31
0.0
  0
LINE
  5
173C
330
1683
100
AcDbEntity
  8
247
  6
Continuous
100
AcDbLine
 10
2.500000000140004
 20
-16.38461538472
 30
0.0
 11
2.500000000140004
 21
-15.07692307707998
 31
0.0
  0
ARC
  5
173D
330
1683
100
AcDbEntity
  8
247
  6
Continuous
100
AcDbCircle
 10
4.482024232665533
 20
-15.56091963654697
 30
0.0
 40
0.5640818586791229
100
AcDbArc
 50
65.99094165252889
 51
172.2634434590691
  0
ARC
  5
173E
330
1683
100
AcDbEntity
  8
247
  6
Continuous
100
AcDbCircle
 10
4.487429039186563
 20
-16.03826268534706
 30
0.0
 40
1.017605944623098
100
AcDbArc
 50
5.701985164258084
 51
77.27733843682237
1001
GENIUS_GENOBJ-N-FIL_13
1002
{
1000
OWNER
1000
GEN
1002
}
1001
GENIUS_GENODEF_13
1002
{
1000
HIER
1070
     0
1002
}
1002
{
1000
MANEDIT
1070
     0
1002
}
1002
{
1000
NOSEL
1070
     0
1002
}
1002
{
1000
BEHIND
1070
     0
1002
}
1002
{
1000
OTHER
1070
     0
1002
}
1002
{
1000
REACTOR
1002
}
  0
LINE
  5
173F
330
1683
100
AcDbEntity
  8
247
  6
Continuous
100
AcDbLine
 10
5.500000000020007
 20
-14.283313080542
 30
0.0
 11
2.500000000140004
 21
-13.42307692330001
 31
0.0
  0
LINE
  5
1740
330
1683
100
AcDbEntity
  8
247
  6
Continuous
100
AcDbLine
 10
2.500000000140004
 20
-11.00000000032
 30
0.0
 11
2.500000000140004
 21
-11.5657366194566
 31
0.0
  0
LINE
  5
1741
330
1683
100
AcDbEntity
  8
247
  6
Continuous
100
AcDbLine
 10
5.500000000020007
 20
-12.46153846179999
 30
0.0
 11
5.500000000020007
 21
-11.84615384644001
 31
0.0
  0
ARC
  5
1742
330
1683
100
AcDbEntity
  8
247
  6
Continuous
100
AcDbCircle
 10
4.583285135973366
 20
-10.70879120912286
 30
0.0
 40
2.252650082342211
100
AcDbArc
 50
202.3594881415256
 51
254.9932485428461
  0
ARC
  5
1743
330
1683
100
AcDbEntity
  8
247
  6
Continuous
100
AcDbCircle
 10
3.308312655194526
 20
-11.37406947921323
 30
0.0
 40
0.8906723995727782
100
AcDbArc
 50
94.99458931907531
 51
155.1663289573039
1001
GENIUS_GENOBJ-N-FIL_13
1002
{
1000
OWNER
1000
GEN
1002
}
1001
GENIUS_GENODEF_13
1002
{
1000
HIER
1070
     0
1002
}
1002
{
1000
MANEDIT
1070
     0
1002
}
1002
{
1000
NOSEL
1070
     0
1002
}
1002
{
1000
BEHIND
1070
     0
1002
}
1002
{
1000
OTHER
1070
     0
1002
}
1002
{
1000
REACTOR
1002
}
  0
ARC
  5
1744
330
1683
100
AcDbEntity
  8
247
  6
Continuous
100
AcDbCircle
 10
4.160145888667782
 20
-12.22645888621258
 30
0.0
 40
1.392781735586712
100
AcDbArc
 50
15.84609655577923
 51
82.32513700416907
  0
ARC
  5
1745
330
1683
100
AcDbEntity
  8
247
  6
Continuous
100
AcDbCircle
 10
4.459243431527283
 20
-11.64221272584035
 30
0.0
 40
1.324563662670287
100
AcDbArc
 50
249.7136016704969
 51
321.7887456564093
1001
GENIUS_GENOBJ-N-FIL_13
1002
{
1000
OWNER
1000
GEN
1002
}
1001
GENIUS_GENODEF_13
1002
{
1000
HIER
1070
     0
1002
}
1002
{
1000
MANEDIT
1070
     0
1002
}
1002
{
1000
NOSEL
1070
     0
1002
}
1002
{
1000
BEHIND
1070
     0
1002
}
1002
{
1000
OTHER
1070
     0
1002
}
1002
{
1000
REACTOR
1002
}
  0
LINE
  5
1746
330
1683
100
AcDbEntity
  8
247
  6
Continuous
100
AcDbLine
 10
4.346153846219976
 20
-11.53846153876
 30
0.0
 11
4.346153846219976
 21
-10.84615384648
 31
0.0
  0
LINE
  5
1747
330
1683
100
AcDbEntity
  8
247
  6
Continuous
100
AcDbLine
 10
2.500000000139976
 20
-17.25000000007
 30
0.0
 11
2.500000000139976
 21
-16.57692307702001
 31
0.0
  0
LINE
  5
1748
330
1683
100
AcDbEntity
  8
240
  6
Continuous
100
AcDbLine
 10
0.0
 20
21.63061199114219
 30
0.0
 11
-38.0
 21
20.68052849476311
 31
0.0
1001
GRPNAME
1000
PASTMD35
  0
LINE
  5
1749
330
1683
100
AcDbEntity
  8
240
  6
Continuous
100
AcDbLine
 10
0.0
 20
-21.63061199114185
 30
0.0
 11
-38.0
 21
-20.68052849476301
 31
0.0
1001
GRPNAME
1000
PASTMD35
  0
LINE
  5
174B
330
1683
100
AcDbEntity
  8
240
  6
Continuous
100
AcDbLine
 10
0.0
 20
-31.5
 30
0.0
 11
23.93301270776024
 21
-31.5
 31
0.0
  0
LINE
  5
174C
330
1683
100
AcDbEntity
  8
241
  6
Continuous
100
AcDbLine
 10
9.949999999999986
 20
8.992341421163473
 30
0.0
 11
9.949999999999986
 21
30.18137425657125
 31
0.0
1001
GRPNAME
1000
PASTMD30
  0
LINE
  5
174D
330
1683
100
AcDbEntity
  8
241
  6
Continuous
100
AcDbLine
 10
9.949999999999986
 20
30.18137425657125
 30
0.0
 11
14.05000000000001
 21
30.18137425657125
 31
0.0
1001
GRPNAME
1000
PASTMD30
  0
LINE
  5
174E
330
1683
100
AcDbEntity
  8
241
  6
Continuous
100
AcDbLine
 10
14.05000000000055
 20
8.992341421163473
 30
0.0
 11
14.05000000000001
 21
30.18137425657125
 31
0.0
1001
GRPNAME
1000
PASTMD30
  0
LINE
  5
174F
330
1683
100
AcDbEntity
  8
241
  6
Continuous
100
AcDbLine
 10
9.949999999999986
 20
8.992341421163473
 30
0.0
 11
14.05000000000055
 21
8.992341421163473
 31
0.0
1001
GRPNAME
1000
PASTMD30
  0
ARC
  5
1750
330
1683
100
AcDbEntity
  8
241
  6
Continuous
100
AcDbCircle
 10
-16.22882725694342
 20
19.58685783886657
 30
0.0
 40
32.07882725694369
100
AcDbArc
 50
340.7151345090209
 51
19.28486549098094
  0
ARC
  5
1751
330
1683
100
AcDbEntity
  8
241
  6
Continuous
100
AcDbCircle
 10
40.22882725694372
 20
19.58685783886736
 30
0.0
 40
32.07882725694374
100
AcDbArc
 50
160.7151345090191
 51
199.2848654909804
  0
LINE
  5
1752
330
1683
100
AcDbEntity
  8
241
  6
Continuous
100
AcDbLine
 10
9.949999999999986
 20
-8.992341421163473
 30
0.0
 11
9.949999999999986
 21
-30.18137425657125
 31
0.0
1001
GRPNAME
1000
PASTMD30
  0
LINE
  5
1753
330
1683
100
AcDbEntity
  8
241
  6
Continuous
100
AcDbLine
 10
9.949999999999986
 20
-30.18137425657125
 30
0.0
 11
14.05000000000001
 21
-30.18137425657125
 31
0.0
1001
GRPNAME
1000
PASTMD30
  0
LINE
  5
1754
330
1683
100
AcDbEntity
  8
241
  6
Continuous
100
AcDbLine
 10
14.05000000000055
 20
-8.992341421163473
 30
0.0
 11
14.05000000000001
 21
-30.18137425657125
 31
0.0
1001
GRPNAME
1000
PASTMD30
  0
LINE
  5
1755
330
1683
100
AcDbEntity
  8
241
  6
Continuous
100
AcDbLine
 10
9.949999999999986
 20
-8.992341421163473
 30
0.0
 11
14.05000000000055
 21
-8.992341421163473
 31
0.0
1001
GRPNAME
1000
PASTMD30
  0
ARC
  5
1756
330
1683
100
AcDbEntity
  8
241
  6
Continuous
100
AcDbCircle
 10
-16.22882725694342
 20
-19.58685783886657
 30
0.0
 40
32.07882725694369
100
AcDbArc
 50
340.7151345090189
 51
19.28486549097912
  0
ARC
  5
1757
330
1683
100
AcDbEntity
  8
241
  6
Continuous
100
AcDbCircle
 10
40.22882725694372
 20
-19.58685783886736
 30
0.0
 40
32.07882725694374
100
AcDbArc
 50
160.7151345090191
 51
199.2848654909804
  0
ARC
  5
1758
330
1683
100
AcDbEntity
  8
243
  6
HIDDEN2
100
AcDbCircle
 10
-34.18660144659555
 20
0.0
 30
0.0
 40
4.314660672045017
100
AcDbArc
 50
303.5825392047213
 51
56.41746079527869
  0
LINE
  5
177A
330
1683
100
AcDbEntity
  8
242
  6
PHANTOM2
100
AcDbLine
 10
34.99999999999579
 20
-39.99999999999966
 30
0.0
 11
95.99999982260442
 21
-39.99999999999966
 31
0.0
  0
ARC
  5
177B
330
1683
100
AcDbEntity
  8
242
  6
PHANTOM2
100
AcDbCircle
 10
95.99999982260442
 20
-35.99999999999966
 30
0.0
 40
4.0
100
AcDbArc
 50
270.0
 51
0.0
  0
ARC
  5
177C
330
1683
100
AcDbEntity
  8
242
  6
PHANTOM2
100
AcDbCircle
 10
34.99999999999579
 20
-37.99999999999972
 30
0.0
 40
2.0
100
AcDbArc
 50
180.0
 51
270.0
  0
LINE
  5
1787
330
1683
100
AcDbEntity
  8
242
  6
PHANTOM2
100
AcDbLine
 10
33.0064984481719
 20
-36.23547843512944
 30
0.0
 11
33.00649844817178
 21
-37.90180316075282
 31
0.0
  0
LINE
  5
1788
330
1683
100
AcDbEntity
  8
242
  6
PHANTOM2
100
AcDbLine
 10
34.99999999999579
 20
39.99999999999966
 30
0.0
 11
95.99999982260442
 21
39.99999999999966
 31
0.0
  0
ARC
  5
1789
330
1683
100
AcDbEntity
  8
242
  6
PHANTOM2
100
AcDbCircle
 10
95.99999982260442
 20
35.99999999999966
 30
0.0
 40
4.0
100
AcDbArc
 50
0.0
 51
90.00000000000005
  0
ARC
  5
178A
330
1683
100
AcDbEntity
  8
242
  6
PHANTOM2
100
AcDbCircle
 10
34.99999999999579
 20
37.99999999999972
 30
0.0
 40
2.0
100
AcDbArc
 50
90.00000000000005
 51
180.0
  0
LINE
  5
178B
330
1683
100
AcDbEntity
  8
242
  6
PHANTOM2
100
AcDbLine
 10
33.0064984481719
 20
36.23547843512944
 30
0.0
 11
33.00649844817178
 21
37.90180316075282
 31
0.0
  0
ARC
  5
179B
330
1683
100
AcDbEntity
  8
240
  6
Continuous
100
AcDbCircle
 10
168.0
 20
-0.0035268000000031
 30
0.0
 40
31.5
100
AcDbArc
 50
90.0
 51
270.0
  0
ARC
  5
17A1
330
1683
100
AcDbEntity
  8
240
  6
Continuous
100
AcDbCircle
 10
186.3222995333496
 20
-15.50352681
 30
0.0
 40
16.0
100
AcDbArc
 50
270.0
 51
319.7718152406698
  0
LINE
  5
17D2
330
1683
100
AcDbEntity
  8
250
  6
Continuous
370
    -3
100
AcDbLine
 10
132.2496305229078
 20
-12.88745639918063
 30
0.0
 11
203.7480041570923
 21
12.88040279918063
 31
0.0
  0
INSERT
  5
17D3
330
1683
100
AcDbEntity
  8
250
  6
Continuous
370
    -3
100
AcDbBlockReference
  2
_OPEN
 10
130.3680943746398
 20
-13.56555795703224
 30
0.0
 41
2.0
 42
2.0
 43
2.0
 50
199.8190529512221
  0
INSERT
  5
17D4
330
1683
100
AcDbEntity
  8
250
  6
Continuous
370
    -3
100
AcDbBlockReference
  2
_OPEN
 10
205.6295403053603
 20
13.55850435703223
 30
0.0
 41
2.0
 42
2.0
 43
2.0
 50
19.81905295122218
  0
MTEXT
  5
17D5
330
1683
100
AcDbEntity
  8
250
  6
Continuous
370
    -3
100
AcDbMText
 10
182.5016908539091
 20
7.774384422475242
 30
0.0
 40
2.799999999999998
 41
0.0
 71
     5
 72
     1
  1
\A1;（\U+03C680）
 11
0.9407680741340049
 21
0.3390507789258057
 31
0.0
 73
     1
 44
1.0
1001
ACAD
1000
MTEXTBEGIN
1070
    73
1070
     1
1070
    44
1040
1.0
1070
    74
1070
     0
1000
MTEXTEND
  0
LINE
  5
17EE
330
1683
100
AcDbEntity
  8
250
  6
Continuous
370
    -3
100
AcDbLine
 10
0.0
 20
-32.0
 30
0.0
 11
-0.0000000000000016
 21
-57.0
 31
0.0
  0
LINE
  5
17EF
330
1683
100
AcDbEntity
  8
250
  6
Continuous
370
    -3
100
AcDbLine
 10
100.0
 20
-8.186291500000001
 30
0.0
 11
100.0
 21
-57.0
 31
0.0
  0
LINE
  5
17F0
330
1683
100
AcDbEntity
  8
250
  6
Continuous
370
    -3
100
AcDbLine
 10
1.999999999999998
 20
-56.0
 30
0.0
 11
98.00000000000002
 21
-56.0
 31
0.0
  0
INSERT
  5
17F1
330
1683
100
AcDbEntity
  8
250
  6
Continuous
370
    -3
100
AcDbBlockReference
  2
_OPEN
 10
-0.0000000000000015
 20
-56.0
 30
0.0
 41
2.0
 42
2.0
 43
2.0
 50
180.0
  0
INSERT
  5
17F2
330
1683
100
AcDbEntity
  8
250
  6
Continuous
370
    -3
100
AcDbBlockReference
  2
_OPEN
 10
100.0
 20
-56.0
 30
0.0
 41
2.0
 42
2.0
 43
2.0
  0
MTEXT
  5
17F3
330
1683
100
AcDbEntity
  8
250
  6
Continuous
370
    -3
100
AcDbMText
 10
50.0
 20
-53.6
 30
0.0
 40
2.799999999999998
 41
0.0
 71
     5
 72
     1
  1
\A1;100
 73
     1
 44
1.0
1001
ACAD
1000
MTEXTBEGIN
1070
    73
1070
     1
1070
    44
1040
1.0
1070
    74
1070
     0
1000
MTEXTEND
  0
VIEWPORT
  5
22
102
{ACAD_XDICTIONARY
360
1860
102
}
330
167F
100
AcDbEntity
 67
     1
  8
0
100
AcDbViewport
 10
261.51769912
 20
148.5
 30
0.0
 40
523.03539823
 41
297.0
 68
     1
 69
     1
 12
261.51769912
 22
148.5
 13
0.0
 23
0.0
 14
1.0
 24
1.0
 15
10.0
 25
10.0
 16
0.0
 26
0.0
 36
1.0
 17
0.0
 27
0.0
 37
0.0
 42
50.0
 43
0.0
 44
0.0
 45
297.0
 50
0.0
 51
0.0
 72
   100
 90
    32800
  1

281
     0
 71
     0
 74
     0
110
0.0
120
0.0
130
0.0
111
1.0
121
0.0
131
0.0
112
0.0
122
1.0
132
0.0
 79
     0
146
0.0
1001
GENIUS_GENOBJ-N-SDF_13
1002
{
1000
OWNER
1000
GEN
1002
}
1001
GENIUS_GENODEF_13
1002
{
1000
HIER
1070
     0
1002
}
1002
{
1000
MANEDIT
1070
     0
1002
}
1002
{
1000
NOSEL
1070
     0
1002
}
1002
{
1000
BEHIND
1070
     0
1002
}
1002
{
1000
OTHER
1070
     0
1002
}
1002
{
1000
REACTOR
1002
}
1001
GENIUS_GENSCREG_15
1000
PF
1040
1.0
1000
DF
1040
1.0
1000
MIN
1011
0.0000000049999471
1021
0.0
1031
0.0
1000
MAX
1011
523.035398235
1021
297.0
1031
0.0
1000
FLAGS
1070
     4
  0
ENDSEC
  0
SECTION
  2
OBJECTS
  0
DICTIONARY
  5
1620
330
0
100
AcDbDictionary
281
     1
  3
ACAD_CIP_PREVIOUS_PRODUCT_INFO
350
16CF
  3
ACAD_COLOR
350
1676
  3
ACAD_DETAILVIEWSTYLE
350
167D
  3
ACAD_GROUP
350
1621
  3
ACAD_LAYOUT
350
1675
  3
ACAD_MATERIAL
350
1624
  3
ACAD_MLEADERSTYLE
350
1679
  3
ACAD_MLINESTYLE
350
1672
  3
ACAD_PLOTSETTINGS
350
1674
  3
ACAD_PLOTSTYLENAME
350
1622
  3
ACAD_SCALELIST
350
1656
  3
ACAD_SECTIONVIEWSTYLE
350
167B
  3
ACAD_TABLESTYLE
350
1677
  3
ACAD_VISUALSTYLE
350
163D
  3
ACDB_RECOMPOSE_DATA
350
185E
  3
AcDbVariableDictionary
350
1804
  3
DWGPROPS
350
185F
  0
DICTIONARY
  5
176D
330
1616
100
AcDbDictionary
280
     1
281
     1
  3
ACAD_LAYERSTATES
360
176E
  0
DICTIONARY
  5
17F4
330
1668
100
AcDbDictionary
280
     1
281
     1
  3
ADSK_XREC_LAYER_RECONCILED
360
17F5
  0
DICTIONARY
  5
17F6
330
1687
100
AcDbDictionary
280
     1
281
     1
  3
ADSK_XREC_LAYER_RECONCILED
360
17F7
  0
DICTIONARY
  5
17F8
330
1697
100
AcDbDictionary
280
     1
281
     1
  3
ADSK_XREC_LAYER_RECONCILED
360
17F9
  0
DICTIONARY
  5
17FA
330
1698
100
AcDbDictionary
280
     1
281
     1
  3
ADSK_XREC_LAYER_RECONCILED
360
17FB
  0
DICTIONARY
  5
17FC
330
1699
100
AcDbDictionary
280
     1
281
     1
  3
ADSK_XREC_LAYER_RECONCILED
360
17FD
  0
DICTIONARY
  5
17FE
330
169B
100
AcDbDictionary
280
     1
281
     1
  3
ADSK_XREC_LAYER_RECONCILED
360
17FF
  0
DICTIONARY
  5
1800
330
16EC
100
AcDbDictionary
280
     1
281
     1
  3
ADSK_XREC_LAYER_RECONCILED
360
1801
  0
DICTIONARY
  5
1802
330
16ED
100
AcDbDictionary
280
     1
281
     1
  3
ADSK_XREC_LAYER_RECONCILED
360
1803
  0
DICTIONARY
  5
17A2
330
1683
100
AcDbDictionary
280
     1
281
     1
  3
ACAD_SORTENTS
360
17A3
  0
DICTIONARY
  5
1860
330
22
100
AcDbDictionary
280
     1
281
     1
  3
ACAD_XREC_ROUNDTRIP
360
1861
  0
XRECORD
  5
16CF
102
{ACAD_REACTORS
330
1620
102
}
330
1620
100
AcDbXrecord
280
     1
300
ACD
300
2014
300
ACD_F_S
  0
DICTIONARY
  5
1676
102
{ACAD_REACTORS
330
1620
102
}
330
1620
100
AcDbDictionary
281
     1
  0
DICTIONARY
  5
167D
102
{ACAD_REACTORS
330
1620
102
}
330
1620
100
AcDbDictionary
281
     1
  3
Imperial24
350
167E
  3
Metric50
350
1770
  0
DICTIONARY
  5
1621
102
{ACAD_REACTORS
330
1620
102
}
330
1620
100
AcDbDictionary
281
     1
  0
DICTIONARY
  5
1675
102
{ACAD_REACTORS
330
1620
102
}
330
1620
100
AcDbDictionary
281
     1
  3
Model
350
1686
  3
レイアウト1
350
1682
  0
DICTIONARY
  5
1624
102
{ACAD_REACTORS
330
1620
102
}
330
1620
100
AcDbDictionary
281
     1
  3
ByBlock
350
162D
  3
ByLayer
350
1625
  3
Global
350
1635
  0
DICTIONARY
  5
1679
102
{ACAD_REACTORS
330
1620
102
}
330
1620
100
AcDbDictionary
281
     1
  3
Standard
350
167A
  0
DICTIONARY
  5
1672
102
{ACAD_REACTORS
330
1620
102
}
330
1620
100
AcDbDictionary
281
     1
  3
Standard
350
1673
  0
DICTIONARY
  5
1674
102
{ACAD_REACTORS
330
1620
102
}
330
1620
100
AcDbDictionary
281
     1
  0
ACDBDICTIONARYWDFLT
  5
1622
102
{ACAD_REACTORS
330
1620
102
}
330
1620
100
AcDbDictionary
281
     1
  3
Normal
350
1623
100
AcDbDictionaryWithDefault
340
1623
  0
DICTIONARY
  5
1656
102
{ACAD_REACTORS
330
1620
102
}
330
1620
100
AcDbDictionary
281
     1
  3
A0
350
1657
  3
A1
350
1658
  3
A2
350
1659
  3
A3
350
165A
  3
A4
350
165B
  3
A5
350
165C
  3
A6
350
165D
  3
A7
350
165E
  3
A8
350
165F
  3
A9
350
1660
  3
B0
350
1661
  3
B1
350
1662
  3
B2
350
1663
  3
B3
350
1664
  3
B4
350
1665
  3
B5
350
1666
  3
B6
350
1667
  0
DICTIONARY
  5
167B
102
{ACAD_REACTORS
330
1620
102
}
330
1620
100
AcDbDictionary
281
     1
  3
Imperial24
350
167C
  3
Metric50
350
176F
  0
DICTIONARY
  5
1677
102
{ACAD_REACTORS
330
1620
102
}
330
1620
100
AcDbDictionary
281
     1
  3
Standard
350
1678
  0
DICTIONARY
  5
163D
102
{ACAD_REACTORS
330
1620
102
}
330
1620
100
AcDbDictionary
281
     1
  3
2dWireframe
350
1643
  3
Basic
350
1642
  3
Brighten
350
1649
  3
ColorChange
350
164D
  3
Conceptual
350
1646
  3
Dim
350
1648
  3
EdgeColorOff
350
1655
  3
Facepattern
350
164C
  3
Flat
350
163E
  3
FlatWithEdges
350
163F
  3
Gouraud
350
1640
  3
GouraudWithEdges
350
1641
  3
Hidden
350
1645
  3
JitterOff
350
1653
  3
Linepattern
350
164B
  3
OverhangOff
350
1654
  3
Realistic
350
1647
  3
Shaded
350
1652
  3
Shaded with edges
350
1651
  3
Shades of Gray
350
164E
  3
Sketchy
350
164F
  3
Thicken
350
164A
  3
Wireframe
350
1644
  3
X-Ray
350
1650
  0
XRECORD
  5
185E
102
{ACAD_REACTORS
330
1620
102
}
330
1620
100
AcDbXrecord
280
     1
 90
        1
330
1678
  0
DICTIONARY
  5
1804
102
{ACAD_REACTORS
330
1620
102
}
330
1620
100
AcDbDictionary
281
     1
  3
CANNOSCALE
350
1809
  3
CMLEADERSTYLE
350
1806
  3
CTABLESTYLE
350
1805
  3
CVIEWDETAILSTYLE
350
1807
  3
CVIEWSECTIONSTYLE
350
1808
  3
DIMASSOC
350
180C
  3
INDEXCTL
350
180B
  3
SORTENTS
350
180A
  3
XCLIPFRAME
350
185C
  0
XRECORD
  5
185F
102
{ACAD_REACTORS
330
1620
102
}
330
1620
100
AcDbXrecord
280
     1
  1
DWGPROPS COOKIE
  2

  3

  4

  6

  7

  8
AWTEC
  9

300
=
301
=
302
=
303
=
304
=
305
=
306
=
307
=
308
=
309
=
 40
0.0392366782407408
 41
2455106.57390787
 42
2457869.580285151
  1

 90
        0
  0
DICTIONARY
  5
176E
102
{ACAD_REACTORS
330
176D
102
}
330
176D
100
AcDbDictionary
281
     1
  0
XRECORD
  5
17F5
102
{ACAD_REACTORS
330
17F4
102
}
330
17F4
100
AcDbXrecord
280
     1
290
     1
  0
XRECORD
  5
17F7
102
{ACAD_REACTORS
330
17F6
102
}
330
17F6
100
AcDbXrecord
280
     1
290
     1
  0
XRECORD
  5
17F9
102
{ACAD_REACTORS
330
17F8
102
}
330
17F8
100
AcDbXrecord
280
     1
290
     1
  0
XRECORD
  5
17FB
102
{ACAD_REACTORS
330
17FA
102
}
330
17FA
100
AcDbXrecord
280
     1
290
     1
  0
XRECORD
  5
17FD
102
{ACAD_REACTORS
330
17FC
102
}
330
17FC
100
AcDbXrecord
280
     1
290
     1
  0
XRECORD
  5
17FF
102
{ACAD_REACTORS
330
17FE
102
}
330
17FE
100
AcDbXrecord
280
     1
290
     1
  0
XRECORD
  5
1801
102
{ACAD_REACTORS
330
1800
102
}
330
1800
100
AcDbXrecord
280
     1
290
     1
  0
XRECORD
  5
1803
102
{ACAD_REACTORS
330
1802
102
}
330
1802
100
AcDbXrecord
280
     1
290
     1
  0
SORTENTSTABLE
  5
17A3
102
{ACAD_REACTORS
330
17A2
102
}
330
17A2
100
AcDbSortentsTable
330
1683
331
178A
  5
17D5
331
1726
  5
1727
331
EB4
  5
EB4
331
F22
  5
1451
331
177C
  5
17A1
331
17D2
  5
17F0
331
F1E
  5
F1F
331
1755
  5
1756
331
E88
  5
E88
331
F1A
  5
F1B
331
1751
  5
1752
331
E84
  5
E84
331
174D
  5
174E
331
1749
  5
174B
331
1745
  5
1746
331
E7C
  5
E7C
331
F16
  5
F17
331
ECF
  5
ECF
331
1741
  5
1742
331
17F2
  5
1789
331
173D
  5
173E
331
EF2
  5
F15
331
1739
  5
173A
331
ED5
  5
ED5
331
EC7
  5
EC7
331
EC3
  5
EC3
331
1735
  5
1736
331
EBF
  5
EBF
331
1731
  5
1732
331
6E6
  5
6E6
331
EBB
  5
EBB
331
EDE
  5
EDF
331
172D
  5
172E
331
EDA
  5
EDA
331
1729
  5
172A
331
1787
  5
17D2
331
1789
  5
17D4
331
EB7
  5
EB7
331
EB3
  5
EB3
331
E93
  5
E93
331
1758
  5
175C
331
F21
  5
F22
331
177B
  5
179B
331
17D5
  5
17F3
331
F1D
  5
F1E
331
1754
  5
1755
331
E87
  5
E87
331
F19
  5
F1A
331
1750
  5
1751
331
E83
  5
E83
331
174C
  5
174D
331
1748
  5
1749
331
17A1
  5
EDE
331
E7F
  5
E7F
331
F15
  5
F16
331
1744
  5
1745
331
E7B
  5
E7B
331
807
  5
807
331
ECE
  5
ECE
331
1740
  5
1741
331
17F1
  5
1788
331
ECA
  5
ECA
331
173C
  5
173D
331
1738
  5
1739
331
1451
  5
1726
331
EF1
  5
EF2
331
ED4
  5
ED4
331
ED0
  5
ED0
331
EC6
  5
EC6
331
EC2
  5
EC2
331
1734
  5
1735
331
EBE
  5
EBE
331
1730
  5
1731
331
EBA
  5
EBA
331
172C
  5
172D
331
1728
  5
1729
331
1788
  5
17D3
331
EB6
  5
EB6
331
EB2
  5
EB2
331
E92
  5
E92
331
F20
  5
F21
331
177A
  5
178B
331
17D4
  5
17F2
331
1757
  5
1758
331
F1C
  5
F1D
331
1753
  5
1754
331
E86
  5
E86
331
F18
  5
F19
331
174F
  5
1750
331
E82
  5
E82
331
174B
  5
174C
331
1747
  5
1748
331
E7E
  5
E7E
331
1743
  5
1744
331
ECD
  5
ECD
331
173F
  5
1740
331
17F0
  5
1787
331
EC9
  5
EC9
331
173B
  5
173C
331
EF0
  5
EF1
331
ED7
  5
ED7
331
ED3
  5
ED3
331
17EF
  5
177C
331
1737
  5
1738
331
EC5
  5
EC5
331
EC1
  5
EC1
331
1733
  5
1734
331
179B
  5
17EF
331
EBD
  5
EBD
331
EE0
  5
EF0
331
172F
  5
1730
331
EB9
  5
EB9
331
172B
  5
172C
331
ED8
  5
ED8
331
178B
  5
17EE
331
1727
  5
1728
331
17D3
  5
17F1
331
1756
  5
1757
331
F1F
  5
F20
331
E89
  5
E89
331
F1B
  5
F1C
331
1752
  5
1753
331
E85
  5
E85
331
174E
  5
174F
331
E81
  5
E81
331
1746
  5
1747
331
E7D
  5
E7D
331
F17
  5
F18
331
1742
  5
1743
331
17F3
  5
178A
331
ECC
  5
ECC
331
173E
  5
173F
331
EC8
  5
EC8
331
173A
  5
173B
331
ED6
  5
ED6
331
ED2
  5
ED2
331
17EE
  5
177B
331
EC4
  5
EC4
331
1736
  5
1737
331
EC0
  5
EC0
331
1732
  5
1733
331
EBC
  5
EBC
331
EDF
  5
EE0
331
172E
  5
172F
331
EB8
  5
EB8
331
EDB
  5
EDB
331
172A
  5
172B
  0
XRECORD
  5
1861
102
{ACAD_REACTORS
330
1860
102
}
330
1860
100
AcDbXrecord
280
     1
102
SHADEPLOT
 70
     0
  0
ACDBDETAILVIEWSTYLE
  5
167E
102
{ACAD_XDICTIONARY
360
1895
102
}
102
{ACAD_REACTORS
330
167D
102
}
330
167D
100
AcDbModelDocViewStyle
 70
     0
  3
Imperial24
290
     0
100
AcDbDetailViewStyle
 70
     0
 71
     0
 90
        3
 71
     1
340
1669
 40
0.24
340
0
 40
0.24
300

 40
0.36
280
     3
 71
     2
340
1670
 90
       25
 71
     3
340
1669
 40
0.24
 90
        1
 40
0.75
 90
        1
300
%<\AcVar ViewType \f "%tc1">% %<\AcVar ViewDetailId>%\PSCALE %<\AcVar ViewScale \f "%sn">%
 71
     4
340
1670
 90
       25
340
1670
 90
       25
280
     0
  0
ACDBDETAILVIEWSTYLE
  5
1770
102
{ACAD_XDICTIONARY
360
189D
102
}
102
{ACAD_REACTORS
330
167D
102
}
330
167D
100
AcDbModelDocViewStyle
 70
     0
  3
Metric50
290
     0
100
AcDbDetailViewStyle
 70
     0
 71
     0
 90
        3
 71
     1
340
1669
 40
5.0
340
0
 40
5.0
300

 40
0.0
280
     1
 71
     2
340
1670
 90
       25
 71
     3
340
1669
 40
5.0
 90
        0
 40
15.0
 90
        1
300
%<\AcVar ViewDetailId>% (%<\AcVar ViewScale \f "%sn">%)
 71
     4
340
1670
 90
       25
340
1670
 90
       25
280
     0
  0
LAYOUT
  5
1686
102
{ACAD_XDICTIONARY
360
1899
102
}
102
{ACAD_REACTORS
330
1675
102
}
330
1675
100
AcDbPlotSettings
  1

  2
CubePDF
  4

  6

 40
0.0
 41
0.0
 42
0.0
 43
0.0
 44
0.0
 45
0.0
 46
0.0
 47
0.0
 48
0.0
 49
0.0
140
0.0
141
0.0
142
1.0
143
1.0
 70
  1712
 72
     0
 73
     0
 74
     0
  7

 75
     0
147
1.0
148
0.0
149
0.0
100
AcDbLayout
  1
Model
 70
     1
 71
     0
 10
0.0
 20
0.0
 11
12.0
 21
9.0
 12
0.0
 22
0.0
 32
0.0
 14
0.0
 24
0.0
 34
0.0
 15
0.0
 25
0.0
 35
0.0
146
0.0
 13
0.0
 23
0.0
 33
0.0
 16
1.0
 26
0.0
 36
0.0
 17
0.0
 27
1.0
 37
0.0
 76
     0
330
1683
331
1689
  0
LAYOUT
  5
1682
102
{ACAD_XDICTIONARY
360
1897
102
}
102
{ACAD_REACTORS
330
1675
102
}
330
1675
100
AcDbPlotSettings
  1

  2
CubePDF
  4

  6

 40
0.0
 41
0.0
 42
0.0
 43
0.0
 44
0.0
 45
0.0
 46
0.0
 47
0.0
 48
0.0
 49
0.0
140
0.0
141
0.0
142
1.0
143
1.0
 70
   688
 72
     0
 73
     0
 74
     5
  7

 75
    16
147
1.0
148
0.0
149
0.0
100
AcDbLayout
  1
レイアウト1
 70
     1
 71
     1
 10
0.0
 20
0.0
 11
420.0
 21
297.0
 12
0.0
 22
0.0
 32
0.0
 14
1.000000000000000E+20
 24
1.000000000000000E+20
 34
1.000000000000000E+20
 15
-1.000000000000000E+20
 25
-1.000000000000000E+20
 35
-1.000000000000000E+20
146
0.0
 13
0.0
 23
0.0
 33
0.0
 16
1.0
 26
0.0
 36
0.0
 17
0.0
 27
1.0
 37
0.0
 76
     0
330
167F
331
22
  0
MATERIAL
  5
162D
102
{ACAD_XDICTIONARY
360
162E
102
}
102
{ACAD_REACTORS
330
1624
102
}
330
1624
100
AcDbMaterial
  1
ByBlock
 72
     0
 43
0.0208333333333333
 43
0.0
 43
0.0
 43
0.0
 43
0.0
 43
0.0208333333333333
 43
0.0
 43
0.0
 43
0.0
 43
0.0
 43
1.0
 43
0.0
 43
0.0
 43
0.0
 43
0.0
 43
1.0
 77
     0
 47
0.0208333333333333
 47
0.0
 47
0.0
 47
0.0
 47
0.0
 47
0.0208333333333333
 47
0.0
 47
0.0
 47
0.0
 47
0.0
 47
1.0
 47
0.0
 47
0.0
 47
0.0
 47
0.0
 47
1.0
171
     0
 49
0.0208333333333333
 49
0.0
 49
0.0
 49
0.0
 49
0.0
 49
0.0208333333333333
 49
0.0
 49
0.0
 49
0.0
 49
0.0
 49
1.0
 49
0.0
 49
0.0
 49
0.0
 49
0.0
 49
1.0
175
     0
142
0.0208333333333333
142
0.0
142
0.0
142
0.0
142
0.0
142
0.0208333333333333
142
0.0
142
0.0
142
0.0
142
0.0
142
1.0
142
0.0
142
0.0
142
0.0
142
0.0
142
1.0
179
     0
144
0.0208333333333333
144
0.0
144
0.0
144
0.0
144
0.0
144
0.0208333333333333
144
0.0
144
0.0
144
0.0
144
0.0
144
1.0
144
0.0
144
0.0
144
0.0
144
0.0
144
1.0
147
0.0208333333333333
147
0.0
147
0.0
147
0.0
147
0.0
147
0.0208333333333333
147
0.0
147
0.0
147
0.0
147
0.0
147
1.0
147
0.0
147
0.0
147
0.0
147
0.0
147
1.0
  0
MATERIAL
  5
1625
102
{ACAD_XDICTIONARY
360
1626
102
}
102
{ACAD_REACTORS
330
1624
102
}
330
1624
100
AcDbMaterial
  1
ByLayer
 72
     0
 43
0.0208333333333333
 43
0.0
 43
0.0
 43
0.0
 43
0.0
 43
0.0208333333333333
 43
0.0
 43
0.0
 43
0.0
 43
0.0
 43
1.0
 43
0.0
 43
0.0
 43
0.0
 43
0.0
 43
1.0
 77
     0
 47
0.0208333333333333
 47
0.0
 47
0.0
 47
0.0
 47
0.0
 47
0.0208333333333333
 47
0.0
 47
0.0
 47
0.0
 47
0.0
 47
1.0
 47
0.0
 47
0.0
 47
0.0
 47
0.0
 47
1.0
171
     0
 49
0.0208333333333333
 49
0.0
 49
0.0
 49
0.0
 49
0.0
 49
0.0208333333333333
 49
0.0
 49
0.0
 49
0.0
 49
0.0
 49
1.0
 49
0.0
 49
0.0
 49
0.0
 49
0.0
 49
1.0
175
     0
142
0.0208333333333333
142
0.0
142
0.0
142
0.0
142
0.0
142
0.0208333333333333
142
0.0
142
0.0
142
0.0
142
0.0
142
1.0
142
0.0
142
0.0
142
0.0
142
0.0
142
1.0
179
     0
144
0.0208333333333333
144
0.0
144
0.0
144
0.0
144
0.0
144
0.0208333333333333
144
0.0
144
0.0
144
0.0
144
0.0
144
1.0
144
0.0
144
0.0
144
0.0
144
0.0
144
1.0
147
0.0208333333333333
147
0.0
147
0.0
147
0.0
147
0.0
147
0.0208333333333333
147
0.0
147
0.0
147
0.0
147
0.0
147
1.0
147
0.0
147
0.0
147
0.0
147
0.0
147
1.0
  0
MATERIAL
  5
1635
102
{ACAD_XDICTIONARY
360
1636
102
}
102
{ACAD_REACTORS
330
1624
102
}
330
1624
100
AcDbMaterial
  1
Global
 72
     0
 43
0.0208333333333333
 43
0.0
 43
0.0
 43
0.0
 43
0.0
 43
0.0208333333333333
 43
0.0
 43
0.0
 43
0.0
 43
0.0
 43
1.0
 43
0.0
 43
0.0
 43
0.0
 43
0.0
 43
1.0
 77
     0
 47
0.0208333333333333
 47
0.0
 47
0.0
 47
0.0
 47
0.0
 47
0.0208333333333333
 47
0.0
 47
0.0
 47
0.0
 47
0.0
 47
1.0
 47
0.0
 47
0.0
 47
0.0
 47
0.0
 47
1.0
171
     0
 49
0.0208333333333333
 49
0.0
 49
0.0
 49
0.0
 49
0.0
 49
0.0208333333333333
 49
0.0
 49
0.0
 49
0.0
 49
0.0
 49
1.0
 49
0.0
 49
0.0
 49
0.0
 49
0.0
 49
1.0
175
     0
142
0.0208333333333333
142
0.0
142
0.0
142
0.0
142
0.0
142
0.0208333333333333
142
0.0
142
0.0
142
0.0
142
0.0
142
1.0
142
0.0
142
0.0
142
0.0
142
0.0
142
1.0
179
     0
144
0.0208333333333333
144
0.0
144
0.0
144
0.0
144
0.0
144
0.0208333333333333
144
0.0
144
0.0
144
0.0
144
0.0
144
1.0
144
0.0
144
0.0
144
0.0
144
0.0
144
1.0
147
0.0208333333333333
147
0.0
147
0.0
147
0.0
147
0.0
147
0.0208333333333333
147
0.0
147
0.0
147
0.0
147
0.0
147
1.0
147
0.0
147
0.0
147
0.0
147
0.0
147
1.0
  0
MLEADERSTYLE
  5
167A
102
{ACAD_REACTORS
330
1679
102
}
330
1679
100
AcDbMLeaderStyle
170
     2
171
     1
172
     0
 90
        2
 40
0.0
 41
0.0
173
     1
 91
-1056964608
340
166E
 92
       -2
290
     1
 42
0.09
291
     1
 43
0.36
  3
Standard
 44
0.18
300

342
1669
174
     1
178
     6
175
     1
176
     0
 93
-1056964608
 45
0.18
292
     0
297
     0
 46
0.18
 94
-1056964608
 47
1.0
 49
1.0
140
1.0
293
     1
141
0.0
294
     1
177
     0
142
1.0
295
     0
296
     0
143
0.125
1001
ACAD_MLEADERVER
1070
     2
  0
MLINESTYLE
  5
1673
102
{ACAD_REACTORS
330
1672
102
}
330
1672
100
AcDbMlineStyle
  2
STANDARD
 70
     0
  3

 62
   256
 51
90.0
 52
90.0
 71
     2
 49
0.5
 62
   256
  6
BYLAYER
 49
-0.5
 62
   256
  6
BYLAYER
  0
ACDBPLACEHOLDER
  5
1623
102
{ACAD_REACTORS
330
1622
102
}
330
1622
  0
SCALE
  5
1657
102
{ACAD_REACTORS
330
1656
102
}
330
1656
100
AcDbScale
 70
     0
300
1:1
140
1.0
141
1.0
290
     1
  0
SCALE
  5
1658
102
{ACAD_REACTORS
330
1656
102
}
330
1656
100
AcDbScale
 70
     0
300
1/128" = 1'-0"
140
0.0078125
141
12.0
290
     0
  0
SCALE
  5
1659
102
{ACAD_REACTORS
330
1656
102
}
330
1656
100
AcDbScale
 70
     0
300
1/64" = 1'-0"
140
0.015625
141
12.0
290
     0
  0
SCALE
  5
165A
102
{ACAD_REACTORS
330
1656
102
}
330
1656
100
AcDbScale
 70
     0
300
1/32" = 1'-0"
140
0.03125
141
12.0
290
     0
  0
SCALE
  5
165B
102
{ACAD_REACTORS
330
1656
102
}
330
1656
100
AcDbScale
 70
     0
300
1/16" = 1'-0"
140
0.0625
141
12.0
290
     0
  0
SCALE
  5
165C
102
{ACAD_REACTORS
330
1656
102
}
330
1656
100
AcDbScale
 70
     0
300
3/32" = 1'-0"
140
0.09375
141
12.0
290
     0
  0
SCALE
  5
165D
102
{ACAD_REACTORS
330
1656
102
}
330
1656
100
AcDbScale
 70
     0
300
1/8" = 1'-0"
140
0.125
141
12.0
290
     0
  0
SCALE
  5
165E
102
{ACAD_REACTORS
330
1656
102
}
330
1656
100
AcDbScale
 70
     0
300
3/16" = 1'-0"
140
0.1875
141
12.0
290
     0
  0
SCALE
  5
165F
102
{ACAD_REACTORS
330
1656
102
}
330
1656
100
AcDbScale
 70
     0
300
1/4" = 1'-0"
140
0.25
141
12.0
290
     0
  0
SCALE
  5
1660
102
{ACAD_REACTORS
330
1656
102
}
330
1656
100
AcDbScale
 70
     0
300
3/8" = 1'-0"
140
0.375
141
12.0
290
     0
  0
SCALE
  5
1661
102
{ACAD_REACTORS
330
1656
102
}
330
1656
100
AcDbScale
 70
     0
300
1/2" = 1'-0"
140
0.5
141
12.0
290
     0
  0
SCALE
  5
1662
102
{ACAD_REACTORS
330
1656
102
}
330
1656
100
AcDbScale
 70
     0
300
3/4" = 1'-0"
140
0.75
141
12.0
290
     0
  0
SCALE
  5
1663
102
{ACAD_REACTORS
330
1656
102
}
330
1656
100
AcDbScale
 70
     0
300
1" = 1'-0"
140
1.0
141
12.0
290
     0
  0
SCALE
  5
1664
102
{ACAD_REACTORS
330
1656
102
}
330
1656
100
AcDbScale
 70
     0
300
1-1/2" = 1'-0"
140
1.5
141
12.0
290
     0
  0
SCALE
  5
1665
102
{ACAD_REACTORS
330
1656
102
}
330
1656
100
AcDbScale
 70
     0
300
3" = 1'-0"
140
3.0
141
12.0
290
     0
  0
SCALE
  5
1666
102
{ACAD_REACTORS
330
1656
102
}
330
1656
100
AcDbScale
 70
     0
300
6" = 1'-0"
140
6.0
141
12.0
290
     0
  0
SCALE
  5
1667
102
{ACAD_REACTORS
330
1656
102
}
330
1656
100
AcDbScale
 70
     0
300
1'-0" = 1'-0"
140
12.0
141
12.0
290
     0
  0
ACDBSECTIONVIEWSTYLE
  5
167C
102
{ACAD_XDICTIONARY
360
1893
102
}
102
{ACAD_REACTORS
330
167B
102
}
330
167B
100
AcDbModelDocViewStyle
 70
     0
  3
Imperial24
290
     0
100
AcDbSectionViewStyle
 70
     0
 71
     0
 90
       78
 71
     1
340
1669
 40
0.24
340
0
340
0
 40
0.24
300
I, O, Q, S, X, Z
 40
0.48
 90
        3
 40
0.18
 90
        1
 71
     2
340
1670
 90
       25
340
1670
 90
       50
 40
0.24
 40
0.0
 40
0.24
 71
     3
340
1669
 40
0.24
 90
        1
 40
0.75
 90
        1
300
%<\AcVar ViewType \f "%tc1">% %<\AcVar ViewSectionStartId>%-%<\AcVar ViewSectionEndId>%\PSCALE %<\AcVar ViewScale \f "%sn">%
 71
     4
300
ANSI31
 40
1.0
 90
        0
290
     0
290
     0
 90
        6
 40
0.0
 40
1.570796326794896
 40
0.2617993877991494
 40
1.308996938995747
 40
-0.2617993877991494
 40
1.832595714594045
  0
ACDBSECTIONVIEWSTYLE
  5
176F
102
{ACAD_XDICTIONARY
360
189B
102
}
102
{ACAD_REACTORS
330
167B
102
}
330
167B
100
AcDbModelDocViewStyle
 70
     0
  3
Metric50
290
     0
100
AcDbSectionViewStyle
 70
     0
 71
     0
 90
      102
 71
     1
340
1669
 40
5.0
340
0
340
0
 40
5.0
300
I, O, Q, S, X, Z
 40
10.0
 90
        0
 40
2.5
 90
        0
 71
     2
340
1670
 90
       25
340
1670
 90
       50
 40
5.0
 40
2.5
 40
5.0
 71
     3
340
1669
 40
5.0
 90
        0
 40
15.0
 90
        1
300
%<\AcVar ViewSectionStartId>%-%<\AcVar ViewSectionEndId>% (%<\AcVar ViewScale \f "%sn">%)
 71
     4
300
ANSI31
 40
1.0
 90
        0
290
     0
290
     0
 90
        6
 40
0.0
 40
1.570796326794896
 40
0.2617993877991494
 40
1.308996938995747
 40
-0.2617993877991494
 40
1.832595714594045
  0
TABLESTYLE
  5
1678
102
{ACAD_XDICTIONARY
360
180E
102
}
102
{ACAD_REACTORS
330
1677
102
}
330
1677
100
AcDbTableStyle
  3
Standard
 70
     0
 71
     0
 40
0.06
 41
0.06
280
     0
281
     0
  7
STANDARD
140
0.18
170
     2
 62
     0
 63
     7
283
     0
274
    -2
284
     1
 64
     0
275
    -2
285
     1
 65
     0
276
    -2
286
     1
 66
     0
277
    -2
287
     1
 67
     0
278
    -2
288
     1
 68
     0
279
    -2
289
     1
 69
     0
  7
STANDARD
140
0.25
170
     5
 62
     0
 63
     7
283
     0
274
    -2
284
     1
 64
     0
275
    -2
285
     1
 65
     0
276
    -2
286
     1
 66
     0
277
    -2
287
     1
 67
     0
278
    -2
288
     1
 68
     0
279
    -2
289
     1
 69
     0
  7
STANDARD
140
0.18
170
     5
 62
     0
 63
     7
283
     0
274
    -2
284
     1
 64
     0
275
    -2
285
     1
 65
     0
276
    -2
286
     1
 66
     0
277
    -2
287
     1
 67
     0
278
    -2
288
     1
 68
     0
279
    -2
289
     1
 69
     0
  0
VISUALSTYLE
  5
1643
102
{ACAD_XDICTIONARY
360
186C
102
}
102
{ACAD_REACTORS
330
163D
102
}
330
163D
100
AcDbVisualStyle
  2

 70
     4
 71
     0
 72
     2
 73
     0
 90
        0
 40
-0.6
 41
-30.0
 62
     5
 63
     7
 74
     1
 91
        4
 64
     7
 65
   257
 75
     1
175
     1
 42
1.0
 92
        0
 66
   257
 43
1.0
 76
     1
 77
     6
 78
     2
 67
     7
 79
     5
170
     0
171
     0
290
     0
174
     0
 93
        1
 44
0.0
173
     0
291
     0
 45
0.0
1001
ACAD
1000
AcDbSavedByObjectVersion
1070
     0
  0
VISUALSTYLE
  5
1642
102
{ACAD_XDICTIONARY
360
186A
102
}
102
{ACAD_REACTORS
330
163D
102
}
330
163D
100
AcDbVisualStyle
  2

 70
     7
 71
     1
 72
     0
 73
     1
 90
        0
 40
-0.6
 41
-30.0
 62
     5
 63
     7
 74
     0
 91
        4
 64
     7
 65
   257
 75
     1
175
     1
 42
1.0
 92
        8
 66
     7
 43
1.0
 76
     1
 77
     6
 78
     2
 67
     7
 79
     5
170
     0
171
     0
290
     0
174
     0
 93
        1
 44
0.0
173
     0
291
     1
 45
0.0
1001
ACAD
1000
AcDbSavedByObjectVersion
1070
     0
  0
VISUALSTYLE
  5
1649
102
{ACAD_XDICTIONARY
360
1878
102
}
102
{ACAD_REACTORS
330
163D
102
}
330
163D
100
AcDbVisualStyle
  2

 70
    12
 71
     2
 72
     2
 73
     0
 90
        0
 40
-0.6
 41
-30.0
 62
     5
 63
     7
 74
     1
 91
        4
 64
     7
 65
   257
 75
     1
175
     1
 42
1.0
 92
        8
 66
     7
 43
1.0
 76
     1
 77
     6
 78
     2
 67
     7
 79
     5
170
     0
171
     0
290
     0
174
     0
 93
        1
 44
50.0
173
     0
291
     1
 45
0.0
1001
ACAD
1000
AcDbSavedByObjectVersion
1070
     0
  0
VISUALSTYLE
  5
164D
102
{ACAD_XDICTIONARY
360
1880
102
}
102
{ACAD_REACTORS
330
163D
102
}
330
163D
100
AcDbVisualStyle
  2

 70
    16
 71
     2
 72
     2
 73
     3
 90
        0
 40
-0.6
 41
-30.0
 62
     5
 63
     8
 74
     1
 91
        4
 64
     7
 65
   257
 75
     1
175
     1
 42
1.0
 92
        8
 66
     8
 43
1.0
 76
     1
 77
     6
 78
     2
 67
     7
 79
     5
170
     0
171
     0
290
     0
174
     0
 93
        1
 44
0.0
173
     0
291
     1
 45
0.0
1001
ACAD
1000
AcDbSavedByObjectVersion
1070
     0
  0
VISUALSTYLE
  5
1646
102
{ACAD_XDICTIONARY
360
1872
102
}
102
{ACAD_REACTORS
330
163D
102
}
330
163D
100
AcDbVisualStyle
  2

 70
     9
 71
     3
 72
     2
 73
     0
 90
        0
 40
-0.6
 41
-30.0
 62
     5
 63
     7
 74
     2
 91
        2
 64
     7
 65
   257
 75
     1
175
     1
 42
179.0
 92
        8
 66
     7
 43
1.0
 76
     1
 77
     6
 78
     2
 67
     7
 79
     3
170
     0
171
     0
290
     0
174
     0
 93
        1
 44
0.0
173
     0
291
     0
 45
0.0
1001
ACAD
1000
AcDbSavedByObjectVersion
1070
     0
  0
VISUALSTYLE
  5
1648
102
{ACAD_XDICTIONARY
360
1876
102
}
102
{ACAD_REACTORS
330
163D
102
}
330
163D
100
AcDbVisualStyle
  2

 70
    11
 71
     2
 72
     2
 73
     0
 90
        0
 40
-0.6
 41
-30.0
 62
     5
 63
     7
 74
     1
 91
        4
 64
     7
 65
   257
 75
     1
175
     1
 42
1.0
 92
        8
 66
     7
 43
1.0
 76
     1
 77
     6
 78
     2
 67
     7
 79
     5
170
     0
171
     0
290
     0
174
     0
 93
        1
 44
-50.0
173
     0
291
     1
 45
0.0
1001
ACAD
1000
AcDbSavedByObjectVersion
1070
     0
  0
VISUALSTYLE
  5
1655
102
{ACAD_XDICTIONARY
360
1890
102
}
102
{ACAD_REACTORS
330
163D
102
}
330
163D
100
AcDbVisualStyle
  2

 70
    22
 71
     2
 72
     2
 73
     0
 90
        0
 40
-0.6
 41
-30.0
 62
     5
 63
     7
 74
     1
 91
        4
 64
     7
 65
   257
 75
     1
175
     1
 42
1.0
 92
        8
 66
     7
 43
1.0
 76
     1
 77
     6
 78
     2
 67
     7
 79
     5
170
     0
171
     0
290
     0
174
     0
 93
        1
 44
0.0
173
     0
291
     1
 45
0.0
1001
ACAD
1000
AcDbSavedByObjectVersion
1070
     0
  0
VISUALSTYLE
  5
164C
102
{ACAD_XDICTIONARY
360
187E
102
}
102
{ACAD_REACTORS
330
163D
102
}
330
163D
100
AcDbVisualStyle
  2

 70
    15
 71
     2
 72
     2
 73
     0
 90
        0
 40
-0.6
 41
-30.0
 62
     5
 63
     7
 74
     1
 91
        4
 64
     7
 65
   257
 75
     1
175
     1
 42
1.0
 92
        8
 66
     7
 43
1.0
 76
     1
 77
     6
 78
     2
 67
     7
 79
     5
170
     0
171
     0
290
     0
174
     0
 93
        1
 44
0.0
173
     0
291
     1
 45
0.0
1001
ACAD
1000
AcDbSavedByObjectVersion
1070
     0
  0
VISUALSTYLE
  5
163E
102
{ACAD_XDICTIONARY
360
1862
102
}
102
{ACAD_REACTORS
330
163D
102
}
330
163D
100
AcDbVisualStyle
  2

 70
     0
 71
     2
 72
     1
 73
     1
 90
        2
 40
-0.6
 41
30.0
 62
     5
 63
     7
 74
     0
 91
        0
 64
     7
 65
   257
 75
     1
175
     1
 42
1.0
 92
        8
 66
     7
 43
1.0
 76
     1
 77
     6
 78
     2
 67
     7
 79
     5
170
     0
171
     0
290
     0
174
     0
 93
       13
 44
0.0
173
     0
291
     1
 45
0.0
1001
ACAD
1000
AcDbSavedByObjectVersion
1070
     0
  0
VISUALSTYLE
  5
163F
102
{ACAD_XDICTIONARY
360
1864
102
}
102
{ACAD_REACTORS
330
163D
102
}
330
163D
100
AcDbVisualStyle
  2

 70
     1
 71
     2
 72
     1
 73
     1
 90
        2
 40
-0.6
 41
30.0
 62
     5
 63
     7
 74
     1
 91
        0
 64
     7
 65
   257
 75
     1
175
     1
 42
1.0
 92
        0
 66
   257
 43
1.0
 76
     1
 77
     6
 78
     2
 67
     7
 79
     5
170
     0
171
     0
290
     0
174
     0
 93
       13
 44
0.0
173
     0
291
     1
 45
0.0
1001
ACAD
1000
AcDbSavedByObjectVersion
1070
     0
  0
VISUALSTYLE
  5
1640
102
{ACAD_XDICTIONARY
360
1866
102
}
102
{ACAD_REACTORS
330
163D
102
}
330
163D
100
AcDbVisualStyle
  2

 70
     2
 71
     2
 72
     2
 73
     1
 90
        2
 40
-0.6
 41
30.0
 62
     5
 63
     7
 74
     0
 91
        0
 64
     7
 65
   257
 75
     1
175
     1
 42
1.0
 92
        0
 66
     7
 43
1.0
 76
     1
 77
     6
 78
     2
 67
     7
 79
     5
170
     0
171
     0
290
     0
174
     0
 93
       13
 44
0.0
173
     0
291
     1
 45
0.0
1001
ACAD
1000
AcDbSavedByObjectVersion
1070
     0
  0
VISUALSTYLE
  5
1641
102
{ACAD_XDICTIONARY
360
1868
102
}
102
{ACAD_REACTORS
330
163D
102
}
330
163D
100
AcDbVisualStyle
  2

 70
     3
 71
     2
 72
     2
 73
     1
 90
        2
 40
-0.6
 41
30.0
 62
     5
 63
     7
 74
     1
 91
        0
 64
     7
 65
   257
 75
     1
175
     1
 42
1.0
 92
        0
 66
   257
 43
1.0
 76
     1
 77
     6
 78
     2
 67
     7
 79
     5
170
     0
171
     0
290
     0
174
     0
 93
       13
 44
0.0
173
     0
291
     1
 45
0.0
1001
ACAD
1000
AcDbSavedByObjectVersion
1070
     0
  0
VISUALSTYLE
  5
1645
102
{ACAD_XDICTIONARY
360
1870
102
}
102
{ACAD_REACTORS
330
163D
102
}
330
163D
100
AcDbVisualStyle
  2

 70
     6
 71
     1
 72
     2
 73
     2
 90
        0
 40
-0.6
 41
-30.0
 62
     5
 63
     7
 74
     2
 91
        2
 64
     7
 65
   257
 75
     2
175
     1
 42
40.0
 92
        0
 66
   257
 43
1.0
 76
     1
 77
     6
 78
     2
 67
     7
 79
     3
170
     0
171
     0
290
     0
174
     0
 93
        1
 44
0.0
173
     0
291
     0
 45
0.0
1001
ACAD
1000
AcDbSavedByObjectVersion
1070
     0
  0
VISUALSTYLE
  5
1653
102
{ACAD_XDICTIONARY
360
188C
102
}
102
{ACAD_REACTORS
330
163D
102
}
330
163D
100
AcDbVisualStyle
  2

 70
    20
 71
     2
 72
     2
 73
     0
 90
        0
 40
-0.6
 41
-30.0
 62
     5
 63
     7
 74
     1
 91
        4
 64
     7
 65
   257
 75
     1
175
     1
 42
1.0
 92
       10
 66
     7
 43
1.0
 76
     1
 77
     6
 78
     2
 67
     7
 79
     5
170
     0
171
     0
290
     0
174
     0
 93
        1
 44
0.0
173
     0
291
     1
 45
0.0
1001
ACAD
1000
AcDbSavedByObjectVersion
1070
     0
  0
VISUALSTYLE
  5
164B
102
{ACAD_XDICTIONARY
360
187C
102
}
102
{ACAD_REACTORS
330
163D
102
}
330
163D
100
AcDbVisualStyle
  2

 70
    14
 71
     2
 72
     2
 73
     0
 90
        0
 40
-0.6
 41
-30.0
 62
     5
 63
     7
 74
     1
 91
        4
 64
     7
 65
   257
 75
     7
175
     7
 42
1.0
 92
        8
 66
     7
 43
1.0
 76
     1
 77
     6
 78
     2
 67
     7
 79
     5
170
     0
171
     0
290
     0
174
     0
 93
        1
 44
0.0
173
     0
291
     1
 45
0.0
1001
ACAD
1000
AcDbSavedByObjectVersion
1070
     0
  0
VISUALSTYLE
  5
1654
102
{ACAD_XDICTIONARY
360
188E
102
}
102
{ACAD_REACTORS
330
163D
102
}
330
163D
100
AcDbVisualStyle
  2

 70
    21
 71
     2
 72
     2
 73
     0
 90
        0
 40
-0.6
 41
-30.0
 62
     5
 63
     7
 74
     1
 91
        4
 64
     7
 65
   257
 75
     1
175
     1
 42
1.0
 92
        9
 66
     7
 43
1.0
 76
     1
 77
     6
 78
     2
 67
     7
 79
     5
170
     0
171
     0
290
     0
174
     0
 93
        1
 44
0.0
173
     0
291
     1
 45
0.0
1001
ACAD
1000
AcDbSavedByObjectVersion
1070
     0
  0
VISUALSTYLE
  5
1647
102
{ACAD_XDICTIONARY
360
1874
102
}
102
{ACAD_REACTORS
330
163D
102
}
330
163D
100
AcDbVisualStyle
  2

 70
     8
 71
     2
 72
     3
 73
     0
 90
        2
 40
-0.6
 41
30.0
 62
     5
 63
     7
 74
     0
 91
        0
 64
     7
 65
   257
 75
     1
175
     1
 42
1.0
 92
        8
 66
   257
 43
1.0
 76
     1
 77
     6
 78
     2
 67
     7
 79
     3
170
     0
171
     0
290
     0
174
     0
 93
       13
 44
0.0
173
     0
291
     0
 45
0.0
1001
ACAD
1000
AcDbSavedByObjectVersion
1070
     0
  0
VISUALSTYLE
  5
1652
102
{ACAD_XDICTIONARY
360
188A
102
}
102
{ACAD_REACTORS
330
163D
102
}
330
163D
100
AcDbVisualStyle
  2

 70
    27
 71
     2
 72
     2
 73
     1
 90
        2
 40
-0.6
 41
30.0
 62
     5
 63
     7
 74
     0
 91
        4
 64
     7
 65
   257
 75
     1
175
     1
 42
1.0
 92
        8
 66
   257
 43
1.0
 76
     1
 77
     6
 78
     2
 67
     8
 79
     3
170
     0
171
     0
290
     0
174
     0
 93
        5
 44
0.0
173
     0
291
     0
 45
0.0
1001
ACAD
1000
AcDbSavedByObjectVersion
1070
     0
  0
VISUALSTYLE
  5
1651
102
{ACAD_XDICTIONARY
360
1888
102
}
102
{ACAD_REACTORS
330
163D
102
}
330
163D
100
AcDbVisualStyle
  2

 70
    26
 71
     2
 72
     2
 73
     1
 90
        2
 40
-0.6
 41
30.0
 62
     5
 63
     7
 74
     1
 91
       10
 64
     7
 65
   257
 75
     2
175
     1
 42
1.0
 92
        8
 66
   257
 43
1.0
 76
     1
 77
     6
 78
     2
 67
     7
 79
     3
170
     0
171
     0
290
     0
174
     0
 93
        5
 44
0.0
173
     0
291
     0
 45
0.0
1001
ACAD
1000
AcDbSavedByObjectVersion
1070
     0
  0
VISUALSTYLE
  5
164E
102
{ACAD_XDICTIONARY
360
1882
102
}
102
{ACAD_REACTORS
330
163D
102
}
330
163D
100
AcDbVisualStyle
  2

 70
    23
 71
     2
 72
     2
 73
     3
 90
        0
 40
-0.6
 41
-30.0
 62
     5
 63
     7
 74
     2
 91
        2
 64
     7
 65
     7
 75
     1
175
     1
 42
40.0
 92
        8
 66
     7
 43
1.0
 76
     1
 77
     6
 78
     2
 67
     7
 79
     3
170
     0
171
     0
290
     0
174
     0
 93
        1
 44
0.0
173
     0
291
     0
 45
0.0
1001
ACAD
1000
AcDbSavedByObjectVersion
1070
     0
  0
VISUALSTYLE
  5
164F
102
{ACAD_XDICTIONARY
360
1884
102
}
102
{ACAD_REACTORS
330
163D
102
}
330
163D
100
AcDbVisualStyle
  2

 70
    24
 71
     1
 72
     2
 73
     2
 90
        0
 40
-0.6
 41
-30.0
 62
     5
 63
     7
 74
     2
 91
        2
 64
     7
 65
     7
 75
     1
175
     1
 42
40.0
 92
       11
 66
     7
 43
1.0
 76
     1
 77
     6
 78
     2
 67
     7
 79
     6
170
     0
171
     0
290
     0
174
     0
 93
        1
 44
0.0
173
     0
291
     0
 45
0.0
1001
ACAD
1000
AcDbSavedByObjectVersion
1070
     0
  0
VISUALSTYLE
  5
164A
102
{ACAD_XDICTIONARY
360
187A
102
}
102
{ACAD_REACTORS
330
163D
102
}
330
163D
100
AcDbVisualStyle
  2

 70
    13
 71
     2
 72
     2
 73
     0
 90
        0
 40
-0.6
 41
-30.0
 62
     5
 63
     7
 74
     1
 91
        4
 64
     7
 65
   257
 75
     1
175
     1
 42
1.0
 92
       12
 66
     7
 43
1.0
 76
     1
 77
     6
 78
     2
 67
     7
 79
     5
170
     0
171
     0
290
     0
174
     0
 93
        1
 44
0.0
173
     0
291
     1
 45
0.0
1001
ACAD
1000
AcDbSavedByObjectVersion
1070
     0
  0
VISUALSTYLE
  5
1644
102
{ACAD_XDICTIONARY
360
186E
102
}
102
{ACAD_REACTORS
330
163D
102
}
330
163D
100
AcDbVisualStyle
  2

 70
     5
 71
     0
 72
     2
 73
     0
 90
        0
 40
-0.6
 41
-30.0
 62
     5
 63
     7
 74
     1
 91
        4
 64
     7
 65
   257
 75
     1
175
     1
 42
1.0
 92
        0
 66
   257
 43
1.0
 76
     1
 77
     6
 78
     2
 67
     7
 79
     3
170
     0
171
     0
290
     0
174
     0
 93
        1
 44
0.0
173
     0
291
     0
 45
0.0
1001
ACAD
1000
AcDbSavedByObjectVersion
1070
     0
  0
VISUALSTYLE
  5
1650
102
{ACAD_XDICTIONARY
360
1886
102
}
102
{ACAD_REACTORS
330
163D
102
}
330
163D
100
AcDbVisualStyle
  2

 70
    25
 71
     2
 72
     2
 73
     1
 90
        1
 40
0.5
 41
-30.0
 62
     5
 63
     7
 74
     1
 91
        0
 64
     7
 65
   257
 75
     1
175
     1
 42
1.0
 92
        8
 66
     7
 43
1.0
 76
     1
 77
     6
 78
     2
 67
     7
 79
     3
170
     0
171
     0
290
     0
174
     0
 93
       13
 44
0.0
173
     0
291
     0
 45
0.0
1001
ACAD
1000
AcDbSavedByObjectVersion
1070
     0
  0
DICTIONARYVAR
  5
1809
102
{ACAD_REACTORS
330
1804
102
}
330
1804
100
DictionaryVariables
280
     0
  1
1:1
  0
DICTIONARYVAR
  5
1806
102
{ACAD_REACTORS
330
1804
102
}
330
1804
100
DictionaryVariables
280
     0
  1
STANDARD
  0
DICTIONARYVAR
  5
1805
102
{ACAD_REACTORS
330
1804
102
}
330
1804
100
DictionaryVariables
280
     0
  1
STANDARD
  0
DICTIONARYVAR
  5
1807
102
{ACAD_REACTORS
330
1804
102
}
330
1804
100
DictionaryVariables
280
     0
  1
Imperial24
  0
DICTIONARYVAR
  5
1808
102
{ACAD_REACTORS
330
1804
102
}
330
1804
100
DictionaryVariables
280
     0
  1
Imperial24
  0
DICTIONARYVAR
  5
180C
102
{ACAD_REACTORS
330
1804
102
}
330
1804
100
DictionaryVariables
280
     0
  1
1
  0
DICTIONARYVAR
  5
180B
102
{ACAD_REACTORS
330
1804
102
}
330
1804
100
DictionaryVariables
280
     0
  1
0
  0
DICTIONARYVAR
  5
180A
102
{ACAD_REACTORS
330
1804
102
}
330
1804
100
DictionaryVariables
280
     0
  1
127
  0
DICTIONARYVAR
  5
185C
102
{ACAD_REACTORS
330
1804
102
}
330
1804
100
DictionaryVariables
280
     0
  1
2
  0
DICTIONARY
  5
1895
330
167E
100
AcDbDictionary
280
     1
281
     1
  3
ACAD_XREC_ROUNDTRIP
360
1896
  0
DICTIONARY
  5
189D
330
1770
100
AcDbDictionary
280
     1
281
     1
  3
ACAD_XREC_ROUNDTRIP
360
189E
  0
DICTIONARY
  5
1899
330
1686
100
AcDbDictionary
280
     1
281
     1
  3
ACAD_XREC_ROUNDTRIP
360
189A
  0
DICTIONARY
  5
1897
330
1682
100
AcDbDictionary
280
     1
281
     1
  3
ACAD_XREC_ROUNDTRIP
360
1898
  0
DICTIONARY
  5
162E
330
162D
100
AcDbDictionary
280
     1
281
     1
  3
ACAD_XREC_ROUNDTRIP
360
1815
  3
BUMPTILE
360
1630
  3
DIFFUSETILE
360
162F
  3
OPACITYTILE
360
1633
  3
REFLECTIONTILE
360
1632
  3
REFRACTIONTILE
360
1634
  3
SPECULARTILE
360
1631
  0
DICTIONARY
  5
1626
330
1625
100
AcDbDictionary
280
     1
281
     1
  3
ACAD_XREC_ROUNDTRIP
360
1814
  3
BUMPTILE
360
1628
  3
DIFFUSETILE
360
1627
  3
OPACITYTILE
360
162B
  3
REFLECTIONTILE
360
162A
  3
REFRACTIONTILE
360
162C
  3
SPECULARTILE
360
1629
  0
DICTIONARY
  5
1636
330
1635
100
AcDbDictionary
280
     1
281
     1
  3
ACAD_XREC_ROUNDTRIP
360
1816
  3
BUMPTILE
360
1638
  3
DIFFUSETILE
360
1637
  3
OPACITYTILE
360
163B
  3
REFLECTIONTILE
360
163A
  3
REFRACTIONTILE
360
163C
  3
SPECULARTILE
360
1639
  0
DICTIONARY
  5
1893
330
167C
100
AcDbDictionary
280
     1
281
     1
  3
ACAD_XREC_ROUNDTRIP
360
1894
  0
DICTIONARY
  5
189B
330
176F
100
AcDbDictionary
280
     1
281
     1
  3
ACAD_XREC_ROUNDTRIP
360
189C
  0
DICTIONARY
  5
180E
330
1678
100
AcDbDictionary
280
     1
281
     1
  3
ACAD_ROUNDTRIP_2008_TABLESTYLE_CELLSTYLEMAP
360
185D
  3
ACAD_XREC_ROUNDTRIP
360
1892
  0
DICTIONARY
  5
186C
330
1643
100
AcDbDictionary
280
     1
281
     1
  3
ACAD_XREC_ROUNDTRIP
360
186D
  0
DICTIONARY
  5
186A
330
1642
100
AcDbDictionary
280
     1
281
     1
  3
ACAD_XREC_ROUNDTRIP
360
186B
  0
DICTIONARY
  5
1878
330
1649
100
AcDbDictionary
280
     1
281
     1
  3
ACAD_XREC_ROUNDTRIP
360
1879
  0
DICTIONARY
  5
1880
330
164D
100
AcDbDictionary
280
     1
281
     1
  3
ACAD_XREC_ROUNDTRIP
360
1881
  0
DICTIONARY
  5
1872
330
1646
100
AcDbDictionary
280
     1
281
     1
  3
ACAD_XREC_ROUNDTRIP
360
1873
  0
DICTIONARY
  5
1876
330
1648
100
AcDbDictionary
280
     1
281
     1
  3
ACAD_XREC_ROUNDTRIP
360
1877
  0
DICTIONARY
  5
1890
330
1655
100
AcDbDictionary
280
     1
281
     1
  3
ACAD_XREC_ROUNDTRIP
360
1891
  0
DICTIONARY
  5
187E
330
164C
100
AcDbDictionary
280
     1
281
     1
  3
ACAD_XREC_ROUNDTRIP
360
187F
  0
DICTIONARY
  5
1862
330
163E
100
AcDbDictionary
280
     1
281
     1
  3
ACAD_XREC_ROUNDTRIP
360
1863
  0
DICTIONARY
  5
1864
330
163F
100
AcDbDictionary
280
     1
281
     1
  3
ACAD_XREC_ROUNDTRIP
360
1865
  0
DICTIONARY
  5
1866
330
1640
100
AcDbDictionary
280
     1
281
     1
  3
ACAD_XREC_ROUNDTRIP
360
1867
  0
DICTIONARY
  5
1868
330
1641
100
AcDbDictionary
280
     1
281
     1
  3
ACAD_XREC_ROUNDTRIP
360
1869
  0
DICTIONARY
  5
1870
330
1645
100
AcDbDictionary
280
     1
281
     1
  3
ACAD_XREC_ROUNDTRIP
360
1871
  0
DICTIONARY
  5
188C
330
1653
100
AcDbDictionary
280
     1
281
     1
  3
ACAD_XREC_ROUNDTRIP
360
188D
  0
DICTIONARY
  5
187C
330
164B
100
AcDbDictionary
280
     1
281
     1
  3
ACAD_XREC_ROUNDTRIP
360
187D
  0
DICTIONARY
  5
188E
330
1654
100
AcDbDictionary
280
     1
281
     1
  3
ACAD_XREC_ROUNDTRIP
360
188F
  0
DICTIONARY
  5
1874
330
1647
100
AcDbDictionary
280
     1
281
     1
  3
ACAD_XREC_ROUNDTRIP
360
1875
  0
DICTIONARY
  5
188A
330
1652
100
AcDbDictionary
280
     1
281
     1
  3
ACAD_XREC_ROUNDTRIP
360
188B
  0
DICTIONARY
  5
1888
330
1651
100
AcDbDictionary
280
     1
281
     1
  3
ACAD_XREC_ROUNDTRIP
360
1889
  0
DICTIONARY
  5
1882
330
164E
100
AcDbDictionary
280
     1
281
     1
  3
ACAD_XREC_ROUNDTRIP
360
1883
  0
DICTIONARY
  5
1884
330
164F
100
AcDbDictionary
280
     1
281
     1
  3
ACAD_XREC_ROUNDTRIP
360
1885
  0
DICTIONARY
  5
187A
330
164A
100
AcDbDictionary
280
     1
281
     1
  3
ACAD_XREC_ROUNDTRIP
360
187B
  0
DICTIONARY
  5
186E
330
1644
100
AcDbDictionary
280
     1
281
     1
  3
ACAD_XREC_ROUNDTRIP
360
186F
  0
DICTIONARY
  5
1886
330
1650
100
AcDbDictionary
280
     1
281
     1
  3
ACAD_XREC_ROUNDTRIP
360
1887
  0
XRECORD
  5
1896
102
{ACAD_REACTORS
330
1895
102
}
330
1895
100
AcDbXrecord
280
     1
102
DISPLAYNAME
  1
Imperial24
102
FLAGS
 90
        0
  0
XRECORD
  5
189E
102
{ACAD_REACTORS
330
189D
102
}
330
189D
100
AcDbXrecord
280
     1
102
DISPLAYNAME
  1
Metric50
102
FLAGS
 90
        0
  0
XRECORD
  5
189A
102
{ACAD_REACTORS
330
1899
102
}
330
1899
100
AcDbXrecord
280
     1
102
SHADEPLOT
 70
     0
102
SHADEPLOTRESLEVEL
 70
     2
102
SHADEPLOTCUSTOMDPI
 70
   300
  0
XRECORD
  5
1898
102
{ACAD_REACTORS
330
1897
102
}
330
1897
100
AcDbXrecord
280
     1
102
SHADEPLOT
 70
     0
102
SHADEPLOTRESLEVEL
 70
     2
102
SHADEPLOTCUSTOMDPI
 70
   300
  0
XRECORD
  5
1815
102
{ACAD_REACTORS
330
162E
102
}
330
162E
100
AcDbXrecord
280
     1
102
MATERIAL
148
0.0
149
0.0
149
0.0
 93
        0
 94
      127
282
     0
 72
     0
 77
     0
171
     0
175
     0
179
     0
273
     0
  0
XRECORD
  5
1630
102
{ACAD_REACTORS
330
162E
102
}
330
162E
100
AcDbXrecord
280
     1
270
     1
271
     1
  0
XRECORD
  5
162F
102
{ACAD_REACTORS
330
162E
102
}
330
162E
100
AcDbXrecord
280
     1
270
     1
271
     1
  0
XRECORD
  5
1633
102
{ACAD_REACTORS
330
162E
102
}
330
162E
100
AcDbXrecord
280
     1
270
     1
271
     1
  0
XRECORD
  5
1632
102
{ACAD_REACTORS
330
162E
102
}
330
162E
100
AcDbXrecord
280
     1
270
     1
271
     1
  0
XRECORD
  5
1634
102
{ACAD_REACTORS
330
162E
102
}
330
162E
100
AcDbXrecord
280
     1
270
     1
271
     1
  0
XRECORD
  5
1631
102
{ACAD_REACTORS
330
162E
102
}
330
162E
100
AcDbXrecord
280
     1
270
     1
271
     1
  0
XRECORD
  5
1814
102
{ACAD_REACTORS
330
1626
102
}
330
1626
100
AcDbXrecord
280
     1
102
MATERIAL
148
0.0
149
0.0
149
0.0
 93
        0
 94
      127
282
     0
 72
     0
 77
     0
171
     0
175
     0
179
     0
273
     0
  0
XRECORD
  5
1628
102
{ACAD_REACTORS
330
1626
102
}
330
1626
100
AcDbXrecord
280
     1
270
     1
271
     1
  0
XRECORD
  5
1627
102
{ACAD_REACTORS
330
1626
102
}
330
1626
100
AcDbXrecord
280
     1
270
     1
271
     1
  0
XRECORD
  5
162B
102
{ACAD_REACTORS
330
1626
102
}
330
1626
100
AcDbXrecord
280
     1
270
     1
271
     1
  0
XRECORD
  5
162A
102
{ACAD_REACTORS
330
1626
102
}
330
1626
100
AcDbXrecord
280
     1
270
     1
271
     1
  0
XRECORD
  5
162C
102
{ACAD_REACTORS
330
1626
102
}
330
1626
100
AcDbXrecord
280
     1
270
     1
271
     1
  0
XRECORD
  5
1629
102
{ACAD_REACTORS
330
1626
102
}
330
1626
100
AcDbXrecord
280
     1
270
     1
271
     1
  0
XRECORD
  5
1816
102
{ACAD_REACTORS
330
1636
102
}
330
1636
100
AcDbXrecord
280
     1
102
MATERIAL
148
0.0
149
0.0
149
0.0
 93
        0
 94
      127
282
     0
 72
     0
 77
     0
171
     0
175
     0
179
     0
273
     0
  0
XRECORD
  5
1638
102
{ACAD_REACTORS
330
1636
102
}
330
1636
100
AcDbXrecord
280
     1
270
     1
271
     1
  0
XRECORD
  5
1637
102
{ACAD_REACTORS
330
1636
102
}
330
1636
100
AcDbXrecord
280
     1
270
     1
271
     1
  0
XRECORD
  5
163B
102
{ACAD_REACTORS
330
1636
102
}
330
1636
100
AcDbXrecord
280
     1
270
     1
271
     1
  0
XRECORD
  5
163A
102
{ACAD_REACTORS
330
1636
102
}
330
1636
100
AcDbXrecord
280
     1
270
     1
271
     1
  0
XRECORD
  5
163C
102
{ACAD_REACTORS
330
1636
102
}
330
1636
100
AcDbXrecord
280
     1
270
     1
271
     1
  0
XRECORD
  5
1639
102
{ACAD_REACTORS
330
1636
102
}
330
1636
100
AcDbXrecord
280
     1
270
     1
271
     1
  0
XRECORD
  5
1894
102
{ACAD_REACTORS
330
1893
102
}
330
1893
100
AcDbXrecord
280
     1
102
DISPLAYNAME
  1
Imperial24
102
FLAGS
 90
        0
  0
XRECORD
  5
189C
102
{ACAD_REACTORS
330
189B
102
}
330
189B
100
AcDbXrecord
280
     1
102
DISPLAYNAME
  1
Metric50
102
FLAGS
 90
        0
  0
CELLSTYLEMAP
  5
185D
102
{ACAD_REACTORS
330
180E
102
}
330
180E
100
AcDbCellStyleMap
 90
        3
300
CELLSTYLE
  1
TABLEFORMAT_BEGIN
 90
        5
170
     1
 91
        0
 92
    32768
 62
   257
 93
        1
300
CONTENTFORMAT
  1
CONTENTFORMAT_BEGIN
 90
        0
 91
        0
 92
      512
 93
        0
300

 40
0.0
140
1.0
 94
        5
 62
     0
340
1669
144
0.25
309
CONTENTFORMAT_END
171
     1
301
MARGIN
  1
CELLMARGIN_BEGIN
 40
0.06
 40
0.06
 40
0.06
 40
0.06
 40
0.18
 40
0.18
309
CELLMARGIN_END
 94
        6
 95
        1
302
GRIDFORMAT
  1
GRIDFORMAT_BEGIN
 90
        0
 91
        1
 62
     0
 92
       -2
340
0
 93
        0
 40
0.045
309
GRIDFORMAT_END
 95
        2
302
GRIDFORMAT
  1
GRIDFORMAT_BEGIN
 90
        0
 91
        1
 62
     0
 92
       -2
340
0
 93
        0
 40
0.045
309
GRIDFORMAT_END
 95
        4
302
GRIDFORMAT
  1
GRIDFORMAT_BEGIN
 90
        0
 91
        1
 62
     0
 92
       -2
340
0
 93
        0
 40
0.045
309
GRIDFORMAT_END
 95
        8
302
GRIDFORMAT
  1
GRIDFORMAT_BEGIN
 90
        0
 91
        1
 62
     0
 92
       -2
340
0
 93
        0
 40
0.045
309
GRIDFORMAT_END
 95
       16
302
GRIDFORMAT
  1
GRIDFORMAT_BEGIN
 90
        0
 91
        1
 62
     0
 92
       -2
340
0
 93
        0
 40
0.045
309
GRIDFORMAT_END
 95
       32
302
GRIDFORMAT
  1
GRIDFORMAT_BEGIN
 90
        0
 91
        1
 62
     0
 92
       -2
340
0
 93
        0
 40
0.045
309
GRIDFORMAT_END
309
TABLEFORMAT_END
  1
CELLSTYLE_BEGIN
 90
        1
 91
        1
300
_TITLE
309
CELLSTYLE_END
300
CELLSTYLE
  1
TABLEFORMAT_BEGIN
 90
        5
170
     1
 91
        0
 92
        0
 62
   257
 93
        1
300
CONTENTFORMAT
  1
CONTENTFORMAT_BEGIN
 90
        0
 91
        0
 92
      512
 93
        0
300

 40
0.0
140
1.0
 94
        5
 62
     0
340
1669
144
0.18
309
CONTENTFORMAT_END
171
     1
301
MARGIN
  1
CELLMARGIN_BEGIN
 40
0.06
 40
0.06
 40
0.06
 40
0.06
 40
0.18
 40
0.18
309
CELLMARGIN_END
 94
        6
 95
        1
302
GRIDFORMAT
  1
GRIDFORMAT_BEGIN
 90
        0
 91
        1
 62
     0
 92
       -2
340
0
 93
        0
 40
0.045
309
GRIDFORMAT_END
 95
        2
302
GRIDFORMAT
  1
GRIDFORMAT_BEGIN
 90
        0
 91
        1
 62
     0
 92
       -2
340
0
 93
        0
 40
0.045
309
GRIDFORMAT_END
 95
        4
302
GRIDFORMAT
  1
GRIDFORMAT_BEGIN
 90
        0
 91
        1
 62
     0
 92
       -2
340
0
 93
        0
 40
0.045
309
GRIDFORMAT_END
 95
        8
302
GRIDFORMAT
  1
GRIDFORMAT_BEGIN
 90
        0
 91
        1
 62
     0
 92
       -2
340
0
 93
        0
 40
0.045
309
GRIDFORMAT_END
 95
       16
302
GRIDFORMAT
  1
GRIDFORMAT_BEGIN
 90
        0
 91
        1
 62
     0
 92
       -2
340
0
 93
        0
 40
0.045
309
GRIDFORMAT_END
 95
       32
302
GRIDFORMAT
  1
GRIDFORMAT_BEGIN
 90
        0
 91
        1
 62
     0
 92
       -2
340
0
 93
        0
 40
0.045
309
GRIDFORMAT_END
309
TABLEFORMAT_END
  1
CELLSTYLE_BEGIN
 90
        2
 91
        1
300
_HEADER
309
CELLSTYLE_END
300
CELLSTYLE
  1
TABLEFORMAT_BEGIN
 90
        5
170
     1
 91
        0
 92
        0
 62
   257
 93
        1
300
CONTENTFORMAT
  1
CONTENTFORMAT_BEGIN
 90
        0
 91
        0
 92
      512
 93
        0
300

 40
0.0
140
1.0
 94
        2
 62
     0
340
1669
144
0.18
309
CONTENTFORMAT_END
171
     1
301
MARGIN
  1
CELLMARGIN_BEGIN
 40
0.06
 40
0.06
 40
0.06
 40
0.06
 40
0.18
 40
0.18
309
CELLMARGIN_END
 94
        6
 95
        1
302
GRIDFORMAT
  1
GRIDFORMAT_BEGIN
 90
        0
 91
        1
 62
     0
 92
       -2
340
0
 93
        0
 40
0.045
309
GRIDFORMAT_END
 95
        2
302
GRIDFORMAT
  1
GRIDFORMAT_BEGIN
 90
        0
 91
        1
 62
     0
 92
       -2
340
0
 93
        0
 40
0.045
309
GRIDFORMAT_END
 95
        4
302
GRIDFORMAT
  1
GRIDFORMAT_BEGIN
 90
        0
 91
        1
 62
     0
 92
       -2
340
0
 93
        0
 40
0.045
309
GRIDFORMAT_END
 95
        8
302
GRIDFORMAT
  1
GRIDFORMAT_BEGIN
 90
        0
 91
        1
 62
     0
 92
       -2
340
0
 93
        0
 40
0.045
309
GRIDFORMAT_END
 95
       16
302
GRIDFORMAT
  1
GRIDFORMAT_BEGIN
 90
        0
 91
        1
 62
     0
 92
       -2
340
0
 93
        0
 40
0.045
309
GRIDFORMAT_END
 95
       32
302
GRIDFORMAT
  1
GRIDFORMAT_BEGIN
 90
        0
 91
        1
 62
     0
 92
       -2
340
0
 93
        0
 40
0.045
309
GRIDFORMAT_END
309
TABLEFORMAT_END
  1
CELLSTYLE_BEGIN
 90
        3
 91
        2
300
_DATA
309
CELLSTYLE_END
  0
XRECORD
  5
1892
102
{ACAD_REACTORS
330
180E
102
}
330
180E
100
AcDbXrecord
280
     1
102
ACAD_ROUNDTRIP_PRE2007_TABLESTYLE
 90
      512
 91
        0
  1

 92
      512
 93
        0
  2

 94
      512
 95
        0
  3

  0
XRECORD
  5
186D
102
{ACAD_REACTORS
330
186C
102
}
330
186C
100
AcDbXrecord
280
     1
102
RTVSPost2010Prop28
280
     1
102
RTVSPost2010PropOp28
 70
     1
102
RTVSPost2010Prop29
280
     1
102
RTVSPost2010PropOp29
 70
     1
102
RTVSPost2010Prop30
280
     0
102
RTVSPost2010PropOp30
 70
     1
102
RTVSPost2010Prop31
280
     0
102
RTVSPost2010PropOp31
 70
     1
102
RTVSPost2010Prop32
280
     0
102
RTVSPost2010PropOp32
 70
     1
102
RTVSPost2010Prop33
280
     0
102
RTVSPost2010PropOp33
 70
     1
102
RTVSPost2010Prop34
280
     0
102
RTVSPost2010PropOp34
 70
     1
102
RTVSPost2010Prop35
280
     0
102
RTVSPost2010PropOp35
 70
     1
102
RTVSPost2010Prop36
280
     0
102
RTVSPost2010PropOp36
 70
     1
102
RTVSPost2010Prop37
 90
       50
102
RTVSPost2010PropOp37
 70
     1
102
RTVSPost2010Prop38
140
0.0
102
RTVSPost2010PropOp38
 70
     1
102
RTVSPost2010Prop39
140
1.0
102
RTVSPost2010PropOp39
 70
     1
102
RTVSPost2010Prop40
 90
        0
102
RTVSPost2010PropOp40
 70
     1
102
RTVSPost2010Prop41ColorIndex
 90
       18
102
RTVSPost2010Prop41ColorRGB
 90
        0
102
RTVSPost2010PropOp41
 70
     1
102
RTVSPost2010Prop42
 90
       50
102
RTVSPost2010PropOp42
 70
     1
102
RTVSPost2010Prop43
 90
        3
102
RTVSPost2010PropOp43
 70
     1
102
RTVSPost2010Prop44ColorIndex
 90
        5
102
RTVSPost2010Prop44ColorRGB
 90
      255
102
RTVSPost2010PropOp44
 70
     1
102
RTVSPost2010Prop45
280
     0
102
RTVSPost2010PropOp45
 70
     1
102
RTVSPost2010Prop46
 90
       50
102
RTVSPost2010PropOp46
 70
     1
102
RTVSPost2010Prop47
 90
       50
102
RTVSPost2010PropOp47
 70
     1
102
RTVSPost2010Prop48
 90
       50
102
RTVSPost2010PropOp48
 70
     1
102
RTVSPost2010Prop49
280
     0
102
RTVSPost2010PropOp49
 70
     1
102
RTVSPost2010Prop50
 90
       50
102
RTVSPost2010PropOp50
 70
     1
102
RTVSPost2010Prop51ColorIndex
 90
      256
102
RTVSPost2010Prop51ColorRGB
 90
-16777216
102
RTVSPost2010PropOp51
 70
     0
102
RTVSPost2010Prop52
140
1.0
102
RTVSPost2010PropOp52
 70
     0
102
RTVSPost2010Prop53
 90
        2
102
RTVSPost2010PropOp53
 70
     1
102
RTVSPost2010Prop54
  1
strokes_ogs.tif
102
RTVSPost2010PropOp54
 70
     1
102
RTVSPost2010Prop55
280
     0
102
RTVSPost2010PropOp55
 70
     1
102
RTVSPost2010Prop56
140
1.0
102
RTVSPost2010PropOp56
 70
     1
102
RTVSPost2010Prop57
140
1.0
102
RTVSPost2010PropOp57
 70
     1
102
RTVSPropertyOp0
 70
     1
102
RTVSPropertyOp1
 70
     1
102
RTVSPropertyOp2
 70
     1
102
RTVSPropertyOp3
 70
     1
102
RTVSPropertyOp4
 70
     1
102
RTVSPropertyOp5
 70
     1
102
RTVSPropertyOp6
 70
     1
102
RTVSPropertyOp7
 70
     1
102
RTVSPropertyOp8
 70
     1
102
RTVSPropertyOp9
 70
     1
102
RTVSPropertyOp10
 70
     1
102
RTVSPropertyOp11
 70
     1
102
RTVSPropertyOp12
 70
     1
102
RTVSPropertyOp13
 70
     1
102
RTVSPropertyOp14
 70
     1
102
RTVSPropertyOp15
 70
     1
102
RTVSPropertyOp16
 70
     1
102
RTVSPropertyOp17
 70
     1
102
RTVSPropertyOp18
 70
     1
102
RTVSPropertyOp19
 70
     1
102
RTVSPropertyOp20
 70
     1
102
RTVSPropertyOp21
 70
     1
102
RTVSPropertyOp22
 70
     1
102
RTVSPropertyOp23
 70
     1
102
RTVSPropertyOp24
 70
     1
102
RTVSPropertyOp25
 70
     1
102
RTVSPropertyOp26
 70
     1
102
RTVSPropertyOp27
 70
     1
102
RTVSPropertyOp28
 70
     1
102
RTVSPropertyOp29
 70
     1
102
RTVSPropertyOp30
 70
     1
102
RTVSPropertyOp31
 70
     1
102
RTVSPropertyOp32
 70
     1
102
RTVSPropertyOp33
 70
     1
102
RTVSPropertyOp34
 70
     1
102
RTVSPropertyOp35
 70
     1
102
RTVSPropertyOp36
 70
     1
102
RTVSPropertyOp37
 70
     1
102
RTVSPropertyOp38
 70
     1
102
RTVSPropertyOp39
 70
     1
102
RTVSPropertyOp40
 70
     1
102
RTVSPropertyOp41
 70
     1
102
RTVSPropertyOp42
 70
     1
102
RTVSPropertyOp43
 70
     1
102
RTVSPropertyOp44
 70
     1
102
RTVSPropertyOp45
 70
     1
102
RTVSPropertyOp46
 70
     1
102
RTVSPropertyOp47
 70
     1
102
RTVSPropertyOp48
 70
     1
102
RTVSPropertyOp49
 70
     1
102
RTVSPropertyOp50
 70
     1
102
RTVSPropertyOp51
 70
     0
102
RTVSPropertyOp52
 70
     0
102
RTVSPropertyOp53
 70
     1
102
RTVSPropertyOp54
 70
     1
102
RTVSPropertyOp55
 70
     1
102
RTVSPropertyOp56
 70
     1
102
RTVSPropertyOp57
 70
     1
102
RTVSPropertyOp58
 70
     1
102
RTVSPropertyOp59
 70
     1
102
RTVSPropertyOp60
 70
     1
102
RTVSPropertyOp61
 70
     1
102
RTVSPropertyOp62
 70
     1
  0
XRECORD
  5
186B
102
{ACAD_REACTORS
330
186A
102
}
330
186A
100
AcDbXrecord
280
     1
102
RTVSPost2010Prop28
280
     0
102
RTVSPost2010PropOp28
 70
     1
102
RTVSPost2010Prop29
280
     1
102
RTVSPost2010PropOp29
 70
     1
102
RTVSPost2010Prop30
280
     1
102
RTVSPost2010PropOp30
 70
     1
102
RTVSPost2010Prop31
280
     0
102
RTVSPost2010PropOp31
 70
     1
102
RTVSPost2010Prop32
280
     0
102
RTVSPost2010PropOp32
 70
     1
102
RTVSPost2010Prop33
280
     0
102
RTVSPost2010PropOp33
 70
     1
102
RTVSPost2010Prop34
280
     0
102
RTVSPost2010PropOp34
 70
     1
102
RTVSPost2010Prop35
280
     0
102
RTVSPost2010PropOp35
 70
     1
102
RTVSPost2010Prop36
280
     0
102
RTVSPost2010PropOp36
 70
     1
102
RTVSPost2010Prop37
 90
       50
102
RTVSPost2010PropOp37
 70
     1
102
RTVSPost2010Prop38
140
0.0
102
RTVSPost2010PropOp38
 70
     1
102
RTVSPost2010Prop39
140
1.0
102
RTVSPost2010PropOp39
 70
     1
102
RTVSPost2010Prop40
 90
        0
102
RTVSPost2010PropOp40
 70
     1
102
RTVSPost2010Prop41ColorIndex
 90
       18
102
RTVSPost2010Prop41ColorRGB
 90
        0
102
RTVSPost2010PropOp41
 70
     1
102
RTVSPost2010Prop42
 90
       50
102
RTVSPost2010PropOp42
 70
     1
102
RTVSPost2010Prop43
 90
        3
102
RTVSPost2010PropOp43
 70
     1
102
RTVSPost2010Prop44ColorIndex
 90
        5
102
RTVSPost2010Prop44ColorRGB
 90
      255
102
RTVSPost2010PropOp44
 70
     1
102
RTVSPost2010Prop45
280
     0
102
RTVSPost2010PropOp45
 70
     1
102
RTVSPost2010Prop46
 90
       50
102
RTVSPost2010PropOp46
 70
     1
102
RTVSPost2010Prop47
 90
       50
102
RTVSPost2010PropOp47
 70
     1
102
RTVSPost2010Prop48
 90
       50
102
RTVSPost2010PropOp48
 70
     1
102
RTVSPost2010Prop49
280
     0
102
RTVSPost2010PropOp49
 70
     1
102
RTVSPost2010Prop50
 90
       50
102
RTVSPost2010PropOp50
 70
     1
102
RTVSPost2010Prop51ColorIndex
 90
      256
102
RTVSPost2010Prop51ColorRGB
 90
-16777216
102
RTVSPost2010PropOp51
 70
     0
102
RTVSPost2010Prop52
140
1.0
102
RTVSPost2010PropOp52
 70
     0
102
RTVSPost2010Prop53
 90
        2
102
RTVSPost2010PropOp53
 70
     1
102
RTVSPost2010Prop54
  1
strokes_ogs.tif
102
RTVSPost2010PropOp54
 70
     1
102
RTVSPost2010Prop55
280
     0
102
RTVSPost2010PropOp55
 70
     1
102
RTVSPost2010Prop56
140
1.0
102
RTVSPost2010PropOp56
 70
     1
102
RTVSPost2010Prop57
140
1.0
102
RTVSPost2010PropOp57
 70
     1
102
RTVSPropertyOp0
 70
     1
102
RTVSPropertyOp1
 70
     1
102
RTVSPropertyOp2
 70
     1
102
RTVSPropertyOp3
 70
     1
102
RTVSPropertyOp4
 70
     1
102
RTVSPropertyOp5
 70
     1
102
RTVSPropertyOp6
 70
     1
102
RTVSPropertyOp7
 70
     1
102
RTVSPropertyOp8
 70
     1
102
RTVSPropertyOp9
 70
     1
102
RTVSPropertyOp10
 70
     1
102
RTVSPropertyOp11
 70
     1
102
RTVSPropertyOp12
 70
     1
102
RTVSPropertyOp13
 70
     1
102
RTVSPropertyOp14
 70
     1
102
RTVSPropertyOp15
 70
     1
102
RTVSPropertyOp16
 70
     1
102
RTVSPropertyOp17
 70
     1
102
RTVSPropertyOp18
 70
     1
102
RTVSPropertyOp19
 70
     1
102
RTVSPropertyOp20
 70
     1
102
RTVSPropertyOp21
 70
     1
102
RTVSPropertyOp22
 70
     1
102
RTVSPropertyOp23
 70
     1
102
RTVSPropertyOp24
 70
     1
102
RTVSPropertyOp25
 70
     1
102
RTVSPropertyOp26
 70
     1
102
RTVSPropertyOp27
 70
     1
102
RTVSPropertyOp28
 70
     1
102
RTVSPropertyOp29
 70
     1
102
RTVSPropertyOp30
 70
     1
102
RTVSPropertyOp31
 70
     1
102
RTVSPropertyOp32
 70
     1
102
RTVSPropertyOp33
 70
     1
102
RTVSPropertyOp34
 70
     1
102
RTVSPropertyOp35
 70
     1
102
RTVSPropertyOp36
 70
     1
102
RTVSPropertyOp37
 70
     1
102
RTVSPropertyOp38
 70
     1
102
RTVSPropertyOp39
 70
     1
102
RTVSPropertyOp40
 70
     1
102
RTVSPropertyOp41
 70
     1
102
RTVSPropertyOp42
 70
     1
102
RTVSPropertyOp43
 70
     1
102
RTVSPropertyOp44
 70
     1
102
RTVSPropertyOp45
 70
     1
102
RTVSPropertyOp46
 70
     1
102
RTVSPropertyOp47
 70
     1
102
RTVSPropertyOp48
 70
     1
102
RTVSPropertyOp49
 70
     1
102
RTVSPropertyOp50
 70
     1
102
RTVSPropertyOp51
 70
     0
102
RTVSPropertyOp52
 70
     0
102
RTVSPropertyOp53
 70
     1
102
RTVSPropertyOp54
 70
     1
102
RTVSPropertyOp55
 70
     1
102
RTVSPropertyOp56
 70
     1
102
RTVSPropertyOp57
 70
     1
102
RTVSPropertyOp58
 70
     1
102
RTVSPropertyOp59
 70
     1
102
RTVSPropertyOp60
 70
     1
102
RTVSPropertyOp61
 70
     1
102
RTVSPropertyOp62
 70
     1
  0
XRECORD
  5
1879
102
{ACAD_REACTORS
330
1878
102
}
330
1878
100
AcDbXrecord
280
     1
102
RTVSPost2010Prop28
280
     0
102
RTVSPost2010PropOp28
 70
     1
102
RTVSPost2010Prop29
280
     1
102
RTVSPost2010PropOp29
 70
     1
102
RTVSPost2010Prop30
280
     1
102
RTVSPost2010PropOp30
 70
     1
102
RTVSPost2010Prop31
280
     0
102
RTVSPost2010PropOp31
 70
     1
102
RTVSPost2010Prop32
280
     0
102
RTVSPost2010PropOp32
 70
     1
102
RTVSPost2010Prop33
280
     0
102
RTVSPost2010PropOp33
 70
     1
102
RTVSPost2010Prop34
280
     0
102
RTVSPost2010PropOp34
 70
     1
102
RTVSPost2010Prop35
280
     0
102
RTVSPost2010PropOp35
 70
     1
102
RTVSPost2010Prop36
280
     0
102
RTVSPost2010PropOp36
 70
     1
102
RTVSPost2010Prop37
 90
       50
102
RTVSPost2010PropOp37
 70
     1
102
RTVSPost2010Prop38
140
0.0
102
RTVSPost2010PropOp38
 70
     1
102
RTVSPost2010Prop39
140
1.0
102
RTVSPost2010PropOp39
 70
     1
102
RTVSPost2010Prop40
 90
        0
102
RTVSPost2010PropOp40
 70
     1
102
RTVSPost2010Prop41ColorIndex
 90
       18
102
RTVSPost2010Prop41ColorRGB
 90
        0
102
RTVSPost2010PropOp41
 70
     1
102
RTVSPost2010Prop42
 90
       50
102
RTVSPost2010PropOp42
 70
     1
102
RTVSPost2010Prop43
 90
        3
102
RTVSPost2010PropOp43
 70
     1
102
RTVSPost2010Prop44ColorIndex
 90
        5
102
RTVSPost2010Prop44ColorRGB
 90
      255
102
RTVSPost2010PropOp44
 70
     1
102
RTVSPost2010Prop45
280
     0
102
RTVSPost2010PropOp45
 70
     1
102
RTVSPost2010Prop46
 90
       50
102
RTVSPost2010PropOp46
 70
     1
102
RTVSPost2010Prop47
 90
       50
102
RTVSPost2010PropOp47
 70
     1
102
RTVSPost2010Prop48
 90
       50
102
RTVSPost2010PropOp48
 70
     1
102
RTVSPost2010Prop49
280
     0
102
RTVSPost2010PropOp49
 70
     1
102
RTVSPost2010Prop50
 90
       50
102
RTVSPost2010PropOp50
 70
     1
102
RTVSPost2010Prop51ColorIndex
 90
      256
102
RTVSPost2010Prop51ColorRGB
 90
-16777216
102
RTVSPost2010PropOp51
 70
     0
102
RTVSPost2010Prop52
140
1.0
102
RTVSPost2010PropOp52
 70
     0
102
RTVSPost2010Prop53
 90
        2
102
RTVSPost2010PropOp53
 70
     1
102
RTVSPost2010Prop54
  1
strokes_ogs.tif
102
RTVSPost2010PropOp54
 70
     1
102
RTVSPost2010Prop55
280
     0
102
RTVSPost2010PropOp55
 70
     1
102
RTVSPost2010Prop56
140
1.0
102
RTVSPost2010PropOp56
 70
     1
102
RTVSPost2010Prop57
140
1.0
102
RTVSPost2010PropOp57
 70
     1
102
RTVSPropertyOp0
 70
     1
102
RTVSPropertyOp1
 70
     1
102
RTVSPropertyOp2
 70
     1
102
RTVSPropertyOp3
 70
     1
102
RTVSPropertyOp4
 70
     1
102
RTVSPropertyOp5
 70
     1
102
RTVSPropertyOp6
 70
     1
102
RTVSPropertyOp7
 70
     1
102
RTVSPropertyOp8
 70
     1
102
RTVSPropertyOp9
 70
     1
102
RTVSPropertyOp10
 70
     1
102
RTVSPropertyOp11
 70
     1
102
RTVSPropertyOp12
 70
     1
102
RTVSPropertyOp13
 70
     1
102
RTVSPropertyOp14
 70
     1
102
RTVSPropertyOp15
 70
     1
102
RTVSPropertyOp16
 70
     1
102
RTVSPropertyOp17
 70
     1
102
RTVSPropertyOp18
 70
     1
102
RTVSPropertyOp19
 70
     1
102
RTVSPropertyOp20
 70
     1
102
RTVSPropertyOp21
 70
     1
102
RTVSPropertyOp22
 70
     1
102
RTVSPropertyOp23
 70
     1
102
RTVSPropertyOp24
 70
     1
102
RTVSPropertyOp25
 70
     1
102
RTVSPropertyOp26
 70
     1
102
RTVSPropertyOp27
 70
     1
102
RTVSPropertyOp28
 70
     1
102
RTVSPropertyOp29
 70
     1
102
RTVSPropertyOp30
 70
     1
102
RTVSPropertyOp31
 70
     1
102
RTVSPropertyOp32
 70
     1
102
RTVSPropertyOp33
 70
     1
102
RTVSPropertyOp34
 70
     1
102
RTVSPropertyOp35
 70
     1
102
RTVSPropertyOp36
 70
     1
102
RTVSPropertyOp37
 70
     1
102
RTVSPropertyOp38
 70
     1
102
RTVSPropertyOp39
 70
     1
102
RTVSPropertyOp40
 70
     1
102
RTVSPropertyOp41
 70
     1
102
RTVSPropertyOp42
 70
     1
102
RTVSPropertyOp43
 70
     1
102
RTVSPropertyOp44
 70
     1
102
RTVSPropertyOp45
 70
     1
102
RTVSPropertyOp46
 70
     1
102
RTVSPropertyOp47
 70
     1
102
RTVSPropertyOp48
 70
     1
102
RTVSPropertyOp49
 70
     1
102
RTVSPropertyOp50
 70
     1
102
RTVSPropertyOp51
 70
     0
102
RTVSPropertyOp52
 70
     0
102
RTVSPropertyOp53
 70
     1
102
RTVSPropertyOp54
 70
     1
102
RTVSPropertyOp55
 70
     1
102
RTVSPropertyOp56
 70
     1
102
RTVSPropertyOp57
 70
     1
102
RTVSPropertyOp58
 70
     1
102
RTVSPropertyOp59
 70
     1
102
RTVSPropertyOp60
 70
     1
102
RTVSPropertyOp61
 70
     1
102
RTVSPropertyOp62
 70
     1
  0
XRECORD
  5
1881
102
{ACAD_REACTORS
330
1880
102
}
330
1880
100
AcDbXrecord
280
     1
102
RTVSPost2010Prop28
280
     0
102
RTVSPost2010PropOp28
 70
     1
102
RTVSPost2010Prop29
280
     1
102
RTVSPost2010PropOp29
 70
     1
102
RTVSPost2010Prop30
280
     1
102
RTVSPost2010PropOp30
 70
     1
102
RTVSPost2010Prop31
280
     0
102
RTVSPost2010PropOp31
 70
     1
102
RTVSPost2010Prop32
280
     0
102
RTVSPost2010PropOp32
 70
     1
102
RTVSPost2010Prop33
280
     0
102
RTVSPost2010PropOp33
 70
     1
102
RTVSPost2010Prop34
280
     0
102
RTVSPost2010PropOp34
 70
     1
102
RTVSPost2010Prop35
280
     0
102
RTVSPost2010PropOp35
 70
     1
102
RTVSPost2010Prop36
280
     0
102
RTVSPost2010PropOp36
 70
     1
102
RTVSPost2010Prop37
 90
       50
102
RTVSPost2010PropOp37
 70
     1
102
RTVSPost2010Prop38
140
0.0
102
RTVSPost2010PropOp38
 70
     1
102
RTVSPost2010Prop39
140
1.0
102
RTVSPost2010PropOp39
 70
     1
102
RTVSPost2010Prop40
 90
        0
102
RTVSPost2010PropOp40
 70
     1
102
RTVSPost2010Prop41ColorIndex
 90
       18
102
RTVSPost2010Prop41ColorRGB
 90
        0
102
RTVSPost2010PropOp41
 70
     1
102
RTVSPost2010Prop42
 90
       50
102
RTVSPost2010PropOp42
 70
     1
102
RTVSPost2010Prop43
 90
        3
102
RTVSPost2010PropOp43
 70
     1
102
RTVSPost2010Prop44ColorIndex
 90
        5
102
RTVSPost2010Prop44ColorRGB
 90
      255
102
RTVSPost2010PropOp44
 70
     1
102
RTVSPost2010Prop45
280
     0
102
RTVSPost2010PropOp45
 70
     1
102
RTVSPost2010Prop46
 90
       50
102
RTVSPost2010PropOp46
 70
     1
102
RTVSPost2010Prop47
 90
       50
102
RTVSPost2010PropOp47
 70
     1
102
RTVSPost2010Prop48
 90
       50
102
RTVSPost2010PropOp48
 70
     1
102
RTVSPost2010Prop49
280
     0
102
RTVSPost2010PropOp49
 70
     1
102
RTVSPost2010Prop50
 90
       50
102
RTVSPost2010PropOp50
 70
     1
102
RTVSPost2010Prop51ColorIndex
 90
      256
102
RTVSPost2010Prop51ColorRGB
 90
-16777216
102
RTVSPost2010PropOp51
 70
     0
102
RTVSPost2010Prop52
140
1.0
102
RTVSPost2010PropOp52
 70
     0
102
RTVSPost2010Prop53
 90
        2
102
RTVSPost2010PropOp53
 70
     1
102
RTVSPost2010Prop54
  1
strokes_ogs.tif
102
RTVSPost2010PropOp54
 70
     1
102
RTVSPost2010Prop55
280
     0
102
RTVSPost2010PropOp55
 70
     1
102
RTVSPost2010Prop56
140
1.0
102
RTVSPost2010PropOp56
 70
     1
102
RTVSPost2010Prop57
140
1.0
102
RTVSPost2010PropOp57
 70
     1
102
RTVSPropertyOp0
 70
     1
102
RTVSPropertyOp1
 70
     1
102
RTVSPropertyOp2
 70
     1
102
RTVSPropertyOp3
 70
     1
102
RTVSPropertyOp4
 70
     1
102
RTVSPropertyOp5
 70
     1
102
RTVSPropertyOp6
 70
     1
102
RTVSPropertyOp7
 70
     1
102
RTVSPropertyOp8
 70
     1
102
RTVSPropertyOp9
 70
     1
102
RTVSPropertyOp10
 70
     1
102
RTVSPropertyOp11
 70
     1
102
RTVSPropertyOp12
 70
     1
102
RTVSPropertyOp13
 70
     1
102
RTVSPropertyOp14
 70
     1
102
RTVSPropertyOp15
 70
     1
102
RTVSPropertyOp16
 70
     1
102
RTVSPropertyOp17
 70
     1
102
RTVSPropertyOp18
 70
     1
102
RTVSPropertyOp19
 70
     1
102
RTVSPropertyOp20
 70
     1
102
RTVSPropertyOp21
 70
     1
102
RTVSPropertyOp22
 70
     1
102
RTVSPropertyOp23
 70
     1
102
RTVSPropertyOp24
 70
     1
102
RTVSPropertyOp25
 70
     1
102
RTVSPropertyOp26
 70
     1
102
RTVSPropertyOp27
 70
     1
102
RTVSPropertyOp28
 70
     1
102
RTVSPropertyOp29
 70
     1
102
RTVSPropertyOp30
 70
     1
102
RTVSPropertyOp31
 70
     1
102
RTVSPropertyOp32
 70
     1
102
RTVSPropertyOp33
 70
     1
102
RTVSPropertyOp34
 70
     1
102
RTVSPropertyOp35
 70
     1
102
RTVSPropertyOp36
 70
     1
102
RTVSPropertyOp37
 70
     1
102
RTVSPropertyOp38
 70
     1
102
RTVSPropertyOp39
 70
     1
102
RTVSPropertyOp40
 70
     1
102
RTVSPropertyOp41
 70
     1
102
RTVSPropertyOp42
 70
     1
102
RTVSPropertyOp43
 70
     1
102
RTVSPropertyOp44
 70
     1
102
RTVSPropertyOp45
 70
     1
102
RTVSPropertyOp46
 70
     1
102
RTVSPropertyOp47
 70
     1
102
RTVSPropertyOp48
 70
     1
102
RTVSPropertyOp49
 70
     1
102
RTVSPropertyOp50
 70
     1
102
RTVSPropertyOp51
 70
     0
102
RTVSPropertyOp52
 70
     0
102
RTVSPropertyOp53
 70
     1
102
RTVSPropertyOp54
 70
     1
102
RTVSPropertyOp55
 70
     1
102
RTVSPropertyOp56
 70
     1
102
RTVSPropertyOp57
 70
     1
102
RTVSPropertyOp58
 70
     1
102
RTVSPropertyOp59
 70
     1
102
RTVSPropertyOp60
 70
     1
102
RTVSPropertyOp61
 70
     1
102
RTVSPropertyOp62
 70
     1
  0
XRECORD
  5
1873
102
{ACAD_REACTORS
330
1872
102
}
330
1872
100
AcDbXrecord
280
     1
102
RTVSPost2010Prop28
280
     0
102
RTVSPost2010PropOp28
 70
     1
102
RTVSPost2010Prop29
280
     1
102
RTVSPost2010PropOp29
 70
     1
102
RTVSPost2010Prop30
280
     1
102
RTVSPost2010PropOp30
 70
     1
102
RTVSPost2010Prop31
280
     0
102
RTVSPost2010PropOp31
 70
     1
102
RTVSPost2010Prop32
280
     0
102
RTVSPost2010PropOp32
 70
     1
102
RTVSPost2010Prop33
280
     0
102
RTVSPost2010PropOp33
 70
     1
102
RTVSPost2010Prop34
280
     0
102
RTVSPost2010PropOp34
 70
     1
102
RTVSPost2010Prop35
280
     0
102
RTVSPost2010PropOp35
 70
     1
102
RTVSPost2010Prop36
280
     0
102
RTVSPost2010PropOp36
 70
     1
102
RTVSPost2010Prop37
 90
       50
102
RTVSPost2010PropOp37
 70
     1
102
RTVSPost2010Prop38
140
0.0
102
RTVSPost2010PropOp38
 70
     1
102
RTVSPost2010Prop39
140
1.0
102
RTVSPost2010PropOp39
 70
     1
102
RTVSPost2010Prop40
 90
        0
102
RTVSPost2010PropOp40
 70
     1
102
RTVSPost2010Prop41ColorIndex
 90
       18
102
RTVSPost2010Prop41ColorRGB
 90
        0
102
RTVSPost2010PropOp41
 70
     1
102
RTVSPost2010Prop42
 90
       50
102
RTVSPost2010PropOp42
 70
     1
102
RTVSPost2010Prop43
 90
        3
102
RTVSPost2010PropOp43
 70
     1
102
RTVSPost2010Prop44ColorIndex
 90
        5
102
RTVSPost2010Prop44ColorRGB
 90
      255
102
RTVSPost2010PropOp44
 70
     1
102
RTVSPost2010Prop45
280
     0
102
RTVSPost2010PropOp45
 70
     1
102
RTVSPost2010Prop46
 90
       50
102
RTVSPost2010PropOp46
 70
     1
102
RTVSPost2010Prop47
 90
       50
102
RTVSPost2010PropOp47
 70
     1
102
RTVSPost2010Prop48
 90
       50
102
RTVSPost2010PropOp48
 70
     1
102
RTVSPost2010Prop49
280
     0
102
RTVSPost2010PropOp49
 70
     1
102
RTVSPost2010Prop50
 90
       50
102
RTVSPost2010PropOp50
 70
     1
102
RTVSPost2010Prop51ColorIndex
 90
      256
102
RTVSPost2010Prop51ColorRGB
 90
-16777216
102
RTVSPost2010PropOp51
 70
     0
102
RTVSPost2010Prop52
140
1.0
102
RTVSPost2010PropOp52
 70
     0
102
RTVSPost2010Prop53
 90
        2
102
RTVSPost2010PropOp53
 70
     1
102
RTVSPost2010Prop54
  1
strokes_ogs.tif
102
RTVSPost2010PropOp54
 70
     1
102
RTVSPost2010Prop55
280
     0
102
RTVSPost2010PropOp55
 70
     1
102
RTVSPost2010Prop56
140
1.0
102
RTVSPost2010PropOp56
 70
     1
102
RTVSPost2010Prop57
140
1.0
102
RTVSPost2010PropOp57
 70
     1
102
RTVSPropertyOp0
 70
     1
102
RTVSPropertyOp1
 70
     1
102
RTVSPropertyOp2
 70
     1
102
RTVSPropertyOp3
 70
     1
102
RTVSPropertyOp4
 70
     1
102
RTVSPropertyOp5
 70
     1
102
RTVSPropertyOp6
 70
     1
102
RTVSPropertyOp7
 70
     1
102
RTVSPropertyOp8
 70
     1
102
RTVSPropertyOp9
 70
     1
102
RTVSPropertyOp10
 70
     1
102
RTVSPropertyOp11
 70
     1
102
RTVSPropertyOp12
 70
     1
102
RTVSPropertyOp13
 70
     1
102
RTVSPropertyOp14
 70
     1
102
RTVSPropertyOp15
 70
     1
102
RTVSPropertyOp16
 70
     1
102
RTVSPropertyOp17
 70
     1
102
RTVSPropertyOp18
 70
     1
102
RTVSPropertyOp19
 70
     1
102
RTVSPropertyOp20
 70
     1
102
RTVSPropertyOp21
 70
     1
102
RTVSPropertyOp22
 70
     1
102
RTVSPropertyOp23
 70
     1
102
RTVSPropertyOp24
 70
     1
102
RTVSPropertyOp25
 70
     1
102
RTVSPropertyOp26
 70
     1
102
RTVSPropertyOp27
 70
     1
102
RTVSPropertyOp28
 70
     1
102
RTVSPropertyOp29
 70
     1
102
RTVSPropertyOp30
 70
     1
102
RTVSPropertyOp31
 70
     1
102
RTVSPropertyOp32
 70
     1
102
RTVSPropertyOp33
 70
     1
102
RTVSPropertyOp34
 70
     1
102
RTVSPropertyOp35
 70
     1
102
RTVSPropertyOp36
 70
     1
102
RTVSPropertyOp37
 70
     1
102
RTVSPropertyOp38
 70
     1
102
RTVSPropertyOp39
 70
     1
102
RTVSPropertyOp40
 70
     1
102
RTVSPropertyOp41
 70
     1
102
RTVSPropertyOp42
 70
     1
102
RTVSPropertyOp43
 70
     1
102
RTVSPropertyOp44
 70
     1
102
RTVSPropertyOp45
 70
     1
102
RTVSPropertyOp46
 70
     1
102
RTVSPropertyOp47
 70
     1
102
RTVSPropertyOp48
 70
     1
102
RTVSPropertyOp49
 70
     1
102
RTVSPropertyOp50
 70
     1
102
RTVSPropertyOp51
 70
     0
102
RTVSPropertyOp52
 70
     0
102
RTVSPropertyOp53
 70
     1
102
RTVSPropertyOp54
 70
     1
102
RTVSPropertyOp55
 70
     1
102
RTVSPropertyOp56
 70
     1
102
RTVSPropertyOp57
 70
     1
102
RTVSPropertyOp58
 70
     1
102
RTVSPropertyOp59
 70
     1
102
RTVSPropertyOp60
 70
     1
102
RTVSPropertyOp61
 70
     1
102
RTVSPropertyOp62
 70
     1
  0
XRECORD
  5
1877
102
{ACAD_REACTORS
330
1876
102
}
330
1876
100
AcDbXrecord
280
     1
102
RTVSPost2010Prop28
280
     0
102
RTVSPost2010PropOp28
 70
     1
102
RTVSPost2010Prop29
280
     1
102
RTVSPost2010PropOp29
 70
     1
102
RTVSPost2010Prop30
280
     1
102
RTVSPost2010PropOp30
 70
     1
102
RTVSPost2010Prop31
280
     0
102
RTVSPost2010PropOp31
 70
     1
102
RTVSPost2010Prop32
280
     0
102
RTVSPost2010PropOp32
 70
     1
102
RTVSPost2010Prop33
280
     0
102
RTVSPost2010PropOp33
 70
     1
102
RTVSPost2010Prop34
280
     0
102
RTVSPost2010PropOp34
 70
     1
102
RTVSPost2010Prop35
280
     0
102
RTVSPost2010PropOp35
 70
     1
102
RTVSPost2010Prop36
280
     0
102
RTVSPost2010PropOp36
 70
     1
102
RTVSPost2010Prop37
 90
       50
102
RTVSPost2010PropOp37
 70
     1
102
RTVSPost2010Prop38
140
0.0
102
RTVSPost2010PropOp38
 70
     1
102
RTVSPost2010Prop39
140
1.0
102
RTVSPost2010PropOp39
 70
     1
102
RTVSPost2010Prop40
 90
        0
102
RTVSPost2010PropOp40
 70
     1
102
RTVSPost2010Prop41ColorIndex
 90
       18
102
RTVSPost2010Prop41ColorRGB
 90
        0
102
RTVSPost2010PropOp41
 70
     1
102
RTVSPost2010Prop42
 90
       50
102
RTVSPost2010PropOp42
 70
     1
102
RTVSPost2010Prop43
 90
        3
102
RTVSPost2010PropOp43
 70
     1
102
RTVSPost2010Prop44ColorIndex
 90
        5
102
RTVSPost2010Prop44ColorRGB
 90
      255
102
RTVSPost2010PropOp44
 70
     1
102
RTVSPost2010Prop45
280
     0
102
RTVSPost2010PropOp45
 70
     1
102
RTVSPost2010Prop46
 90
       50
102
RTVSPost2010PropOp46
 70
     1
102
RTVSPost2010Prop47
 90
       50
102
RTVSPost2010PropOp47
 70
     1
102
RTVSPost2010Prop48
 90
       50
102
RTVSPost2010PropOp48
 70
     1
102
RTVSPost2010Prop49
280
     0
102
RTVSPost2010PropOp49
 70
     1
102
RTVSPost2010Prop50
 90
       50
102
RTVSPost2010PropOp50
 70
     1
102
RTVSPost2010Prop51ColorIndex
 90
      256
102
RTVSPost2010Prop51ColorRGB
 90
-16777216
102
RTVSPost2010PropOp51
 70
     0
102
RTVSPost2010Prop52
140
1.0
102
RTVSPost2010PropOp52
 70
     0
102
RTVSPost2010Prop53
 90
        2
102
RTVSPost2010PropOp53
 70
     1
102
RTVSPost2010Prop54
  1
strokes_ogs.tif
102
RTVSPost2010PropOp54
 70
     1
102
RTVSPost2010Prop55
280
     0
102
RTVSPost2010PropOp55
 70
     1
102
RTVSPost2010Prop56
140
1.0
102
RTVSPost2010PropOp56
 70
     1
102
RTVSPost2010Prop57
140
1.0
102
RTVSPost2010PropOp57
 70
     1
102
RTVSPropertyOp0
 70
     1
102
RTVSPropertyOp1
 70
     1
102
RTVSPropertyOp2
 70
     1
102
RTVSPropertyOp3
 70
     1
102
RTVSPropertyOp4
 70
     1
102
RTVSPropertyOp5
 70
     1
102
RTVSPropertyOp6
 70
     1
102
RTVSPropertyOp7
 70
     1
102
RTVSPropertyOp8
 70
     1
102
RTVSPropertyOp9
 70
     1
102
RTVSPropertyOp10
 70
     1
102
RTVSPropertyOp11
 70
     1
102
RTVSPropertyOp12
 70
     1
102
RTVSPropertyOp13
 70
     1
102
RTVSPropertyOp14
 70
     1
102
RTVSPropertyOp15
 70
     1
102
RTVSPropertyOp16
 70
     1
102
RTVSPropertyOp17
 70
     1
102
RTVSPropertyOp18
 70
     1
102
RTVSPropertyOp19
 70
     1
102
RTVSPropertyOp20
 70
     1
102
RTVSPropertyOp21
 70
     1
102
RTVSPropertyOp22
 70
     1
102
RTVSPropertyOp23
 70
     1
102
RTVSPropertyOp24
 70
     1
102
RTVSPropertyOp25
 70
     1
102
RTVSPropertyOp26
 70
     1
102
RTVSPropertyOp27
 70
     1
102
RTVSPropertyOp28
 70
     1
102
RTVSPropertyOp29
 70
     1
102
RTVSPropertyOp30
 70
     1
102
RTVSPropertyOp31
 70
     1
102
RTVSPropertyOp32
 70
     1
102
RTVSPropertyOp33
 70
     1
102
RTVSPropertyOp34
 70
     1
102
RTVSPropertyOp35
 70
     1
102
RTVSPropertyOp36
 70
     1
102
RTVSPropertyOp37
 70
     1
102
RTVSPropertyOp38
 70
     1
102
RTVSPropertyOp39
 70
     1
102
RTVSPropertyOp40
 70
     1
102
RTVSPropertyOp41
 70
     1
102
RTVSPropertyOp42
 70
     1
102
RTVSPropertyOp43
 70
     1
102
RTVSPropertyOp44
 70
     1
102
RTVSPropertyOp45
 70
     1
102
RTVSPropertyOp46
 70
     1
102
RTVSPropertyOp47
 70
     1
102
RTVSPropertyOp48
 70
     1
102
RTVSPropertyOp49
 70
     1
102
RTVSPropertyOp50
 70
     1
102
RTVSPropertyOp51
 70
     0
102
RTVSPropertyOp52
 70
     0
102
RTVSPropertyOp53
 70
     1
102
RTVSPropertyOp54
 70
     1
102
RTVSPropertyOp55
 70
     1
102
RTVSPropertyOp56
 70
     1
102
RTVSPropertyOp57
 70
     1
102
RTVSPropertyOp58
 70
     1
102
RTVSPropertyOp59
 70
     1
102
RTVSPropertyOp60
 70
     1
102
RTVSPropertyOp61
 70
     1
102
RTVSPropertyOp62
 70
     1
  0
XRECORD
  5
1891
102
{ACAD_REACTORS
330
1890
102
}
330
1890
100
AcDbXrecord
280
     1
102
RTVSPost2010Prop28
280
     0
102
RTVSPost2010PropOp28
 70
     1
102
RTVSPost2010Prop29
280
     1
102
RTVSPost2010PropOp29
 70
     1
102
RTVSPost2010Prop30
280
     1
102
RTVSPost2010PropOp30
 70
     1
102
RTVSPost2010Prop31
280
     0
102
RTVSPost2010PropOp31
 70
     1
102
RTVSPost2010Prop32
280
     0
102
RTVSPost2010PropOp32
 70
     1
102
RTVSPost2010Prop33
280
     0
102
RTVSPost2010PropOp33
 70
     1
102
RTVSPost2010Prop34
280
     0
102
RTVSPost2010PropOp34
 70
     1
102
RTVSPost2010Prop35
280
     0
102
RTVSPost2010PropOp35
 70
     1
102
RTVSPost2010Prop36
280
     0
102
RTVSPost2010PropOp36
 70
     1
102
RTVSPost2010Prop37
 90
       50
102
RTVSPost2010PropOp37
 70
     0
102
RTVSPost2010Prop38
140
0.0
102
RTVSPost2010PropOp38
 70
     0
102
RTVSPost2010Prop39
140
1.0
102
RTVSPost2010PropOp39
 70
     0
102
RTVSPost2010Prop40
 90
        0
102
RTVSPost2010PropOp40
 70
     0
102
RTVSPost2010Prop41ColorIndex
 90
       18
102
RTVSPost2010Prop41ColorRGB
 90
        0
102
RTVSPost2010PropOp41
 70
     0
102
RTVSPost2010Prop42
 90
       50
102
RTVSPost2010PropOp42
 70
     0
102
RTVSPost2010Prop43
 90
        3
102
RTVSPost2010PropOp43
 70
     0
102
RTVSPost2010Prop44ColorIndex
 90
        5
102
RTVSPost2010Prop44ColorRGB
 90
      255
102
RTVSPost2010PropOp44
 70
     0
102
RTVSPost2010Prop45
280
     0
102
RTVSPost2010PropOp45
 70
     1
102
RTVSPost2010Prop46
 90
       50
102
RTVSPost2010PropOp46
 70
     0
102
RTVSPost2010Prop47
 90
       50
102
RTVSPost2010PropOp47
 70
     0
102
RTVSPost2010Prop48
 90
       50
102
RTVSPost2010PropOp48
 70
     0
102
RTVSPost2010Prop49
280
     0
102
RTVSPost2010PropOp49
 70
     1
102
RTVSPost2010Prop50
 90
       50
102
RTVSPost2010PropOp50
 70
     0
102
RTVSPost2010Prop51ColorIndex
 90
      256
102
RTVSPost2010Prop51ColorRGB
 90
-16777216
102
RTVSPost2010PropOp51
 70
     0
102
RTVSPost2010Prop52
140
1.0
102
RTVSPost2010PropOp52
 70
     0
102
RTVSPost2010Prop53
 90
        2
102
RTVSPost2010PropOp53
 70
     0
102
RTVSPost2010Prop54
  1
strokes_ogs.tif
102
RTVSPost2010PropOp54
 70
     0
102
RTVSPost2010Prop55
280
     0
102
RTVSPost2010PropOp55
 70
     1
102
RTVSPost2010Prop56
140
1.0
102
RTVSPost2010PropOp56
 70
     0
102
RTVSPost2010Prop57
140
1.0
102
RTVSPost2010PropOp57
 70
     0
102
RTVSPropertyOp0
 70
     0
102
RTVSPropertyOp1
 70
     0
102
RTVSPropertyOp2
 70
     0
102
RTVSPropertyOp3
 70
     0
102
RTVSPropertyOp4
 70
     0
102
RTVSPropertyOp5
 70
     0
102
RTVSPropertyOp6
 70
     0
102
RTVSPropertyOp7
 70
     0
102
RTVSPropertyOp8
 70
     0
102
RTVSPropertyOp9
 70
     0
102
RTVSPropertyOp10
 70
     0
102
RTVSPropertyOp11
 70
     0
102
RTVSPropertyOp12
 70
     0
102
RTVSPropertyOp13
 70
     0
102
RTVSPropertyOp14
 70
     2
102
RTVSPropertyOp15
 70
     0
102
RTVSPropertyOp16
 70
     0
102
RTVSPropertyOp17
 70
     0
102
RTVSPropertyOp18
 70
     0
102
RTVSPropertyOp19
 70
     0
102
RTVSPropertyOp20
 70
     0
102
RTVSPropertyOp21
 70
     0
102
RTVSPropertyOp22
 70
     0
102
RTVSPropertyOp23
 70
     0
102
RTVSPropertyOp24
 70
     0
102
RTVSPropertyOp25
 70
     0
102
RTVSPropertyOp26
 70
     0
102
RTVSPropertyOp27
 70
     0
102
RTVSPropertyOp28
 70
     1
102
RTVSPropertyOp29
 70
     1
102
RTVSPropertyOp30
 70
     1
102
RTVSPropertyOp31
 70
     1
102
RTVSPropertyOp32
 70
     1
102
RTVSPropertyOp33
 70
     1
102
RTVSPropertyOp34
 70
     1
102
RTVSPropertyOp35
 70
     1
102
RTVSPropertyOp36
 70
     1
102
RTVSPropertyOp37
 70
     0
102
RTVSPropertyOp38
 70
     0
102
RTVSPropertyOp39
 70
     0
102
RTVSPropertyOp40
 70
     0
102
RTVSPropertyOp41
 70
     0
102
RTVSPropertyOp42
 70
     0
102
RTVSPropertyOp43
 70
     0
102
RTVSPropertyOp44
 70
     0
102
RTVSPropertyOp45
 70
     1
102
RTVSPropertyOp46
 70
     0
102
RTVSPropertyOp47
 70
     0
102
RTVSPropertyOp48
 70
     0
102
RTVSPropertyOp49
 70
     1
102
RTVSPropertyOp50
 70
     0
102
RTVSPropertyOp51
 70
     0
102
RTVSPropertyOp52
 70
     0
102
RTVSPropertyOp53
 70
     0
102
RTVSPropertyOp54
 70
     0
102
RTVSPropertyOp55
 70
     1
102
RTVSPropertyOp56
 70
     0
102
RTVSPropertyOp57
 70
     0
102
RTVSPropertyOp58
 70
     0
102
RTVSPropertyOp59
 70
     0
102
RTVSPropertyOp60
 70
     0
102
RTVSPropertyOp61
 70
     0
102
RTVSPropertyOp62
 70
     0
  0
XRECORD
  5
187F
102
{ACAD_REACTORS
330
187E
102
}
330
187E
100
AcDbXrecord
280
     1
102
RTVSPost2010Prop28
280
     0
102
RTVSPost2010PropOp28
 70
     1
102
RTVSPost2010Prop29
280
     1
102
RTVSPost2010PropOp29
 70
     1
102
RTVSPost2010Prop30
280
     1
102
RTVSPost2010PropOp30
 70
     1
102
RTVSPost2010Prop31
280
     0
102
RTVSPost2010PropOp31
 70
     1
102
RTVSPost2010Prop32
280
     0
102
RTVSPost2010PropOp32
 70
     1
102
RTVSPost2010Prop33
280
     0
102
RTVSPost2010PropOp33
 70
     1
102
RTVSPost2010Prop34
280
     0
102
RTVSPost2010PropOp34
 70
     1
102
RTVSPost2010Prop35
280
     0
102
RTVSPost2010PropOp35
 70
     1
102
RTVSPost2010Prop36
280
     0
102
RTVSPost2010PropOp36
 70
     1
102
RTVSPost2010Prop37
 90
       50
102
RTVSPost2010PropOp37
 70
     1
102
RTVSPost2010Prop38
140
0.0
102
RTVSPost2010PropOp38
 70
     1
102
RTVSPost2010Prop39
140
1.0
102
RTVSPost2010PropOp39
 70
     1
102
RTVSPost2010Prop40
 90
        0
102
RTVSPost2010PropOp40
 70
     1
102
RTVSPost2010Prop41ColorIndex
 90
       18
102
RTVSPost2010Prop41ColorRGB
 90
        0
102
RTVSPost2010PropOp41
 70
     1
102
RTVSPost2010Prop42
 90
       50
102
RTVSPost2010PropOp42
 70
     1
102
RTVSPost2010Prop43
 90
        3
102
RTVSPost2010PropOp43
 70
     1
102
RTVSPost2010Prop44ColorIndex
 90
        5
102
RTVSPost2010Prop44ColorRGB
 90
      255
102
RTVSPost2010PropOp44
 70
     1
102
RTVSPost2010Prop45
280
     0
102
RTVSPost2010PropOp45
 70
     1
102
RTVSPost2010Prop46
 90
       50
102
RTVSPost2010PropOp46
 70
     1
102
RTVSPost2010Prop47
 90
       50
102
RTVSPost2010PropOp47
 70
     1
102
RTVSPost2010Prop48
 90
       50
102
RTVSPost2010PropOp48
 70
     1
102
RTVSPost2010Prop49
280
     0
102
RTVSPost2010PropOp49
 70
     1
102
RTVSPost2010Prop50
 90
       50
102
RTVSPost2010PropOp50
 70
     1
102
RTVSPost2010Prop51ColorIndex
 90
      256
102
RTVSPost2010Prop51ColorRGB
 90
-16777216
102
RTVSPost2010PropOp51
 70
     0
102
RTVSPost2010Prop52
140
1.0
102
RTVSPost2010PropOp52
 70
     0
102
RTVSPost2010Prop53
 90
        2
102
RTVSPost2010PropOp53
 70
     1
102
RTVSPost2010Prop54
  1
strokes_ogs.tif
102
RTVSPost2010PropOp54
 70
     1
102
RTVSPost2010Prop55
280
     0
102
RTVSPost2010PropOp55
 70
     1
102
RTVSPost2010Prop56
140
1.0
102
RTVSPost2010PropOp56
 70
     1
102
RTVSPost2010Prop57
140
1.0
102
RTVSPost2010PropOp57
 70
     1
102
RTVSPropertyOp0
 70
     1
102
RTVSPropertyOp1
 70
     1
102
RTVSPropertyOp2
 70
     1
102
RTVSPropertyOp3
 70
     1
102
RTVSPropertyOp4
 70
     1
102
RTVSPropertyOp5
 70
     1
102
RTVSPropertyOp6
 70
     1
102
RTVSPropertyOp7
 70
     1
102
RTVSPropertyOp8
 70
     1
102
RTVSPropertyOp9
 70
     1
102
RTVSPropertyOp10
 70
     1
102
RTVSPropertyOp11
 70
     1
102
RTVSPropertyOp12
 70
     1
102
RTVSPropertyOp13
 70
     1
102
RTVSPropertyOp14
 70
     1
102
RTVSPropertyOp15
 70
     1
102
RTVSPropertyOp16
 70
     1
102
RTVSPropertyOp17
 70
     1
102
RTVSPropertyOp18
 70
     1
102
RTVSPropertyOp19
 70
     1
102
RTVSPropertyOp20
 70
     1
102
RTVSPropertyOp21
 70
     1
102
RTVSPropertyOp22
 70
     1
102
RTVSPropertyOp23
 70
     1
102
RTVSPropertyOp24
 70
     1
102
RTVSPropertyOp25
 70
     1
102
RTVSPropertyOp26
 70
     1
102
RTVSPropertyOp27
 70
     1
102
RTVSPropertyOp28
 70
     1
102
RTVSPropertyOp29
 70
     1
102
RTVSPropertyOp30
 70
     1
102
RTVSPropertyOp31
 70
     1
102
RTVSPropertyOp32
 70
     1
102
RTVSPropertyOp33
 70
     1
102
RTVSPropertyOp34
 70
     1
102
RTVSPropertyOp35
 70
     1
102
RTVSPropertyOp36
 70
     1
102
RTVSPropertyOp37
 70
     1
102
RTVSPropertyOp38
 70
     1
102
RTVSPropertyOp39
 70
     1
102
RTVSPropertyOp40
 70
     1
102
RTVSPropertyOp41
 70
     1
102
RTVSPropertyOp42
 70
     1
102
RTVSPropertyOp43
 70
     1
102
RTVSPropertyOp44
 70
     1
102
RTVSPropertyOp45
 70
     1
102
RTVSPropertyOp46
 70
     1
102
RTVSPropertyOp47
 70
     1
102
RTVSPropertyOp48
 70
     1
102
RTVSPropertyOp49
 70
     1
102
RTVSPropertyOp50
 70
     1
102
RTVSPropertyOp51
 70
     0
102
RTVSPropertyOp52
 70
     0
102
RTVSPropertyOp53
 70
     1
102
RTVSPropertyOp54
 70
     1
102
RTVSPropertyOp55
 70
     1
102
RTVSPropertyOp56
 70
     1
102
RTVSPropertyOp57
 70
     1
102
RTVSPropertyOp58
 70
     1
102
RTVSPropertyOp59
 70
     1
102
RTVSPropertyOp60
 70
     1
102
RTVSPropertyOp61
 70
     1
102
RTVSPropertyOp62
 70
     1
  0
XRECORD
  5
1863
102
{ACAD_REACTORS
330
1862
102
}
330
1862
100
AcDbXrecord
280
     1
102
RTVSPost2010Prop28
280
     0
102
RTVSPost2010PropOp28
 70
     1
102
RTVSPost2010Prop29
280
     1
102
RTVSPost2010PropOp29
 70
     1
102
RTVSPost2010Prop30
280
     1
102
RTVSPost2010PropOp30
 70
     1
102
RTVSPost2010Prop31
280
     0
102
RTVSPost2010PropOp31
 70
     1
102
RTVSPost2010Prop32
280
     0
102
RTVSPost2010PropOp32
 70
     1
102
RTVSPost2010Prop33
280
     0
102
RTVSPost2010PropOp33
 70
     1
102
RTVSPost2010Prop34
280
     0
102
RTVSPost2010PropOp34
 70
     1
102
RTVSPost2010Prop35
280
     0
102
RTVSPost2010PropOp35
 70
     1
102
RTVSPost2010Prop36
280
     0
102
RTVSPost2010PropOp36
 70
     1
102
RTVSPost2010Prop37
 90
       50
102
RTVSPost2010PropOp37
 70
     1
102
RTVSPost2010Prop38
140
0.0
102
RTVSPost2010PropOp38
 70
     1
102
RTVSPost2010Prop39
140
1.0
102
RTVSPost2010PropOp39
 70
     1
102
RTVSPost2010Prop40
 90
        0
102
RTVSPost2010PropOp40
 70
     1
102
RTVSPost2010Prop41ColorIndex
 90
       18
102
RTVSPost2010Prop41ColorRGB
 90
        0
102
RTVSPost2010PropOp41
 70
     1
102
RTVSPost2010Prop42
 90
       50
102
RTVSPost2010PropOp42
 70
     1
102
RTVSPost2010Prop43
 90
        3
102
RTVSPost2010PropOp43
 70
     1
102
RTVSPost2010Prop44ColorIndex
 90
        5
102
RTVSPost2010Prop44ColorRGB
 90
      255
102
RTVSPost2010PropOp44
 70
     1
102
RTVSPost2010Prop45
280
     0
102
RTVSPost2010PropOp45
 70
     1
102
RTVSPost2010Prop46
 90
       50
102
RTVSPost2010PropOp46
 70
     1
102
RTVSPost2010Prop47
 90
       50
102
RTVSPost2010PropOp47
 70
     1
102
RTVSPost2010Prop48
 90
       50
102
RTVSPost2010PropOp48
 70
     1
102
RTVSPost2010Prop49
280
     0
102
RTVSPost2010PropOp49
 70
     1
102
RTVSPost2010Prop50
 90
       50
102
RTVSPost2010PropOp50
 70
     1
102
RTVSPost2010Prop51ColorIndex
 90
      256
102
RTVSPost2010Prop51ColorRGB
 90
-16777216
102
RTVSPost2010PropOp51
 70
     0
102
RTVSPost2010Prop52
140
1.0
102
RTVSPost2010PropOp52
 70
     0
102
RTVSPost2010Prop53
 90
        2
102
RTVSPost2010PropOp53
 70
     1
102
RTVSPost2010Prop54
  1
strokes_ogs.tif
102
RTVSPost2010PropOp54
 70
     1
102
RTVSPost2010Prop55
280
     0
102
RTVSPost2010PropOp55
 70
     1
102
RTVSPost2010Prop56
140
1.0
102
RTVSPost2010PropOp56
 70
     1
102
RTVSPost2010Prop57
140
1.0
102
RTVSPost2010PropOp57
 70
     1
102
RTVSPropertyOp0
 70
     1
102
RTVSPropertyOp1
 70
     1
102
RTVSPropertyOp2
 70
     1
102
RTVSPropertyOp3
 70
     1
102
RTVSPropertyOp4
 70
     1
102
RTVSPropertyOp5
 70
     1
102
RTVSPropertyOp6
 70
     1
102
RTVSPropertyOp7
 70
     1
102
RTVSPropertyOp8
 70
     1
102
RTVSPropertyOp9
 70
     1
102
RTVSPropertyOp10
 70
     1
102
RTVSPropertyOp11
 70
     1
102
RTVSPropertyOp12
 70
     1
102
RTVSPropertyOp13
 70
     1
102
RTVSPropertyOp14
 70
     1
102
RTVSPropertyOp15
 70
     1
102
RTVSPropertyOp16
 70
     1
102
RTVSPropertyOp17
 70
     1
102
RTVSPropertyOp18
 70
     1
102
RTVSPropertyOp19
 70
     1
102
RTVSPropertyOp20
 70
     1
102
RTVSPropertyOp21
 70
     1
102
RTVSPropertyOp22
 70
     1
102
RTVSPropertyOp23
 70
     1
102
RTVSPropertyOp24
 70
     1
102
RTVSPropertyOp25
 70
     1
102
RTVSPropertyOp26
 70
     1
102
RTVSPropertyOp27
 70
     1
102
RTVSPropertyOp28
 70
     1
102
RTVSPropertyOp29
 70
     1
102
RTVSPropertyOp30
 70
     1
102
RTVSPropertyOp31
 70
     1
102
RTVSPropertyOp32
 70
     1
102
RTVSPropertyOp33
 70
     1
102
RTVSPropertyOp34
 70
     1
102
RTVSPropertyOp35
 70
     1
102
RTVSPropertyOp36
 70
     1
102
RTVSPropertyOp37
 70
     1
102
RTVSPropertyOp38
 70
     1
102
RTVSPropertyOp39
 70
     1
102
RTVSPropertyOp40
 70
     1
102
RTVSPropertyOp41
 70
     1
102
RTVSPropertyOp42
 70
     1
102
RTVSPropertyOp43
 70
     1
102
RTVSPropertyOp44
 70
     1
102
RTVSPropertyOp45
 70
     1
102
RTVSPropertyOp46
 70
     1
102
RTVSPropertyOp47
 70
     1
102
RTVSPropertyOp48
 70
     1
102
RTVSPropertyOp49
 70
     1
102
RTVSPropertyOp50
 70
     1
102
RTVSPropertyOp51
 70
     0
102
RTVSPropertyOp52
 70
     0
102
RTVSPropertyOp53
 70
     1
102
RTVSPropertyOp54
 70
     1
102
RTVSPropertyOp55
 70
     1
102
RTVSPropertyOp56
 70
     1
102
RTVSPropertyOp57
 70
     1
102
RTVSPropertyOp58
 70
     1
102
RTVSPropertyOp59
 70
     1
102
RTVSPropertyOp60
 70
     1
102
RTVSPropertyOp61
 70
     1
102
RTVSPropertyOp62
 70
     1
  0
XRECORD
  5
1865
102
{ACAD_REACTORS
330
1864
102
}
330
1864
100
AcDbXrecord
280
     1
102
RTVSPost2010Prop28
280
     0
102
RTVSPost2010PropOp28
 70
     1
102
RTVSPost2010Prop29
280
     1
102
RTVSPost2010PropOp29
 70
     1
102
RTVSPost2010Prop30
280
     1
102
RTVSPost2010PropOp30
 70
     1
102
RTVSPost2010Prop31
280
     0
102
RTVSPost2010PropOp31
 70
     1
102
RTVSPost2010Prop32
280
     0
102
RTVSPost2010PropOp32
 70
     1
102
RTVSPost2010Prop33
280
     0
102
RTVSPost2010PropOp33
 70
     1
102
RTVSPost2010Prop34
280
     0
102
RTVSPost2010PropOp34
 70
     1
102
RTVSPost2010Prop35
280
     0
102
RTVSPost2010PropOp35
 70
     1
102
RTVSPost2010Prop36
280
     0
102
RTVSPost2010PropOp36
 70
     1
102
RTVSPost2010Prop37
 90
       50
102
RTVSPost2010PropOp37
 70
     1
102
RTVSPost2010Prop38
140
0.0
102
RTVSPost2010PropOp38
 70
     1
102
RTVSPost2010Prop39
140
1.0
102
RTVSPost2010PropOp39
 70
     1
102
RTVSPost2010Prop40
 90
        0
102
RTVSPost2010PropOp40
 70
     1
102
RTVSPost2010Prop41ColorIndex
 90
       18
102
RTVSPost2010Prop41ColorRGB
 90
        0
102
RTVSPost2010PropOp41
 70
     1
102
RTVSPost2010Prop42
 90
       50
102
RTVSPost2010PropOp42
 70
     1
102
RTVSPost2010Prop43
 90
        3
102
RTVSPost2010PropOp43
 70
     1
102
RTVSPost2010Prop44ColorIndex
 90
        5
102
RTVSPost2010Prop44ColorRGB
 90
      255
102
RTVSPost2010PropOp44
 70
     1
102
RTVSPost2010Prop45
280
     0
102
RTVSPost2010PropOp45
 70
     1
102
RTVSPost2010Prop46
 90
       50
102
RTVSPost2010PropOp46
 70
     1
102
RTVSPost2010Prop47
 90
       50
102
RTVSPost2010PropOp47
 70
     1
102
RTVSPost2010Prop48
 90
       50
102
RTVSPost2010PropOp48
 70
     1
102
RTVSPost2010Prop49
280
     0
102
RTVSPost2010PropOp49
 70
     1
102
RTVSPost2010Prop50
 90
       50
102
RTVSPost2010PropOp50
 70
     1
102
RTVSPost2010Prop51ColorIndex
 90
      256
102
RTVSPost2010Prop51ColorRGB
 90
-16777216
102
RTVSPost2010PropOp51
 70
     0
102
RTVSPost2010Prop52
140
1.0
102
RTVSPost2010PropOp52
 70
     0
102
RTVSPost2010Prop53
 90
        2
102
RTVSPost2010PropOp53
 70
     1
102
RTVSPost2010Prop54
  1
strokes_ogs.tif
102
RTVSPost2010PropOp54
 70
     1
102
RTVSPost2010Prop55
280
     0
102
RTVSPost2010PropOp55
 70
     1
102
RTVSPost2010Prop56
140
1.0
102
RTVSPost2010PropOp56
 70
     1
102
RTVSPost2010Prop57
140
1.0
102
RTVSPost2010PropOp57
 70
     1
102
RTVSPropertyOp0
 70
     1
102
RTVSPropertyOp1
 70
     1
102
RTVSPropertyOp2
 70
     1
102
RTVSPropertyOp3
 70
     1
102
RTVSPropertyOp4
 70
     1
102
RTVSPropertyOp5
 70
     1
102
RTVSPropertyOp6
 70
     1
102
RTVSPropertyOp7
 70
     1
102
RTVSPropertyOp8
 70
     1
102
RTVSPropertyOp9
 70
     1
102
RTVSPropertyOp10
 70
     1
102
RTVSPropertyOp11
 70
     1
102
RTVSPropertyOp12
 70
     1
102
RTVSPropertyOp13
 70
     1
102
RTVSPropertyOp14
 70
     1
102
RTVSPropertyOp15
 70
     1
102
RTVSPropertyOp16
 70
     1
102
RTVSPropertyOp17
 70
     1
102
RTVSPropertyOp18
 70
     1
102
RTVSPropertyOp19
 70
     1
102
RTVSPropertyOp20
 70
     1
102
RTVSPropertyOp21
 70
     1
102
RTVSPropertyOp22
 70
     1
102
RTVSPropertyOp23
 70
     1
102
RTVSPropertyOp24
 70
     1
102
RTVSPropertyOp25
 70
     1
102
RTVSPropertyOp26
 70
     1
102
RTVSPropertyOp27
 70
     1
102
RTVSPropertyOp28
 70
     1
102
RTVSPropertyOp29
 70
     1
102
RTVSPropertyOp30
 70
     1
102
RTVSPropertyOp31
 70
     1
102
RTVSPropertyOp32
 70
     1
102
RTVSPropertyOp33
 70
     1
102
RTVSPropertyOp34
 70
     1
102
RTVSPropertyOp35
 70
     1
102
RTVSPropertyOp36
 70
     1
102
RTVSPropertyOp37
 70
     1
102
RTVSPropertyOp38
 70
     1
102
RTVSPropertyOp39
 70
     1
102
RTVSPropertyOp40
 70
     1
102
RTVSPropertyOp41
 70
     1
102
RTVSPropertyOp42
 70
     1
102
RTVSPropertyOp43
 70
     1
102
RTVSPropertyOp44
 70
     1
102
RTVSPropertyOp45
 70
     1
102
RTVSPropertyOp46
 70
     1
102
RTVSPropertyOp47
 70
     1
102
RTVSPropertyOp48
 70
     1
102
RTVSPropertyOp49
 70
     1
102
RTVSPropertyOp50
 70
     1
102
RTVSPropertyOp51
 70
     0
102
RTVSPropertyOp52
 70
     0
102
RTVSPropertyOp53
 70
     1
102
RTVSPropertyOp54
 70
     1
102
RTVSPropertyOp55
 70
     1
102
RTVSPropertyOp56
 70
     1
102
RTVSPropertyOp57
 70
     1
102
RTVSPropertyOp58
 70
     1
102
RTVSPropertyOp59
 70
     1
102
RTVSPropertyOp60
 70
     1
102
RTVSPropertyOp61
 70
     1
102
RTVSPropertyOp62
 70
     1
  0
XRECORD
  5
1867
102
{ACAD_REACTORS
330
1866
102
}
330
1866
100
AcDbXrecord
280
     1
102
RTVSPost2010Prop28
280
     0
102
RTVSPost2010PropOp28
 70
     1
102
RTVSPost2010Prop29
280
     1
102
RTVSPost2010PropOp29
 70
     1
102
RTVSPost2010Prop30
280
     1
102
RTVSPost2010PropOp30
 70
     1
102
RTVSPost2010Prop31
280
     0
102
RTVSPost2010PropOp31
 70
     1
102
RTVSPost2010Prop32
280
     0
102
RTVSPost2010PropOp32
 70
     1
102
RTVSPost2010Prop33
280
     0
102
RTVSPost2010PropOp33
 70
     1
102
RTVSPost2010Prop34
280
     0
102
RTVSPost2010PropOp34
 70
     1
102
RTVSPost2010Prop35
280
     0
102
RTVSPost2010PropOp35
 70
     1
102
RTVSPost2010Prop36
280
     0
102
RTVSPost2010PropOp36
 70
     1
102
RTVSPost2010Prop37
 90
       50
102
RTVSPost2010PropOp37
 70
     1
102
RTVSPost2010Prop38
140
0.0
102
RTVSPost2010PropOp38
 70
     1
102
RTVSPost2010Prop39
140
1.0
102
RTVSPost2010PropOp39
 70
     1
102
RTVSPost2010Prop40
 90
        0
102
RTVSPost2010PropOp40
 70
     1
102
RTVSPost2010Prop41ColorIndex
 90
       18
102
RTVSPost2010Prop41ColorRGB
 90
        0
102
RTVSPost2010PropOp41
 70
     1
102
RTVSPost2010Prop42
 90
       50
102
RTVSPost2010PropOp42
 70
     1
102
RTVSPost2010Prop43
 90
        3
102
RTVSPost2010PropOp43
 70
     1
102
RTVSPost2010Prop44ColorIndex
 90
        5
102
RTVSPost2010Prop44ColorRGB
 90
      255
102
RTVSPost2010PropOp44
 70
     1
102
RTVSPost2010Prop45
280
     0
102
RTVSPost2010PropOp45
 70
     1
102
RTVSPost2010Prop46
 90
       50
102
RTVSPost2010PropOp46
 70
     1
102
RTVSPost2010Prop47
 90
       50
102
RTVSPost2010PropOp47
 70
     1
102
RTVSPost2010Prop48
 90
       50
102
RTVSPost2010PropOp48
 70
     1
102
RTVSPost2010Prop49
280
     0
102
RTVSPost2010PropOp49
 70
     1
102
RTVSPost2010Prop50
 90
       50
102
RTVSPost2010PropOp50
 70
     1
102
RTVSPost2010Prop51ColorIndex
 90
      256
102
RTVSPost2010Prop51ColorRGB
 90
-16777216
102
RTVSPost2010PropOp51
 70
     0
102
RTVSPost2010Prop52
140
1.0
102
RTVSPost2010PropOp52
 70
     0
102
RTVSPost2010Prop53
 90
        2
102
RTVSPost2010PropOp53
 70
     1
102
RTVSPost2010Prop54
  1
strokes_ogs.tif
102
RTVSPost2010PropOp54
 70
     1
102
RTVSPost2010Prop55
280
     0
102
RTVSPost2010PropOp55
 70
     1
102
RTVSPost2010Prop56
140
1.0
102
RTVSPost2010PropOp56
 70
     1
102
RTVSPost2010Prop57
140
1.0
102
RTVSPost2010PropOp57
 70
     1
102
RTVSPropertyOp0
 70
     1
102
RTVSPropertyOp1
 70
     1
102
RTVSPropertyOp2
 70
     1
102
RTVSPropertyOp3
 70
     1
102
RTVSPropertyOp4
 70
     1
102
RTVSPropertyOp5
 70
     1
102
RTVSPropertyOp6
 70
     1
102
RTVSPropertyOp7
 70
     1
102
RTVSPropertyOp8
 70
     1
102
RTVSPropertyOp9
 70
     1
102
RTVSPropertyOp10
 70
     1
102
RTVSPropertyOp11
 70
     1
102
RTVSPropertyOp12
 70
     1
102
RTVSPropertyOp13
 70
     1
102
RTVSPropertyOp14
 70
     1
102
RTVSPropertyOp15
 70
     1
102
RTVSPropertyOp16
 70
     1
102
RTVSPropertyOp17
 70
     1
102
RTVSPropertyOp18
 70
     1
102
RTVSPropertyOp19
 70
     1
102
RTVSPropertyOp20
 70
     1
102
RTVSPropertyOp21
 70
     1
102
RTVSPropertyOp22
 70
     1
102
RTVSPropertyOp23
 70
     1
102
RTVSPropertyOp24
 70
     1
102
RTVSPropertyOp25
 70
     1
102
RTVSPropertyOp26
 70
     1
102
RTVSPropertyOp27
 70
     1
102
RTVSPropertyOp28
 70
     1
102
RTVSPropertyOp29
 70
     1
102
RTVSPropertyOp30
 70
     1
102
RTVSPropertyOp31
 70
     1
102
RTVSPropertyOp32
 70
     1
102
RTVSPropertyOp33
 70
     1
102
RTVSPropertyOp34
 70
     1
102
RTVSPropertyOp35
 70
     1
102
RTVSPropertyOp36
 70
     1
102
RTVSPropertyOp37
 70
     1
102
RTVSPropertyOp38
 70
     1
102
RTVSPropertyOp39
 70
     1
102
RTVSPropertyOp40
 70
     1
102
RTVSPropertyOp41
 70
     1
102
RTVSPropertyOp42
 70
     1
102
RTVSPropertyOp43
 70
     1
102
RTVSPropertyOp44
 70
     1
102
RTVSPropertyOp45
 70
     1
102
RTVSPropertyOp46
 70
     1
102
RTVSPropertyOp47
 70
     1
102
RTVSPropertyOp48
 70
     1
102
RTVSPropertyOp49
 70
     1
102
RTVSPropertyOp50
 70
     1
102
RTVSPropertyOp51
 70
     0
102
RTVSPropertyOp52
 70
     0
102
RTVSPropertyOp53
 70
     1
102
RTVSPropertyOp54
 70
     1
102
RTVSPropertyOp55
 70
     1
102
RTVSPropertyOp56
 70
     1
102
RTVSPropertyOp57
 70
     1
102
RTVSPropertyOp58
 70
     1
102
RTVSPropertyOp59
 70
     1
102
RTVSPropertyOp60
 70
     1
102
RTVSPropertyOp61
 70
     1
102
RTVSPropertyOp62
 70
     1
  0
XRECORD
  5
1869
102
{ACAD_REACTORS
330
1868
102
}
330
1868
100
AcDbXrecord
280
     1
102
RTVSPost2010Prop28
280
     0
102
RTVSPost2010PropOp28
 70
     1
102
RTVSPost2010Prop29
280
     1
102
RTVSPost2010PropOp29
 70
     1
102
RTVSPost2010Prop30
280
     1
102
RTVSPost2010PropOp30
 70
     1
102
RTVSPost2010Prop31
280
     0
102
RTVSPost2010PropOp31
 70
     1
102
RTVSPost2010Prop32
280
     0
102
RTVSPost2010PropOp32
 70
     1
102
RTVSPost2010Prop33
280
     0
102
RTVSPost2010PropOp33
 70
     1
102
RTVSPost2010Prop34
280
     0
102
RTVSPost2010PropOp34
 70
     1
102
RTVSPost2010Prop35
280
     0
102
RTVSPost2010PropOp35
 70
     1
102
RTVSPost2010Prop36
280
     0
102
RTVSPost2010PropOp36
 70
     1
102
RTVSPost2010Prop37
 90
       50
102
RTVSPost2010PropOp37
 70
     1
102
RTVSPost2010Prop38
140
0.0
102
RTVSPost2010PropOp38
 70
     1
102
RTVSPost2010Prop39
140
1.0
102
RTVSPost2010PropOp39
 70
     1
102
RTVSPost2010Prop40
 90
        0
102
RTVSPost2010PropOp40
 70
     1
102
RTVSPost2010Prop41ColorIndex
 90
       18
102
RTVSPost2010Prop41ColorRGB
 90
        0
102
RTVSPost2010PropOp41
 70
     1
102
RTVSPost2010Prop42
 90
       50
102
RTVSPost2010PropOp42
 70
     1
102
RTVSPost2010Prop43
 90
        3
102
RTVSPost2010PropOp43
 70
     1
102
RTVSPost2010Prop44ColorIndex
 90
        5
102
RTVSPost2010Prop44ColorRGB
 90
      255
102
RTVSPost2010PropOp44
 70
     1
102
RTVSPost2010Prop45
280
     0
102
RTVSPost2010PropOp45
 70
     1
102
RTVSPost2010Prop46
 90
       50
102
RTVSPost2010PropOp46
 70
     1
102
RTVSPost2010Prop47
 90
       50
102
RTVSPost2010PropOp47
 70
     1
102
RTVSPost2010Prop48
 90
       50
102
RTVSPost2010PropOp48
 70
     1
102
RTVSPost2010Prop49
280
     0
102
RTVSPost2010PropOp49
 70
     1
102
RTVSPost2010Prop50
 90
       50
102
RTVSPost2010PropOp50
 70
     1
102
RTVSPost2010Prop51ColorIndex
 90
      256
102
RTVSPost2010Prop51ColorRGB
 90
-16777216
102
RTVSPost2010PropOp51
 70
     0
102
RTVSPost2010Prop52
140
1.0
102
RTVSPost2010PropOp52
 70
     0
102
RTVSPost2010Prop53
 90
        2
102
RTVSPost2010PropOp53
 70
     1
102
RTVSPost2010Prop54
  1
strokes_ogs.tif
102
RTVSPost2010PropOp54
 70
     1
102
RTVSPost2010Prop55
280
     0
102
RTVSPost2010PropOp55
 70
     1
102
RTVSPost2010Prop56
140
1.0
102
RTVSPost2010PropOp56
 70
     1
102
RTVSPost2010Prop57
140
1.0
102
RTVSPost2010PropOp57
 70
     1
102
RTVSPropertyOp0
 70
     1
102
RTVSPropertyOp1
 70
     1
102
RTVSPropertyOp2
 70
     1
102
RTVSPropertyOp3
 70
     1
102
RTVSPropertyOp4
 70
     1
102
RTVSPropertyOp5
 70
     1
102
RTVSPropertyOp6
 70
     1
102
RTVSPropertyOp7
 70
     1
102
RTVSPropertyOp8
 70
     1
102
RTVSPropertyOp9
 70
     1
102
RTVSPropertyOp10
 70
     1
102
RTVSPropertyOp11
 70
     1
102
RTVSPropertyOp12
 70
     1
102
RTVSPropertyOp13
 70
     1
102
RTVSPropertyOp14
 70
     1
102
RTVSPropertyOp15
 70
     1
102
RTVSPropertyOp16
 70
     1
102
RTVSPropertyOp17
 70
     1
102
RTVSPropertyOp18
 70
     1
102
RTVSPropertyOp19
 70
     1
102
RTVSPropertyOp20
 70
     1
102
RTVSPropertyOp21
 70
     1
102
RTVSPropertyOp22
 70
     1
102
RTVSPropertyOp23
 70
     1
102
RTVSPropertyOp24
 70
     1
102
RTVSPropertyOp25
 70
     1
102
RTVSPropertyOp26
 70
     1
102
RTVSPropertyOp27
 70
     1
102
RTVSPropertyOp28
 70
     1
102
RTVSPropertyOp29
 70
     1
102
RTVSPropertyOp30
 70
     1
102
RTVSPropertyOp31
 70
     1
102
RTVSPropertyOp32
 70
     1
102
RTVSPropertyOp33
 70
     1
102
RTVSPropertyOp34
 70
     1
102
RTVSPropertyOp35
 70
     1
102
RTVSPropertyOp36
 70
     1
102
RTVSPropertyOp37
 70
     1
102
RTVSPropertyOp38
 70
     1
102
RTVSPropertyOp39
 70
     1
102
RTVSPropertyOp40
 70
     1
102
RTVSPropertyOp41
 70
     1
102
RTVSPropertyOp42
 70
     1
102
RTVSPropertyOp43
 70
     1
102
RTVSPropertyOp44
 70
     1
102
RTVSPropertyOp45
 70
     1
102
RTVSPropertyOp46
 70
     1
102
RTVSPropertyOp47
 70
     1
102
RTVSPropertyOp48
 70
     1
102
RTVSPropertyOp49
 70
     1
102
RTVSPropertyOp50
 70
     1
102
RTVSPropertyOp51
 70
     0
102
RTVSPropertyOp52
 70
     0
102
RTVSPropertyOp53
 70
     1
102
RTVSPropertyOp54
 70
     1
102
RTVSPropertyOp55
 70
     1
102
RTVSPropertyOp56
 70
     1
102
RTVSPropertyOp57
 70
     1
102
RTVSPropertyOp58
 70
     1
102
RTVSPropertyOp59
 70
     1
102
RTVSPropertyOp60
 70
     1
102
RTVSPropertyOp61
 70
     1
102
RTVSPropertyOp62
 70
     1
  0
XRECORD
  5
1871
102
{ACAD_REACTORS
330
1870
102
}
330
1870
100
AcDbXrecord
280
     1
102
RTVSPost2010Prop28
280
     0
102
RTVSPost2010PropOp28
 70
     1
102
RTVSPost2010Prop29
280
     1
102
RTVSPost2010PropOp29
 70
     1
102
RTVSPost2010Prop30
280
     1
102
RTVSPost2010PropOp30
 70
     1
102
RTVSPost2010Prop31
280
     0
102
RTVSPost2010PropOp31
 70
     1
102
RTVSPost2010Prop32
280
     0
102
RTVSPost2010PropOp32
 70
     1
102
RTVSPost2010Prop33
280
     0
102
RTVSPost2010PropOp33
 70
     1
102
RTVSPost2010Prop34
280
     0
102
RTVSPost2010PropOp34
 70
     1
102
RTVSPost2010Prop35
280
     0
102
RTVSPost2010PropOp35
 70
     1
102
RTVSPost2010Prop36
280
     0
102
RTVSPost2010PropOp36
 70
     1
102
RTVSPost2010Prop37
 90
       50
102
RTVSPost2010PropOp37
 70
     1
102
RTVSPost2010Prop38
140
0.0
102
RTVSPost2010PropOp38
 70
     1
102
RTVSPost2010Prop39
140
1.0
102
RTVSPost2010PropOp39
 70
     1
102
RTVSPost2010Prop40
 90
        0
102
RTVSPost2010PropOp40
 70
     1
102
RTVSPost2010Prop41ColorIndex
 90
       18
102
RTVSPost2010Prop41ColorRGB
 90
        0
102
RTVSPost2010PropOp41
 70
     1
102
RTVSPost2010Prop42
 90
       50
102
RTVSPost2010PropOp42
 70
     1
102
RTVSPost2010Prop43
 90
        3
102
RTVSPost2010PropOp43
 70
     1
102
RTVSPost2010Prop44ColorIndex
 90
        5
102
RTVSPost2010Prop44ColorRGB
 90
      255
102
RTVSPost2010PropOp44
 70
     1
102
RTVSPost2010Prop45
280
     0
102
RTVSPost2010PropOp45
 70
     1
102
RTVSPost2010Prop46
 90
       50
102
RTVSPost2010PropOp46
 70
     1
102
RTVSPost2010Prop47
 90
       50
102
RTVSPost2010PropOp47
 70
     1
102
RTVSPost2010Prop48
 90
       50
102
RTVSPost2010PropOp48
 70
     1
102
RTVSPost2010Prop49
280
     0
102
RTVSPost2010PropOp49
 70
     1
102
RTVSPost2010Prop50
 90
       50
102
RTVSPost2010PropOp50
 70
     1
102
RTVSPost2010Prop51ColorIndex
 90
      256
102
RTVSPost2010Prop51ColorRGB
 90
-16777216
102
RTVSPost2010PropOp51
 70
     0
102
RTVSPost2010Prop52
140
1.0
102
RTVSPost2010PropOp52
 70
     0
102
RTVSPost2010Prop53
 90
        2
102
RTVSPost2010PropOp53
 70
     1
102
RTVSPost2010Prop54
  1
strokes_ogs.tif
102
RTVSPost2010PropOp54
 70
     1
102
RTVSPost2010Prop55
280
     0
102
RTVSPost2010PropOp55
 70
     1
102
RTVSPost2010Prop56
140
1.0
102
RTVSPost2010PropOp56
 70
     1
102
RTVSPost2010Prop57
140
1.0
102
RTVSPost2010PropOp57
 70
     1
102
RTVSPropertyOp0
 70
     1
102
RTVSPropertyOp1
 70
     1
102
RTVSPropertyOp2
 70
     1
102
RTVSPropertyOp3
 70
     1
102
RTVSPropertyOp4
 70
     1
102
RTVSPropertyOp5
 70
     1
102
RTVSPropertyOp6
 70
     1
102
RTVSPropertyOp7
 70
     1
102
RTVSPropertyOp8
 70
     1
102
RTVSPropertyOp9
 70
     1
102
RTVSPropertyOp10
 70
     1
102
RTVSPropertyOp11
 70
     1
102
RTVSPropertyOp12
 70
     1
102
RTVSPropertyOp13
 70
     1
102
RTVSPropertyOp14
 70
     1
102
RTVSPropertyOp15
 70
     1
102
RTVSPropertyOp16
 70
     1
102
RTVSPropertyOp17
 70
     1
102
RTVSPropertyOp18
 70
     1
102
RTVSPropertyOp19
 70
     1
102
RTVSPropertyOp20
 70
     1
102
RTVSPropertyOp21
 70
     1
102
RTVSPropertyOp22
 70
     1
102
RTVSPropertyOp23
 70
     1
102
RTVSPropertyOp24
 70
     1
102
RTVSPropertyOp25
 70
     1
102
RTVSPropertyOp26
 70
     1
102
RTVSPropertyOp27
 70
     1
102
RTVSPropertyOp28
 70
     1
102
RTVSPropertyOp29
 70
     1
102
RTVSPropertyOp30
 70
     1
102
RTVSPropertyOp31
 70
     1
102
RTVSPropertyOp32
 70
     1
102
RTVSPropertyOp33
 70
     1
102
RTVSPropertyOp34
 70
     1
102
RTVSPropertyOp35
 70
     1
102
RTVSPropertyOp36
 70
     1
102
RTVSPropertyOp37
 70
     1
102
RTVSPropertyOp38
 70
     1
102
RTVSPropertyOp39
 70
     1
102
RTVSPropertyOp40
 70
     1
102
RTVSPropertyOp41
 70
     1
102
RTVSPropertyOp42
 70
     1
102
RTVSPropertyOp43
 70
     1
102
RTVSPropertyOp44
 70
     1
102
RTVSPropertyOp45
 70
     1
102
RTVSPropertyOp46
 70
     1
102
RTVSPropertyOp47
 70
     1
102
RTVSPropertyOp48
 70
     1
102
RTVSPropertyOp49
 70
     1
102
RTVSPropertyOp50
 70
     1
102
RTVSPropertyOp51
 70
     0
102
RTVSPropertyOp52
 70
     0
102
RTVSPropertyOp53
 70
     1
102
RTVSPropertyOp54
 70
     1
102
RTVSPropertyOp55
 70
     1
102
RTVSPropertyOp56
 70
     1
102
RTVSPropertyOp57
 70
     1
102
RTVSPropertyOp58
 70
     1
102
RTVSPropertyOp59
 70
     1
102
RTVSPropertyOp60
 70
     1
102
RTVSPropertyOp61
 70
     1
102
RTVSPropertyOp62
 70
     1
  0
XRECORD
  5
188D
102
{ACAD_REACTORS
330
188C
102
}
330
188C
100
AcDbXrecord
280
     1
102
RTVSPost2010Prop28
280
     0
102
RTVSPost2010PropOp28
 70
     1
102
RTVSPost2010Prop29
280
     1
102
RTVSPost2010PropOp29
 70
     1
102
RTVSPost2010Prop30
280
     1
102
RTVSPost2010PropOp30
 70
     1
102
RTVSPost2010Prop31
280
     0
102
RTVSPost2010PropOp31
 70
     1
102
RTVSPost2010Prop32
280
     0
102
RTVSPost2010PropOp32
 70
     1
102
RTVSPost2010Prop33
280
     0
102
RTVSPost2010PropOp33
 70
     1
102
RTVSPost2010Prop34
280
     0
102
RTVSPost2010PropOp34
 70
     1
102
RTVSPost2010Prop35
280
     0
102
RTVSPost2010PropOp35
 70
     1
102
RTVSPost2010Prop36
280
     0
102
RTVSPost2010PropOp36
 70
     1
102
RTVSPost2010Prop37
 90
       50
102
RTVSPost2010PropOp37
 70
     0
102
RTVSPost2010Prop38
140
0.0
102
RTVSPost2010PropOp38
 70
     0
102
RTVSPost2010Prop39
140
1.0
102
RTVSPost2010PropOp39
 70
     0
102
RTVSPost2010Prop40
 90
        0
102
RTVSPost2010PropOp40
 70
     0
102
RTVSPost2010Prop41ColorIndex
 90
       18
102
RTVSPost2010Prop41ColorRGB
 90
        0
102
RTVSPost2010PropOp41
 70
     0
102
RTVSPost2010Prop42
 90
       50
102
RTVSPost2010PropOp42
 70
     0
102
RTVSPost2010Prop43
 90
        3
102
RTVSPost2010PropOp43
 70
     0
102
RTVSPost2010Prop44ColorIndex
 90
        5
102
RTVSPost2010Prop44ColorRGB
 90
      255
102
RTVSPost2010PropOp44
 70
     0
102
RTVSPost2010Prop45
280
     0
102
RTVSPost2010PropOp45
 70
     1
102
RTVSPost2010Prop46
 90
       50
102
RTVSPost2010PropOp46
 70
     0
102
RTVSPost2010Prop47
 90
       50
102
RTVSPost2010PropOp47
 70
     0
102
RTVSPost2010Prop48
 90
       50
102
RTVSPost2010PropOp48
 70
     0
102
RTVSPost2010Prop49
280
     0
102
RTVSPost2010PropOp49
 70
     1
102
RTVSPost2010Prop50
 90
       50
102
RTVSPost2010PropOp50
 70
     0
102
RTVSPost2010Prop51ColorIndex
 90
      256
102
RTVSPost2010Prop51ColorRGB
 90
-16777216
102
RTVSPost2010PropOp51
 70
     0
102
RTVSPost2010Prop52
140
1.0
102
RTVSPost2010PropOp52
 70
     0
102
RTVSPost2010Prop53
 90
        2
102
RTVSPost2010PropOp53
 70
     0
102
RTVSPost2010Prop54
  1
strokes_ogs.tif
102
RTVSPost2010PropOp54
 70
     0
102
RTVSPost2010Prop55
280
     0
102
RTVSPost2010PropOp55
 70
     1
102
RTVSPost2010Prop56
140
1.0
102
RTVSPost2010PropOp56
 70
     0
102
RTVSPost2010Prop57
140
1.0
102
RTVSPost2010PropOp57
 70
     0
102
RTVSPropertyOp0
 70
     0
102
RTVSPropertyOp1
 70
     0
102
RTVSPropertyOp2
 70
     0
102
RTVSPropertyOp3
 70
     0
102
RTVSPropertyOp4
 70
     0
102
RTVSPropertyOp5
 70
     0
102
RTVSPropertyOp6
 70
     0
102
RTVSPropertyOp7
 70
     0
102
RTVSPropertyOp8
 70
     0
102
RTVSPropertyOp9
 70
     0
102
RTVSPropertyOp10
 70
     0
102
RTVSPropertyOp11
 70
     0
102
RTVSPropertyOp12
 70
     0
102
RTVSPropertyOp13
 70
     0
102
RTVSPropertyOp14
 70
     2
102
RTVSPropertyOp15
 70
     0
102
RTVSPropertyOp16
 70
     0
102
RTVSPropertyOp17
 70
     0
102
RTVSPropertyOp18
 70
     0
102
RTVSPropertyOp19
 70
     0
102
RTVSPropertyOp20
 70
     0
102
RTVSPropertyOp21
 70
     0
102
RTVSPropertyOp22
 70
     0
102
RTVSPropertyOp23
 70
     0
102
RTVSPropertyOp24
 70
     0
102
RTVSPropertyOp25
 70
     0
102
RTVSPropertyOp26
 70
     0
102
RTVSPropertyOp27
 70
     0
102
RTVSPropertyOp28
 70
     1
102
RTVSPropertyOp29
 70
     1
102
RTVSPropertyOp30
 70
     1
102
RTVSPropertyOp31
 70
     1
102
RTVSPropertyOp32
 70
     1
102
RTVSPropertyOp33
 70
     1
102
RTVSPropertyOp34
 70
     1
102
RTVSPropertyOp35
 70
     1
102
RTVSPropertyOp36
 70
     1
102
RTVSPropertyOp37
 70
     0
102
RTVSPropertyOp38
 70
     0
102
RTVSPropertyOp39
 70
     0
102
RTVSPropertyOp40
 70
     0
102
RTVSPropertyOp41
 70
     0
102
RTVSPropertyOp42
 70
     0
102
RTVSPropertyOp43
 70
     0
102
RTVSPropertyOp44
 70
     0
102
RTVSPropertyOp45
 70
     1
102
RTVSPropertyOp46
 70
     0
102
RTVSPropertyOp47
 70
     0
102
RTVSPropertyOp48
 70
     0
102
RTVSPropertyOp49
 70
     1
102
RTVSPropertyOp50
 70
     0
102
RTVSPropertyOp51
 70
     0
102
RTVSPropertyOp52
 70
     0
102
RTVSPropertyOp53
 70
     0
102
RTVSPropertyOp54
 70
     0
102
RTVSPropertyOp55
 70
     1
102
RTVSPropertyOp56
 70
     0
102
RTVSPropertyOp57
 70
     0
102
RTVSPropertyOp58
 70
     0
102
RTVSPropertyOp59
 70
     0
102
RTVSPropertyOp60
 70
     0
102
RTVSPropertyOp61
 70
     0
102
RTVSPropertyOp62
 70
     0
  0
XRECORD
  5
187D
102
{ACAD_REACTORS
330
187C
102
}
330
187C
100
AcDbXrecord
280
     1
102
RTVSPost2010Prop28
280
     0
102
RTVSPost2010PropOp28
 70
     1
102
RTVSPost2010Prop29
280
     1
102
RTVSPost2010PropOp29
 70
     1
102
RTVSPost2010Prop30
280
     1
102
RTVSPost2010PropOp30
 70
     1
102
RTVSPost2010Prop31
280
     0
102
RTVSPost2010PropOp31
 70
     1
102
RTVSPost2010Prop32
280
     0
102
RTVSPost2010PropOp32
 70
     1
102
RTVSPost2010Prop33
280
     0
102
RTVSPost2010PropOp33
 70
     1
102
RTVSPost2010Prop34
280
     0
102
RTVSPost2010PropOp34
 70
     1
102
RTVSPost2010Prop35
280
     0
102
RTVSPost2010PropOp35
 70
     1
102
RTVSPost2010Prop36
280
     0
102
RTVSPost2010PropOp36
 70
     1
102
RTVSPost2010Prop37
 90
       50
102
RTVSPost2010PropOp37
 70
     1
102
RTVSPost2010Prop38
140
0.0
102
RTVSPost2010PropOp38
 70
     1
102
RTVSPost2010Prop39
140
1.0
102
RTVSPost2010PropOp39
 70
     1
102
RTVSPost2010Prop40
 90
        0
102
RTVSPost2010PropOp40
 70
     1
102
RTVSPost2010Prop41ColorIndex
 90
       18
102
RTVSPost2010Prop41ColorRGB
 90
        0
102
RTVSPost2010PropOp41
 70
     1
102
RTVSPost2010Prop42
 90
       50
102
RTVSPost2010PropOp42
 70
     1
102
RTVSPost2010Prop43
 90
        3
102
RTVSPost2010PropOp43
 70
     1
102
RTVSPost2010Prop44ColorIndex
 90
        5
102
RTVSPost2010Prop44ColorRGB
 90
      255
102
RTVSPost2010PropOp44
 70
     1
102
RTVSPost2010Prop45
280
     0
102
RTVSPost2010PropOp45
 70
     1
102
RTVSPost2010Prop46
 90
       50
102
RTVSPost2010PropOp46
 70
     1
102
RTVSPost2010Prop47
 90
       50
102
RTVSPost2010PropOp47
 70
     1
102
RTVSPost2010Prop48
 90
       50
102
RTVSPost2010PropOp48
 70
     1
102
RTVSPost2010Prop49
280
     0
102
RTVSPost2010PropOp49
 70
     1
102
RTVSPost2010Prop50
 90
       50
102
RTVSPost2010PropOp50
 70
     1
102
RTVSPost2010Prop51ColorIndex
 90
      256
102
RTVSPost2010Prop51ColorRGB
 90
-16777216
102
RTVSPost2010PropOp51
 70
     0
102
RTVSPost2010Prop52
140
1.0
102
RTVSPost2010PropOp52
 70
     0
102
RTVSPost2010Prop53
 90
        2
102
RTVSPost2010PropOp53
 70
     1
102
RTVSPost2010Prop54
  1
strokes_ogs.tif
102
RTVSPost2010PropOp54
 70
     1
102
RTVSPost2010Prop55
280
     0
102
RTVSPost2010PropOp55
 70
     1
102
RTVSPost2010Prop56
140
1.0
102
RTVSPost2010PropOp56
 70
     1
102
RTVSPost2010Prop57
140
1.0
102
RTVSPost2010PropOp57
 70
     1
102
RTVSPropertyOp0
 70
     1
102
RTVSPropertyOp1
 70
     1
102
RTVSPropertyOp2
 70
     1
102
RTVSPropertyOp3
 70
     1
102
RTVSPropertyOp4
 70
     1
102
RTVSPropertyOp5
 70
     1
102
RTVSPropertyOp6
 70
     1
102
RTVSPropertyOp7
 70
     1
102
RTVSPropertyOp8
 70
     1
102
RTVSPropertyOp9
 70
     1
102
RTVSPropertyOp10
 70
     1
102
RTVSPropertyOp11
 70
     1
102
RTVSPropertyOp12
 70
     1
102
RTVSPropertyOp13
 70
     1
102
RTVSPropertyOp14
 70
     1
102
RTVSPropertyOp15
 70
     1
102
RTVSPropertyOp16
 70
     1
102
RTVSPropertyOp17
 70
     1
102
RTVSPropertyOp18
 70
     1
102
RTVSPropertyOp19
 70
     1
102
RTVSPropertyOp20
 70
     1
102
RTVSPropertyOp21
 70
     1
102
RTVSPropertyOp22
 70
     1
102
RTVSPropertyOp23
 70
     1
102
RTVSPropertyOp24
 70
     1
102
RTVSPropertyOp25
 70
     1
102
RTVSPropertyOp26
 70
     1
102
RTVSPropertyOp27
 70
     1
102
RTVSPropertyOp28
 70
     1
102
RTVSPropertyOp29
 70
     1
102
RTVSPropertyOp30
 70
     1
102
RTVSPropertyOp31
 70
     1
102
RTVSPropertyOp32
 70
     1
102
RTVSPropertyOp33
 70
     1
102
RTVSPropertyOp34
 70
     1
102
RTVSPropertyOp35
 70
     1
102
RTVSPropertyOp36
 70
     1
102
RTVSPropertyOp37
 70
     1
102
RTVSPropertyOp38
 70
     1
102
RTVSPropertyOp39
 70
     1
102
RTVSPropertyOp40
 70
     1
102
RTVSPropertyOp41
 70
     1
102
RTVSPropertyOp42
 70
     1
102
RTVSPropertyOp43
 70
     1
102
RTVSPropertyOp44
 70
     1
102
RTVSPropertyOp45
 70
     1
102
RTVSPropertyOp46
 70
     1
102
RTVSPropertyOp47
 70
     1
102
RTVSPropertyOp48
 70
     1
102
RTVSPropertyOp49
 70
     1
102
RTVSPropertyOp50
 70
     1
102
RTVSPropertyOp51
 70
     0
102
RTVSPropertyOp52
 70
     0
102
RTVSPropertyOp53
 70
     1
102
RTVSPropertyOp54
 70
     1
102
RTVSPropertyOp55
 70
     1
102
RTVSPropertyOp56
 70
     1
102
RTVSPropertyOp57
 70
     1
102
RTVSPropertyOp58
 70
     1
102
RTVSPropertyOp59
 70
     1
102
RTVSPropertyOp60
 70
     1
102
RTVSPropertyOp61
 70
     1
102
RTVSPropertyOp62
 70
     1
  0
XRECORD
  5
188F
102
{ACAD_REACTORS
330
188E
102
}
330
188E
100
AcDbXrecord
280
     1
102
RTVSPost2010Prop28
280
     0
102
RTVSPost2010PropOp28
 70
     1
102
RTVSPost2010Prop29
280
     1
102
RTVSPost2010PropOp29
 70
     1
102
RTVSPost2010Prop30
280
     1
102
RTVSPost2010PropOp30
 70
     1
102
RTVSPost2010Prop31
280
     0
102
RTVSPost2010PropOp31
 70
     1
102
RTVSPost2010Prop32
280
     0
102
RTVSPost2010PropOp32
 70
     1
102
RTVSPost2010Prop33
280
     0
102
RTVSPost2010PropOp33
 70
     1
102
RTVSPost2010Prop34
280
     0
102
RTVSPost2010PropOp34
 70
     1
102
RTVSPost2010Prop35
280
     0
102
RTVSPost2010PropOp35
 70
     1
102
RTVSPost2010Prop36
280
     0
102
RTVSPost2010PropOp36
 70
     1
102
RTVSPost2010Prop37
 90
       50
102
RTVSPost2010PropOp37
 70
     0
102
RTVSPost2010Prop38
140
0.0
102
RTVSPost2010PropOp38
 70
     0
102
RTVSPost2010Prop39
140
1.0
102
RTVSPost2010PropOp39
 70
     0
102
RTVSPost2010Prop40
 90
        0
102
RTVSPost2010PropOp40
 70
     0
102
RTVSPost2010Prop41ColorIndex
 90
       18
102
RTVSPost2010Prop41ColorRGB
 90
        0
102
RTVSPost2010PropOp41
 70
     0
102
RTVSPost2010Prop42
 90
       50
102
RTVSPost2010PropOp42
 70
     0
102
RTVSPost2010Prop43
 90
        3
102
RTVSPost2010PropOp43
 70
     0
102
RTVSPost2010Prop44ColorIndex
 90
        5
102
RTVSPost2010Prop44ColorRGB
 90
      255
102
RTVSPost2010PropOp44
 70
     0
102
RTVSPost2010Prop45
280
     0
102
RTVSPost2010PropOp45
 70
     1
102
RTVSPost2010Prop46
 90
       50
102
RTVSPost2010PropOp46
 70
     0
102
RTVSPost2010Prop47
 90
       50
102
RTVSPost2010PropOp47
 70
     0
102
RTVSPost2010Prop48
 90
       50
102
RTVSPost2010PropOp48
 70
     0
102
RTVSPost2010Prop49
280
     0
102
RTVSPost2010PropOp49
 70
     1
102
RTVSPost2010Prop50
 90
       50
102
RTVSPost2010PropOp50
 70
     0
102
RTVSPost2010Prop51ColorIndex
 90
      256
102
RTVSPost2010Prop51ColorRGB
 90
-16777216
102
RTVSPost2010PropOp51
 70
     0
102
RTVSPost2010Prop52
140
1.0
102
RTVSPost2010PropOp52
 70
     0
102
RTVSPost2010Prop53
 90
        2
102
RTVSPost2010PropOp53
 70
     0
102
RTVSPost2010Prop54
  1
strokes_ogs.tif
102
RTVSPost2010PropOp54
 70
     0
102
RTVSPost2010Prop55
280
     0
102
RTVSPost2010PropOp55
 70
     1
102
RTVSPost2010Prop56
140
1.0
102
RTVSPost2010PropOp56
 70
     0
102
RTVSPost2010Prop57
140
1.0
102
RTVSPost2010PropOp57
 70
     0
102
RTVSPropertyOp0
 70
     0
102
RTVSPropertyOp1
 70
     0
102
RTVSPropertyOp2
 70
     0
102
RTVSPropertyOp3
 70
     0
102
RTVSPropertyOp4
 70
     0
102
RTVSPropertyOp5
 70
     0
102
RTVSPropertyOp6
 70
     0
102
RTVSPropertyOp7
 70
     0
102
RTVSPropertyOp8
 70
     0
102
RTVSPropertyOp9
 70
     0
102
RTVSPropertyOp10
 70
     0
102
RTVSPropertyOp11
 70
     0
102
RTVSPropertyOp12
 70
     0
102
RTVSPropertyOp13
 70
     0
102
RTVSPropertyOp14
 70
     2
102
RTVSPropertyOp15
 70
     0
102
RTVSPropertyOp16
 70
     0
102
RTVSPropertyOp17
 70
     0
102
RTVSPropertyOp18
 70
     0
102
RTVSPropertyOp19
 70
     0
102
RTVSPropertyOp20
 70
     0
102
RTVSPropertyOp21
 70
     0
102
RTVSPropertyOp22
 70
     0
102
RTVSPropertyOp23
 70
     0
102
RTVSPropertyOp24
 70
     0
102
RTVSPropertyOp25
 70
     0
102
RTVSPropertyOp26
 70
     0
102
RTVSPropertyOp27
 70
     0
102
RTVSPropertyOp28
 70
     1
102
RTVSPropertyOp29
 70
     1
102
RTVSPropertyOp30
 70
     1
102
RTVSPropertyOp31
 70
     1
102
RTVSPropertyOp32
 70
     1
102
RTVSPropertyOp33
 70
     1
102
RTVSPropertyOp34
 70
     1
102
RTVSPropertyOp35
 70
     1
102
RTVSPropertyOp36
 70
     1
102
RTVSPropertyOp37
 70
     0
102
RTVSPropertyOp38
 70
     0
102
RTVSPropertyOp39
 70
     0
102
RTVSPropertyOp40
 70
     0
102
RTVSPropertyOp41
 70
     0
102
RTVSPropertyOp42
 70
     0
102
RTVSPropertyOp43
 70
     0
102
RTVSPropertyOp44
 70
     0
102
RTVSPropertyOp45
 70
     1
102
RTVSPropertyOp46
 70
     0
102
RTVSPropertyOp47
 70
     0
102
RTVSPropertyOp48
 70
     0
102
RTVSPropertyOp49
 70
     1
102
RTVSPropertyOp50
 70
     0
102
RTVSPropertyOp51
 70
     0
102
RTVSPropertyOp52
 70
     0
102
RTVSPropertyOp53
 70
     0
102
RTVSPropertyOp54
 70
     0
102
RTVSPropertyOp55
 70
     1
102
RTVSPropertyOp56
 70
     0
102
RTVSPropertyOp57
 70
     0
102
RTVSPropertyOp58
 70
     0
102
RTVSPropertyOp59
 70
     0
102
RTVSPropertyOp60
 70
     0
102
RTVSPropertyOp61
 70
     0
102
RTVSPropertyOp62
 70
     0
  0
XRECORD
  5
1875
102
{ACAD_REACTORS
330
1874
102
}
330
1874
100
AcDbXrecord
280
     1
102
RTVSPost2010Prop28
280
     0
102
RTVSPost2010PropOp28
 70
     1
102
RTVSPost2010Prop29
280
     1
102
RTVSPost2010PropOp29
 70
     1
102
RTVSPost2010Prop30
280
     1
102
RTVSPost2010PropOp30
 70
     1
102
RTVSPost2010Prop31
280
     0
102
RTVSPost2010PropOp31
 70
     1
102
RTVSPost2010Prop32
280
     0
102
RTVSPost2010PropOp32
 70
     1
102
RTVSPost2010Prop33
280
     0
102
RTVSPost2010PropOp33
 70
     1
102
RTVSPost2010Prop34
280
     0
102
RTVSPost2010PropOp34
 70
     1
102
RTVSPost2010Prop35
280
     0
102
RTVSPost2010PropOp35
 70
     1
102
RTVSPost2010Prop36
280
     0
102
RTVSPost2010PropOp36
 70
     1
102
RTVSPost2010Prop37
 90
       50
102
RTVSPost2010PropOp37
 70
     1
102
RTVSPost2010Prop38
140
0.0
102
RTVSPost2010PropOp38
 70
     1
102
RTVSPost2010Prop39
140
1.0
102
RTVSPost2010PropOp39
 70
     1
102
RTVSPost2010Prop40
 90
        0
102
RTVSPost2010PropOp40
 70
     1
102
RTVSPost2010Prop41ColorIndex
 90
       18
102
RTVSPost2010Prop41ColorRGB
 90
        0
102
RTVSPost2010PropOp41
 70
     1
102
RTVSPost2010Prop42
 90
       50
102
RTVSPost2010PropOp42
 70
     1
102
RTVSPost2010Prop43
 90
        3
102
RTVSPost2010PropOp43
 70
     1
102
RTVSPost2010Prop44ColorIndex
 90
        5
102
RTVSPost2010Prop44ColorRGB
 90
      255
102
RTVSPost2010PropOp44
 70
     1
102
RTVSPost2010Prop45
280
     0
102
RTVSPost2010PropOp45
 70
     1
102
RTVSPost2010Prop46
 90
       50
102
RTVSPost2010PropOp46
 70
     1
102
RTVSPost2010Prop47
 90
       50
102
RTVSPost2010PropOp47
 70
     1
102
RTVSPost2010Prop48
 90
       50
102
RTVSPost2010PropOp48
 70
     1
102
RTVSPost2010Prop49
280
     0
102
RTVSPost2010PropOp49
 70
     1
102
RTVSPost2010Prop50
 90
       50
102
RTVSPost2010PropOp50
 70
     1
102
RTVSPost2010Prop51ColorIndex
 90
      256
102
RTVSPost2010Prop51ColorRGB
 90
-16777216
102
RTVSPost2010PropOp51
 70
     0
102
RTVSPost2010Prop52
140
1.0
102
RTVSPost2010PropOp52
 70
     0
102
RTVSPost2010Prop53
 90
        2
102
RTVSPost2010PropOp53
 70
     1
102
RTVSPost2010Prop54
  1
strokes_ogs.tif
102
RTVSPost2010PropOp54
 70
     1
102
RTVSPost2010Prop55
280
     0
102
RTVSPost2010PropOp55
 70
     1
102
RTVSPost2010Prop56
140
1.0
102
RTVSPost2010PropOp56
 70
     1
102
RTVSPost2010Prop57
140
1.0
102
RTVSPost2010PropOp57
 70
     1
102
RTVSPropertyOp0
 70
     1
102
RTVSPropertyOp1
 70
     1
102
RTVSPropertyOp2
 70
     1
102
RTVSPropertyOp3
 70
     1
102
RTVSPropertyOp4
 70
     1
102
RTVSPropertyOp5
 70
     1
102
RTVSPropertyOp6
 70
     1
102
RTVSPropertyOp7
 70
     1
102
RTVSPropertyOp8
 70
     1
102
RTVSPropertyOp9
 70
     1
102
RTVSPropertyOp10
 70
     1
102
RTVSPropertyOp11
 70
     1
102
RTVSPropertyOp12
 70
     1
102
RTVSPropertyOp13
 70
     1
102
RTVSPropertyOp14
 70
     1
102
RTVSPropertyOp15
 70
     1
102
RTVSPropertyOp16
 70
     1
102
RTVSPropertyOp17
 70
     1
102
RTVSPropertyOp18
 70
     1
102
RTVSPropertyOp19
 70
     1
102
RTVSPropertyOp20
 70
     1
102
RTVSPropertyOp21
 70
     1
102
RTVSPropertyOp22
 70
     1
102
RTVSPropertyOp23
 70
     1
102
RTVSPropertyOp24
 70
     1
102
RTVSPropertyOp25
 70
     1
102
RTVSPropertyOp26
 70
     1
102
RTVSPropertyOp27
 70
     1
102
RTVSPropertyOp28
 70
     1
102
RTVSPropertyOp29
 70
     1
102
RTVSPropertyOp30
 70
     1
102
RTVSPropertyOp31
 70
     1
102
RTVSPropertyOp32
 70
     1
102
RTVSPropertyOp33
 70
     1
102
RTVSPropertyOp34
 70
     1
102
RTVSPropertyOp35
 70
     1
102
RTVSPropertyOp36
 70
     1
102
RTVSPropertyOp37
 70
     1
102
RTVSPropertyOp38
 70
     1
102
RTVSPropertyOp39
 70
     1
102
RTVSPropertyOp40
 70
     1
102
RTVSPropertyOp41
 70
     1
102
RTVSPropertyOp42
 70
     1
102
RTVSPropertyOp43
 70
     1
102
RTVSPropertyOp44
 70
     1
102
RTVSPropertyOp45
 70
     1
102
RTVSPropertyOp46
 70
     1
102
RTVSPropertyOp47
 70
     1
102
RTVSPropertyOp48
 70
     1
102
RTVSPropertyOp49
 70
     1
102
RTVSPropertyOp50
 70
     1
102
RTVSPropertyOp51
 70
     0
102
RTVSPropertyOp52
 70
     0
102
RTVSPropertyOp53
 70
     1
102
RTVSPropertyOp54
 70
     1
102
RTVSPropertyOp55
 70
     1
102
RTVSPropertyOp56
 70
     1
102
RTVSPropertyOp57
 70
     1
102
RTVSPropertyOp58
 70
     1
102
RTVSPropertyOp59
 70
     1
102
RTVSPropertyOp60
 70
     1
102
RTVSPropertyOp61
 70
     1
102
RTVSPropertyOp62
 70
     1
  0
XRECORD
  5
188B
102
{ACAD_REACTORS
330
188A
102
}
330
188A
100
AcDbXrecord
280
     1
102
RTVSPost2010Prop28
280
     0
102
RTVSPost2010PropOp28
 70
     1
102
RTVSPost2010Prop29
280
     1
102
RTVSPost2010PropOp29
 70
     1
102
RTVSPost2010Prop30
280
     1
102
RTVSPost2010PropOp30
 70
     1
102
RTVSPost2010Prop31
280
     0
102
RTVSPost2010PropOp31
 70
     1
102
RTVSPost2010Prop32
280
     0
102
RTVSPost2010PropOp32
 70
     1
102
RTVSPost2010Prop33
280
     0
102
RTVSPost2010PropOp33
 70
     1
102
RTVSPost2010Prop34
280
     0
102
RTVSPost2010PropOp34
 70
     1
102
RTVSPost2010Prop35
280
     0
102
RTVSPost2010PropOp35
 70
     1
102
RTVSPost2010Prop36
280
     0
102
RTVSPost2010PropOp36
 70
     1
102
RTVSPost2010Prop37
 90
       50
102
RTVSPost2010PropOp37
 70
     1
102
RTVSPost2010Prop38
140
0.0
102
RTVSPost2010PropOp38
 70
     1
102
RTVSPost2010Prop39
140
1.0
102
RTVSPost2010PropOp39
 70
     1
102
RTVSPost2010Prop40
 90
        0
102
RTVSPost2010PropOp40
 70
     1
102
RTVSPost2010Prop41ColorIndex
 90
       18
102
RTVSPost2010Prop41ColorRGB
 90
        0
102
RTVSPost2010PropOp41
 70
     1
102
RTVSPost2010Prop42
 90
       50
102
RTVSPost2010PropOp42
 70
     1
102
RTVSPost2010Prop43
 90
        3
102
RTVSPost2010PropOp43
 70
     1
102
RTVSPost2010Prop44ColorIndex
 90
        5
102
RTVSPost2010Prop44ColorRGB
 90
      255
102
RTVSPost2010PropOp44
 70
     1
102
RTVSPost2010Prop45
280
     0
102
RTVSPost2010PropOp45
 70
     1
102
RTVSPost2010Prop46
 90
       50
102
RTVSPost2010PropOp46
 70
     1
102
RTVSPost2010Prop47
 90
       50
102
RTVSPost2010PropOp47
 70
     1
102
RTVSPost2010Prop48
 90
       50
102
RTVSPost2010PropOp48
 70
     1
102
RTVSPost2010Prop49
280
     0
102
RTVSPost2010PropOp49
 70
     1
102
RTVSPost2010Prop50
 90
       50
102
RTVSPost2010PropOp50
 70
     1
102
RTVSPost2010Prop51ColorIndex
 90
      256
102
RTVSPost2010Prop51ColorRGB
 90
-16777216
102
RTVSPost2010PropOp51
 70
     0
102
RTVSPost2010Prop52
140
1.0
102
RTVSPost2010PropOp52
 70
     0
102
RTVSPost2010Prop53
 90
        2
102
RTVSPost2010PropOp53
 70
     1
102
RTVSPost2010Prop54
  1
strokes_ogs.tif
102
RTVSPost2010PropOp54
 70
     1
102
RTVSPost2010Prop55
280
     0
102
RTVSPost2010PropOp55
 70
     1
102
RTVSPost2010Prop56
140
1.0
102
RTVSPost2010PropOp56
 70
     1
102
RTVSPost2010Prop57
140
1.0
102
RTVSPost2010PropOp57
 70
     1
102
RTVSPropertyOp0
 70
     1
102
RTVSPropertyOp1
 70
     1
102
RTVSPropertyOp2
 70
     1
102
RTVSPropertyOp3
 70
     1
102
RTVSPropertyOp4
 70
     1
102
RTVSPropertyOp5
 70
     1
102
RTVSPropertyOp6
 70
     1
102
RTVSPropertyOp7
 70
     1
102
RTVSPropertyOp8
 70
     1
102
RTVSPropertyOp9
 70
     1
102
RTVSPropertyOp10
 70
     1
102
RTVSPropertyOp11
 70
     1
102
RTVSPropertyOp12
 70
     1
102
RTVSPropertyOp13
 70
     1
102
RTVSPropertyOp14
 70
     1
102
RTVSPropertyOp15
 70
     1
102
RTVSPropertyOp16
 70
     1
102
RTVSPropertyOp17
 70
     1
102
RTVSPropertyOp18
 70
     1
102
RTVSPropertyOp19
 70
     1
102
RTVSPropertyOp20
 70
     1
102
RTVSPropertyOp21
 70
     1
102
RTVSPropertyOp22
 70
     1
102
RTVSPropertyOp23
 70
     1
102
RTVSPropertyOp24
 70
     1
102
RTVSPropertyOp25
 70
     1
102
RTVSPropertyOp26
 70
     1
102
RTVSPropertyOp27
 70
     1
102
RTVSPropertyOp28
 70
     1
102
RTVSPropertyOp29
 70
     1
102
RTVSPropertyOp30
 70
     1
102
RTVSPropertyOp31
 70
     1
102
RTVSPropertyOp32
 70
     1
102
RTVSPropertyOp33
 70
     1
102
RTVSPropertyOp34
 70
     1
102
RTVSPropertyOp35
 70
     1
102
RTVSPropertyOp36
 70
     1
102
RTVSPropertyOp37
 70
     1
102
RTVSPropertyOp38
 70
     1
102
RTVSPropertyOp39
 70
     1
102
RTVSPropertyOp40
 70
     1
102
RTVSPropertyOp41
 70
     1
102
RTVSPropertyOp42
 70
     1
102
RTVSPropertyOp43
 70
     1
102
RTVSPropertyOp44
 70
     1
102
RTVSPropertyOp45
 70
     1
102
RTVSPropertyOp46
 70
     1
102
RTVSPropertyOp47
 70
     1
102
RTVSPropertyOp48
 70
     1
102
RTVSPropertyOp49
 70
     1
102
RTVSPropertyOp50
 70
     1
102
RTVSPropertyOp51
 70
     0
102
RTVSPropertyOp52
 70
     0
102
RTVSPropertyOp53
 70
     1
102
RTVSPropertyOp54
 70
     1
102
RTVSPropertyOp55
 70
     1
102
RTVSPropertyOp56
 70
     1
102
RTVSPropertyOp57
 70
     1
102
RTVSPropertyOp58
 70
     1
102
RTVSPropertyOp59
 70
     1
102
RTVSPropertyOp60
 70
     1
102
RTVSPropertyOp61
 70
     1
102
RTVSPropertyOp62
 70
     1
  0
XRECORD
  5
1889
102
{ACAD_REACTORS
330
1888
102
}
330
1888
100
AcDbXrecord
280
     1
102
RTVSPost2010Prop28
280
     0
102
RTVSPost2010PropOp28
 70
     1
102
RTVSPost2010Prop29
280
     1
102
RTVSPost2010PropOp29
 70
     1
102
RTVSPost2010Prop30
280
     1
102
RTVSPost2010PropOp30
 70
     1
102
RTVSPost2010Prop31
280
     0
102
RTVSPost2010PropOp31
 70
     1
102
RTVSPost2010Prop32
280
     0
102
RTVSPost2010PropOp32
 70
     1
102
RTVSPost2010Prop33
280
     0
102
RTVSPost2010PropOp33
 70
     1
102
RTVSPost2010Prop34
280
     0
102
RTVSPost2010PropOp34
 70
     1
102
RTVSPost2010Prop35
280
     0
102
RTVSPost2010PropOp35
 70
     1
102
RTVSPost2010Prop36
280
     0
102
RTVSPost2010PropOp36
 70
     1
102
RTVSPost2010Prop37
 90
       50
102
RTVSPost2010PropOp37
 70
     1
102
RTVSPost2010Prop38
140
0.0
102
RTVSPost2010PropOp38
 70
     1
102
RTVSPost2010Prop39
140
1.0
102
RTVSPost2010PropOp39
 70
     1
102
RTVSPost2010Prop40
 90
        0
102
RTVSPost2010PropOp40
 70
     1
102
RTVSPost2010Prop41ColorIndex
 90
       18
102
RTVSPost2010Prop41ColorRGB
 90
        0
102
RTVSPost2010PropOp41
 70
     1
102
RTVSPost2010Prop42
 90
       50
102
RTVSPost2010PropOp42
 70
     1
102
RTVSPost2010Prop43
 90
        3
102
RTVSPost2010PropOp43
 70
     1
102
RTVSPost2010Prop44ColorIndex
 90
        5
102
RTVSPost2010Prop44ColorRGB
 90
      255
102
RTVSPost2010PropOp44
 70
     1
102
RTVSPost2010Prop45
280
     0
102
RTVSPost2010PropOp45
 70
     1
102
RTVSPost2010Prop46
 90
       50
102
RTVSPost2010PropOp46
 70
     1
102
RTVSPost2010Prop47
 90
       50
102
RTVSPost2010PropOp47
 70
     1
102
RTVSPost2010Prop48
 90
       50
102
RTVSPost2010PropOp48
 70
     1
102
RTVSPost2010Prop49
280
     0
102
RTVSPost2010PropOp49
 70
     1
102
RTVSPost2010Prop50
 90
       50
102
RTVSPost2010PropOp50
 70
     1
102
RTVSPost2010Prop51ColorIndex
 90
      256
102
RTVSPost2010Prop51ColorRGB
 90
-16777216
102
RTVSPost2010PropOp51
 70
     0
102
RTVSPost2010Prop52
140
1.0
102
RTVSPost2010PropOp52
 70
     0
102
RTVSPost2010Prop53
 90
        2
102
RTVSPost2010PropOp53
 70
     1
102
RTVSPost2010Prop54
  1
strokes_ogs.tif
102
RTVSPost2010PropOp54
 70
     1
102
RTVSPost2010Prop55
280
     0
102
RTVSPost2010PropOp55
 70
     1
102
RTVSPost2010Prop56
140
1.0
102
RTVSPost2010PropOp56
 70
     1
102
RTVSPost2010Prop57
140
1.0
102
RTVSPost2010PropOp57
 70
     1
102
RTVSPropertyOp0
 70
     1
102
RTVSPropertyOp1
 70
     1
102
RTVSPropertyOp2
 70
     1
102
RTVSPropertyOp3
 70
     1
102
RTVSPropertyOp4
 70
     1
102
RTVSPropertyOp5
 70
     1
102
RTVSPropertyOp6
 70
     1
102
RTVSPropertyOp7
 70
     1
102
RTVSPropertyOp8
 70
     1
102
RTVSPropertyOp9
 70
     1
102
RTVSPropertyOp10
 70
     1
102
RTVSPropertyOp11
 70
     1
102
RTVSPropertyOp12
 70
     1
102
RTVSPropertyOp13
 70
     1
102
RTVSPropertyOp14
 70
     1
102
RTVSPropertyOp15
 70
     1
102
RTVSPropertyOp16
 70
     1
102
RTVSPropertyOp17
 70
     1
102
RTVSPropertyOp18
 70
     1
102
RTVSPropertyOp19
 70
     1
102
RTVSPropertyOp20
 70
     1
102
RTVSPropertyOp21
 70
     1
102
RTVSPropertyOp22
 70
     1
102
RTVSPropertyOp23
 70
     1
102
RTVSPropertyOp24
 70
     1
102
RTVSPropertyOp25
 70
     1
102
RTVSPropertyOp26
 70
     1
102
RTVSPropertyOp27
 70
     1
102
RTVSPropertyOp28
 70
     1
102
RTVSPropertyOp29
 70
     1
102
RTVSPropertyOp30
 70
     1
102
RTVSPropertyOp31
 70
     1
102
RTVSPropertyOp32
 70
     1
102
RTVSPropertyOp33
 70
     1
102
RTVSPropertyOp34
 70
     1
102
RTVSPropertyOp35
 70
     1
102
RTVSPropertyOp36
 70
     1
102
RTVSPropertyOp37
 70
     1
102
RTVSPropertyOp38
 70
     1
102
RTVSPropertyOp39
 70
     1
102
RTVSPropertyOp40
 70
     1
102
RTVSPropertyOp41
 70
     1
102
RTVSPropertyOp42
 70
     1
102
RTVSPropertyOp43
 70
     1
102
RTVSPropertyOp44
 70
     1
102
RTVSPropertyOp45
 70
     1
102
RTVSPropertyOp46
 70
     1
102
RTVSPropertyOp47
 70
     1
102
RTVSPropertyOp48
 70
     1
102
RTVSPropertyOp49
 70
     1
102
RTVSPropertyOp50
 70
     1
102
RTVSPropertyOp51
 70
     0
102
RTVSPropertyOp52
 70
     0
102
RTVSPropertyOp53
 70
     1
102
RTVSPropertyOp54
 70
     1
102
RTVSPropertyOp55
 70
     1
102
RTVSPropertyOp56
 70
     1
102
RTVSPropertyOp57
 70
     1
102
RTVSPropertyOp58
 70
     1
102
RTVSPropertyOp59
 70
     1
102
RTVSPropertyOp60
 70
     1
102
RTVSPropertyOp61
 70
     1
102
RTVSPropertyOp62
 70
     1
  0
XRECORD
  5
1883
102
{ACAD_REACTORS
330
1882
102
}
330
1882
100
AcDbXrecord
280
     1
102
RTVSPost2010Prop28
280
     0
102
RTVSPost2010PropOp28
 70
     1
102
RTVSPost2010Prop29
280
     1
102
RTVSPost2010PropOp29
 70
     1
102
RTVSPost2010Prop30
280
     1
102
RTVSPost2010PropOp30
 70
     1
102
RTVSPost2010Prop31
280
     0
102
RTVSPost2010PropOp31
 70
     1
102
RTVSPost2010Prop32
280
     0
102
RTVSPost2010PropOp32
 70
     1
102
RTVSPost2010Prop33
280
     0
102
RTVSPost2010PropOp33
 70
     1
102
RTVSPost2010Prop34
280
     0
102
RTVSPost2010PropOp34
 70
     1
102
RTVSPost2010Prop35
280
     0
102
RTVSPost2010PropOp35
 70
     1
102
RTVSPost2010Prop36
280
     0
102
RTVSPost2010PropOp36
 70
     1
102
RTVSPost2010Prop37
 90
       50
102
RTVSPost2010PropOp37
 70
     1
102
RTVSPost2010Prop38
140
0.0
102
RTVSPost2010PropOp38
 70
     1
102
RTVSPost2010Prop39
140
1.0
102
RTVSPost2010PropOp39
 70
     1
102
RTVSPost2010Prop40
 90
        0
102
RTVSPost2010PropOp40
 70
     1
102
RTVSPost2010Prop41ColorIndex
 90
       18
102
RTVSPost2010Prop41ColorRGB
 90
        0
102
RTVSPost2010PropOp41
 70
     1
102
RTVSPost2010Prop42
 90
       50
102
RTVSPost2010PropOp42
 70
     1
102
RTVSPost2010Prop43
 90
        3
102
RTVSPost2010PropOp43
 70
     1
102
RTVSPost2010Prop44ColorIndex
 90
        5
102
RTVSPost2010Prop44ColorRGB
 90
      255
102
RTVSPost2010PropOp44
 70
     1
102
RTVSPost2010Prop45
280
     0
102
RTVSPost2010PropOp45
 70
     1
102
RTVSPost2010Prop46
 90
       50
102
RTVSPost2010PropOp46
 70
     1
102
RTVSPost2010Prop47
 90
       50
102
RTVSPost2010PropOp47
 70
     1
102
RTVSPost2010Prop48
 90
       50
102
RTVSPost2010PropOp48
 70
     1
102
RTVSPost2010Prop49
280
     0
102
RTVSPost2010PropOp49
 70
     1
102
RTVSPost2010Prop50
 90
       50
102
RTVSPost2010PropOp50
 70
     1
102
RTVSPost2010Prop51ColorIndex
 90
      256
102
RTVSPost2010Prop51ColorRGB
 90
-16777216
102
RTVSPost2010PropOp51
 70
     0
102
RTVSPost2010Prop52
140
1.0
102
RTVSPost2010PropOp52
 70
     0
102
RTVSPost2010Prop53
 90
        2
102
RTVSPost2010PropOp53
 70
     1
102
RTVSPost2010Prop54
  1
strokes_ogs.tif
102
RTVSPost2010PropOp54
 70
     1
102
RTVSPost2010Prop55
280
     0
102
RTVSPost2010PropOp55
 70
     1
102
RTVSPost2010Prop56
140
1.0
102
RTVSPost2010PropOp56
 70
     1
102
RTVSPost2010Prop57
140
1.0
102
RTVSPost2010PropOp57
 70
     1
102
RTVSPropertyOp0
 70
     1
102
RTVSPropertyOp1
 70
     1
102
RTVSPropertyOp2
 70
     1
102
RTVSPropertyOp3
 70
     1
102
RTVSPropertyOp4
 70
     1
102
RTVSPropertyOp5
 70
     1
102
RTVSPropertyOp6
 70
     1
102
RTVSPropertyOp7
 70
     1
102
RTVSPropertyOp8
 70
     1
102
RTVSPropertyOp9
 70
     1
102
RTVSPropertyOp10
 70
     1
102
RTVSPropertyOp11
 70
     1
102
RTVSPropertyOp12
 70
     1
102
RTVSPropertyOp13
 70
     1
102
RTVSPropertyOp14
 70
     1
102
RTVSPropertyOp15
 70
     1
102
RTVSPropertyOp16
 70
     1
102
RTVSPropertyOp17
 70
     1
102
RTVSPropertyOp18
 70
     1
102
RTVSPropertyOp19
 70
     1
102
RTVSPropertyOp20
 70
     1
102
RTVSPropertyOp21
 70
     1
102
RTVSPropertyOp22
 70
     1
102
RTVSPropertyOp23
 70
     1
102
RTVSPropertyOp24
 70
     1
102
RTVSPropertyOp25
 70
     1
102
RTVSPropertyOp26
 70
     1
102
RTVSPropertyOp27
 70
     1
102
RTVSPropertyOp28
 70
     1
102
RTVSPropertyOp29
 70
     1
102
RTVSPropertyOp30
 70
     1
102
RTVSPropertyOp31
 70
     1
102
RTVSPropertyOp32
 70
     1
102
RTVSPropertyOp33
 70
     1
102
RTVSPropertyOp34
 70
     1
102
RTVSPropertyOp35
 70
     1
102
RTVSPropertyOp36
 70
     1
102
RTVSPropertyOp37
 70
     1
102
RTVSPropertyOp38
 70
     1
102
RTVSPropertyOp39
 70
     1
102
RTVSPropertyOp40
 70
     1
102
RTVSPropertyOp41
 70
     1
102
RTVSPropertyOp42
 70
     1
102
RTVSPropertyOp43
 70
     1
102
RTVSPropertyOp44
 70
     1
102
RTVSPropertyOp45
 70
     1
102
RTVSPropertyOp46
 70
     1
102
RTVSPropertyOp47
 70
     1
102
RTVSPropertyOp48
 70
     1
102
RTVSPropertyOp49
 70
     1
102
RTVSPropertyOp50
 70
     1
102
RTVSPropertyOp51
 70
     0
102
RTVSPropertyOp52
 70
     0
102
RTVSPropertyOp53
 70
     1
102
RTVSPropertyOp54
 70
     1
102
RTVSPropertyOp55
 70
     1
102
RTVSPropertyOp56
 70
     1
102
RTVSPropertyOp57
 70
     1
102
RTVSPropertyOp58
 70
     1
102
RTVSPropertyOp59
 70
     1
102
RTVSPropertyOp60
 70
     1
102
RTVSPropertyOp61
 70
     1
102
RTVSPropertyOp62
 70
     1
  0
XRECORD
  5
1885
102
{ACAD_REACTORS
330
1884
102
}
330
1884
100
AcDbXrecord
280
     1
102
RTVSPost2010Prop28
280
     0
102
RTVSPost2010PropOp28
 70
     1
102
RTVSPost2010Prop29
280
     1
102
RTVSPost2010PropOp29
 70
     1
102
RTVSPost2010Prop30
280
     1
102
RTVSPost2010PropOp30
 70
     1
102
RTVSPost2010Prop31
280
     0
102
RTVSPost2010PropOp31
 70
     1
102
RTVSPost2010Prop32
280
     0
102
RTVSPost2010PropOp32
 70
     1
102
RTVSPost2010Prop33
280
     0
102
RTVSPost2010PropOp33
 70
     1
102
RTVSPost2010Prop34
280
     0
102
RTVSPost2010PropOp34
 70
     1
102
RTVSPost2010Prop35
280
     0
102
RTVSPost2010PropOp35
 70
     1
102
RTVSPost2010Prop36
280
     0
102
RTVSPost2010PropOp36
 70
     1
102
RTVSPost2010Prop37
 90
       50
102
RTVSPost2010PropOp37
 70
     1
102
RTVSPost2010Prop38
140
0.0
102
RTVSPost2010PropOp38
 70
     1
102
RTVSPost2010Prop39
140
1.0
102
RTVSPost2010PropOp39
 70
     1
102
RTVSPost2010Prop40
 90
        0
102
RTVSPost2010PropOp40
 70
     1
102
RTVSPost2010Prop41ColorIndex
 90
       18
102
RTVSPost2010Prop41ColorRGB
 90
        0
102
RTVSPost2010PropOp41
 70
     1
102
RTVSPost2010Prop42
 90
       50
102
RTVSPost2010PropOp42
 70
     1
102
RTVSPost2010Prop43
 90
        3
102
RTVSPost2010PropOp43
 70
     1
102
RTVSPost2010Prop44ColorIndex
 90
        5
102
RTVSPost2010Prop44ColorRGB
 90
      255
102
RTVSPost2010PropOp44
 70
     1
102
RTVSPost2010Prop45
280
     0
102
RTVSPost2010PropOp45
 70
     1
102
RTVSPost2010Prop46
 90
       50
102
RTVSPost2010PropOp46
 70
     1
102
RTVSPost2010Prop47
 90
       50
102
RTVSPost2010PropOp47
 70
     1
102
RTVSPost2010Prop48
 90
       50
102
RTVSPost2010PropOp48
 70
     1
102
RTVSPost2010Prop49
280
     0
102
RTVSPost2010PropOp49
 70
     1
102
RTVSPost2010Prop50
 90
       50
102
RTVSPost2010PropOp50
 70
     1
102
RTVSPost2010Prop51ColorIndex
 90
      256
102
RTVSPost2010Prop51ColorRGB
 90
-16777216
102
RTVSPost2010PropOp51
 70
     0
102
RTVSPost2010Prop52
140
1.0
102
RTVSPost2010PropOp52
 70
     0
102
RTVSPost2010Prop53
 90
        2
102
RTVSPost2010PropOp53
 70
     1
102
RTVSPost2010Prop54
  1
strokes_ogs.tif
102
RTVSPost2010PropOp54
 70
     1
102
RTVSPost2010Prop55
280
     0
102
RTVSPost2010PropOp55
 70
     1
102
RTVSPost2010Prop56
140
1.0
102
RTVSPost2010PropOp56
 70
     1
102
RTVSPost2010Prop57
140
1.0
102
RTVSPost2010PropOp57
 70
     1
102
RTVSPropertyOp0
 70
     1
102
RTVSPropertyOp1
 70
     1
102
RTVSPropertyOp2
 70
     1
102
RTVSPropertyOp3
 70
     1
102
RTVSPropertyOp4
 70
     1
102
RTVSPropertyOp5
 70
     1
102
RTVSPropertyOp6
 70
     1
102
RTVSPropertyOp7
 70
     1
102
RTVSPropertyOp8
 70
     1
102
RTVSPropertyOp9
 70
     1
102
RTVSPropertyOp10
 70
     1
102
RTVSPropertyOp11
 70
     1
102
RTVSPropertyOp12
 70
     1
102
RTVSPropertyOp13
 70
     1
102
RTVSPropertyOp14
 70
     1
102
RTVSPropertyOp15
 70
     1
102
RTVSPropertyOp16
 70
     1
102
RTVSPropertyOp17
 70
     1
102
RTVSPropertyOp18
 70
     1
102
RTVSPropertyOp19
 70
     1
102
RTVSPropertyOp20
 70
     1
102
RTVSPropertyOp21
 70
     1
102
RTVSPropertyOp22
 70
     1
102
RTVSPropertyOp23
 70
     1
102
RTVSPropertyOp24
 70
     1
102
RTVSPropertyOp25
 70
     1
102
RTVSPropertyOp26
 70
     1
102
RTVSPropertyOp27
 70
     1
102
RTVSPropertyOp28
 70
     1
102
RTVSPropertyOp29
 70
     1
102
RTVSPropertyOp30
 70
     1
102
RTVSPropertyOp31
 70
     1
102
RTVSPropertyOp32
 70
     1
102
RTVSPropertyOp33
 70
     1
102
RTVSPropertyOp34
 70
     1
102
RTVSPropertyOp35
 70
     1
102
RTVSPropertyOp36
 70
     1
102
RTVSPropertyOp37
 70
     1
102
RTVSPropertyOp38
 70
     1
102
RTVSPropertyOp39
 70
     1
102
RTVSPropertyOp40
 70
     1
102
RTVSPropertyOp41
 70
     1
102
RTVSPropertyOp42
 70
     1
102
RTVSPropertyOp43
 70
     1
102
RTVSPropertyOp44
 70
     1
102
RTVSPropertyOp45
 70
     1
102
RTVSPropertyOp46
 70
     1
102
RTVSPropertyOp47
 70
     1
102
RTVSPropertyOp48
 70
     1
102
RTVSPropertyOp49
 70
     1
102
RTVSPropertyOp50
 70
     1
102
RTVSPropertyOp51
 70
     0
102
RTVSPropertyOp52
 70
     0
102
RTVSPropertyOp53
 70
     1
102
RTVSPropertyOp54
 70
     1
102
RTVSPropertyOp55
 70
     1
102
RTVSPropertyOp56
 70
     1
102
RTVSPropertyOp57
 70
     1
102
RTVSPropertyOp58
 70
     1
102
RTVSPropertyOp59
 70
     1
102
RTVSPropertyOp60
 70
     1
102
RTVSPropertyOp61
 70
     1
102
RTVSPropertyOp62
 70
     1
  0
XRECORD
  5
187B
102
{ACAD_REACTORS
330
187A
102
}
330
187A
100
AcDbXrecord
280
     1
102
RTVSPost2010Prop28
280
     0
102
RTVSPost2010PropOp28
 70
     1
102
RTVSPost2010Prop29
280
     1
102
RTVSPost2010PropOp29
 70
     1
102
RTVSPost2010Prop30
280
     1
102
RTVSPost2010PropOp30
 70
     1
102
RTVSPost2010Prop31
280
     0
102
RTVSPost2010PropOp31
 70
     1
102
RTVSPost2010Prop32
280
     0
102
RTVSPost2010PropOp32
 70
     1
102
RTVSPost2010Prop33
280
     0
102
RTVSPost2010PropOp33
 70
     1
102
RTVSPost2010Prop34
280
     0
102
RTVSPost2010PropOp34
 70
     1
102
RTVSPost2010Prop35
280
     0
102
RTVSPost2010PropOp35
 70
     1
102
RTVSPost2010Prop36
280
     0
102
RTVSPost2010PropOp36
 70
     1
102
RTVSPost2010Prop37
 90
       50
102
RTVSPost2010PropOp37
 70
     1
102
RTVSPost2010Prop38
140
0.0
102
RTVSPost2010PropOp38
 70
     1
102
RTVSPost2010Prop39
140
1.0
102
RTVSPost2010PropOp39
 70
     1
102
RTVSPost2010Prop40
 90
        0
102
RTVSPost2010PropOp40
 70
     1
102
RTVSPost2010Prop41ColorIndex
 90
       18
102
RTVSPost2010Prop41ColorRGB
 90
        0
102
RTVSPost2010PropOp41
 70
     1
102
RTVSPost2010Prop42
 90
       50
102
RTVSPost2010PropOp42
 70
     1
102
RTVSPost2010Prop43
 90
        3
102
RTVSPost2010PropOp43
 70
     1
102
RTVSPost2010Prop44ColorIndex
 90
        5
102
RTVSPost2010Prop44ColorRGB
 90
      255
102
RTVSPost2010PropOp44
 70
     1
102
RTVSPost2010Prop45
280
     0
102
RTVSPost2010PropOp45
 70
     1
102
RTVSPost2010Prop46
 90
       50
102
RTVSPost2010PropOp46
 70
     1
102
RTVSPost2010Prop47
 90
       50
102
RTVSPost2010PropOp47
 70
     1
102
RTVSPost2010Prop48
 90
       50
102
RTVSPost2010PropOp48
 70
     1
102
RTVSPost2010Prop49
280
     0
102
RTVSPost2010PropOp49
 70
     1
102
RTVSPost2010Prop50
 90
       50
102
RTVSPost2010PropOp50
 70
     1
102
RTVSPost2010Prop51ColorIndex
 90
      256
102
RTVSPost2010Prop51ColorRGB
 90
-16777216
102
RTVSPost2010PropOp51
 70
     0
102
RTVSPost2010Prop52
140
1.0
102
RTVSPost2010PropOp52
 70
     0
102
RTVSPost2010Prop53
 90
        2
102
RTVSPost2010PropOp53
 70
     1
102
RTVSPost2010Prop54
  1
strokes_ogs.tif
102
RTVSPost2010PropOp54
 70
     1
102
RTVSPost2010Prop55
280
     0
102
RTVSPost2010PropOp55
 70
     1
102
RTVSPost2010Prop56
140
1.0
102
RTVSPost2010PropOp56
 70
     1
102
RTVSPost2010Prop57
140
1.0
102
RTVSPost2010PropOp57
 70
     1
102
RTVSPropertyOp0
 70
     1
102
RTVSPropertyOp1
 70
     1
102
RTVSPropertyOp2
 70
     1
102
RTVSPropertyOp3
 70
     1
102
RTVSPropertyOp4
 70
     1
102
RTVSPropertyOp5
 70
     1
102
RTVSPropertyOp6
 70
     1
102
RTVSPropertyOp7
 70
     1
102
RTVSPropertyOp8
 70
     1
102
RTVSPropertyOp9
 70
     1
102
RTVSPropertyOp10
 70
     1
102
RTVSPropertyOp11
 70
     1
102
RTVSPropertyOp12
 70
     1
102
RTVSPropertyOp13
 70
     1
102
RTVSPropertyOp14
 70
     1
102
RTVSPropertyOp15
 70
     1
102
RTVSPropertyOp16
 70
     1
102
RTVSPropertyOp17
 70
     1
102
RTVSPropertyOp18
 70
     1
102
RTVSPropertyOp19
 70
     1
102
RTVSPropertyOp20
 70
     1
102
RTVSPropertyOp21
 70
     1
102
RTVSPropertyOp22
 70
     1
102
RTVSPropertyOp23
 70
     1
102
RTVSPropertyOp24
 70
     1
102
RTVSPropertyOp25
 70
     1
102
RTVSPropertyOp26
 70
     1
102
RTVSPropertyOp27
 70
     1
102
RTVSPropertyOp28
 70
     1
102
RTVSPropertyOp29
 70
     1
102
RTVSPropertyOp30
 70
     1
102
RTVSPropertyOp31
 70
     1
102
RTVSPropertyOp32
 70
     1
102
RTVSPropertyOp33
 70
     1
102
RTVSPropertyOp34
 70
     1
102
RTVSPropertyOp35
 70
     1
102
RTVSPropertyOp36
 70
     1
102
RTVSPropertyOp37
 70
     1
102
RTVSPropertyOp38
 70
     1
102
RTVSPropertyOp39
 70
     1
102
RTVSPropertyOp40
 70
     1
102
RTVSPropertyOp41
 70
     1
102
RTVSPropertyOp42
 70
     1
102
RTVSPropertyOp43
 70
     1
102
RTVSPropertyOp44
 70
     1
102
RTVSPropertyOp45
 70
     1
102
RTVSPropertyOp46
 70
     1
102
RTVSPropertyOp47
 70
     1
102
RTVSPropertyOp48
 70
     1
102
RTVSPropertyOp49
 70
     1
102
RTVSPropertyOp50
 70
     1
102
RTVSPropertyOp51
 70
     0
102
RTVSPropertyOp52
 70
     0
102
RTVSPropertyOp53
 70
     1
102
RTVSPropertyOp54
 70
     1
102
RTVSPropertyOp55
 70
     1
102
RTVSPropertyOp56
 70
     1
102
RTVSPropertyOp57
 70
     1
102
RTVSPropertyOp58
 70
     1
102
RTVSPropertyOp59
 70
     1
102
RTVSPropertyOp60
 70
     1
102
RTVSPropertyOp61
 70
     1
102
RTVSPropertyOp62
 70
     1
  0
XRECORD
  5
186F
102
{ACAD_REACTORS
330
186E
102
}
330
186E
100
AcDbXrecord
280
     1
102
RTVSPost2010Prop28
280
     0
102
RTVSPost2010PropOp28
 70
     1
102
RTVSPost2010Prop29
280
     1
102
RTVSPost2010PropOp29
 70
     1
102
RTVSPost2010Prop30
280
     1
102
RTVSPost2010PropOp30
 70
     1
102
RTVSPost2010Prop31
280
     0
102
RTVSPost2010PropOp31
 70
     1
102
RTVSPost2010Prop32
280
     0
102
RTVSPost2010PropOp32
 70
     1
102
RTVSPost2010Prop33
280
     0
102
RTVSPost2010PropOp33
 70
     1
102
RTVSPost2010Prop34
280
     0
102
RTVSPost2010PropOp34
 70
     1
102
RTVSPost2010Prop35
280
     0
102
RTVSPost2010PropOp35
 70
     1
102
RTVSPost2010Prop36
280
     0
102
RTVSPost2010PropOp36
 70
     1
102
RTVSPost2010Prop37
 90
       50
102
RTVSPost2010PropOp37
 70
     1
102
RTVSPost2010Prop38
140
0.0
102
RTVSPost2010PropOp38
 70
     1
102
RTVSPost2010Prop39
140
1.0
102
RTVSPost2010PropOp39
 70
     1
102
RTVSPost2010Prop40
 90
        0
102
RTVSPost2010PropOp40
 70
     1
102
RTVSPost2010Prop41ColorIndex
 90
       18
102
RTVSPost2010Prop41ColorRGB
 90
        0
102
RTVSPost2010PropOp41
 70
     1
102
RTVSPost2010Prop42
 90
       50
102
RTVSPost2010PropOp42
 70
     1
102
RTVSPost2010Prop43
 90
        3
102
RTVSPost2010PropOp43
 70
     1
102
RTVSPost2010Prop44ColorIndex
 90
        5
102
RTVSPost2010Prop44ColorRGB
 90
      255
102
RTVSPost2010PropOp44
 70
     1
102
RTVSPost2010Prop45
280
     0
102
RTVSPost2010PropOp45
 70
     1
102
RTVSPost2010Prop46
 90
       50
102
RTVSPost2010PropOp46
 70
     1
102
RTVSPost2010Prop47
 90
       50
102
RTVSPost2010PropOp47
 70
     1
102
RTVSPost2010Prop48
 90
       50
102
RTVSPost2010PropOp48
 70
     1
102
RTVSPost2010Prop49
280
     0
102
RTVSPost2010PropOp49
 70
     1
102
RTVSPost2010Prop50
 90
       50
102
RTVSPost2010PropOp50
 70
     1
102
RTVSPost2010Prop51ColorIndex
 90
      256
102
RTVSPost2010Prop51ColorRGB
 90
-16777216
102
RTVSPost2010PropOp51
 70
     0
102
RTVSPost2010Prop52
140
1.0
102
RTVSPost2010PropOp52
 70
     0
102
RTVSPost2010Prop53
 90
        2
102
RTVSPost2010PropOp53
 70
     1
102
RTVSPost2010Prop54
  1
strokes_ogs.tif
102
RTVSPost2010PropOp54
 70
     1
102
RTVSPost2010Prop55
280
     0
102
RTVSPost2010PropOp55
 70
     1
102
RTVSPost2010Prop56
140
1.0
102
RTVSPost2010PropOp56
 70
     1
102
RTVSPost2010Prop57
140
1.0
102
RTVSPost2010PropOp57
 70
     1
102
RTVSPropertyOp0
 70
     1
102
RTVSPropertyOp1
 70
     1
102
RTVSPropertyOp2
 70
     1
102
RTVSPropertyOp3
 70
     1
102
RTVSPropertyOp4
 70
     1
102
RTVSPropertyOp5
 70
     1
102
RTVSPropertyOp6
 70
     1
102
RTVSPropertyOp7
 70
     1
102
RTVSPropertyOp8
 70
     1
102
RTVSPropertyOp9
 70
     1
102
RTVSPropertyOp10
 70
     1
102
RTVSPropertyOp11
 70
     1
102
RTVSPropertyOp12
 70
     1
102
RTVSPropertyOp13
 70
     1
102
RTVSPropertyOp14
 70
     1
102
RTVSPropertyOp15
 70
     1
102
RTVSPropertyOp16
 70
     1
102
RTVSPropertyOp17
 70
     1
102
RTVSPropertyOp18
 70
     1
102
RTVSPropertyOp19
 70
     1
102
RTVSPropertyOp20
 70
     1
102
RTVSPropertyOp21
 70
     1
102
RTVSPropertyOp22
 70
     1
102
RTVSPropertyOp23
 70
     1
102
RTVSPropertyOp24
 70
     1
102
RTVSPropertyOp25
 70
     1
102
RTVSPropertyOp26
 70
     1
102
RTVSPropertyOp27
 70
     1
102
RTVSPropertyOp28
 70
     1
102
RTVSPropertyOp29
 70
     1
102
RTVSPropertyOp30
 70
     1
102
RTVSPropertyOp31
 70
     1
102
RTVSPropertyOp32
 70
     1
102
RTVSPropertyOp33
 70
     1
102
RTVSPropertyOp34
 70
     1
102
RTVSPropertyOp35
 70
     1
102
RTVSPropertyOp36
 70
     1
102
RTVSPropertyOp37
 70
     1
102
RTVSPropertyOp38
 70
     1
102
RTVSPropertyOp39
 70
     1
102
RTVSPropertyOp40
 70
     1
102
RTVSPropertyOp41
 70
     1
102
RTVSPropertyOp42
 70
     1
102
RTVSPropertyOp43
 70
     1
102
RTVSPropertyOp44
 70
     1
102
RTVSPropertyOp45
 70
     1
102
RTVSPropertyOp46
 70
     1
102
RTVSPropertyOp47
 70
     1
102
RTVSPropertyOp48
 70
     1
102
RTVSPropertyOp49
 70
     1
102
RTVSPropertyOp50
 70
     1
102
RTVSPropertyOp51
 70
     0
102
RTVSPropertyOp52
 70
     0
102
RTVSPropertyOp53
 70
     1
102
RTVSPropertyOp54
 70
     1
102
RTVSPropertyOp55
 70
     1
102
RTVSPropertyOp56
 70
     1
102
RTVSPropertyOp57
 70
     1
102
RTVSPropertyOp58
 70
     1
102
RTVSPropertyOp59
 70
     1
102
RTVSPropertyOp60
 70
     1
102
RTVSPropertyOp61
 70
     1
102
RTVSPropertyOp62
 70
     1
  0
XRECORD
  5
1887
102
{ACAD_REACTORS
330
1886
102
}
330
1886
100
AcDbXrecord
280
     1
102
RTVSPost2010Prop28
280
     0
102
RTVSPost2010PropOp28
 70
     1
102
RTVSPost2010Prop29
280
     1
102
RTVSPost2010PropOp29
 70
     1
102
RTVSPost2010Prop30
280
     1
102
RTVSPost2010PropOp30
 70
     1
102
RTVSPost2010Prop31
280
     0
102
RTVSPost2010PropOp31
 70
     1
102
RTVSPost2010Prop32
280
     0
102
RTVSPost2010PropOp32
 70
     1
102
RTVSPost2010Prop33
280
     0
102
RTVSPost2010PropOp33
 70
     1
102
RTVSPost2010Prop34
280
     0
102
RTVSPost2010PropOp34
 70
     1
102
RTVSPost2010Prop35
280
     0
102
RTVSPost2010PropOp35
 70
     1
102
RTVSPost2010Prop36
280
     0
102
RTVSPost2010PropOp36
 70
     1
102
RTVSPost2010Prop37
 90
       50
102
RTVSPost2010PropOp37
 70
     1
102
RTVSPost2010Prop38
140
0.0
102
RTVSPost2010PropOp38
 70
     1
102
RTVSPost2010Prop39
140
1.0
102
RTVSPost2010PropOp39
 70
     1
102
RTVSPost2010Prop40
 90
        0
102
RTVSPost2010PropOp40
 70
     1
102
RTVSPost2010Prop41ColorIndex
 90
       18
102
RTVSPost2010Prop41ColorRGB
 90
        0
102
RTVSPost2010PropOp41
 70
     1
102
RTVSPost2010Prop42
 90
       50
102
RTVSPost2010PropOp42
 70
     1
102
RTVSPost2010Prop43
 90
        3
102
RTVSPost2010PropOp43
 70
     1
102
RTVSPost2010Prop44ColorIndex
 90
        5
102
RTVSPost2010Prop44ColorRGB
 90
      255
102
RTVSPost2010PropOp44
 70
     1
102
RTVSPost2010Prop45
280
     0
102
RTVSPost2010PropOp45
 70
     1
102
RTVSPost2010Prop46
 90
       50
102
RTVSPost2010PropOp46
 70
     1
102
RTVSPost2010Prop47
 90
       50
102
RTVSPost2010PropOp47
 70
     1
102
RTVSPost2010Prop48
 90
       50
102
RTVSPost2010PropOp48
 70
     1
102
RTVSPost2010Prop49
280
     0
102
RTVSPost2010PropOp49
 70
     1
102
RTVSPost2010Prop50
 90
       50
102
RTVSPost2010PropOp50
 70
     1
102
RTVSPost2010Prop51ColorIndex
 90
      256
102
RTVSPost2010Prop51ColorRGB
 90
-16777216
102
RTVSPost2010PropOp51
 70
     0
102
RTVSPost2010Prop52
140
1.0
102
RTVSPost2010PropOp52
 70
     0
102
RTVSPost2010Prop53
 90
        2
102
RTVSPost2010PropOp53
 70
     1
102
RTVSPost2010Prop54
  1
strokes_ogs.tif
102
RTVSPost2010PropOp54
 70
     1
102
RTVSPost2010Prop55
280
     0
102
RTVSPost2010PropOp55
 70
     1
102
RTVSPost2010Prop56
140
1.0
102
RTVSPost2010PropOp56
 70
     1
102
RTVSPost2010Prop57
140
1.0
102
RTVSPost2010PropOp57
 70
     1
102
RTVSPropertyOp0
 70
     1
102
RTVSPropertyOp1
 70
     1
102
RTVSPropertyOp2
 70
     1
102
RTVSPropertyOp3
 70
     1
102
RTVSPropertyOp4
 70
     1
102
RTVSPropertyOp5
 70
     1
102
RTVSPropertyOp6
 70
     1
102
RTVSPropertyOp7
 70
     1
102
RTVSPropertyOp8
 70
     1
102
RTVSPropertyOp9
 70
     1
102
RTVSPropertyOp10
 70
     1
102
RTVSPropertyOp11
 70
     1
102
RTVSPropertyOp12
 70
     1
102
RTVSPropertyOp13
 70
     1
102
RTVSPropertyOp14
 70
     1
102
RTVSPropertyOp15
 70
     1
102
RTVSPropertyOp16
 70
     1
102
RTVSPropertyOp17
 70
     1
102
RTVSPropertyOp18
 70
     1
102
RTVSPropertyOp19
 70
     1
102
RTVSPropertyOp20
 70
     1
102
RTVSPropertyOp21
 70
     1
102
RTVSPropertyOp22
 70
     1
102
RTVSPropertyOp23
 70
     1
102
RTVSPropertyOp24
 70
     1
102
RTVSPropertyOp25
 70
     1
102
RTVSPropertyOp26
 70
     1
102
RTVSPropertyOp27
 70
     1
102
RTVSPropertyOp28
 70
     1
102
RTVSPropertyOp29
 70
     1
102
RTVSPropertyOp30
 70
     1
102
RTVSPropertyOp31
 70
     1
102
RTVSPropertyOp32
 70
     1
102
RTVSPropertyOp33
 70
     1
102
RTVSPropertyOp34
 70
     1
102
RTVSPropertyOp35
 70
     1
102
RTVSPropertyOp36
 70
     1
102
RTVSPropertyOp37
 70
     1
102
RTVSPropertyOp38
 70
     1
102
RTVSPropertyOp39
 70
     1
102
RTVSPropertyOp40
 70
     1
102
RTVSPropertyOp41
 70
     1
102
RTVSPropertyOp42
 70
     1
102
RTVSPropertyOp43
 70
     1
102
RTVSPropertyOp44
 70
     1
102
RTVSPropertyOp45
 70
     1
102
RTVSPropertyOp46
 70
     1
102
RTVSPropertyOp47
 70
     1
102
RTVSPropertyOp48
 70
     1
102
RTVSPropertyOp49
 70
     1
102
RTVSPropertyOp50
 70
     1
102
RTVSPropertyOp51
 70
     0
102
RTVSPropertyOp52
 70
     0
102
RTVSPropertyOp53
 70
     1
102
RTVSPropertyOp54
 70
     1
102
RTVSPropertyOp55
 70
     1
102
RTVSPropertyOp56
 70
     1
102
RTVSPropertyOp57
 70
     1
102
RTVSPropertyOp58
 70
     1
102
RTVSPropertyOp59
 70
     1
102
RTVSPropertyOp60
 70
     1
102
RTVSPropertyOp61
 70
     1
102
RTVSPropertyOp62
 70
     1
  0
ENDSEC
  0
EOF
