  0
SECTION
  2
HEADER
  9
$ACADVER
  1
AC1015
  9
$ACADMAINTVER
 70
    20
  9
$DWGCODEPAGE
  3
ANSI_932
  9
$INSBASE
 10
0.0
 20
0.0
 30
0.0
  9
$EXTMIN
 10
-39.01400649968298
 20
-50.01058879169931
 30
-0.0015258207003583
  9
$EXTMAX
 10
210.0055397646565
 20
75.02610833759661
 30
0.0000000349246037
  9
$LIMMIN
 10
0.0
 20
0.0
  9
$LIMMAX
 10
420.0
 20
297.0
  9
$ORTHOMODE
 70
     1
  9
$REGENMODE
 70
     1
  9
$FILLMODE
 70
     1
  9
$QTEXTMODE
 70
     0
  9
$MIRRTEXT
 70
     1
  9
$LTSCALE
 40
10.0
  9
$ATTMODE
 70
     1
  9
$TEXTSIZE
 40
3.0
  9
$TRACEWID
 40
1.0
  9
$TEXTSTYLE
  7
YOKO
  9
$CLAYER
  8
245
  9
$CELTYPE
  6
ByLayer
  9
$CECOLOR
 62
   256
  9
$CELTSCALE
 40
1.0
  9
$DISPSILH
 70
     0
  9
$DIMSCALE
 40
1.0
  9
$DIMASZ
 40
2.0
  9
$DIMEXO
 40
0.5
  9
$DIMDLI
 40
2.5
  9
$DIMRND
 40
0.0
  9
$DIMDLE
 40
0.0
  9
$DIMEXE
 40
1.0
  9
$DIMTP
 40
0.0
  9
$DIMTM
 40
0.0
  9
$DIMTXT
 40
2.799999999999999
  9
$DIMCEN
 40
0.0
  9
$DIMTSZ
 40
0.0
  9
$DIMTOL
 70
     0
  9
$DIMLIM
 70
     0
  9
$DIMTIH
 70
     0
  9
$DIMTOH
 70
     0
  9
$DIMSE1
 70
     0
  9
$DIMSE2
 70
     0
  9
$DIMTAD
 70
     3
  9
$DIMZIN
 70
     8
  9
$DIMBLK
  1

  9
$DIMASO
 70
     1
  9
$DIMSHO
 70
     1
  9
$DIMPOST
  1

  9
$DIMAPOST
  1

  9
$DIMALT
 70
     0
  9
$DIMALTD
 70
     2
  9
$DIMALTF
 40
25.4
  9
$DIMLFAC
 40
1.0
  9
$DIMTOFL
 70
     1
  9
$DIMTVP
 40
0.0
  9
$DIMTIX
 70
     1
  9
$DIMSOXD
 70
     0
  9
$DIMSAH
 70
     1
  9
$DIMBLK1
  1
OPEN
  9
$DIMBLK2
  1
OPEN
  9
$DIMSTYLE
  2
BIGT
  9
$DIMCLRD
 70
   256
  9
$DIMCLRE
 70
   256
  9
$DIMCLRT
 70
    40
  9
$DIMTFAC
 40
1.0
  9
$DIMGAP
 40
1.0
  9
$DIMJUST
 70
     0
  9
$DIMSD1
 70
     0
  9
$DIMSD2
 70
     0
  9
$DIMTOLJ
 70
     1
  9
$DIMTZIN
 70
     0
  9
$DIMALTZ
 70
     0
  9
$DIMALTTZ
 70
     0
  9
$DIMUPT
 70
     0
  9
$DIMDEC
 70
     3
  9
$DIMTDEC
 70
     4
  9
$DIMALTU
 70
     2
  9
$DIMALTTD
 70
     2
  9
$DIMTXSTY
  7
STANDARD
  9
$DIMAUNIT
 70
     0
  9
$DIMADEC
 70
     0
  9
$DIMALTRND
 40
0.0
  9
$DIMAZIN
 70
     0
  9
$DIMDSEP
 70
    46
  9
$DIMATFIT
 70
     3
  9
$DIMFRAC
 70
     0
  9
$DIMLDRBLK
  1
OPEN
  9
$DIMLUNIT
 70
     2
  9
$DIMLWD
 70
    -2
  9
$DIMLWE
 70
    -2
  9
$DIMTMOVE
 70
     0
  9
$LUNITS
 70
     2
  9
$LUPREC
 70
     2
  9
$SKETCHINC
 40
1.0
  9
$FILLETRAD
 40
0.0
  9
$AUNITS
 70
     0
  9
$AUPREC
 70
     3
  9
$MENU
  1
.
  9
$ELEVATION
 40
0.0
  9
$PELEVATION
 40
0.0
  9
$THICKNESS
 40
0.0
  9
$LIMCHECK
 70
     0
  9
$CHAMFERA
 40
10.0
  9
$CHAMFERB
 40
10.0
  9
$CHAMFERC
 40
0.0
  9
$CHAMFERD
 40
0.0
  9
$SKPOLY
 70
     0
  9
$TDCREATE
 40
2455106.585659179
  9
$TDUCREATE
 40
2455106.210659179
  9
$TDUPDATE
 40
2457869.580722639
  9
$TDUUPDATE
 40
2457869.205722639
  9
$TDINDWG
 40
0.0301949074
  9
$TDUSRTIMER
 40
0.0301948495
  9
$USRTIMER
 70
     1
  9
$ANGBASE
 50
0.0
  9
$ANGDIR
 70
     0
  9
$PDMODE
 70
     0
  9
$PDSIZE
 40
-5.0
  9
$PLINEWID
 40
0.0
  9
$SPLFRAME
 70
     0
  9
$SPLINETYPE
 70
     6
  9
$SPLINESEGS
 70
     8
  9
$HANDSEED
  5
1E6F
  9
$SURFTAB1
 70
     6
  9
$SURFTAB2
 70
     6
  9
$SURFTYPE
 70
     6
  9
$SURFU
 70
     6
  9
$SURFV
 70
     6
  9
$UCSBASE
  2

  9
$UCSNAME
  2

  9
$UCSORG
 10
0.0
 20
0.0
 30
0.0
  9
$UCSXDIR
 10
1.0
 20
0.0
 30
0.0
  9
$UCSYDIR
 10
0.0
 20
1.0
 30
0.0
  9
$UCSORTHOREF
  2

  9
$UCSORTHOVIEW
 70
     0
  9
$UCSORGTOP
 10
0.0
 20
0.0
 30
0.0
  9
$UCSORGBOTTOM
 10
0.0
 20
0.0
 30
0.0
  9
$UCSORGLEFT
 10
0.0
 20
0.0
 30
0.0
  9
$UCSORGRIGHT
 10
0.0
 20
0.0
 30
0.0
  9
$UCSORGFRONT
 10
0.0
 20
0.0
 30
0.0
  9
$UCSORGBACK
 10
0.0
 20
0.0
 30
0.0
  9
$PUCSBASE
  2

  9
$PUCSNAME
  2

  9
$PUCSORG
 10
0.0
 20
0.0
 30
0.0
  9
$PUCSXDIR
 10
1.0
 20
0.0
 30
0.0
  9
$PUCSYDIR
 10
0.0
 20
1.0
 30
0.0
  9
$PUCSORTHOREF
  2

  9
$PUCSORTHOVIEW
 70
     0
  9
$PUCSORGTOP
 10
0.0
 20
0.0
 30
0.0
  9
$PUCSORGBOTTOM
 10
0.0
 20
0.0
 30
0.0
  9
$PUCSORGLEFT
 10
0.0
 20
0.0
 30
0.0
  9
$PUCSORGRIGHT
 10
0.0
 20
0.0
 30
0.0
  9
$PUCSORGFRONT
 10
0.0
 20
0.0
 30
0.0
  9
$PUCSORGBACK
 10
0.0
 20
0.0
 30
0.0
  9
$USERI1
 70
     1
  9
$USERI2
 70
     0
  9
$USERI3
 70
     0
  9
$USERI4
 70
     0
  9
$USERI5
 70
     0
  9
$USERR1
 40
0.0
  9
$USERR2
 40
0.0
  9
$USERR3
 40
0.0
  9
$USERR4
 40
0.0
  9
$USERR5
 40
0.0
  9
$WORLDVIEW
 70
     1
  9
$SHADEDGE
 70
     3
  9
$SHADEDIF
 70
    70
  9
$TILEMODE
 70
     1
  9
$MAXACTVP
 70
    16
  9
$PINSBASE
 10
0.0
 20
0.0
 30
0.0
  9
$PLIMCHECK
 70
     0
  9
$PEXTMIN
 10
1.000000000000000E+20
 20
1.000000000000000E+20
 30
1.000000000000000E+20
  9
$PEXTMAX
 10
-1.000000000000000E+20
 20
-1.000000000000000E+20
 30
-1.000000000000000E+20
  9
$PLIMMIN
 10
0.0
 20
0.0
  9
$PLIMMAX
 10
420.0
 20
297.0
  9
$UNITMODE
 70
     0
  9
$VISRETAIN
 70
     0
  9
$PLINEGEN
 70
     0
  9
$PSLTSCALE
 70
     1
  9
$TREEDEPTH
 70
  3020
  9
$CMLSTYLE
  2
Standard
  9
$CMLJUST
 70
     0
  9
$CMLSCALE
 40
1.0
  9
$PROXYGRAPHICS
 70
     1
  9
$MEASUREMENT
 70
     0
  9
$CELWEIGHT
370
    -1
  9
$ENDCAPS
280
     0
  9
$JOINSTYLE
280
     0
  9
$LWDISPLAY
290
     0
  9
$INSUNITS
 70
     0
  9
$HYPERLINKBASE
  1

  9
$STYLESHEET
  1
BIG.CTB
  9
$XEDIT
290
     1
  9
$CEPSNTYPE
380
     0
  9
$PSTYLEMODE
290
     1
  9
$FINGERPRINTGUID
  2
{4C6739D0-ACE1-4936-A797-CDCCB96C3BA8}
  9
$VERSIONGUID
  2
{F79519C0-F765-46A9-8CCA-C4C369CAE102}
  9
$EXTNAMES
290
     1
  9
$PSVPSCALE
 40
0.0
  9
$OLESTARTUP
290
     0
  0
ENDSEC
  0
SECTION
  2
CLASSES
  0
CLASS
  1
ACDBDICTIONARYWDFLT
  2
AcDbDictionaryWithDefault
  3
ObjectDBX Classes
 90
        0
280
     0
281
     0
  0
CLASS
  1
MATERIAL
  2
AcDbMaterial
  3
ObjectDBX Classes
 90
     1153
280
     0
281
     0
  0
CLASS
  1
VISUALSTYLE
  2
AcDbVisualStyle
  3
ObjectDBX Classes
 90
     4095
280
     0
281
     0
  0
CLASS
  1
SCALE
  2
AcDbScale
  3
ObjectDBX Classes
 90
     1153
280
     0
281
     0
  0
CLASS
  1
TABLESTYLE
  2
AcDbTableStyle
  3
ObjectDBX Classes
 90
     4095
280
     0
281
     0
  0
CLASS
  1
MLEADERSTYLE
  2
AcDbMLeaderStyle
  3
ACDB_MLEADERSTYLE_CLASS
 90
     4095
280
     0
281
     0
  0
CLASS
  1
ACDBSECTIONVIEWSTYLE
  2
AcDbSectionViewStyle
  3
ObjectDBX Classes
 90
     1025
280
     0
281
     0
  0
CLASS
  1
ACDBDETAILVIEWSTYLE
  2
AcDbDetailViewStyle
  3
ObjectDBX Classes
 90
     1025
280
     0
281
     0
  0
CLASS
  1
DICTIONARYVAR
  2
AcDbDictionaryVar
  3
ObjectDBX Classes
 90
        0
280
     0
281
     0
  0
CLASS
  1
SORTENTSTABLE
  2
AcDbSortentsTable
  3
ObjectDBX Classes
 90
    32768
280
     0
281
     0
  0
CLASS
  1
CELLSTYLEMAP
  2
AcDbCellStyleMap
  3
ObjectDBX Classes
 90
     1152
280
     0
281
     0
  0
CLASS
  1
ACDBPLACEHOLDER
  2
AcDbPlaceHolder
  3
ObjectDBX Classes
 90
        0
280
     0
281
     0
  0
CLASS
  1
LAYOUT
  2
AcDbLayout
  3
ObjectDBX Classes
 90
        0
280
     0
281
     0
  0
ENDSEC
  0
SECTION
  2
TABLES
  0
TABLE
  2
VPORT
  5
1505
330
0
100
AcDbSymbolTable
 70
     1
  0
VPORT
  5
1572
330
1505
100
AcDbSymbolTableRecord
100
AcDbViewportTableRecord
  2
*ACTIVE
 70
     0
 10
0.0
 20
0.0
 11
1.0
 21
1.0
 12
85.49576663248677
 22
12.50775977294865
 13
0.0
 23
0.0
 14
7.0
 24
7.0
 15
7.0
 25
7.0
 16
0.0
 26
0.0
 36
1.0
 17
0.0
 27
0.0
 37
0.0
 40
130.5195081702062
 41
1.914539400665926
 42
50.0
 43
0.0
 44
0.0
 50
0.0
 51
0.0
 71
     0
 72
  2000
 73
     1
 74
     0
 75
     0
 76
     0
 77
     0
 78
     0
281
     0
 65
     1
110
0.0
120
0.0
130
0.0
111
1.0
121
0.0
131
0.0
112
0.0
122
1.0
132
0.0
 79
     0
146
0.0
1001
ACAD_NAV_VCDISPLAY
1070
     3
  0
ENDTAB
  0
TABLE
  2
LTYPE
  5
1502
330
0
100
AcDbSymbolTable
 70
     4
  0
LTYPE
  5
1557
330
1502
100
AcDbSymbolTableRecord
100
AcDbLinetypeTableRecord
  2
ByBlock
 70
     0
  3

 72
    65
 73
     0
 40
0.0
  0
LTYPE
  5
1558
330
1502
100
AcDbSymbolTableRecord
100
AcDbLinetypeTableRecord
  2
ByLayer
 70
     0
  3

 72
    65
 73
     0
 40
0.0
  0
LTYPE
  5
1559
330
1502
100
AcDbSymbolTableRecord
100
AcDbLinetypeTableRecord
  2
CONTINUOUS
 70
     0
  3
Solid line
 72
    65
 73
     0
 40
0.0
  0
LTYPE
  5
1573
330
1502
100
AcDbSymbolTableRecord
100
AcDbLinetypeTableRecord
  2
CENTER2
 70
     0
  3
___ _ ___ _ ___ _ ___ _ ___ _ ___ _ ___ _ ___ _
 72
    65
 73
     4
 40
1.125
 49
0.75
 74
     0
 49
-0.125
 74
     0
 49
0.125
 74
     0
 49
-0.125
 74
     0
  0
LTYPE
  5
1574
330
1502
100
AcDbSymbolTableRecord
100
AcDbLinetypeTableRecord
  2
HIDDEN2
 70
     0
  3
_ _ _ _ _ _ _ _ _ _ _ _ _ _ _ _ _ _ _ _ _ _ _ _
 72
    65
 73
     2
 40
0.1875
 49
0.125
 74
     0
 49
-0.0625
 74
     0
  0
LTYPE
  5
1575
330
1502
100
AcDbSymbolTableRecord
100
AcDbLinetypeTableRecord
  2
PHANTOM2
 70
     0
  3
___ _ _ ___ _ _ ___ _ _ ___ _ _ ___ _ _ ___ _ _
 72
    65
 73
     6
 40
1.25
 49
0.625
 74
     0
 49
-0.125
 74
     0
 49
0.125
 74
     0
 49
-0.125
 74
     0
 49
0.125
 74
     0
 49
-0.125
 74
     0
  0
ENDTAB
  0
TABLE
  2
LAYER
  5
14FF
102
{ACAD_XDICTIONARY
360
15CD
102
}
330
0
100
AcDbSymbolTable
 70
     8
  0
LAYER
  5
1551
102
{ACAD_XDICTIONARY
360
1D83
102
}
330
14FF
100
AcDbSymbolTableRecord
100
AcDbLayerTableRecord
  2
0
 70
     0
 62
     7
  6
CONTINUOUS
370
    -3
390
150C
  0
LAYER
  5
1570
102
{ACAD_XDICTIONARY
360
1D85
102
}
330
14FF
100
AcDbSymbolTableRecord
100
AcDbLayerTableRecord
  2
245
 70
     0
 62
     2
  6
CENTER2
370
    -3
390
150C
  0
LAYER
  5
1580
102
{ACAD_XDICTIONARY
360
1D87
102
}
330
14FF
100
AcDbSymbolTableRecord
100
AcDbLayerTableRecord
  2
240
 70
     0
 62
     4
  6
CONTINUOUS
370
    -3
390
150C
  0
LAYER
  5
1581
102
{ACAD_XDICTIONARY
360
1D89
102
}
330
14FF
100
AcDbSymbolTableRecord
100
AcDbLayerTableRecord
  2
241
 70
     0
 62
   211
  6
CONTINUOUS
370
    -3
390
150C
  0
LAYER
  5
1582
102
{ACAD_XDICTIONARY
360
1D8B
102
}
330
14FF
100
AcDbSymbolTableRecord
100
AcDbLayerTableRecord
  2
242
 70
     0
 62
     3
  6
CONTINUOUS
370
    -3
390
150C
  0
LAYER
  5
1584
102
{ACAD_XDICTIONARY
360
1D8D
102
}
330
14FF
100
AcDbSymbolTableRecord
100
AcDbLayerTableRecord
  2
250
 70
     0
 62
     3
  6
CONTINUOUS
370
    -3
390
150C
  0
LAYER
  5
15C8
102
{ACAD_XDICTIONARY
360
15C9
102
}
330
14FF
100
AcDbSymbolTableRecord
100
AcDbLayerTableRecord
  2
243
 70
     0
 62
   211
  6
HIDDEN2
370
    -3
390
150C
  0
LAYER
  5
15CA
102
{ACAD_XDICTIONARY
360
15CB
102
}
330
14FF
100
AcDbSymbolTableRecord
100
AcDbLayerTableRecord
  2
247
 70
     0
 62
    60
  6
CONTINUOUS
370
    -3
390
150C
  0
ENDTAB
  0
TABLE
  2
STYLE
  5
1500
330
0
100
AcDbSymbolTable
 70
     2
  0
STYLE
  5
1552
330
1500
100
AcDbSymbolTableRecord
100
AcDbTextStyleTableRecord
  2
STANDARD
 70
     0
 40
0.0
 41
1.0
 50
0.0
 71
     0
 42
3.0
  3
romans.shx
  4
BIGFONT.SHX
  0
STYLE
  5
1571
330
1500
100
AcDbSymbolTableRecord
100
AcDbTextStyleTableRecord
  2
YOKO
 70
     0
 40
0.0
 41
1.0
 50
0.0
 71
     0
 42
3.0
  3
romans.shx
  4
extfont.shx
  0
ENDTAB
  0
TABLE
  2
VIEW
  5
1503
330
0
100
AcDbSymbolTable
 70
     0
  0
ENDTAB
  0
TABLE
  2
UCS
  5
1504
330
0
100
AcDbSymbolTable
 70
     0
  0
ENDTAB
  0
TABLE
  2
APPID
  5
1506
330
0
100
AcDbSymbolTable
 70
    23
  0
APPID
  5
1553
330
1506
100
AcDbSymbolTableRecord
100
AcDbRegAppTableRecord
  2
ACAD
 70
     0
  0
APPID
  5
155A
330
1506
100
AcDbSymbolTableRecord
100
AcDbRegAppTableRecord
  2
AcadAnnotative
 70
     0
  0
APPID
  5
1588
330
1506
100
AcDbSymbolTableRecord
100
AcDbRegAppTableRecord
  2
GLOBAL
 70
     0
  0
APPID
  5
1589
330
1506
100
AcDbSymbolTableRecord
100
AcDbRegAppTableRecord
  2
DETAIL
 70
     0
  0
APPID
  5
158A
330
1506
100
AcDbSymbolTableRecord
100
AcDbRegAppTableRecord
  2
GRPNAME
 70
     0
  0
APPID
  5
158B
330
1506
100
AcDbSymbolTableRecord
100
AcDbRegAppTableRecord
  2
GPARA
 70
     0
  0
APPID
  5
158C
330
1506
100
AcDbSymbolTableRecord
100
AcDbRegAppTableRecord
  2
DCO15
 70
     0
  0
APPID
  5
158D
330
1506
100
AcDbSymbolTableRecord
100
AcDbRegAppTableRecord
  2
ITEMNAME
 70
     0
  0
APPID
  5
158E
330
1506
100
AcDbSymbolTableRecord
100
AcDbRegAppTableRecord
  2
GRADE_0
 70
     0
  0
APPID
  5
158F
330
1506
100
AcDbSymbolTableRecord
100
AcDbRegAppTableRecord
  2
CONTENTBLOCKICON
 70
     0
  0
APPID
  5
1590
330
1506
100
AcDbSymbolTableRecord
100
AcDbRegAppTableRecord
  2
MCAD_NO_VIS
 70
     0
  0
APPID
  5
1591
330
1506
100
AcDbSymbolTableRecord
100
AcDbRegAppTableRecord
  2
ACAD_TEMP_GRAPHIC
 70
     0
  0
APPID
  5
1592
330
1506
100
AcDbSymbolTableRecord
100
AcDbRegAppTableRecord
  2
ACATTRIBSERVICES
 70
     0
  0
APPID
  5
1593
330
1506
100
AcDbSymbolTableRecord
100
AcDbRegAppTableRecord
  2
DESIGNERASSEMBLIES
 70
     0
  0
APPID
  5
1594
330
1506
100
AcDbSymbolTableRecord
100
AcDbRegAppTableRecord
  2
ACAD_DSTYLE_DIMJAG
 70
     0
  0
APPID
  5
1595
330
1506
100
AcDbSymbolTableRecord
100
AcDbRegAppTableRecord
  2
ACAD_DSTYLE_DIMBREAK
 70
     0
  0
APPID
  5
1596
330
1506
100
AcDbSymbolTableRecord
100
AcDbRegAppTableRecord
  2
GENIUS_GENSCREG_15
 70
     0
  0
APPID
  5
1597
330
1506
100
AcDbSymbolTableRecord
100
AcDbRegAppTableRecord
  2
GENIUS_GENOBJ-N-SDF_13
 70
     0
  0
APPID
  5
1598
330
1506
100
AcDbSymbolTableRecord
100
AcDbRegAppTableRecord
  2
GENIUS_GENODEF_13
 70
     0
  0
APPID
  5
1599
330
1506
100
AcDbSymbolTableRecord
100
AcDbRegAppTableRecord
  2
ACAD_NAV_VCDISPLAY
 70
     0
  0
APPID
  5
159A
330
1506
100
AcDbSymbolTableRecord
100
AcDbRegAppTableRecord
  2
ACAD_MLEADERVER
 70
     0
  0
APPID
  5
15CC
330
1506
100
AcDbSymbolTableRecord
100
AcDbRegAppTableRecord
  2
GENIUS_GENOBJ-N-FIL_13
 70
     0
  0
APPID
  5
1DDD
330
1506
100
AcDbSymbolTableRecord
100
AcDbRegAppTableRecord
  2
ACAD_PSEXT
 70
     0
  0
ENDTAB
  0
TABLE
  2
DIMSTYLE
  5
1507
330
0
100
AcDbSymbolTable
 70
     1
100
AcDbDimStyleTable
 71
     1
340
159B
  0
DIMSTYLE
105
159B
330
1507
100
AcDbSymbolTableRecord
100
AcDbDimStyleTableRecord
  2
BIGT
 70
     0
 41
2.229999999999999
 42
0.5
 43
2.5
 44
1.0
 73
     0
 74
     0
 77
     3
 78
     8
140
2.799999999999998
141
0.0
147
1.0
172
     1
173
     1
174
     1
176
   256
177
   256
178
    40
271
     2
272
     2
279
     2
284
     8
285
     8
286
     8
340
1571
  0
ENDTAB
  0
TABLE
  2
BLOCK_RECORD
  5
14FE
330
0
100
AcDbSymbolTable
 70
     2
  0
BLOCK_RECORD
  5
156C
330
14FE
100
AcDbSymbolTableRecord
100
AcDbBlockTableRecord
  2
*Model_Space
340
156F
  0
BLOCK_RECORD
  5
1568
330
14FE
100
AcDbSymbolTableRecord
100
AcDbBlockTableRecord
  2
*Paper_Space
340
156B
  0
BLOCK_RECORD
  5
15AD
330
14FE
100
AcDbSymbolTableRecord
100
AcDbBlockTableRecord
  2
_OPEN
340
0
102
{BLKREFS
331
1D6C
331
1D6D
331
1D72
331
1D73
331
1D76
331
1D77
102
}
  0
BLOCK_RECORD
  5
15AF
330
14FE
100
AcDbSymbolTableRecord
100
AcDbBlockTableRecord
  2
矢印なし
340
0
102
{BLKREFS
331
6E6
102
}
  0
ENDTAB
  0
ENDSEC
  0
SECTION
  2
BLOCKS
  0
BLOCK
  5
156D
330
156C
100
AcDbEntity
  8
0
100
AcDbBlockBegin
  2
*Model_Space
 70
     0
 10
0.0
 20
0.0
 30
0.0
  3
*Model_Space
  1

  0
ENDBLK
  5
156E
330
156C
100
AcDbEntity
  8
0
100
AcDbBlockEnd
  0
BLOCK
  5
1569
330
1568
100
AcDbEntity
 67
     1
  8
0
100
AcDbBlockBegin
  2
*Paper_Space
 70
     0
 10
0.0
 20
0.0
 30
0.0
  3
*Paper_Space
  1

  0
ENDBLK
  5
156A
330
1568
100
AcDbEntity
 67
     1
  8
0
100
AcDbBlockEnd
  0
BLOCK
  5
15AE
330
15AD
100
AcDbEntity
  8
0
100
AcDbBlockBegin
  2
_OPEN
 70
     0
 10
0.0
 20
0.0
 30
0.0
  3
_OPEN
  1

  0
LINE
  5
595
330
15AD
100
AcDbEntity
  8
0
  6
ByBlock
 62
     0
100
AcDbLine
 10
-1.0
 20
0.16666667
 30
0.0
 11
0.0
 21
0.0
 31
0.0
  0
LINE
  5
596
330
15AD
100
AcDbEntity
  8
0
  6
ByBlock
 62
     0
100
AcDbLine
 10
-1.0
 20
-0.16666667
 30
0.0
 11
0.0
 21
0.0
 31
0.0
  0
LINE
  5
597
330
15AD
100
AcDbEntity
  8
0
  6
ByBlock
 62
     0
100
AcDbLine
 10
0.0
 20
0.0
 30
0.0
 11
-1.0
 21
0.0
 31
0.0
  0
ENDBLK
  5
599
330
15AD
100
AcDbEntity
  8
0
100
AcDbBlockEnd
  0
BLOCK
  5
15B0
330
15AF
100
AcDbEntity
  8
0
100
AcDbBlockBegin
  2
矢印なし
 70
     0
 10
0.0
 20
0.0
 30
0.0
  3
矢印なし
  1

  0
ENDBLK
  5
6E5
330
15AF
100
AcDbEntity
  8
0
100
AcDbBlockEnd
  0
ENDSEC
  0
SECTION
  2
ENTITIES
  0
INSERT
  5
6E6
330
156C
100
AcDbEntity
  8
245
100
AcDbBlockReference
  2
矢印なし
 10
175.62382697
 20
90.55123571999999
 30
0.0
  0
LINE
  5
19AC
330
156C
100
AcDbEntity
  8
245
  6
CENTER2
100
AcDbLine
 10
125.99657199
 20
0.0035268000000031
 30
0.0
 11
209.9965717
 21
0.0035268000000031
 31
0.0
  0
CIRCLE
  5
19AD
330
156C
100
AcDbEntity
  8
242
  6
PHANTOM2
100
AcDbCircle
 10
167.99657184
 20
0.0069549600000016
 30
0.0
 40
40.0
  0
LINE
  5
19AE
330
156C
100
AcDbEntity
  8
241
  6
Continuous
100
AcDbLine
 10
146.56936971
 20
23.08984494999998
 30
0.0
 11
200.66429582
 21
23.08984494999998
 31
0.0
  0
LINE
  5
19AF
330
156C
100
AcDbEntity
  8
241
  6
Continuous
100
AcDbLine
 10
139.46562674
 20
13.34667271
 30
0.0
 11
205.70667566
 21
13.34667271
 31
0.0
  0
ARC
  5
19B0
330
156C
100
AcDbEntity
  8
240
  6
Continuous
100
AcDbCircle
 10
186.32229953
 20
-15.49647321
 30
0.0
 40
16.0
100
AcDbArc
 50
270.0
 51
319.7718152399998
  0
LINE
  5
19B1
330
156C
100
AcDbEntity
  8
240
  6
Continuous
100
AcDbLine
 10
23.93301270776024
 20
31.5
 30
0.0
 11
80.47656211000001
 21
26.55308043
 31
0.0
  0
LINE
  5
19B2
330
156C
100
AcDbEntity
  8
240
100
AcDbLine
 10
100.0
 20
-31.5
 30
0.0
 11
0.0
 21
-31.5
 31
0.0
  0
LINE
  5
19B3
330
156C
100
AcDbEntity
  8
245
  6
CENTER2
100
AcDbLine
 10
-39.0
 20
0.0
 30
0.0
 11
100.93301271
 21
0.0
 31
0.0
  0
LINE
  5
19B4
330
156C
100
AcDbEntity
  8
241
  6
Continuous
100
AcDbLine
 10
49.49999502
 20
-18.61324801000001
 30
0.0
 11
46.99999501999999
 21
-20.05662369000001
 31
0.0
  0
CIRCLE
  5
19B5
330
156C
100
AcDbEntity
  8
242
  6
Continuous
100
AcDbCircle
 10
49.49999502
 20
-21.49999936
 30
0.0
 40
4.25
  0
CIRCLE
  5
19B6
330
156C
100
AcDbEntity
  8
241
  6
Continuous
100
AcDbCircle
 10
49.49999502
 20
-21.49999444
 30
0.0
 40
5.0
  0
LINE
  5
19B7
330
156C
100
AcDbEntity
  8
241
  6
Continuous
100
AcDbLine
 10
46.99999501999999
 20
-22.94337503
 30
0.0
 11
49.49999502
 21
-24.38675071
 31
0.0
  0
LINE
  5
19B8
330
156C
100
AcDbEntity
  8
245
  6
CENTER2
100
AcDbLine
 10
43.49999502
 20
-21.49999990000001
 30
0.0
 11
95.49999502
 21
-21.4999952
 31
0.0
  0
LINE
  5
19B9
330
156C
100
AcDbEntity
  8
243
  6
HIDDEN2
100
AcDbLine
 10
34.99999502
 20
-11.49979999999999
 30
0.0
 11
99.99999502000001
 21
-11.49979999999999
 31
0.0
  0
LINE
  5
19BA
330
156C
100
AcDbEntity
  8
241
  6
Continuous
100
AcDbLine
 10
46.99999501999999
 20
-20.05662369000001
 30
0.0
 11
46.99999501999999
 21
-22.94337503
 31
0.0
  0
LINE
  5
19BB
330
156C
100
AcDbEntity
  8
243
  6
HIDDEN2
100
AcDbLine
 10
34.99999502
 20
-11.49979999999999
 30
0.0
 11
34.99999502
 21
-31.5
 31
0.0
  0
LINE
  5
19BC
330
156C
100
AcDbEntity
  8
241
  6
Continuous
100
AcDbLine
 10
188.0
 20
-11.49647321
 30
0.0
 11
188.0
 21
-31.40827138000001
 31
0.0
  0
LINE
  5
19BD
330
156C
100
AcDbEntity
  8
241
  6
Continuous
100
AcDbLine
 10
168.0
 20
-11.50044170999999
 30
0.0
 11
168.0
 21
-31.49647321000001
 31
0.0
  0
LINE
  5
19BE
330
156C
100
AcDbEntity
  8
240
  6
Continuous
100
AcDbLine
 10
100.0
 20
-31.5
 30
0.0
 11
100.0
 21
7.686291500000009
 31
0.0
  0
LINE
  5
19BF
330
156C
100
AcDbEntity
  8
245
  6
CENTER2
100
AcDbLine
 10
168.0
 20
-41.99304489999999
 30
0.0
 11
168.0
 21
42.00695480999999
 31
0.0
  0
LINE
  5
19C0
330
156C
100
AcDbEntity
  8
241
  6
Continuous
100
AcDbLine
 10
91.99999502
 20
-22.94337566999999
 30
0.0
 11
91.99999502
 21
-20.05662433000001
 31
0.0
  0
LINE
  5
19C1
330
156C
100
AcDbEntity
  8
241
  6
Continuous
100
AcDbLine
 10
86.99999502
 20
-20.05662433000001
 30
0.0
 11
86.99999502
 21
-22.94337566999999
 31
0.0
  0
CIRCLE
  5
19C2
330
156C
100
AcDbEntity
  8
241
  6
Continuous
100
AcDbCircle
 10
89.49999502
 20
-21.49999507999999
 30
0.0
 40
5.0
  0
LINE
  5
19C3
330
156C
100
AcDbEntity
  8
245
  6
CENTER2
100
AcDbLine
 10
89.49999502
 20
-15.49999507999999
 30
0.0
 11
89.49999502
 21
-27.49999508000001
 31
0.0
  0
CIRCLE
  5
19C4
330
156C
100
AcDbEntity
  8
242
  6
Continuous
100
AcDbCircle
 10
89.49999502
 20
-21.5
 30
0.0
 40
4.25
  0
LINE
  5
19C5
330
156C
100
AcDbEntity
  8
241
  6
Continuous
100
AcDbLine
 10
71.99999502
 20
-22.94337322999999
 30
0.0
 11
71.99999502
 21
-20.05662188
 31
0.0
  0
LINE
  5
19C6
330
156C
100
AcDbEntity
  8
241
  6
Continuous
100
AcDbLine
 10
66.99999502
 20
-20.05662188
 30
0.0
 11
66.99999502
 21
-22.94337322999999
 31
0.0
  0
CIRCLE
  5
19C7
330
156C
100
AcDbEntity
  8
241
  6
Continuous
100
AcDbCircle
 10
69.49999502
 20
-21.49999263000001
 30
0.0
 40
5.0
  0
LINE
  5
19C8
330
156C
100
AcDbEntity
  8
245
  6
CENTER2
100
AcDbLine
 10
69.49999502
 20
-15.49999263000001
 30
0.0
 11
69.49999502
 21
-27.49999263000001
 31
0.0
  0
CIRCLE
  5
19C9
330
156C
100
AcDbEntity
  8
242
  6
Continuous
100
AcDbCircle
 10
69.49999502
 20
-21.49999754999999
 30
0.0
 40
4.25
  0
LINE
  5
19CA
330
156C
100
AcDbEntity
  8
241
  6
Continuous
100
AcDbLine
 10
51.99999502
 20
-22.94337503
 30
0.0
 11
51.99999502
 21
-20.05662369000001
 31
0.0
  0
LINE
  5
19CB
330
156C
100
AcDbEntity
  8
245
  6
CENTER2
100
AcDbLine
 10
49.49999502
 20
-15.49999443999999
 30
0.0
 11
49.49999502
 21
-27.49999444
 31
0.0
  0
ARC
  5
19CC
330
156C
100
AcDbEntity
  8
240
  6
Continuous
100
AcDbCircle
 10
79.43069319999998
 20
14.59874406
 30
0.0
 40
12.0
100
AcDbArc
 50
45.00000000000032
 51
85.00000000000012
  0
LINE
  5
19CD
330
156C
100
AcDbEntity
  8
241
  6
Continuous
100
AcDbLine
 10
51.99999502
 20
-20.05662369000001
 30
0.0
 11
49.49999502
 21
-18.61324801000001
 31
0.0
  0
LINE
  5
19CE
330
156C
100
AcDbEntity
  8
241
  6
Continuous
100
AcDbLine
 10
69.49999502
 20
-18.61324621
 30
0.0
 11
66.99999502
 21
-20.05662188
 31
0.0
  0
LINE
  5
19CF
330
156C
100
AcDbEntity
  8
241
  6
Continuous
100
AcDbLine
 10
71.99999502
 20
-20.05662188
 30
0.0
 11
69.49999502
 21
-18.61324621
 31
0.0
  0
LINE
  5
19D0
330
156C
100
AcDbEntity
  8
240
  6
Continuous
100
AcDbLine
 10
97.65685425
 20
13.34314574999999
 30
0.0
 11
87.91597456999998
 21
23.08402543
 31
0.0
  0
ARC
  5
19D1
330
156C
100
AcDbEntity
  8
240
  6
Continuous
100
AcDbCircle
 10
92.0
 20
7.686291500000009
 30
0.0
 40
8.0
100
AcDbArc
 50
0.0
 51
45.00000000000032
  0
LINE
  5
19D2
330
156C
100
AcDbEntity
  8
241
  6
Continuous
100
AcDbLine
 10
91.99999502
 20
-20.05662433000001
 30
0.0
 11
89.49999502
 21
-18.61324865
 31
0.0
  0
LINE
  5
19D3
330
156C
100
AcDbEntity
  8
241
  6
Continuous
100
AcDbLine
 10
89.49999502
 20
-18.61324865
 30
0.0
 11
86.99999502
 21
-20.05662433000001
 31
0.0
  0
LINE
  5
19D4
330
156C
100
AcDbEntity
  8
240
  6
Continuous
100
AcDbLine
 10
168.0
 20
31.50352681000001
 30
0.0
 11
186.3222995333496
 21
31.50352681000001
 31
0.0
  0
ARC
  5
19D5
330
156C
100
AcDbEntity
  8
241
  6
Continuous
100
AcDbCircle
 10
154.5
 20
-4.743587520000004
 30
0.0
 40
6.956658273837439
100
AcDbArc
 50
11.16551386000015
 51
168.8344861399998
  0
POLYLINE
  5
19D6
330
156C
100
AcDbEntity
  8
241
  6
Continuous
100
AcDb3dPolyline
 66
     1
 10
0.0
 20
0.0
 30
0.0
 70
     8
  0
VERTEX
  5
19D7
330
19D6
100
AcDbEntity
  8
241
  6
Continuous
100
AcDbVertex
100
AcDb3dPolylineVertex
 10
161.325
 20
-3.396469999999993
 30
0.0
 70
    32
  0
VERTEX
  5
19D8
330
19D6
100
AcDbEntity
  8
241
  6
Continuous
100
AcDbVertex
100
AcDb3dPolylineVertex
 10
161.352
 20
-3.541429999999991
 30
0.0
 70
    32
  0
VERTEX
  5
19D9
330
19D6
100
AcDbEntity
  8
241
  6
Continuous
100
AcDbVertex
100
AcDb3dPolylineVertex
 10
161.377
 20
-3.686939999999991
 30
0.0
 70
    32
  0
VERTEX
  5
19DA
330
19D6
100
AcDbEntity
  8
241
  6
Continuous
100
AcDbVertex
100
AcDb3dPolylineVertex
 10
161.4
 20
-3.832960000000013
 30
0.0
 70
    32
  0
VERTEX
  5
19DB
330
19D6
100
AcDbEntity
  8
241
  6
Continuous
100
AcDbVertex
100
AcDb3dPolylineVertex
 10
161.421
 20
-3.979430000000006
 30
0.0
 70
    32
  0
VERTEX
  5
19DC
330
19D6
100
AcDbEntity
  8
241
  6
Continuous
100
AcDbVertex
100
AcDb3dPolylineVertex
 10
161.439
 20
-4.126319999999991
 30
0.0
 70
    32
  0
VERTEX
  5
19DD
330
19D6
100
AcDbEntity
  8
241
  6
Continuous
100
AcDbVertex
100
AcDb3dPolylineVertex
 10
161.455
 20
-4.273560000000003
 30
0.0
 70
    32
  0
VERTEX
  5
19DE
330
19D6
100
AcDbEntity
  8
241
  6
Continuous
100
AcDbVertex
100
AcDb3dPolylineVertex
 10
161.468
 20
-4.421120000000001
 30
0.0
 70
    32
  0
VERTEX
  5
19DF
330
19D6
100
AcDbEntity
  8
241
  6
Continuous
100
AcDbVertex
100
AcDb3dPolylineVertex
 10
161.479
 20
-4.568929999999993
 30
0.0
 70
    32
  0
VERTEX
  5
19E0
330
19D6
100
AcDbEntity
  8
241
  6
Continuous
100
AcDbVertex
100
AcDb3dPolylineVertex
 10
161.488
 20
-4.71696
 30
0.0
 70
    32
  0
VERTEX
  5
19E1
330
19D6
100
AcDbEntity
  8
241
  6
Continuous
100
AcDbVertex
100
AcDb3dPolylineVertex
 10
161.494
 20
-4.865139999999995
 30
0.0
 70
    32
  0
VERTEX
  5
19E2
330
19D6
100
AcDbEntity
  8
241
  6
Continuous
100
AcDbVertex
100
AcDb3dPolylineVertex
 10
161.498
 20
-5.013440000000001
 30
0.0
 70
    32
  0
VERTEX
  5
19E3
330
19D6
100
AcDbEntity
  8
241
  6
Continuous
100
AcDbVertex
100
AcDb3dPolylineVertex
 10
161.5
 20
-5.161789999999995
 30
0.0
 70
    32
  0
VERTEX
  5
19E4
330
19D6
100
AcDbEntity
  8
241
  6
Continuous
100
AcDbVertex
100
AcDb3dPolylineVertex
 10
161.499
 20
-5.310159999999996
 30
0.0
 70
    32
  0
VERTEX
  5
19E5
330
19D6
100
AcDbEntity
  8
241
  6
Continuous
100
AcDbVertex
100
AcDb3dPolylineVertex
 10
161.496
 20
-5.458480000000008
 30
0.0
 70
    32
  0
VERTEX
  5
19E6
330
19D6
100
AcDbEntity
  8
241
  6
Continuous
100
AcDbVertex
100
AcDb3dPolylineVertex
 10
161.491
 20
-5.606719999999994
 30
0.0
 70
    32
  0
VERTEX
  5
19E7
330
19D6
100
AcDbEntity
  8
241
  6
Continuous
100
AcDbVertex
100
AcDb3dPolylineVertex
 10
161.483
 20
-5.754819999999995
 30
0.0
 70
    32
  0
VERTEX
  5
19E8
330
19D6
100
AcDbEntity
  8
241
  6
Continuous
100
AcDbVertex
100
AcDb3dPolylineVertex
 10
161.4729999999999
 20
-5.902719999999987
 30
0.0
 70
    32
  0
VERTEX
  5
19E9
330
19D6
100
AcDbEntity
  8
241
  6
Continuous
100
AcDbVertex
100
AcDb3dPolylineVertex
 10
161.46
 20
-6.050389999999991
 30
0.0
 70
    32
  0
VERTEX
  5
19EA
330
19D6
100
AcDbEntity
  8
241
  6
Continuous
100
AcDbVertex
100
AcDb3dPolylineVertex
 10
161.446
 20
-6.197769999999991
 30
0.0
 70
    32
  0
VERTEX
  5
19EB
330
19D6
100
AcDbEntity
  8
241
  6
Continuous
100
AcDbVertex
100
AcDb3dPolylineVertex
 10
161.429
 20
-6.344809999999995
 30
0.0
 70
    32
  0
VERTEX
  5
19EC
330
19D6
100
AcDbEntity
  8
241
  6
Continuous
100
AcDbVertex
100
AcDb3dPolylineVertex
 10
161.409
 20
-6.491459999999988
 30
0.0
 70
    32
  0
VERTEX
  5
19ED
330
19D6
100
AcDbEntity
  8
241
  6
Continuous
100
AcDbVertex
100
AcDb3dPolylineVertex
 10
161.387
 20
-6.637679999999987
 30
0.0
 70
    32
  0
VERTEX
  5
19EE
330
19D6
100
AcDbEntity
  8
241
  6
Continuous
100
AcDbVertex
100
AcDb3dPolylineVertex
 10
161.363
 20
-6.783410000000002
 30
0.0
 70
    32
  0
VERTEX
  5
19EF
330
19D6
100
AcDbEntity
  8
241
  6
Continuous
100
AcDbVertex
100
AcDb3dPolylineVertex
 10
161.337
 20
-6.928599999999986
 30
0.0
 70
    32
  0
VERTEX
  5
19F0
330
19D6
100
AcDbEntity
  8
241
  6
Continuous
100
AcDbVertex
100
AcDb3dPolylineVertex
 10
161.308
 20
-7.073199999999985
 30
0.0
 70
    32
  0
VERTEX
  5
19F1
330
19D6
100
AcDbEntity
  8
241
  6
Continuous
100
AcDbVertex
100
AcDb3dPolylineVertex
 10
161.277
 20
-7.217180000000013
 30
0.0
 70
    32
  0
VERTEX
  5
19F2
330
19D6
100
AcDbEntity
  8
241
  6
Continuous
100
AcDbVertex
100
AcDb3dPolylineVertex
 10
161.244
 20
-7.360469999999991
 30
0.0
 70
    32
  0
VERTEX
  5
19F3
330
19D6
100
AcDbEntity
  8
241
  6
Continuous
100
AcDbVertex
100
AcDb3dPolylineVertex
 10
161.208
 20
-7.503029999999995
 30
0.0
 70
    32
  0
VERTEX
  5
19F4
330
19D6
100
AcDbEntity
  8
241
  6
Continuous
100
AcDbVertex
100
AcDb3dPolylineVertex
 10
161.17
 20
-7.644810000000005
 30
0.0
 70
    32
  0
VERTEX
  5
19F5
330
19D6
100
AcDbEntity
  8
241
  6
Continuous
100
AcDbVertex
100
AcDb3dPolylineVertex
 10
161.13
 20
-7.785770000000012
 30
0.0
 70
    32
  0
VERTEX
  5
19F6
330
19D6
100
AcDbEntity
  8
241
  6
Continuous
100
AcDbVertex
100
AcDb3dPolylineVertex
 10
161.088
 20
-7.925849999999996
 30
0.0
 70
    32
  0
VERTEX
  5
19F7
330
19D6
100
AcDbEntity
  8
241
  6
Continuous
100
AcDbVertex
100
AcDb3dPolylineVertex
 10
161.043
 20
-8.06501
 30
0.0
 70
    32
  0
VERTEX
  5
19F8
330
19D6
100
AcDbEntity
  8
241
  6
Continuous
100
AcDbVertex
100
AcDb3dPolylineVertex
 10
160.996
 20
-8.203210000000012
 30
0.0
 70
    32
  0
VERTEX
  5
19F9
330
19D6
100
AcDbEntity
  8
241
  6
Continuous
100
AcDbVertex
100
AcDb3dPolylineVertex
 10
160.947
 20
-8.340390000000013
 30
0.0
 70
    32
  0
VERTEX
  5
19FA
330
19D6
100
AcDbEntity
  8
241
  6
Continuous
100
AcDbVertex
100
AcDb3dPolylineVertex
 10
160.896
 20
-8.476499999999987
 30
0.0
 70
    32
  0
VERTEX
  5
19FB
330
19D6
100
AcDbEntity
  8
241
  6
Continuous
100
AcDbVertex
100
AcDb3dPolylineVertex
 10
160.843
 20
-8.611520000000012
 30
0.0
 70
    32
  0
VERTEX
  5
19FC
330
19D6
100
AcDbEntity
  8
241
  6
Continuous
100
AcDbVertex
100
AcDb3dPolylineVertex
 10
160.7879999999999
 20
-8.745380000000011
 30
0.0
 70
    32
  0
VERTEX
  5
19FD
330
19D6
100
AcDbEntity
  8
241
  6
Continuous
100
AcDbVertex
100
AcDb3dPolylineVertex
 10
160.73
 20
-8.878039999999996
 30
0.0
 70
    32
  0
VERTEX
  5
19FE
330
19D6
100
AcDbEntity
  8
241
  6
Continuous
100
AcDbVertex
100
AcDb3dPolylineVertex
 10
160.67
 20
-9.00945999999999
 30
0.0
 70
    32
  0
VERTEX
  5
19FF
330
19D6
100
AcDbEntity
  8
241
  6
Continuous
100
AcDbVertex
100
AcDb3dPolylineVertex
 10
160.609
 20
-9.139599999999999
 30
0.0
 70
    32
  0
VERTEX
  5
1A00
330
19D6
100
AcDbEntity
  8
241
  6
Continuous
100
AcDbVertex
100
AcDb3dPolylineVertex
 10
160.545
 20
-9.268399999999983
 30
0.0
 70
    32
  0
VERTEX
  5
1A01
330
19D6
100
AcDbEntity
  8
241
  6
Continuous
100
AcDbVertex
100
AcDb3dPolylineVertex
 10
160.479
 20
-9.39583999999999
 30
0.0
 70
    32
  0
VERTEX
  5
1A02
330
19D6
100
AcDbEntity
  8
241
  6
Continuous
100
AcDbVertex
100
AcDb3dPolylineVertex
 10
160.411
 20
-9.52185
 30
0.0
 70
    32
  0
VERTEX
  5
1A03
330
19D6
100
AcDbEntity
  8
241
  6
Continuous
100
AcDbVertex
100
AcDb3dPolylineVertex
 10
160.341
 20
-9.646410000000003
 30
0.0
 70
    32
  0
VERTEX
  5
1A04
330
19D6
100
AcDbEntity
  8
241
  6
Continuous
100
AcDbVertex
100
AcDb3dPolylineVertex
 10
160.27
 20
-9.769470000000012
 30
0.0
 70
    32
  0
VERTEX
  5
1A05
330
19D6
100
AcDbEntity
  8
241
  6
Continuous
100
AcDbVertex
100
AcDb3dPolylineVertex
 10
160.196
 20
-9.890980000000011
 30
0.0
 70
    32
  0
VERTEX
  5
1A06
330
19D6
100
AcDbEntity
  8
241
  6
Continuous
100
AcDbVertex
100
AcDb3dPolylineVertex
 10
160.12
 20
-10.01089999999999
 30
0.0
 70
    32
  0
VERTEX
  5
1A07
330
19D6
100
AcDbEntity
  8
241
  6
Continuous
100
AcDbVertex
100
AcDb3dPolylineVertex
 10
160.043
 20
-10.1292
 30
0.0
 70
    32
  0
VERTEX
  5
1A08
330
19D6
100
AcDbEntity
  8
241
  6
Continuous
100
AcDbVertex
100
AcDb3dPolylineVertex
 10
159.963
 20
-10.2459
 30
0.0
 70
    32
  0
VERTEX
  5
1A09
330
19D6
100
AcDbEntity
  8
241
  6
Continuous
100
AcDbVertex
100
AcDb3dPolylineVertex
 10
159.882
 20
-10.36080000000001
 30
0.0
 70
    32
  0
VERTEX
  5
1A0A
330
19D6
100
AcDbEntity
  8
241
  6
Continuous
100
AcDbVertex
100
AcDb3dPolylineVertex
 10
159.799
 20
-10.47399999999999
 30
0.0
 70
    32
  0
VERTEX
  5
1A0B
330
19D6
100
AcDbEntity
  8
241
  6
Continuous
100
AcDbVertex
100
AcDb3dPolylineVertex
 10
159.714
 20
-10.58539999999999
 30
0.0
 70
    32
  0
VERTEX
  5
1A0C
330
19D6
100
AcDbEntity
  8
241
  6
Continuous
100
AcDbVertex
100
AcDb3dPolylineVertex
 10
159.628
 20
-10.69499999999999
 30
0.0
 70
    32
  0
VERTEX
  5
1A0D
330
19D6
100
AcDbEntity
  8
241
  6
Continuous
100
AcDbVertex
100
AcDb3dPolylineVertex
 10
159.539
 20
-10.80279999999999
 30
0.0
 70
    32
  0
VERTEX
  5
1A0E
330
19D6
100
AcDbEntity
  8
241
  6
Continuous
100
AcDbVertex
100
AcDb3dPolylineVertex
 10
159.449
 20
-10.90860000000001
 30
0.0
 70
    32
  0
VERTEX
  5
1A0F
330
19D6
100
AcDbEntity
  8
241
  6
Continuous
100
AcDbVertex
100
AcDb3dPolylineVertex
 10
159.358
 20
-11.01259999999999
 30
0.0
 70
    32
  0
VERTEX
  5
1A10
330
19D6
100
AcDbEntity
  8
241
  6
Continuous
100
AcDbVertex
100
AcDb3dPolylineVertex
 10
159.264
 20
-11.11459999999999
 30
0.0
 70
    32
  0
VERTEX
  5
1A11
330
19D6
100
AcDbEntity
  8
241
  6
Continuous
100
AcDbVertex
100
AcDb3dPolylineVertex
 10
159.169
 20
-11.21449999999998
 30
0.0
 70
    32
  0
VERTEX
  5
1A12
330
19D6
100
AcDbEntity
  8
241
  6
Continuous
100
AcDbVertex
100
AcDb3dPolylineVertex
 10
159.0729999999999
 20
-11.3125
 30
0.0
 70
    32
  0
VERTEX
  5
1A13
330
19D6
100
AcDbEntity
  8
241
  6
Continuous
100
AcDbVertex
100
AcDb3dPolylineVertex
 10
158.975
 20
-11.4084
 30
0.0
 70
    32
  0
VERTEX
  5
1A14
330
19D6
100
AcDbEntity
  8
241
  6
Continuous
100
AcDbVertex
100
AcDb3dPolylineVertex
 10
158.875
 20
-11.50219999999999
 30
0.0
 70
    32
  0
VERTEX
  5
1A15
330
19D6
100
AcDbEntity
  8
241
  6
Continuous
100
AcDbVertex
100
AcDb3dPolylineVertex
 10
158.774
 20
-11.59379999999998
 30
0.0
 70
    32
  0
VERTEX
  5
1A16
330
19D6
100
AcDbEntity
  8
241
  6
Continuous
100
AcDbVertex
100
AcDb3dPolylineVertex
 10
158.672
 20
-11.6833
 30
0.0
 70
    32
  0
VERTEX
  5
1A17
330
19D6
100
AcDbEntity
  8
241
  6
Continuous
100
AcDbVertex
100
AcDb3dPolylineVertex
 10
158.568
 20
-11.7707
 30
0.0
 70
    32
  0
VERTEX
  5
1A18
330
19D6
100
AcDbEntity
  8
241
  6
Continuous
100
AcDbVertex
100
AcDb3dPolylineVertex
 10
158.463
 20
-11.85579999999998
 30
0.0
 70
    32
  0
VERTEX
  5
1A19
330
19D6
100
AcDbEntity
  8
241
  6
Continuous
100
AcDbVertex
100
AcDb3dPolylineVertex
 10
158.356
 20
-11.93860000000001
 30
0.0
 70
    32
  0
VERTEX
  5
1A1A
330
19D6
100
AcDbEntity
  8
241
  6
Continuous
100
AcDbVertex
100
AcDb3dPolylineVertex
 10
158.248
 20
-12.01920000000001
 30
0.0
 70
    32
  0
VERTEX
  5
1A1B
330
19D6
100
AcDbEntity
  8
241
  6
Continuous
100
AcDbVertex
100
AcDb3dPolylineVertex
 10
158.139
 20
-12.09749999999999
 30
0.0
 70
    32
  0
VERTEX
  5
1A1C
330
19D6
100
AcDbEntity
  8
241
  6
Continuous
100
AcDbVertex
100
AcDb3dPolylineVertex
 10
158.029
 20
-12.17349999999999
 30
0.0
 70
    32
  0
VERTEX
  5
1A1D
330
19D6
100
AcDbEntity
  8
241
  6
Continuous
100
AcDbVertex
100
AcDb3dPolylineVertex
 10
157.917
 20
-12.24709999999999
 30
0.0
 70
    32
  0
VERTEX
  5
1A1E
330
19D6
100
AcDbEntity
  8
241
  6
Continuous
100
AcDbVertex
100
AcDb3dPolylineVertex
 10
157.804
 20
-12.31829999999999
 30
0.0
 70
    32
  0
VERTEX
  5
1A1F
330
19D6
100
AcDbEntity
  8
241
  6
Continuous
100
AcDbVertex
100
AcDb3dPolylineVertex
 10
157.69
 20
-12.3871
 30
0.0
 70
    32
  0
VERTEX
  5
1A20
330
19D6
100
AcDbEntity
  8
241
  6
Continuous
100
AcDbVertex
100
AcDb3dPolylineVertex
 10
157.576
 20
-12.45359999999999
 30
0.0
 70
    32
  0
VERTEX
  5
1A21
330
19D6
100
AcDbEntity
  8
241
  6
Continuous
100
AcDbVertex
100
AcDb3dPolylineVertex
 10
157.46
 20
-12.51750000000001
 30
0.0
 70
    32
  0
VERTEX
  5
1A22
330
19D6
100
AcDbEntity
  8
241
  6
Continuous
100
AcDbVertex
100
AcDb3dPolylineVertex
 10
157.343
 20
-12.57900000000001
 30
0.0
 70
    32
  0
VERTEX
  5
1A23
330
19D6
100
AcDbEntity
  8
241
  6
Continuous
100
AcDbVertex
100
AcDb3dPolylineVertex
 10
157.225
 20
-12.638
 30
0.0
 70
    32
  0
VERTEX
  5
1A24
330
19D6
100
AcDbEntity
  8
241
  6
Continuous
100
AcDbVertex
100
AcDb3dPolylineVertex
 10
157.106
 20
-12.6945
 30
0.0
 70
    32
  0
VERTEX
  5
1A25
330
19D6
100
AcDbEntity
  8
241
  6
Continuous
100
AcDbVertex
100
AcDb3dPolylineVertex
 10
156.986
 20
-12.7485
 30
0.0
 70
    32
  0
VERTEX
  5
1A26
330
19D6
100
AcDbEntity
  8
241
  6
Continuous
100
AcDbVertex
100
AcDb3dPolylineVertex
 10
156.866
 20
-12.79990000000001
 30
0.0
 70
    32
  0
VERTEX
  5
1A27
330
19D6
100
AcDbEntity
  8
241
  6
Continuous
100
AcDbVertex
100
AcDb3dPolylineVertex
 10
156.744
 20
-12.84880000000001
 30
0.0
 70
    32
  0
VERTEX
  5
1A28
330
19D6
100
AcDbEntity
  8
241
  6
Continuous
100
AcDbVertex
100
AcDb3dPolylineVertex
 10
156.622
 20
-12.89500000000001
 30
0.0
 70
    32
  0
VERTEX
  5
1A29
330
19D6
100
AcDbEntity
  8
241
  6
Continuous
100
AcDbVertex
100
AcDb3dPolylineVertex
 10
156.5
 20
-12.93870000000001
 30
0.0
 70
    32
  0
VERTEX
  5
1A2A
330
19D6
100
AcDbEntity
  8
241
  6
Continuous
100
AcDbVertex
100
AcDb3dPolylineVertex
 10
156.376
 20
-12.97980000000001
 30
0.0
 70
    32
  0
VERTEX
  5
1A2B
330
19D6
100
AcDbEntity
  8
241
  6
Continuous
100
AcDbVertex
100
AcDb3dPolylineVertex
 10
156.252
 20
-13.01830000000001
 30
0.0
 70
    32
  0
VERTEX
  5
1A2C
330
19D6
100
AcDbEntity
  8
241
  6
Continuous
100
AcDbVertex
100
AcDb3dPolylineVertex
 10
156.127
 20
-13.0541
 30
0.0
 70
    32
  0
VERTEX
  5
1A2D
330
19D6
100
AcDbEntity
  8
241
  6
Continuous
100
AcDbVertex
100
AcDb3dPolylineVertex
 10
156.002
 20
-13.08719999999999
 30
0.0
 70
    32
  0
VERTEX
  5
1A2E
330
19D6
100
AcDbEntity
  8
241
  6
Continuous
100
AcDbVertex
100
AcDb3dPolylineVertex
 10
155.876
 20
-13.11770000000001
 30
0.0
 70
    32
  0
VERTEX
  5
1A2F
330
19D6
100
AcDbEntity
  8
241
  6
Continuous
100
AcDbVertex
100
AcDb3dPolylineVertex
 10
155.75
 20
-13.1456
 30
0.0
 70
    32
  0
VERTEX
  5
1A30
330
19D6
100
AcDbEntity
  8
241
  6
Continuous
100
AcDbVertex
100
AcDb3dPolylineVertex
 10
155.624
 20
-13.17070000000001
 30
0.0
 70
    32
  0
VERTEX
  5
1A31
330
19D6
100
AcDbEntity
  8
241
  6
Continuous
100
AcDbVertex
100
AcDb3dPolylineVertex
 10
155.497
 20
-13.19319999999999
 30
0.0
 70
    32
  0
VERTEX
  5
1A32
330
19D6
100
AcDbEntity
  8
241
  6
Continuous
100
AcDbVertex
100
AcDb3dPolylineVertex
 10
155.369
 20
-13.21299999999999
 30
0.0
 70
    32
  0
VERTEX
  5
1A33
330
19D6
100
AcDbEntity
  8
241
  6
Continuous
100
AcDbVertex
100
AcDb3dPolylineVertex
 10
155.242
 20
-13.23009999999999
 30
0.0
 70
    32
  0
VERTEX
  5
1A34
330
19D6
100
AcDbEntity
  8
241
  6
Continuous
100
AcDbVertex
100
AcDb3dPolylineVertex
 10
155.114
 20
-13.24440000000001
 30
0.0
 70
    32
  0
VERTEX
  5
1A35
330
19D6
100
AcDbEntity
  8
241
  6
Continuous
100
AcDbVertex
100
AcDb3dPolylineVertex
 10
154.986
 20
-13.2561
 30
0.0
 70
    32
  0
VERTEX
  5
1A36
330
19D6
100
AcDbEntity
  8
241
  6
Continuous
100
AcDbVertex
100
AcDb3dPolylineVertex
 10
154.857
 20
-13.26499999999998
 30
0.0
 70
    32
  0
VERTEX
  5
1A37
330
19D6
100
AcDbEntity
  8
241
  6
Continuous
100
AcDbVertex
100
AcDb3dPolylineVertex
 10
154.729
 20
-13.27119999999999
 30
0.0
 70
    32
  0
VERTEX
  5
1A38
330
19D6
100
AcDbEntity
  8
241
  6
Continuous
100
AcDbVertex
100
AcDb3dPolylineVertex
 10
154.6
 20
-13.27469999999999
 30
0.0
 70
    32
  0
VERTEX
  5
1A39
330
19D6
100
AcDbEntity
  8
241
  6
Continuous
100
AcDbVertex
100
AcDb3dPolylineVertex
 10
154.472
 20
-13.27549999999999
 30
0.0
 70
    32
  0
VERTEX
  5
1A3A
330
19D6
100
AcDbEntity
  8
241
  6
Continuous
100
AcDbVertex
100
AcDb3dPolylineVertex
 10
154.343
 20
-13.27350000000001
 30
0.0
 70
    32
  0
VERTEX
  5
1A3B
330
19D6
100
AcDbEntity
  8
241
  6
Continuous
100
AcDbVertex
100
AcDb3dPolylineVertex
 10
154.215
 20
-13.2688
 30
0.0
 70
    32
  0
VERTEX
  5
1A3C
330
19D6
100
AcDbEntity
  8
241
  6
Continuous
100
AcDbVertex
100
AcDb3dPolylineVertex
 10
154.087
 20
-13.26140000000001
 30
0.0
 70
    32
  0
VERTEX
  5
1A3D
330
19D6
100
AcDbEntity
  8
241
  6
Continuous
100
AcDbVertex
100
AcDb3dPolylineVertex
 10
153.959
 20
-13.25130000000001
 30
0.0
 70
    32
  0
VERTEX
  5
1A3E
330
19D6
100
AcDbEntity
  8
241
  6
Continuous
100
AcDbVertex
100
AcDb3dPolylineVertex
 10
153.831
 20
-13.23849999999999
 30
0.0
 70
    32
  0
VERTEX
  5
1A3F
330
19D6
100
AcDbEntity
  8
241
  6
Continuous
100
AcDbVertex
100
AcDb3dPolylineVertex
 10
153.703
 20
-13.22290000000001
 30
0.0
 70
    32
  0
VERTEX
  5
1A40
330
19D6
100
AcDbEntity
  8
241
  6
Continuous
100
AcDbVertex
100
AcDb3dPolylineVertex
 10
153.575
 20
-13.2047
 30
0.0
 70
    32
  0
VERTEX
  5
1A41
330
19D6
100
AcDbEntity
  8
241
  6
Continuous
100
AcDbVertex
100
AcDb3dPolylineVertex
 10
153.448
 20
-13.18369999999999
 30
0.0
 70
    32
  0
VERTEX
  5
1A42
330
19D6
100
AcDbEntity
  8
241
  6
Continuous
100
AcDbVertex
100
AcDb3dPolylineVertex
 10
153.321
 20
-13.1601
 30
0.0
 70
    32
  0
VERTEX
  5
1A43
330
19D6
100
AcDbEntity
  8
241
  6
Continuous
100
AcDbVertex
100
AcDb3dPolylineVertex
 10
153.195
 20
-13.13380000000001
 30
0.0
 70
    32
  0
VERTEX
  5
1A44
330
19D6
100
AcDbEntity
  8
241
  6
Continuous
100
AcDbVertex
100
AcDb3dPolylineVertex
 10
153.069
 20
-13.10480000000001
 30
0.0
 70
    32
  0
VERTEX
  5
1A45
330
19D6
100
AcDbEntity
  8
241
  6
Continuous
100
AcDbVertex
100
AcDb3dPolylineVertex
 10
152.943
 20
-13.07310000000001
 30
0.0
 70
    32
  0
VERTEX
  5
1A46
330
19D6
100
AcDbEntity
  8
241
  6
Continuous
100
AcDbVertex
100
AcDb3dPolylineVertex
 10
152.818
 20
-13.03880000000001
 30
0.0
 70
    32
  0
VERTEX
  5
1A47
330
19D6
100
AcDbEntity
  8
241
  6
Continuous
100
AcDbVertex
100
AcDb3dPolylineVertex
 10
152.694
 20
-13.0018
 30
0.0
 70
    32
  0
VERTEX
  5
1A48
330
19D6
100
AcDbEntity
  8
241
  6
Continuous
100
AcDbVertex
100
AcDb3dPolylineVertex
 10
152.57
 20
-12.96219999999999
 30
0.0
 70
    32
  0
VERTEX
  5
1A49
330
19D6
100
AcDbEntity
  8
241
  6
Continuous
100
AcDbVertex
100
AcDb3dPolylineVertex
 10
152.447
 20
-12.91999999999999
 30
0.0
 70
    32
  0
VERTEX
  5
1A4A
330
19D6
100
AcDbEntity
  8
241
  6
Continuous
100
AcDbVertex
100
AcDb3dPolylineVertex
 10
152.324
 20
-12.8752
 30
0.0
 70
    32
  0
VERTEX
  5
1A4B
330
19D6
100
AcDbEntity
  8
241
  6
Continuous
100
AcDbVertex
100
AcDb3dPolylineVertex
 10
152.202
 20
-12.8278
 30
0.0
 70
    32
  0
VERTEX
  5
1A4C
330
19D6
100
AcDbEntity
  8
241
  6
Continuous
100
AcDbVertex
100
AcDb3dPolylineVertex
 10
152.082
 20
-12.77780000000001
 30
0.0
 70
    32
  0
VERTEX
  5
1A4D
330
19D6
100
AcDbEntity
  8
241
  6
Continuous
100
AcDbVertex
100
AcDb3dPolylineVertex
 10
151.961
 20
-12.7252
 30
0.0
 70
    32
  0
VERTEX
  5
1A4E
330
19D6
100
AcDbEntity
  8
241
  6
Continuous
100
AcDbVertex
100
AcDb3dPolylineVertex
 10
151.842
 20
-12.67019999999999
 30
0.0
 70
    32
  0
VERTEX
  5
1A4F
330
19D6
100
AcDbEntity
  8
241
  6
Continuous
100
AcDbVertex
100
AcDb3dPolylineVertex
 10
151.724
 20
-12.61259999999998
 30
0.0
 70
    32
  0
VERTEX
  5
1A50
330
19D6
100
AcDbEntity
  8
241
  6
Continuous
100
AcDbVertex
100
AcDb3dPolylineVertex
 10
151.606
 20
-12.55250000000001
 30
0.0
 70
    32
  0
VERTEX
  5
1A51
330
19D6
100
AcDbEntity
  8
241
  6
Continuous
100
AcDbVertex
100
AcDb3dPolylineVertex
 10
151.49
 20
-12.4899
 30
0.0
 70
    32
  0
VERTEX
  5
1A52
330
19D6
100
AcDbEntity
  8
241
  6
Continuous
100
AcDbVertex
100
AcDb3dPolylineVertex
 10
151.374
 20
-12.42490000000001
 30
0.0
 70
    32
  0
VERTEX
  5
1A53
330
19D6
100
AcDbEntity
  8
241
  6
Continuous
100
AcDbVertex
100
AcDb3dPolylineVertex
 10
151.26
 20
-12.35740000000001
 30
0.0
 70
    32
  0
VERTEX
  5
1A54
330
19D6
100
AcDbEntity
  8
241
  6
Continuous
100
AcDbVertex
100
AcDb3dPolylineVertex
 10
151.146
 20
-12.28749999999999
 30
0.0
 70
    32
  0
VERTEX
  5
1A55
330
19D6
100
AcDbEntity
  8
241
  6
Continuous
100
AcDbVertex
100
AcDb3dPolylineVertex
 10
151.034
 20
-12.21520000000001
 30
0.0
 70
    32
  0
VERTEX
  5
1A56
330
19D6
100
AcDbEntity
  8
241
  6
Continuous
100
AcDbVertex
100
AcDb3dPolylineVertex
 10
150.923
 20
-12.14060000000001
 30
0.0
 70
    32
  0
VERTEX
  5
1A57
330
19D6
100
AcDbEntity
  8
241
  6
Continuous
100
AcDbVertex
100
AcDb3dPolylineVertex
 10
150.813
 20
-12.06360000000001
 30
0.0
 70
    32
  0
SEQEND
  5
1A58
330
19D6
100
AcDbEntity
  8
241
  6
Continuous
  0
POLYLINE
  5
1A59
330
156C
100
AcDbEntity
  8
241
  6
Continuous
100
AcDb3dPolyline
 66
     1
 10
0.0
 20
0.0
 30
0.0
 70
     8
  0
VERTEX
  5
1A5A
330
1A59
100
AcDbEntity
  8
241
  6
Continuous
100
AcDbVertex
100
AcDb3dPolylineVertex
 10
159.38
 20
0.2140579999999943
 30
0.0
 70
    32
  0
VERTEX
  5
1A5B
330
1A59
100
AcDbEntity
  8
241
  6
Continuous
100
AcDbVertex
100
AcDb3dPolylineVertex
 10
159.448
 20
0.1393950000000075
 30
0.0
 70
    32
  0
VERTEX
  5
1A5C
330
1A59
100
AcDbEntity
  8
241
  6
Continuous
100
AcDbVertex
100
AcDb3dPolylineVertex
 10
159.514
 20
0.0637140000000045
 30
0.0
 70
    32
  0
VERTEX
  5
1A5D
330
1A59
100
AcDbEntity
  8
241
  6
Continuous
100
AcDbVertex
100
AcDb3dPolylineVertex
 10
159.579
 20
-0.0129614999999888
 30
0.0
 70
    32
  0
VERTEX
  5
1A5E
330
1A59
100
AcDbEntity
  8
241
  6
Continuous
100
AcDbVertex
100
AcDb3dPolylineVertex
 10
159.642
 20
-0.0906076999999925
 30
0.0
 70
    32
  0
VERTEX
  5
1A5F
330
1A59
100
AcDbEntity
  8
241
  6
Continuous
100
AcDbVertex
100
AcDb3dPolylineVertex
 10
159.704
 20
-0.1692009999999868
 30
0.0
 70
    32
  0
VERTEX
  5
1A60
330
1A59
100
AcDbEntity
  8
241
  6
Continuous
100
AcDbVertex
100
AcDb3dPolylineVertex
 10
159.763
 20
-0.2487169999999992
 30
0.0
 70
    32
  0
VERTEX
  5
1A61
330
1A59
100
AcDbEntity
  8
241
  6
Continuous
100
AcDbVertex
100
AcDb3dPolylineVertex
 10
159.822
 20
-0.3291309999999896
 30
0.0
 70
    32
  0
VERTEX
  5
1A62
330
1A59
100
AcDbEntity
  8
241
  6
Continuous
100
AcDbVertex
100
AcDb3dPolylineVertex
 10
159.878
 20
-0.4104189999999904
 30
0.0
 70
    32
  0
VERTEX
  5
1A63
330
1A59
100
AcDbEntity
  8
241
  6
Continuous
100
AcDbVertex
100
AcDb3dPolylineVertex
 10
159.933
 20
-0.4925550000000102
 30
0.0
 70
    32
  0
VERTEX
  5
1A64
330
1A59
100
AcDbEntity
  8
241
  6
Continuous
100
AcDbVertex
100
AcDb3dPolylineVertex
 10
159.987
 20
-0.5755149999999958
 30
0.0
 70
    32
  0
VERTEX
  5
1A65
330
1A59
100
AcDbEntity
  8
241
  6
Continuous
100
AcDbVertex
100
AcDb3dPolylineVertex
 10
160.038
 20
-0.6592719999999872
 30
0.0
 70
    32
  0
VERTEX
  5
1A66
330
1A59
100
AcDbEntity
  8
241
  6
Continuous
100
AcDbVertex
100
AcDb3dPolylineVertex
 10
160.088
 20
-0.7438009999999906
 30
0.0
 70
    32
  0
VERTEX
  5
1A67
330
1A59
100
AcDbEntity
  8
241
  6
Continuous
100
AcDbVertex
100
AcDb3dPolylineVertex
 10
160.137
 20
-0.829077000000012
 30
0.0
 70
    32
  0
VERTEX
  5
1A68
330
1A59
100
AcDbEntity
  8
241
  6
Continuous
100
AcDbVertex
100
AcDb3dPolylineVertex
 10
160.183
 20
-0.9150710000000115
 30
0.0
 70
    32
  0
VERTEX
  5
1A69
330
1A59
100
AcDbEntity
  8
241
  6
Continuous
100
AcDbVertex
100
AcDb3dPolylineVertex
 10
160.228
 20
-1.001759999999989
 30
0.0
 70
    32
  0
VERTEX
  5
1A6A
330
1A59
100
AcDbEntity
  8
241
  6
Continuous
100
AcDbVertex
100
AcDb3dPolylineVertex
 10
160.271
 20
-1.089110000000005
 30
0.0
 70
    32
  0
VERTEX
  5
1A6B
330
1A59
100
AcDbEntity
  8
241
  6
Continuous
100
AcDbVertex
100
AcDb3dPolylineVertex
 10
160.312
 20
-1.177109999999998
 30
0.0
 70
    32
  0
VERTEX
  5
1A6C
330
1A59
100
AcDbEntity
  8
241
  6
Continuous
100
AcDbVertex
100
AcDb3dPolylineVertex
 10
160.352
 20
-1.265710000000011
 30
0.0
 70
    32
  0
VERTEX
  5
1A6D
330
1A59
100
AcDbEntity
  8
241
  6
Continuous
100
AcDbVertex
100
AcDb3dPolylineVertex
 10
160.389
 20
-1.354909999999988
 30
0.0
 70
    32
  0
VERTEX
  5
1A6E
330
1A59
100
AcDbEntity
  8
241
  6
Continuous
100
AcDbVertex
100
AcDb3dPolylineVertex
 10
160.425
 20
-1.444659999999997
 30
0.0
 70
    32
  0
VERTEX
  5
1A6F
330
1A59
100
AcDbEntity
  8
241
  6
Continuous
100
AcDbVertex
100
AcDb3dPolylineVertex
 10
160.459
 20
-1.534940000000004
 30
0.0
 70
    32
  0
VERTEX
  5
1A70
330
1A59
100
AcDbEntity
  8
241
  6
Continuous
100
AcDbVertex
100
AcDb3dPolylineVertex
 10
160.491
 20
-1.62572
 30
0.0
 70
    32
  0
VERTEX
  5
1A71
330
1A59
100
AcDbEntity
  8
241
  6
Continuous
100
AcDbVertex
100
AcDb3dPolylineVertex
 10
160.521
 20
-1.716980000000005
 30
0.0
 70
    32
  0
VERTEX
  5
1A72
330
1A59
100
AcDbEntity
  8
241
  6
Continuous
100
AcDbVertex
100
AcDb3dPolylineVertex
 10
160.55
 20
-1.808680000000008
 30
0.0
 70
    32
  0
VERTEX
  5
1A73
330
1A59
100
AcDbEntity
  8
241
  6
Continuous
100
AcDbVertex
100
AcDb3dPolylineVertex
 10
160.576
 20
-1.900800000000003
 30
0.0
 70
    32
  0
VERTEX
  5
1A74
330
1A59
100
AcDbEntity
  8
241
  6
Continuous
100
AcDbVertex
100
AcDb3dPolylineVertex
 10
160.601
 20
-1.993310000000008
 30
0.0
 70
    32
  0
VERTEX
  5
1A75
330
1A59
100
AcDbEntity
  8
241
  6
Continuous
100
AcDbVertex
100
AcDb3dPolylineVertex
 10
160.624
 20
-2.086180000000013
 30
0.0
 70
    32
  0
VERTEX
  5
1A76
330
1A59
100
AcDbEntity
  8
241
  6
Continuous
100
AcDbVertex
100
AcDb3dPolylineVertex
 10
160.645
 20
-2.179390000000011
 30
0.0
 70
    32
  0
VERTEX
  5
1A77
330
1A59
100
AcDbEntity
  8
241
  6
Continuous
100
AcDbVertex
100
AcDb3dPolylineVertex
 10
160.664
 20
-2.272899999999991
 30
0.0
 70
    32
  0
VERTEX
  5
1A78
330
1A59
100
AcDbEntity
  8
241
  6
Continuous
100
AcDbVertex
100
AcDb3dPolylineVertex
 10
160.681
 20
-2.366680000000001
 30
0.0
 70
    32
  0
VERTEX
  5
1A79
330
1A59
100
AcDbEntity
  8
241
  6
Continuous
100
AcDbVertex
100
AcDb3dPolylineVertex
 10
160.697
 20
-2.460720000000009
 30
0.0
 70
    32
  0
VERTEX
  5
1A7A
330
1A59
100
AcDbEntity
  8
241
  6
Continuous
100
AcDbVertex
100
AcDb3dPolylineVertex
 10
160.71
 20
-2.554959999999994
 30
0.0
 70
    32
  0
VERTEX
  5
1A7B
330
1A59
100
AcDbEntity
  8
241
  6
Continuous
100
AcDbVertex
100
AcDb3dPolylineVertex
 10
160.721
 20
-2.649400000000014
 30
0.0
 70
    32
  0
VERTEX
  5
1A7C
330
1A59
100
AcDbEntity
  8
241
  6
Continuous
100
AcDbVertex
100
AcDb3dPolylineVertex
 10
160.731
 20
-2.743999999999998
 30
0.0
 70
    32
  0
VERTEX
  5
1A7D
330
1A59
100
AcDbEntity
  8
241
  6
Continuous
100
AcDbVertex
100
AcDb3dPolylineVertex
 10
160.738
 20
-2.838729999999998
 30
0.0
 70
    32
  0
VERTEX
  5
1A7E
330
1A59
100
AcDbEntity
  8
241
  6
Continuous
100
AcDbVertex
100
AcDb3dPolylineVertex
 10
160.744
 20
-2.933549999999995
 30
0.0
 70
    32
  0
VERTEX
  5
1A7F
330
1A59
100
AcDbEntity
  8
241
  6
Continuous
100
AcDbVertex
100
AcDb3dPolylineVertex
 10
160.748
 20
-3.028449999999991
 30
0.0
 70
    32
  0
VERTEX
  5
1A80
330
1A59
100
AcDbEntity
  8
241
  6
Continuous
100
AcDbVertex
100
AcDb3dPolylineVertex
 10
160.75
 20
-3.123400000000002
 30
0.0
 70
    32
  0
VERTEX
  5
1A81
330
1A59
100
AcDbEntity
  8
241
  6
Continuous
100
AcDbVertex
100
AcDb3dPolylineVertex
 10
160.75
 20
-3.218349999999986
 30
0.0
 70
    32
  0
VERTEX
  5
1A82
330
1A59
100
AcDbEntity
  8
241
  6
Continuous
100
AcDbVertex
100
AcDb3dPolylineVertex
 10
160.748
 20
-3.313289999999993
 30
0.0
 70
    32
  0
VERTEX
  5
1A83
330
1A59
100
AcDbEntity
  8
241
  6
Continuous
100
AcDbVertex
100
AcDb3dPolylineVertex
 10
160.744
 20
-3.40818999999999
 30
0.0
 70
    32
  0
VERTEX
  5
1A84
330
1A59
100
AcDbEntity
  8
241
  6
Continuous
100
AcDbVertex
100
AcDb3dPolylineVertex
 10
160.738
 20
-3.503009999999988
 30
0.0
 70
    32
  0
VERTEX
  5
1A85
330
1A59
100
AcDbEntity
  8
241
  6
Continuous
100
AcDbVertex
100
AcDb3dPolylineVertex
 10
160.73
 20
-3.597730000000011
 30
0.0
 70
    32
  0
VERTEX
  5
1A86
330
1A59
100
AcDbEntity
  8
241
  6
Continuous
100
AcDbVertex
100
AcDb3dPolylineVertex
 10
160.721
 20
-3.692319999999995
 30
0.0
 70
    32
  0
VERTEX
  5
1A87
330
1A59
100
AcDbEntity
  8
241
  6
Continuous
100
AcDbVertex
100
AcDb3dPolylineVertex
 10
160.709
 20
-3.786740000000008
 30
0.0
 70
    32
  0
VERTEX
  5
1A88
330
1A59
100
AcDbEntity
  8
241
  6
Continuous
100
AcDbVertex
100
AcDb3dPolylineVertex
 10
160.695
 20
-3.88096999999999
 30
0.0
 70
    32
  0
VERTEX
  5
1A89
330
1A59
100
AcDbEntity
  8
241
  6
Continuous
100
AcDbVertex
100
AcDb3dPolylineVertex
 10
160.68
 20
-3.974989999999991
 30
0.0
 70
    32
  0
VERTEX
  5
1A8A
330
1A59
100
AcDbEntity
  8
241
  6
Continuous
100
AcDbVertex
100
AcDb3dPolylineVertex
 10
160.663
 20
-4.068749999999993
 30
0.0
 70
    32
  0
VERTEX
  5
1A8B
330
1A59
100
AcDbEntity
  8
241
  6
Continuous
100
AcDbVertex
100
AcDb3dPolylineVertex
 10
160.644
 20
-4.162239999999997
 30
0.0
 70
    32
  0
VERTEX
  5
1A8C
330
1A59
100
AcDbEntity
  8
241
  6
Continuous
100
AcDbVertex
100
AcDb3dPolylineVertex
 10
160.622
 20
-4.255419999999986
 30
0.0
 70
    32
  0
VERTEX
  5
1A8D
330
1A59
100
AcDbEntity
  8
241
  6
Continuous
100
AcDbVertex
100
AcDb3dPolylineVertex
 10
160.599
 20
-4.348270000000012
 30
0.0
 70
    32
  0
VERTEX
  5
1A8E
330
1A59
100
AcDbEntity
  8
241
  6
Continuous
100
AcDbVertex
100
AcDb3dPolylineVertex
 10
160.575
 20
-4.440750000000007
 30
0.0
 70
    32
  0
VERTEX
  5
1A8F
330
1A59
100
AcDbEntity
  8
241
  6
Continuous
100
AcDbVertex
100
AcDb3dPolylineVertex
 10
160.548
 20
-4.532849999999996
 30
0.0
 70
    32
  0
VERTEX
  5
1A90
330
1A59
100
AcDbEntity
  8
241
  6
Continuous
100
AcDbVertex
100
AcDb3dPolylineVertex
 10
160.519
 20
-4.624519999999987
 30
0.0
 70
    32
  0
VERTEX
  5
1A91
330
1A59
100
AcDbEntity
  8
241
  6
Continuous
100
AcDbVertex
100
AcDb3dPolylineVertex
 10
160.489
 20
-4.715740000000009
 30
0.0
 70
    32
  0
VERTEX
  5
1A92
330
1A59
100
AcDbEntity
  8
241
  6
Continuous
100
AcDbVertex
100
AcDb3dPolylineVertex
 10
160.457
 20
-4.806489999999995
 30
0.0
 70
    32
  0
VERTEX
  5
1A93
330
1A59
100
AcDbEntity
  8
241
  6
Continuous
100
AcDbVertex
100
AcDb3dPolylineVertex
 10
160.422
 20
-4.89672999999999
 30
0.0
 70
    32
  0
VERTEX
  5
1A94
330
1A59
100
AcDbEntity
  8
241
  6
Continuous
100
AcDbVertex
100
AcDb3dPolylineVertex
 10
160.386
 20
-4.986439999999987
 30
0.0
 70
    32
  0
VERTEX
  5
1A95
330
1A59
100
AcDbEntity
  8
241
  6
Continuous
100
AcDbVertex
100
AcDb3dPolylineVertex
 10
160.349
 20
-5.075590000000004
 30
0.0
 70
    32
  0
VERTEX
  5
1A96
330
1A59
100
AcDbEntity
  8
241
  6
Continuous
100
AcDbVertex
100
AcDb3dPolylineVertex
 10
160.309
 20
-5.164150000000005
 30
0.0
 70
    32
  0
VERTEX
  5
1A97
330
1A59
100
AcDbEntity
  8
241
  6
Continuous
100
AcDbVertex
100
AcDb3dPolylineVertex
 10
160.268
 20
-5.252100000000011
 30
0.0
 70
    32
  0
VERTEX
  5
1A98
330
1A59
100
AcDbEntity
  8
241
  6
Continuous
100
AcDbVertex
100
AcDb3dPolylineVertex
 10
160.225
 20
-5.339409999999986
 30
0.0
 70
    32
  0
VERTEX
  5
1A99
330
1A59
100
AcDbEntity
  8
241
  6
Continuous
100
AcDbVertex
100
AcDb3dPolylineVertex
 10
160.18
 20
-5.42604
 30
0.0
 70
    32
  0
VERTEX
  5
1A9A
330
1A59
100
AcDbEntity
  8
241
  6
Continuous
100
AcDbVertex
100
AcDb3dPolylineVertex
 10
160.133
 20
-5.511989999999997
 30
0.0
 70
    32
  0
VERTEX
  5
1A9B
330
1A59
100
AcDbEntity
  8
241
  6
Continuous
100
AcDbVertex
100
AcDb3dPolylineVertex
 10
160.085
 20
-5.597209999999988
 30
0.0
 70
    32
  0
VERTEX
  5
1A9C
330
1A59
100
AcDbEntity
  8
241
  6
Continuous
100
AcDbVertex
100
AcDb3dPolylineVertex
 10
160.035
 20
-5.68168
 30
0.0
 70
    32
  0
VERTEX
  5
1A9D
330
1A59
100
AcDbEntity
  8
241
  6
Continuous
100
AcDbVertex
100
AcDb3dPolylineVertex
 10
159.983
 20
-5.765379999999991
 30
0.0
 70
    32
  0
VERTEX
  5
1A9E
330
1A59
100
AcDbEntity
  8
241
  6
Continuous
100
AcDbVertex
100
AcDb3dPolylineVertex
 10
159.93
 20
-5.848279999999986
 30
0.0
 70
    32
  0
VERTEX
  5
1A9F
330
1A59
100
AcDbEntity
  8
241
  6
Continuous
100
AcDbVertex
100
AcDb3dPolylineVertex
 10
159.874
 20
-5.930360000000008
 30
0.0
 70
    32
  0
VERTEX
  5
1AA0
330
1A59
100
AcDbEntity
  8
241
  6
Continuous
100
AcDbVertex
100
AcDb3dPolylineVertex
 10
159.818
 20
-6.011580000000008
 30
0.0
 70
    32
  0
VERTEX
  5
1AA1
330
1A59
100
AcDbEntity
  8
241
  6
Continuous
100
AcDbVertex
100
AcDb3dPolylineVertex
 10
159.759
 20
-6.09192999999999
 30
0.0
 70
    32
  0
VERTEX
  5
1AA2
330
1A59
100
AcDbEntity
  8
241
  6
Continuous
100
AcDbVertex
100
AcDb3dPolylineVertex
 10
159.699
 20
-6.171379999999999
 30
0.0
 70
    32
  0
VERTEX
  5
1AA3
330
1A59
100
AcDbEntity
  8
241
  6
Continuous
100
AcDbVertex
100
AcDb3dPolylineVertex
 10
159.637
 20
-6.249909999999998
 30
0.0
 70
    32
  0
VERTEX
  5
1AA4
330
1A59
100
AcDbEntity
  8
241
  6
Continuous
100
AcDbVertex
100
AcDb3dPolylineVertex
 10
159.574
 20
-6.327480000000008
 30
0.0
 70
    32
  0
VERTEX
  5
1AA5
330
1A59
100
AcDbEntity
  8
241
  6
Continuous
100
AcDbVertex
100
AcDb3dPolylineVertex
 10
159.509
 20
-6.404089999999996
 30
0.0
 70
    32
  0
VERTEX
  5
1AA6
330
1A59
100
AcDbEntity
  8
241
  6
Continuous
100
AcDbVertex
100
AcDb3dPolylineVertex
 10
159.443
 20
-6.479690000000005
 30
0.0
 70
    32
  0
VERTEX
  5
1AA7
330
1A59
100
AcDbEntity
  8
241
  6
Continuous
100
AcDbVertex
100
AcDb3dPolylineVertex
 10
159.375
 20
-6.554280000000004
 30
0.0
 70
    32
  0
VERTEX
  5
1AA8
330
1A59
100
AcDbEntity
  8
241
  6
Continuous
100
AcDbVertex
100
AcDb3dPolylineVertex
 10
159.306
 20
-6.627829999999987
 30
0.0
 70
    32
  0
VERTEX
  5
1AA9
330
1A59
100
AcDbEntity
  8
241
  6
Continuous
100
AcDbVertex
100
AcDb3dPolylineVertex
 10
159.235
 20
-6.70031
 30
0.0
 70
    32
  0
VERTEX
  5
1AAA
330
1A59
100
AcDbEntity
  8
241
  6
Continuous
100
AcDbVertex
100
AcDb3dPolylineVertex
 10
159.163
 20
-6.771700000000008
 30
0.0
 70
    32
  0
VERTEX
  5
1AAB
330
1A59
100
AcDbEntity
  8
241
  6
Continuous
100
AcDbVertex
100
AcDb3dPolylineVertex
 10
159.089
 20
-6.841980000000005
 30
0.0
 70
    32
  0
VERTEX
  5
1AAC
330
1A59
100
AcDbEntity
  8
241
  6
Continuous
100
AcDbVertex
100
AcDb3dPolylineVertex
 10
159.014
 20
-6.911139999999987
 30
0.0
 70
    32
  0
VERTEX
  5
1AAD
330
1A59
100
AcDbEntity
  8
241
  6
Continuous
100
AcDbVertex
100
AcDb3dPolylineVertex
 10
158.937
 20
-6.979140000000001
 30
0.0
 70
    32
  0
VERTEX
  5
1AAE
330
1A59
100
AcDbEntity
  8
241
  6
Continuous
100
AcDbVertex
100
AcDb3dPolylineVertex
 10
158.859
 20
-7.045960000000007
 30
0.0
 70
    32
  0
VERTEX
  5
1AAF
330
1A59
100
AcDbEntity
  8
241
  6
Continuous
100
AcDbVertex
100
AcDb3dPolylineVertex
 10
158.78
 20
-7.111600000000008
 30
0.0
 70
    32
  0
VERTEX
  5
1AB0
330
1A59
100
AcDbEntity
  8
241
  6
Continuous
100
AcDbVertex
100
AcDb3dPolylineVertex
 10
158.7
 20
-7.176019999999994
 30
0.0
 70
    32
  0
VERTEX
  5
1AB1
330
1A59
100
AcDbEntity
  8
241
  6
Continuous
100
AcDbVertex
100
AcDb3dPolylineVertex
 10
158.618
 20
-7.239200000000009
 30
0.0
 70
    32
  0
VERTEX
  5
1AB2
330
1A59
100
AcDbEntity
  8
241
  6
Continuous
100
AcDbVertex
100
AcDb3dPolylineVertex
 10
158.535
 20
-7.301140000000001
 30
0.0
 70
    32
  0
VERTEX
  5
1AB3
330
1A59
100
AcDbEntity
  8
241
  6
Continuous
100
AcDbVertex
100
AcDb3dPolylineVertex
 10
158.45
 20
-7.361799999999987
 30
0.0
 70
    32
  0
VERTEX
  5
1AB4
330
1A59
100
AcDbEntity
  8
241
  6
Continuous
100
AcDbVertex
100
AcDb3dPolylineVertex
 10
158.365
 20
-7.421169999999988
 30
0.0
 70
    32
  0
VERTEX
  5
1AB5
330
1A59
100
AcDbEntity
  8
241
  6
Continuous
100
AcDbVertex
100
AcDb3dPolylineVertex
 10
158.278
 20
-7.479230000000001
 30
0.0
 70
    32
  0
VERTEX
  5
1AB6
330
1A59
100
AcDbEntity
  8
241
  6
Continuous
100
AcDbVertex
100
AcDb3dPolylineVertex
 10
158.19
 20
-7.535959999999986
 30
0.0
 70
    32
  0
VERTEX
  5
1AB7
330
1A59
100
AcDbEntity
  8
241
  6
Continuous
100
AcDbVertex
100
AcDb3dPolylineVertex
 10
158.101
 20
-7.591350000000004
 30
0.0
 70
    32
  0
VERTEX
  5
1AB8
330
1A59
100
AcDbEntity
  8
241
  6
Continuous
100
AcDbVertex
100
AcDb3dPolylineVertex
 10
158.011
 20
-7.645379999999986
 30
0.0
 70
    32
  0
VERTEX
  5
1AB9
330
1A59
100
AcDbEntity
  8
241
  6
Continuous
100
AcDbVertex
100
AcDb3dPolylineVertex
 10
157.92
 20
-7.698029999999986
 30
0.0
 70
    32
  0
VERTEX
  5
1ABA
330
1A59
100
AcDbEntity
  8
241
  6
Continuous
100
AcDbVertex
100
AcDb3dPolylineVertex
 10
157.827
 20
-7.749279999999997
 30
0.0
 70
    32
  0
VERTEX
  5
1ABB
330
1A59
100
AcDbEntity
  8
241
  6
Continuous
100
AcDbVertex
100
AcDb3dPolylineVertex
 10
157.734
 20
-7.799129999999991
 30
0.0
 70
    32
  0
VERTEX
  5
1ABC
330
1A59
100
AcDbEntity
  8
241
  6
Continuous
100
AcDbVertex
100
AcDb3dPolylineVertex
 10
157.64
 20
-7.847550000000013
 30
0.0
 70
    32
  0
VERTEX
  5
1ABD
330
1A59
100
AcDbEntity
  8
241
  6
Continuous
100
AcDbVertex
100
AcDb3dPolylineVertex
 10
157.544
 20
-7.894530000000002
 30
0.0
 70
    32
  0
VERTEX
  5
1ABE
330
1A59
100
AcDbEntity
  8
241
  6
Continuous
100
AcDbVertex
100
AcDb3dPolylineVertex
 10
157.448
 20
-7.940050000000012
 30
0.0
 70
    32
  0
VERTEX
  5
1ABF
330
1A59
100
AcDbEntity
  8
241
  6
Continuous
100
AcDbVertex
100
AcDb3dPolylineVertex
 10
157.351
 20
-7.984100000000013
 30
0.0
 70
    32
  0
VERTEX
  5
1AC0
330
1A59
100
AcDbEntity
  8
241
  6
Continuous
100
AcDbVertex
100
AcDb3dPolylineVertex
 10
157.253
 20
-8.026679999999997
 30
0.0
 70
    32
  0
VERTEX
  5
1AC1
330
1A59
100
AcDbEntity
  8
241
  6
Continuous
100
AcDbVertex
100
AcDb3dPolylineVertex
 10
157.154
 20
-8.067749999999987
 30
0.0
 70
    32
  0
VERTEX
  5
1AC2
330
1A59
100
AcDbEntity
  8
241
  6
Continuous
100
AcDbVertex
100
AcDb3dPolylineVertex
 10
157.054
 20
-8.107319999999987
 30
0.0
 70
    32
  0
VERTEX
  5
1AC3
330
1A59
100
AcDbEntity
  8
241
  6
Continuous
100
AcDbVertex
100
AcDb3dPolylineVertex
 10
156.954
 20
-8.145370000000013
 30
0.0
 70
    32
  0
VERTEX
  5
1AC4
330
1A59
100
AcDbEntity
  8
241
  6
Continuous
100
AcDbVertex
100
AcDb3dPolylineVertex
 10
156.8529999999999
 20
-8.181890000000008
 30
0.0
 70
    32
  0
VERTEX
  5
1AC5
330
1A59
100
AcDbEntity
  8
241
  6
Continuous
100
AcDbVertex
100
AcDb3dPolylineVertex
 10
156.751
 20
-8.216859999999996
 30
0.0
 70
    32
  0
VERTEX
  5
1AC6
330
1A59
100
AcDbEntity
  8
241
  6
Continuous
100
AcDbVertex
100
AcDb3dPolylineVertex
 10
156.648
 20
-8.250280000000001
 30
0.0
 70
    32
  0
VERTEX
  5
1AC7
330
1A59
100
AcDbEntity
  8
241
  6
Continuous
100
AcDbVertex
100
AcDb3dPolylineVertex
 10
156.545
 20
-8.282139999999998
 30
0.0
 70
    32
  0
VERTEX
  5
1AC8
330
1A59
100
AcDbEntity
  8
241
  6
Continuous
100
AcDbVertex
100
AcDb3dPolylineVertex
 10
156.441
 20
-8.312420000000003
 30
0.0
 70
    32
  0
VERTEX
  5
1AC9
330
1A59
100
AcDbEntity
  8
241
  6
Continuous
100
AcDbVertex
100
AcDb3dPolylineVertex
 10
156.336
 20
-8.341110000000012
 30
0.0
 70
    32
  0
VERTEX
  5
1ACA
330
1A59
100
AcDbEntity
  8
241
  6
Continuous
100
AcDbVertex
100
AcDb3dPolylineVertex
 10
156.231
 20
-8.368220000000007
 30
0.0
 70
    32
  0
VERTEX
  5
1ACB
330
1A59
100
AcDbEntity
  8
241
  6
Continuous
100
AcDbVertex
100
AcDb3dPolylineVertex
 10
156.126
 20
-8.393720000000001
 30
0.0
 70
    32
  0
VERTEX
  5
1ACC
330
1A59
100
AcDbEntity
  8
241
  6
Continuous
100
AcDbVertex
100
AcDb3dPolylineVertex
 10
156.02
 20
-8.417619999999999
 30
0.0
 70
    32
  0
VERTEX
  5
1ACD
330
1A59
100
AcDbEntity
  8
241
  6
Continuous
100
AcDbVertex
100
AcDb3dPolylineVertex
 10
155.913
 20
-8.439899999999994
 30
0.0
 70
    32
  0
VERTEX
  5
1ACE
330
1A59
100
AcDbEntity
  8
241
  6
Continuous
100
AcDbVertex
100
AcDb3dPolylineVertex
 10
155.806
 20
-8.460550000000013
 30
0.0
 70
    32
  0
VERTEX
  5
1ACF
330
1A59
100
AcDbEntity
  8
241
  6
Continuous
100
AcDbVertex
100
AcDb3dPolylineVertex
 10
155.699
 20
-8.479579999999996
 30
0.0
 70
    32
  0
VERTEX
  5
1AD0
330
1A59
100
AcDbEntity
  8
241
  6
Continuous
100
AcDbVertex
100
AcDb3dPolylineVertex
 10
155.591
 20
-8.496970000000002
 30
0.0
 70
    32
  0
VERTEX
  5
1AD1
330
1A59
100
AcDbEntity
  8
241
  6
Continuous
100
AcDbVertex
100
AcDb3dPolylineVertex
 10
155.483
 20
-8.512730000000003
 30
0.0
 70
    32
  0
VERTEX
  5
1AD2
330
1A59
100
AcDbEntity
  8
241
  6
Continuous
100
AcDbVertex
100
AcDb3dPolylineVertex
 10
155.374
 20
-8.526829999999987
 30
0.0
 70
    32
  0
VERTEX
  5
1AD3
330
1A59
100
AcDbEntity
  8
241
  6
Continuous
100
AcDbVertex
100
AcDb3dPolylineVertex
 10
155.266
 20
-8.539289999999994
 30
0.0
 70
    32
  0
VERTEX
  5
1AD4
330
1A59
100
AcDbEntity
  8
241
  6
Continuous
100
AcDbVertex
100
AcDb3dPolylineVertex
 10
155.157
 20
-8.550099999999986
 30
0.0
 70
    32
  0
VERTEX
  5
1AD5
330
1A59
100
AcDbEntity
  8
241
  6
Continuous
100
AcDbVertex
100
AcDb3dPolylineVertex
 10
155.048
 20
-8.559249999999991
 30
0.0
 70
    32
  0
VERTEX
  5
1AD6
330
1A59
100
AcDbEntity
  8
241
  6
Continuous
100
AcDbVertex
100
AcDb3dPolylineVertex
 10
154.938
 20
-8.566730000000006
 30
0.0
 70
    32
  0
VERTEX
  5
1AD7
330
1A59
100
AcDbEntity
  8
241
  6
Continuous
100
AcDbVertex
100
AcDb3dPolylineVertex
 10
154.829
 20
-8.572560000000008
 30
0.0
 70
    32
  0
VERTEX
  5
1AD8
330
1A59
100
AcDbEntity
  8
241
  6
Continuous
100
AcDbVertex
100
AcDb3dPolylineVertex
 10
154.719
 20
-8.576719999999994
 30
0.0
 70
    32
  0
VERTEX
  5
1AD9
330
1A59
100
AcDbEntity
  8
241
  6
Continuous
100
AcDbVertex
100
AcDb3dPolylineVertex
 10
154.61
 20
-8.579219999999992
 30
0.0
 70
    32
  0
VERTEX
  5
1ADA
330
1A59
100
AcDbEntity
  8
241
  6
Continuous
100
AcDbVertex
100
AcDb3dPolylineVertex
 10
154.5
 20
-8.580060000000003
 30
0.0
 70
    32
  0
SEQEND
  5
1ADB
330
1A59
100
AcDbEntity
  8
241
  6
Continuous
  0
POLYLINE
  5
1ADC
330
156C
100
AcDbEntity
  8
241
  6
Continuous
100
AcDb3dPolyline
 66
     1
 10
0.0
 20
0.0
 30
0.0
 70
     8
  0
VERTEX
  5
1ADD
330
1ADC
100
AcDbEntity
  8
241
  6
Continuous
100
AcDbVertex
100
AcDb3dPolylineVertex
 10
154.5
 20
-8.580060000000003
 30
0.0
 70
    32
  0
VERTEX
  5
1ADE
330
1ADC
100
AcDbEntity
  8
241
  6
Continuous
100
AcDbVertex
100
AcDb3dPolylineVertex
 10
154.39
 20
-8.579219999999992
 30
0.0
 70
    32
  0
VERTEX
  5
1ADF
330
1ADC
100
AcDbEntity
  8
241
  6
Continuous
100
AcDbVertex
100
AcDb3dPolylineVertex
 10
154.281
 20
-8.576719999999994
 30
0.0
 70
    32
  0
VERTEX
  5
1AE0
330
1ADC
100
AcDbEntity
  8
241
  6
Continuous
100
AcDbVertex
100
AcDb3dPolylineVertex
 10
154.171
 20
-8.572560000000008
 30
0.0
 70
    32
  0
VERTEX
  5
1AE1
330
1ADC
100
AcDbEntity
  8
241
  6
Continuous
100
AcDbVertex
100
AcDb3dPolylineVertex
 10
154.062
 20
-8.566730000000006
 30
0.0
 70
    32
  0
VERTEX
  5
1AE2
330
1ADC
100
AcDbEntity
  8
241
  6
Continuous
100
AcDbVertex
100
AcDb3dPolylineVertex
 10
153.952
 20
-8.559249999999991
 30
0.0
 70
    32
  0
VERTEX
  5
1AE3
330
1ADC
100
AcDbEntity
  8
241
  6
Continuous
100
AcDbVertex
100
AcDb3dPolylineVertex
 10
153.843
 20
-8.550099999999986
 30
0.0
 70
    32
  0
VERTEX
  5
1AE4
330
1ADC
100
AcDbEntity
  8
241
  6
Continuous
100
AcDbVertex
100
AcDb3dPolylineVertex
 10
153.734
 20
-8.539289999999994
 30
0.0
 70
    32
  0
VERTEX
  5
1AE5
330
1ADC
100
AcDbEntity
  8
241
  6
Continuous
100
AcDbVertex
100
AcDb3dPolylineVertex
 10
153.626
 20
-8.526829999999987
 30
0.0
 70
    32
  0
VERTEX
  5
1AE6
330
1ADC
100
AcDbEntity
  8
241
  6
Continuous
100
AcDbVertex
100
AcDb3dPolylineVertex
 10
153.517
 20
-8.512730000000003
 30
0.0
 70
    32
  0
VERTEX
  5
1AE7
330
1ADC
100
AcDbEntity
  8
241
  6
Continuous
100
AcDbVertex
100
AcDb3dPolylineVertex
 10
153.409
 20
-8.496970000000002
 30
0.0
 70
    32
  0
VERTEX
  5
1AE8
330
1ADC
100
AcDbEntity
  8
241
  6
Continuous
100
AcDbVertex
100
AcDb3dPolylineVertex
 10
153.301
 20
-8.479579999999996
 30
0.0
 70
    32
  0
VERTEX
  5
1AE9
330
1ADC
100
AcDbEntity
  8
241
  6
Continuous
100
AcDbVertex
100
AcDb3dPolylineVertex
 10
153.194
 20
-8.460550000000013
 30
0.0
 70
    32
  0
VERTEX
  5
1AEA
330
1ADC
100
AcDbEntity
  8
241
  6
Continuous
100
AcDbVertex
100
AcDb3dPolylineVertex
 10
153.087
 20
-8.439899999999994
 30
0.0
 70
    32
  0
VERTEX
  5
1AEB
330
1ADC
100
AcDbEntity
  8
241
  6
Continuous
100
AcDbVertex
100
AcDb3dPolylineVertex
 10
152.98
 20
-8.417619999999999
 30
0.0
 70
    32
  0
VERTEX
  5
1AEC
330
1ADC
100
AcDbEntity
  8
241
  6
Continuous
100
AcDbVertex
100
AcDb3dPolylineVertex
 10
152.874
 20
-8.393720000000001
 30
0.0
 70
    32
  0
VERTEX
  5
1AED
330
1ADC
100
AcDbEntity
  8
241
  6
Continuous
100
AcDbVertex
100
AcDb3dPolylineVertex
 10
152.769
 20
-8.368220000000007
 30
0.0
 70
    32
  0
VERTEX
  5
1AEE
330
1ADC
100
AcDbEntity
  8
241
  6
Continuous
100
AcDbVertex
100
AcDb3dPolylineVertex
 10
152.664
 20
-8.341110000000012
 30
0.0
 70
    32
  0
VERTEX
  5
1AEF
330
1ADC
100
AcDbEntity
  8
241
  6
Continuous
100
AcDbVertex
100
AcDb3dPolylineVertex
 10
152.559
 20
-8.312420000000003
 30
0.0
 70
    32
  0
VERTEX
  5
1AF0
330
1ADC
100
AcDbEntity
  8
241
  6
Continuous
100
AcDbVertex
100
AcDb3dPolylineVertex
 10
152.455
 20
-8.282139999999998
 30
0.0
 70
    32
  0
VERTEX
  5
1AF1
330
1ADC
100
AcDbEntity
  8
241
  6
Continuous
100
AcDbVertex
100
AcDb3dPolylineVertex
 10
152.352
 20
-8.250280000000001
 30
0.0
 70
    32
  0
VERTEX
  5
1AF2
330
1ADC
100
AcDbEntity
  8
241
  6
Continuous
100
AcDbVertex
100
AcDb3dPolylineVertex
 10
152.249
 20
-8.216859999999996
 30
0.0
 70
    32
  0
VERTEX
  5
1AF3
330
1ADC
100
AcDbEntity
  8
241
  6
Continuous
100
AcDbVertex
100
AcDb3dPolylineVertex
 10
152.147
 20
-8.181890000000008
 30
0.0
 70
    32
  0
VERTEX
  5
1AF4
330
1ADC
100
AcDbEntity
  8
241
  6
Continuous
100
AcDbVertex
100
AcDb3dPolylineVertex
 10
152.046
 20
-8.145370000000013
 30
0.0
 70
    32
  0
VERTEX
  5
1AF5
330
1ADC
100
AcDbEntity
  8
241
  6
Continuous
100
AcDbVertex
100
AcDb3dPolylineVertex
 10
151.946
 20
-8.107319999999987
 30
0.0
 70
    32
  0
VERTEX
  5
1AF6
330
1ADC
100
AcDbEntity
  8
241
  6
Continuous
100
AcDbVertex
100
AcDb3dPolylineVertex
 10
151.846
 20
-8.067749999999987
 30
0.0
 70
    32
  0
VERTEX
  5
1AF7
330
1ADC
100
AcDbEntity
  8
241
  6
Continuous
100
AcDbVertex
100
AcDb3dPolylineVertex
 10
151.747
 20
-8.026679999999997
 30
0.0
 70
    32
  0
VERTEX
  5
1AF8
330
1ADC
100
AcDbEntity
  8
241
  6
Continuous
100
AcDbVertex
100
AcDb3dPolylineVertex
 10
151.649
 20
-7.984100000000013
 30
0.0
 70
    32
  0
VERTEX
  5
1AF9
330
1ADC
100
AcDbEntity
  8
241
  6
Continuous
100
AcDbVertex
100
AcDb3dPolylineVertex
 10
151.552
 20
-7.940050000000012
 30
0.0
 70
    32
  0
VERTEX
  5
1AFA
330
1ADC
100
AcDbEntity
  8
241
  6
Continuous
100
AcDbVertex
100
AcDb3dPolylineVertex
 10
151.456
 20
-7.894530000000002
 30
0.0
 70
    32
  0
VERTEX
  5
1AFB
330
1ADC
100
AcDbEntity
  8
241
  6
Continuous
100
AcDbVertex
100
AcDb3dPolylineVertex
 10
151.36
 20
-7.847550000000013
 30
0.0
 70
    32
  0
VERTEX
  5
1AFC
330
1ADC
100
AcDbEntity
  8
241
  6
Continuous
100
AcDbVertex
100
AcDb3dPolylineVertex
 10
151.266
 20
-7.799129999999991
 30
0.0
 70
    32
  0
VERTEX
  5
1AFD
330
1ADC
100
AcDbEntity
  8
241
  6
Continuous
100
AcDbVertex
100
AcDb3dPolylineVertex
 10
151.173
 20
-7.749279999999997
 30
0.0
 70
    32
  0
VERTEX
  5
1AFE
330
1ADC
100
AcDbEntity
  8
241
  6
Continuous
100
AcDbVertex
100
AcDb3dPolylineVertex
 10
151.08
 20
-7.698029999999986
 30
0.0
 70
    32
  0
VERTEX
  5
1AFF
330
1ADC
100
AcDbEntity
  8
241
  6
Continuous
100
AcDbVertex
100
AcDb3dPolylineVertex
 10
150.989
 20
-7.645379999999986
 30
0.0
 70
    32
  0
VERTEX
  5
1B00
330
1ADC
100
AcDbEntity
  8
241
  6
Continuous
100
AcDbVertex
100
AcDb3dPolylineVertex
 10
150.899
 20
-7.591350000000004
 30
0.0
 70
    32
  0
VERTEX
  5
1B01
330
1ADC
100
AcDbEntity
  8
241
  6
Continuous
100
AcDbVertex
100
AcDb3dPolylineVertex
 10
150.81
 20
-7.535959999999986
 30
0.0
 70
    32
  0
VERTEX
  5
1B02
330
1ADC
100
AcDbEntity
  8
241
  6
Continuous
100
AcDbVertex
100
AcDb3dPolylineVertex
 10
150.722
 20
-7.479230000000001
 30
0.0
 70
    32
  0
VERTEX
  5
1B03
330
1ADC
100
AcDbEntity
  8
241
  6
Continuous
100
AcDbVertex
100
AcDb3dPolylineVertex
 10
150.635
 20
-7.421169999999988
 30
0.0
 70
    32
  0
VERTEX
  5
1B04
330
1ADC
100
AcDbEntity
  8
241
  6
Continuous
100
AcDbVertex
100
AcDb3dPolylineVertex
 10
150.55
 20
-7.361799999999987
 30
0.0
 70
    32
  0
VERTEX
  5
1B05
330
1ADC
100
AcDbEntity
  8
241
  6
Continuous
100
AcDbVertex
100
AcDb3dPolylineVertex
 10
150.465
 20
-7.301140000000001
 30
0.0
 70
    32
  0
VERTEX
  5
1B06
330
1ADC
100
AcDbEntity
  8
241
  6
Continuous
100
AcDbVertex
100
AcDb3dPolylineVertex
 10
150.382
 20
-7.239200000000009
 30
0.0
 70
    32
  0
VERTEX
  5
1B07
330
1ADC
100
AcDbEntity
  8
241
  6
Continuous
100
AcDbVertex
100
AcDb3dPolylineVertex
 10
150.3
 20
-7.176019999999994
 30
0.0
 70
    32
  0
VERTEX
  5
1B08
330
1ADC
100
AcDbEntity
  8
241
  6
Continuous
100
AcDbVertex
100
AcDb3dPolylineVertex
 10
150.22
 20
-7.111600000000008
 30
0.0
 70
    32
  0
VERTEX
  5
1B09
330
1ADC
100
AcDbEntity
  8
241
  6
Continuous
100
AcDbVertex
100
AcDb3dPolylineVertex
 10
150.141
 20
-7.045960000000007
 30
0.0
 70
    32
  0
VERTEX
  5
1B0A
330
1ADC
100
AcDbEntity
  8
241
  6
Continuous
100
AcDbVertex
100
AcDb3dPolylineVertex
 10
150.063
 20
-6.979140000000001
 30
0.0
 70
    32
  0
VERTEX
  5
1B0B
330
1ADC
100
AcDbEntity
  8
241
  6
Continuous
100
AcDbVertex
100
AcDb3dPolylineVertex
 10
149.986
 20
-6.911139999999987
 30
0.0
 70
    32
  0
VERTEX
  5
1B0C
330
1ADC
100
AcDbEntity
  8
241
  6
Continuous
100
AcDbVertex
100
AcDb3dPolylineVertex
 10
149.911
 20
-6.841980000000005
 30
0.0
 70
    32
  0
VERTEX
  5
1B0D
330
1ADC
100
AcDbEntity
  8
241
  6
Continuous
100
AcDbVertex
100
AcDb3dPolylineVertex
 10
149.837
 20
-6.771700000000008
 30
0.0
 70
    32
  0
VERTEX
  5
1B0E
330
1ADC
100
AcDbEntity
  8
241
  6
Continuous
100
AcDbVertex
100
AcDb3dPolylineVertex
 10
149.765
 20
-6.70031
 30
0.0
 70
    32
  0
VERTEX
  5
1B0F
330
1ADC
100
AcDbEntity
  8
241
  6
Continuous
100
AcDbVertex
100
AcDb3dPolylineVertex
 10
149.694
 20
-6.627829999999987
 30
0.0
 70
    32
  0
VERTEX
  5
1B10
330
1ADC
100
AcDbEntity
  8
241
  6
Continuous
100
AcDbVertex
100
AcDb3dPolylineVertex
 10
149.625
 20
-6.554280000000004
 30
0.0
 70
    32
  0
VERTEX
  5
1B11
330
1ADC
100
AcDbEntity
  8
241
  6
Continuous
100
AcDbVertex
100
AcDb3dPolylineVertex
 10
149.557
 20
-6.479690000000005
 30
0.0
 70
    32
  0
VERTEX
  5
1B12
330
1ADC
100
AcDbEntity
  8
241
  6
Continuous
100
AcDbVertex
100
AcDb3dPolylineVertex
 10
149.491
 20
-6.404089999999996
 30
0.0
 70
    32
  0
VERTEX
  5
1B13
330
1ADC
100
AcDbEntity
  8
241
  6
Continuous
100
AcDbVertex
100
AcDb3dPolylineVertex
 10
149.426
 20
-6.327480000000008
 30
0.0
 70
    32
  0
VERTEX
  5
1B14
330
1ADC
100
AcDbEntity
  8
241
  6
Continuous
100
AcDbVertex
100
AcDb3dPolylineVertex
 10
149.363
 20
-6.249909999999998
 30
0.0
 70
    32
  0
VERTEX
  5
1B15
330
1ADC
100
AcDbEntity
  8
241
  6
Continuous
100
AcDbVertex
100
AcDb3dPolylineVertex
 10
149.301
 20
-6.171379999999999
 30
0.0
 70
    32
  0
VERTEX
  5
1B16
330
1ADC
100
AcDbEntity
  8
241
  6
Continuous
100
AcDbVertex
100
AcDb3dPolylineVertex
 10
149.241
 20
-6.09192999999999
 30
0.0
 70
    32
  0
VERTEX
  5
1B17
330
1ADC
100
AcDbEntity
  8
241
  6
Continuous
100
AcDbVertex
100
AcDb3dPolylineVertex
 10
149.182
 20
-6.011580000000008
 30
0.0
 70
    32
  0
VERTEX
  5
1B18
330
1ADC
100
AcDbEntity
  8
241
  6
Continuous
100
AcDbVertex
100
AcDb3dPolylineVertex
 10
149.126
 20
-5.930360000000008
 30
0.0
 70
    32
  0
VERTEX
  5
1B19
330
1ADC
100
AcDbEntity
  8
241
  6
Continuous
100
AcDbVertex
100
AcDb3dPolylineVertex
 10
149.07
 20
-5.848279999999986
 30
0.0
 70
    32
  0
VERTEX
  5
1B1A
330
1ADC
100
AcDbEntity
  8
241
  6
Continuous
100
AcDbVertex
100
AcDb3dPolylineVertex
 10
149.017
 20
-5.765379999999991
 30
0.0
 70
    32
  0
VERTEX
  5
1B1B
330
1ADC
100
AcDbEntity
  8
241
  6
Continuous
100
AcDbVertex
100
AcDb3dPolylineVertex
 10
148.965
 20
-5.68168
 30
0.0
 70
    32
  0
VERTEX
  5
1B1C
330
1ADC
100
AcDbEntity
  8
241
  6
Continuous
100
AcDbVertex
100
AcDb3dPolylineVertex
 10
148.915
 20
-5.597209999999988
 30
0.0
 70
    32
  0
VERTEX
  5
1B1D
330
1ADC
100
AcDbEntity
  8
241
  6
Continuous
100
AcDbVertex
100
AcDb3dPolylineVertex
 10
148.867
 20
-5.511989999999997
 30
0.0
 70
    32
  0
VERTEX
  5
1B1E
330
1ADC
100
AcDbEntity
  8
241
  6
Continuous
100
AcDbVertex
100
AcDb3dPolylineVertex
 10
148.82
 20
-5.42604
 30
0.0
 70
    32
  0
VERTEX
  5
1B1F
330
1ADC
100
AcDbEntity
  8
241
  6
Continuous
100
AcDbVertex
100
AcDb3dPolylineVertex
 10
148.775
 20
-5.339409999999986
 30
0.0
 70
    32
  0
VERTEX
  5
1B20
330
1ADC
100
AcDbEntity
  8
241
  6
Continuous
100
AcDbVertex
100
AcDb3dPolylineVertex
 10
148.732
 20
-5.252100000000011
 30
0.0
 70
    32
  0
VERTEX
  5
1B21
330
1ADC
100
AcDbEntity
  8
241
  6
Continuous
100
AcDbVertex
100
AcDb3dPolylineVertex
 10
148.691
 20
-5.164150000000005
 30
0.0
 70
    32
  0
VERTEX
  5
1B22
330
1ADC
100
AcDbEntity
  8
241
  6
Continuous
100
AcDbVertex
100
AcDb3dPolylineVertex
 10
148.651
 20
-5.075590000000004
 30
0.0
 70
    32
  0
VERTEX
  5
1B23
330
1ADC
100
AcDbEntity
  8
241
  6
Continuous
100
AcDbVertex
100
AcDb3dPolylineVertex
 10
148.614
 20
-4.986439999999987
 30
0.0
 70
    32
  0
VERTEX
  5
1B24
330
1ADC
100
AcDbEntity
  8
241
  6
Continuous
100
AcDbVertex
100
AcDb3dPolylineVertex
 10
148.578
 20
-4.89672999999999
 30
0.0
 70
    32
  0
VERTEX
  5
1B25
330
1ADC
100
AcDbEntity
  8
241
  6
Continuous
100
AcDbVertex
100
AcDb3dPolylineVertex
 10
148.543
 20
-4.806489999999995
 30
0.0
 70
    32
  0
VERTEX
  5
1B26
330
1ADC
100
AcDbEntity
  8
241
  6
Continuous
100
AcDbVertex
100
AcDb3dPolylineVertex
 10
148.511
 20
-4.715740000000009
 30
0.0
 70
    32
  0
VERTEX
  5
1B27
330
1ADC
100
AcDbEntity
  8
241
  6
Continuous
100
AcDbVertex
100
AcDb3dPolylineVertex
 10
148.481
 20
-4.624519999999987
 30
0.0
 70
    32
  0
VERTEX
  5
1B28
330
1ADC
100
AcDbEntity
  8
241
  6
Continuous
100
AcDbVertex
100
AcDb3dPolylineVertex
 10
148.452
 20
-4.532849999999996
 30
0.0
 70
    32
  0
VERTEX
  5
1B29
330
1ADC
100
AcDbEntity
  8
241
  6
Continuous
100
AcDbVertex
100
AcDb3dPolylineVertex
 10
148.425
 20
-4.440750000000007
 30
0.0
 70
    32
  0
VERTEX
  5
1B2A
330
1ADC
100
AcDbEntity
  8
241
  6
Continuous
100
AcDbVertex
100
AcDb3dPolylineVertex
 10
148.401
 20
-4.348270000000012
 30
0.0
 70
    32
  0
VERTEX
  5
1B2B
330
1ADC
100
AcDbEntity
  8
241
  6
Continuous
100
AcDbVertex
100
AcDb3dPolylineVertex
 10
148.378
 20
-4.255419999999986
 30
0.0
 70
    32
  0
VERTEX
  5
1B2C
330
1ADC
100
AcDbEntity
  8
241
  6
Continuous
100
AcDbVertex
100
AcDb3dPolylineVertex
 10
148.356
 20
-4.162239999999997
 30
0.0
 70
    32
  0
VERTEX
  5
1B2D
330
1ADC
100
AcDbEntity
  8
241
  6
Continuous
100
AcDbVertex
100
AcDb3dPolylineVertex
 10
148.337
 20
-4.068749999999993
 30
0.0
 70
    32
  0
VERTEX
  5
1B2E
330
1ADC
100
AcDbEntity
  8
241
  6
Continuous
100
AcDbVertex
100
AcDb3dPolylineVertex
 10
148.32
 20
-3.974989999999991
 30
0.0
 70
    32
  0
VERTEX
  5
1B2F
330
1ADC
100
AcDbEntity
  8
241
  6
Continuous
100
AcDbVertex
100
AcDb3dPolylineVertex
 10
148.305
 20
-3.88096999999999
 30
0.0
 70
    32
  0
VERTEX
  5
1B30
330
1ADC
100
AcDbEntity
  8
241
  6
Continuous
100
AcDbVertex
100
AcDb3dPolylineVertex
 10
148.291
 20
-3.786740000000008
 30
0.0
 70
    32
  0
VERTEX
  5
1B31
330
1ADC
100
AcDbEntity
  8
241
  6
Continuous
100
AcDbVertex
100
AcDb3dPolylineVertex
 10
148.279
 20
-3.692319999999995
 30
0.0
 70
    32
  0
VERTEX
  5
1B32
330
1ADC
100
AcDbEntity
  8
241
  6
Continuous
100
AcDbVertex
100
AcDb3dPolylineVertex
 10
148.27
 20
-3.597730000000011
 30
0.0
 70
    32
  0
VERTEX
  5
1B33
330
1ADC
100
AcDbEntity
  8
241
  6
Continuous
100
AcDbVertex
100
AcDb3dPolylineVertex
 10
148.262
 20
-3.503009999999988
 30
0.0
 70
    32
  0
VERTEX
  5
1B34
330
1ADC
100
AcDbEntity
  8
241
  6
Continuous
100
AcDbVertex
100
AcDb3dPolylineVertex
 10
148.256
 20
-3.40818999999999
 30
0.0
 70
    32
  0
VERTEX
  5
1B35
330
1ADC
100
AcDbEntity
  8
241
  6
Continuous
100
AcDbVertex
100
AcDb3dPolylineVertex
 10
148.252
 20
-3.313289999999993
 30
0.0
 70
    32
  0
VERTEX
  5
1B36
330
1ADC
100
AcDbEntity
  8
241
  6
Continuous
100
AcDbVertex
100
AcDb3dPolylineVertex
 10
148.25
 20
-3.218349999999986
 30
0.0
 70
    32
  0
VERTEX
  5
1B37
330
1ADC
100
AcDbEntity
  8
241
  6
Continuous
100
AcDbVertex
100
AcDb3dPolylineVertex
 10
148.25
 20
-3.123400000000002
 30
0.0
 70
    32
  0
VERTEX
  5
1B38
330
1ADC
100
AcDbEntity
  8
241
  6
Continuous
100
AcDbVertex
100
AcDb3dPolylineVertex
 10
148.252
 20
-3.028449999999991
 30
0.0
 70
    32
  0
VERTEX
  5
1B39
330
1ADC
100
AcDbEntity
  8
241
  6
Continuous
100
AcDbVertex
100
AcDb3dPolylineVertex
 10
148.256
 20
-2.933549999999995
 30
0.0
 70
    32
  0
VERTEX
  5
1B3A
330
1ADC
100
AcDbEntity
  8
241
  6
Continuous
100
AcDbVertex
100
AcDb3dPolylineVertex
 10
148.262
 20
-2.838729999999998
 30
0.0
 70
    32
  0
VERTEX
  5
1B3B
330
1ADC
100
AcDbEntity
  8
241
  6
Continuous
100
AcDbVertex
100
AcDb3dPolylineVertex
 10
148.269
 20
-2.743999999999998
 30
0.0
 70
    32
  0
VERTEX
  5
1B3C
330
1ADC
100
AcDbEntity
  8
241
  6
Continuous
100
AcDbVertex
100
AcDb3dPolylineVertex
 10
148.279
 20
-2.649400000000014
 30
0.0
 70
    32
  0
VERTEX
  5
1B3D
330
1ADC
100
AcDbEntity
  8
241
  6
Continuous
100
AcDbVertex
100
AcDb3dPolylineVertex
 10
148.29
 20
-2.554959999999994
 30
0.0
 70
    32
  0
VERTEX
  5
1B3E
330
1ADC
100
AcDbEntity
  8
241
  6
Continuous
100
AcDbVertex
100
AcDb3dPolylineVertex
 10
148.303
 20
-2.460720000000009
 30
0.0
 70
    32
  0
VERTEX
  5
1B3F
330
1ADC
100
AcDbEntity
  8
241
  6
Continuous
100
AcDbVertex
100
AcDb3dPolylineVertex
 10
148.319
 20
-2.366680000000001
 30
0.0
 70
    32
  0
VERTEX
  5
1B40
330
1ADC
100
AcDbEntity
  8
241
  6
Continuous
100
AcDbVertex
100
AcDb3dPolylineVertex
 10
148.336
 20
-2.272899999999991
 30
0.0
 70
    32
  0
VERTEX
  5
1B41
330
1ADC
100
AcDbEntity
  8
241
  6
Continuous
100
AcDbVertex
100
AcDb3dPolylineVertex
 10
148.355
 20
-2.179390000000011
 30
0.0
 70
    32
  0
VERTEX
  5
1B42
330
1ADC
100
AcDbEntity
  8
241
  6
Continuous
100
AcDbVertex
100
AcDb3dPolylineVertex
 10
148.376
 20
-2.086180000000013
 30
0.0
 70
    32
  0
VERTEX
  5
1B43
330
1ADC
100
AcDbEntity
  8
241
  6
Continuous
100
AcDbVertex
100
AcDb3dPolylineVertex
 10
148.399
 20
-1.993310000000008
 30
0.0
 70
    32
  0
VERTEX
  5
1B44
330
1ADC
100
AcDbEntity
  8
241
  6
Continuous
100
AcDbVertex
100
AcDb3dPolylineVertex
 10
148.424
 20
-1.900800000000003
 30
0.0
 70
    32
  0
VERTEX
  5
1B45
330
1ADC
100
AcDbEntity
  8
241
  6
Continuous
100
AcDbVertex
100
AcDb3dPolylineVertex
 10
148.45
 20
-1.808680000000008
 30
0.0
 70
    32
  0
VERTEX
  5
1B46
330
1ADC
100
AcDbEntity
  8
241
  6
Continuous
100
AcDbVertex
100
AcDb3dPolylineVertex
 10
148.479
 20
-1.716980000000005
 30
0.0
 70
    32
  0
VERTEX
  5
1B47
330
1ADC
100
AcDbEntity
  8
241
  6
Continuous
100
AcDbVertex
100
AcDb3dPolylineVertex
 10
148.509
 20
-1.62572
 30
0.0
 70
    32
  0
VERTEX
  5
1B48
330
1ADC
100
AcDbEntity
  8
241
  6
Continuous
100
AcDbVertex
100
AcDb3dPolylineVertex
 10
148.541
 20
-1.534940000000004
 30
0.0
 70
    32
  0
VERTEX
  5
1B49
330
1ADC
100
AcDbEntity
  8
241
  6
Continuous
100
AcDbVertex
100
AcDb3dPolylineVertex
 10
148.575
 20
-1.444659999999997
 30
0.0
 70
    32
  0
VERTEX
  5
1B4A
330
1ADC
100
AcDbEntity
  8
241
  6
Continuous
100
AcDbVertex
100
AcDb3dPolylineVertex
 10
148.611
 20
-1.354909999999988
 30
0.0
 70
    32
  0
VERTEX
  5
1B4B
330
1ADC
100
AcDbEntity
  8
241
  6
Continuous
100
AcDbVertex
100
AcDb3dPolylineVertex
 10
148.648
 20
-1.265710000000011
 30
0.0
 70
    32
  0
VERTEX
  5
1B4C
330
1ADC
100
AcDbEntity
  8
241
  6
Continuous
100
AcDbVertex
100
AcDb3dPolylineVertex
 10
148.688
 20
-1.177109999999998
 30
0.0
 70
    32
  0
VERTEX
  5
1B4D
330
1ADC
100
AcDbEntity
  8
241
  6
Continuous
100
AcDbVertex
100
AcDb3dPolylineVertex
 10
148.7289999999999
 20
-1.089110000000005
 30
0.0
 70
    32
  0
VERTEX
  5
1B4E
330
1ADC
100
AcDbEntity
  8
241
  6
Continuous
100
AcDbVertex
100
AcDb3dPolylineVertex
 10
148.772
 20
-1.001759999999989
 30
0.0
 70
    32
  0
VERTEX
  5
1B4F
330
1ADC
100
AcDbEntity
  8
241
  6
Continuous
100
AcDbVertex
100
AcDb3dPolylineVertex
 10
148.817
 20
-0.9150710000000115
 30
0.0
 70
    32
  0
VERTEX
  5
1B50
330
1ADC
100
AcDbEntity
  8
241
  6
Continuous
100
AcDbVertex
100
AcDb3dPolylineVertex
 10
148.863
 20
-0.829077000000012
 30
0.0
 70
    32
  0
VERTEX
  5
1B51
330
1ADC
100
AcDbEntity
  8
241
  6
Continuous
100
AcDbVertex
100
AcDb3dPolylineVertex
 10
148.912
 20
-0.7438009999999906
 30
0.0
 70
    32
  0
VERTEX
  5
1B52
330
1ADC
100
AcDbEntity
  8
241
  6
Continuous
100
AcDbVertex
100
AcDb3dPolylineVertex
 10
148.962
 20
-0.6592719999999872
 30
0.0
 70
    32
  0
VERTEX
  5
1B53
330
1ADC
100
AcDbEntity
  8
241
  6
Continuous
100
AcDbVertex
100
AcDb3dPolylineVertex
 10
149.013
 20
-0.5755149999999958
 30
0.0
 70
    32
  0
VERTEX
  5
1B54
330
1ADC
100
AcDbEntity
  8
241
  6
Continuous
100
AcDbVertex
100
AcDb3dPolylineVertex
 10
149.067
 20
-0.4925550000000102
 30
0.0
 70
    32
  0
VERTEX
  5
1B55
330
1ADC
100
AcDbEntity
  8
241
  6
Continuous
100
AcDbVertex
100
AcDb3dPolylineVertex
 10
149.122
 20
-0.4104189999999904
 30
0.0
 70
    32
  0
VERTEX
  5
1B56
330
1ADC
100
AcDbEntity
  8
241
  6
Continuous
100
AcDbVertex
100
AcDb3dPolylineVertex
 10
149.178
 20
-0.3291309999999896
 30
0.0
 70
    32
  0
VERTEX
  5
1B57
330
1ADC
100
AcDbEntity
  8
241
  6
Continuous
100
AcDbVertex
100
AcDb3dPolylineVertex
 10
149.237
 20
-0.2487169999999992
 30
0.0
 70
    32
  0
VERTEX
  5
1B58
330
1ADC
100
AcDbEntity
  8
241
  6
Continuous
100
AcDbVertex
100
AcDb3dPolylineVertex
 10
149.296
 20
-0.1692009999999868
 30
0.0
 70
    32
  0
VERTEX
  5
1B59
330
1ADC
100
AcDbEntity
  8
241
  6
Continuous
100
AcDbVertex
100
AcDb3dPolylineVertex
 10
149.358
 20
-0.0906076999999925
 30
0.0
 70
    32
  0
VERTEX
  5
1B5A
330
1ADC
100
AcDbEntity
  8
241
  6
Continuous
100
AcDbVertex
100
AcDb3dPolylineVertex
 10
149.421
 20
-0.0129614999999888
 30
0.0
 70
    32
  0
VERTEX
  5
1B5B
330
1ADC
100
AcDbEntity
  8
241
  6
Continuous
100
AcDbVertex
100
AcDb3dPolylineVertex
 10
149.486
 20
0.0637140000000045
 30
0.0
 70
    32
  0
VERTEX
  5
1B5C
330
1ADC
100
AcDbEntity
  8
241
  6
Continuous
100
AcDbVertex
100
AcDb3dPolylineVertex
 10
149.552
 20
0.1393950000000075
 30
0.0
 70
    32
  0
VERTEX
  5
1B5D
330
1ADC
100
AcDbEntity
  8
241
  6
Continuous
100
AcDbVertex
100
AcDb3dPolylineVertex
 10
149.62
 20
0.2140579999999943
 30
0.0
 70
    32
  0
SEQEND
  5
1B5E
330
1ADC
100
AcDbEntity
  8
241
  6
Continuous
  0
POLYLINE
  5
1B5F
330
156C
100
AcDbEntity
  8
241
  6
Continuous
100
AcDb3dPolyline
 66
     1
 10
0.0
 20
0.0
 30
0.0
 70
     8
  0
VERTEX
  5
1B60
330
1B5F
100
AcDbEntity
  8
241
  6
Continuous
100
AcDbVertex
100
AcDb3dPolylineVertex
 10
147.517
 20
-4.627980000000006
 30
0.0
 70
    32
  0
VERTEX
  5
1B61
330
1B5F
100
AcDbEntity
  8
241
  6
Continuous
100
AcDbVertex
100
AcDb3dPolylineVertex
 10
147.518
 20
-4.618269999999995
 30
0.0
 70
    32
  0
VERTEX
  5
1B62
330
1B5F
100
AcDbEntity
  8
241
  6
Continuous
100
AcDbVertex
100
AcDb3dPolylineVertex
 10
147.518
 20
-4.608560000000012
 30
0.0
 70
    32
  0
VERTEX
  5
1B63
330
1B5F
100
AcDbEntity
  8
241
  6
Continuous
100
AcDbVertex
100
AcDb3dPolylineVertex
 10
147.519
 20
-4.598849999999997
 30
0.0
 70
    32
  0
VERTEX
  5
1B64
330
1B5F
100
AcDbEntity
  8
241
  6
Continuous
100
AcDbVertex
100
AcDb3dPolylineVertex
 10
147.52
 20
-4.589139999999986
 30
0.0
 70
    32
  0
VERTEX
  5
1B65
330
1B5F
100
AcDbEntity
  8
241
  6
Continuous
100
AcDbVertex
100
AcDb3dPolylineVertex
 10
147.52
 20
-4.579430000000002
 30
0.0
 70
    32
  0
VERTEX
  5
1B66
330
1B5F
100
AcDbEntity
  8
241
  6
Continuous
100
AcDbVertex
100
AcDb3dPolylineVertex
 10
147.521
 20
-4.569719999999987
 30
0.0
 70
    32
  0
VERTEX
  5
1B67
330
1B5F
100
AcDbEntity
  8
241
  6
Continuous
100
AcDbVertex
100
AcDb3dPolylineVertex
 10
147.521
 20
-4.560020000000007
 30
0.0
 70
    32
  0
VERTEX
  5
1B68
330
1B5F
100
AcDbEntity
  8
241
  6
Continuous
100
AcDbVertex
100
AcDb3dPolylineVertex
 10
147.522
 20
-4.550309999999996
 30
0.0
 70
    32
  0
VERTEX
  5
1B69
330
1B5F
100
AcDbEntity
  8
241
  6
Continuous
100
AcDbVertex
100
AcDb3dPolylineVertex
 10
147.523
 20
-4.540609999999986
 30
0.0
 70
    32
  0
VERTEX
  5
1B6A
330
1B5F
100
AcDbEntity
  8
241
  6
Continuous
100
AcDbVertex
100
AcDb3dPolylineVertex
 10
147.523
 20
-4.530900000000001
 30
0.0
 70
    32
  0
VERTEX
  5
1B6B
330
1B5F
100
AcDbEntity
  8
241
  6
Continuous
100
AcDbVertex
100
AcDb3dPolylineVertex
 10
147.524
 20
-4.521199999999993
 30
0.0
 70
    32
  0
VERTEX
  5
1B6C
330
1B5F
100
AcDbEntity
  8
241
  6
Continuous
100
AcDbVertex
100
AcDb3dPolylineVertex
 10
147.525
 20
-4.511500000000012
 30
0.0
 70
    32
  0
VERTEX
  5
1B6D
330
1B5F
100
AcDbEntity
  8
241
  6
Continuous
100
AcDbVertex
100
AcDb3dPolylineVertex
 10
147.526
 20
-4.501800000000002
 30
0.0
 70
    32
  0
VERTEX
  5
1B6E
330
1B5F
100
AcDbEntity
  8
241
  6
Continuous
100
AcDbVertex
100
AcDb3dPolylineVertex
 10
147.526
 20
-4.492099999999993
 30
0.0
 70
    32
  0
VERTEX
  5
1B6F
330
1B5F
100
AcDbEntity
  8
241
  6
Continuous
100
AcDbVertex
100
AcDb3dPolylineVertex
 10
147.527
 20
-4.482400000000011
 30
0.0
 70
    32
  0
VERTEX
  5
1B70
330
1B5F
100
AcDbEntity
  8
241
  6
Continuous
100
AcDbVertex
100
AcDb3dPolylineVertex
 10
147.528
 20
-4.472700000000003
 30
0.0
 70
    32
  0
VERTEX
  5
1B71
330
1B5F
100
AcDbEntity
  8
241
  6
Continuous
100
AcDbVertex
100
AcDb3dPolylineVertex
 10
147.529
 20
-4.463009999999997
 30
0.0
 70
    32
  0
VERTEX
  5
1B72
330
1B5F
100
AcDbEntity
  8
241
  6
Continuous
100
AcDbVertex
100
AcDb3dPolylineVertex
 10
147.529
 20
-4.453309999999987
 30
0.0
 70
    32
  0
VERTEX
  5
1B73
330
1B5F
100
AcDbEntity
  8
241
  6
Continuous
100
AcDbVertex
100
AcDb3dPolylineVertex
 10
147.53
 20
-4.443620000000009
 30
0.0
 70
    32
  0
VERTEX
  5
1B74
330
1B5F
100
AcDbEntity
  8
241
  6
Continuous
100
AcDbVertex
100
AcDb3dPolylineVertex
 10
147.531
 20
-4.433919999999999
 30
0.0
 70
    32
  0
VERTEX
  5
1B75
330
1B5F
100
AcDbEntity
  8
241
  6
Continuous
100
AcDbVertex
100
AcDb3dPolylineVertex
 10
147.532
 20
-4.424229999999994
 30
0.0
 70
    32
  0
VERTEX
  5
1B76
330
1B5F
100
AcDbEntity
  8
241
  6
Continuous
100
AcDbVertex
100
AcDb3dPolylineVertex
 10
147.533
 20
-4.414539999999988
 30
0.0
 70
    32
  0
VERTEX
  5
1B77
330
1B5F
100
AcDbEntity
  8
241
  6
Continuous
100
AcDbVertex
100
AcDb3dPolylineVertex
 10
147.533
 20
-4.404850000000009
 30
0.0
 70
    32
  0
VERTEX
  5
1B78
330
1B5F
100
AcDbEntity
  8
241
  6
Continuous
100
AcDbVertex
100
AcDb3dPolylineVertex
 10
147.534
 20
-4.395160000000004
 30
0.0
 70
    32
  0
VERTEX
  5
1B79
330
1B5F
100
AcDbEntity
  8
241
  6
Continuous
100
AcDbVertex
100
AcDb3dPolylineVertex
 10
147.535
 20
-4.385469999999997
 30
0.0
 70
    32
  0
VERTEX
  5
1B7A
330
1B5F
100
AcDbEntity
  8
241
  6
Continuous
100
AcDbVertex
100
AcDb3dPolylineVertex
 10
147.536
 20
-4.375789999999993
 30
0.0
 70
    32
  0
VERTEX
  5
1B7B
330
1B5F
100
AcDbEntity
  8
241
  6
Continuous
100
AcDbVertex
100
AcDb3dPolylineVertex
 10
147.537
 20
-4.366099999999987
 30
0.0
 70
    32
  0
VERTEX
  5
1B7C
330
1B5F
100
AcDbEntity
  8
241
  6
Continuous
100
AcDbVertex
100
AcDb3dPolylineVertex
 10
147.538
 20
-4.356420000000013
 30
0.0
 70
    32
  0
VERTEX
  5
1B7D
330
1B5F
100
AcDbEntity
  8
241
  6
Continuous
100
AcDbVertex
100
AcDb3dPolylineVertex
 10
147.538
 20
-4.346740000000011
 30
0.0
 70
    32
  0
VERTEX
  5
1B7E
330
1B5F
100
AcDbEntity
  8
241
  6
Continuous
100
AcDbVertex
100
AcDb3dPolylineVertex
 10
147.539
 20
-4.337050000000004
 30
0.0
 70
    32
  0
VERTEX
  5
1B7F
330
1B5F
100
AcDbEntity
  8
241
  6
Continuous
100
AcDbVertex
100
AcDb3dPolylineVertex
 10
147.54
 20
-4.327370000000001
 30
0.0
 70
    32
  0
VERTEX
  5
1B80
330
1B5F
100
AcDbEntity
  8
241
  6
Continuous
100
AcDbVertex
100
AcDb3dPolylineVertex
 10
147.541
 20
-4.317689999999998
 30
0.0
 70
    32
  0
VERTEX
  5
1B81
330
1B5F
100
AcDbEntity
  8
241
  6
Continuous
100
AcDbVertex
100
AcDb3dPolylineVertex
 10
147.542
 20
-4.308019999999999
 30
0.0
 70
    32
  0
VERTEX
  5
1B82
330
1B5F
100
AcDbEntity
  8
241
  6
Continuous
100
AcDbVertex
100
AcDb3dPolylineVertex
 10
147.543
 20
-4.298339999999996
 30
0.0
 70
    32
  0
VERTEX
  5
1B83
330
1B5F
100
AcDbEntity
  8
241
  6
Continuous
100
AcDbVertex
100
AcDb3dPolylineVertex
 10
147.544
 20
-4.288659999999993
 30
0.0
 70
    32
  0
VERTEX
  5
1B84
330
1B5F
100
AcDbEntity
  8
241
  6
Continuous
100
AcDbVertex
100
AcDb3dPolylineVertex
 10
147.545
 20
-4.278989999999993
 30
0.0
 70
    32
  0
VERTEX
  5
1B85
330
1B5F
100
AcDbEntity
  8
241
  6
Continuous
100
AcDbVertex
100
AcDb3dPolylineVertex
 10
147.546
 20
-4.269319999999993
 30
0.0
 70
    32
  0
VERTEX
  5
1B86
330
1B5F
100
AcDbEntity
  8
241
  6
Continuous
100
AcDbVertex
100
AcDb3dPolylineVertex
 10
147.547
 20
-4.259649999999993
 30
0.0
 70
    32
  0
VERTEX
  5
1B87
330
1B5F
100
AcDbEntity
  8
241
  6
Continuous
100
AcDbVertex
100
AcDb3dPolylineVertex
 10
147.548
 20
-4.249979999999993
 30
0.0
 70
    32
  0
VERTEX
  5
1B88
330
1B5F
100
AcDbEntity
  8
241
  6
Continuous
100
AcDbVertex
100
AcDb3dPolylineVertex
 10
147.549
 20
-4.240309999999993
 30
0.0
 70
    32
  0
VERTEX
  5
1B89
330
1B5F
100
AcDbEntity
  8
241
  6
Continuous
100
AcDbVertex
100
AcDb3dPolylineVertex
 10
147.55
 20
-4.230639999999993
 30
0.0
 70
    32
  0
VERTEX
  5
1B8A
330
1B5F
100
AcDbEntity
  8
241
  6
Continuous
100
AcDbVertex
100
AcDb3dPolylineVertex
 10
147.551
 20
-4.220979999999997
 30
0.0
 70
    32
  0
VERTEX
  5
1B8B
330
1B5F
100
AcDbEntity
  8
241
  6
Continuous
100
AcDbVertex
100
AcDb3dPolylineVertex
 10
147.552
 20
-4.211309999999997
 30
0.0
 70
    32
  0
VERTEX
  5
1B8C
330
1B5F
100
AcDbEntity
  8
241
  6
Continuous
100
AcDbVertex
100
AcDb3dPolylineVertex
 10
147.553
 20
-4.201649999999999
 30
0.0
 70
    32
  0
VERTEX
  5
1B8D
330
1B5F
100
AcDbEntity
  8
241
  6
Continuous
100
AcDbVertex
100
AcDb3dPolylineVertex
 10
147.554
 20
-4.191990000000004
 30
0.0
 70
    32
  0
VERTEX
  5
1B8E
330
1B5F
100
AcDbEntity
  8
241
  6
Continuous
100
AcDbVertex
100
AcDb3dPolylineVertex
 10
147.555
 20
-4.182330000000006
 30
0.0
 70
    32
  0
VERTEX
  5
1B8F
330
1B5F
100
AcDbEntity
  8
241
  6
Continuous
100
AcDbVertex
100
AcDb3dPolylineVertex
 10
147.556
 20
-4.172670000000009
 30
0.0
 70
    32
  0
VERTEX
  5
1B90
330
1B5F
100
AcDbEntity
  8
241
  6
Continuous
100
AcDbVertex
100
AcDb3dPolylineVertex
 10
147.557
 20
-4.163009999999984
 30
0.0
 70
    32
  0
VERTEX
  5
1B91
330
1B5F
100
AcDbEntity
  8
241
  6
Continuous
100
AcDbVertex
100
AcDb3dPolylineVertex
 10
147.558
 20
-4.153359999999991
 30
0.0
 70
    32
  0
VERTEX
  5
1B92
330
1B5F
100
AcDbEntity
  8
241
  6
Continuous
100
AcDbVertex
100
AcDb3dPolylineVertex
 10
147.559
 20
-4.143699999999995
 30
0.0
 70
    32
  0
VERTEX
  5
1B93
330
1B5F
100
AcDbEntity
  8
241
  6
Continuous
100
AcDbVertex
100
AcDb3dPolylineVertex
 10
147.56
 20
-4.134050000000002
 30
0.0
 70
    32
  0
VERTEX
  5
1B94
330
1B5F
100
AcDbEntity
  8
241
  6
Continuous
100
AcDbVertex
100
AcDb3dPolylineVertex
 10
147.561
 20
-4.124400000000008
 30
0.0
 70
    32
  0
VERTEX
  5
1B95
330
1B5F
100
AcDbEntity
  8
241
  6
Continuous
100
AcDbVertex
100
AcDb3dPolylineVertex
 10
147.563
 20
-4.114749999999986
 30
0.0
 70
    32
  0
VERTEX
  5
1B96
330
1B5F
100
AcDbEntity
  8
241
  6
Continuous
100
AcDbVertex
100
AcDb3dPolylineVertex
 10
147.564
 20
-4.105099999999993
 30
0.0
 70
    32
  0
VERTEX
  5
1B97
330
1B5F
100
AcDbEntity
  8
241
  6
Continuous
100
AcDbVertex
100
AcDb3dPolylineVertex
 10
147.565
 20
-4.095449999999998
 30
0.0
 70
    32
  0
VERTEX
  5
1B98
330
1B5F
100
AcDbEntity
  8
241
  6
Continuous
100
AcDbVertex
100
AcDb3dPolylineVertex
 10
147.566
 20
-4.085810000000009
 30
0.0
 70
    32
  0
VERTEX
  5
1B99
330
1B5F
100
AcDbEntity
  8
241
  6
Continuous
100
AcDbVertex
100
AcDb3dPolylineVertex
 10
147.567
 20
-4.07616999999999
 30
0.0
 70
    32
  0
VERTEX
  5
1B9A
330
1B5F
100
AcDbEntity
  8
241
  6
Continuous
100
AcDbVertex
100
AcDb3dPolylineVertex
 10
147.568
 20
-4.066519999999997
 30
0.0
 70
    32
  0
VERTEX
  5
1B9B
330
1B5F
100
AcDbEntity
  8
241
  6
Continuous
100
AcDbVertex
100
AcDb3dPolylineVertex
 10
147.569
 20
-4.056880000000006
 30
0.0
 70
    32
  0
VERTEX
  5
1B9C
330
1B5F
100
AcDbEntity
  8
241
  6
Continuous
100
AcDbVertex
100
AcDb3dPolylineVertex
 10
147.571
 20
-4.047249999999991
 30
0.0
 70
    32
  0
VERTEX
  5
1B9D
330
1B5F
100
AcDbEntity
  8
241
  6
Continuous
100
AcDbVertex
100
AcDb3dPolylineVertex
 10
147.572
 20
-4.037609999999999
 30
0.0
 70
    32
  0
VERTEX
  5
1B9E
330
1B5F
100
AcDbEntity
  8
241
  6
Continuous
100
AcDbVertex
100
AcDb3dPolylineVertex
 10
147.5729999999999
 20
-4.027970000000009
 30
0.0
 70
    32
  0
VERTEX
  5
1B9F
330
1B5F
100
AcDbEntity
  8
241
  6
Continuous
100
AcDbVertex
100
AcDb3dPolylineVertex
 10
147.574
 20
-4.018339999999993
 30
0.0
 70
    32
  0
VERTEX
  5
1BA0
330
1B5F
100
AcDbEntity
  8
241
  6
Continuous
100
AcDbVertex
100
AcDb3dPolylineVertex
 10
147.575
 20
-4.008710000000006
 30
0.0
 70
    32
  0
VERTEX
  5
1BA1
330
1B5F
100
AcDbEntity
  8
241
  6
Continuous
100
AcDbVertex
100
AcDb3dPolylineVertex
 10
147.577
 20
-3.999079999999991
 30
0.0
 70
    32
  0
VERTEX
  5
1BA2
330
1B5F
100
AcDbEntity
  8
241
  6
Continuous
100
AcDbVertex
100
AcDb3dPolylineVertex
 10
147.578
 20
-3.989450000000004
 30
0.0
 70
    32
  0
VERTEX
  5
1BA3
330
1B5F
100
AcDbEntity
  8
241
  6
Continuous
100
AcDbVertex
100
AcDb3dPolylineVertex
 10
147.579
 20
-3.979829999999991
 30
0.0
 70
    32
  0
VERTEX
  5
1BA4
330
1B5F
100
AcDbEntity
  8
241
  6
Continuous
100
AcDbVertex
100
AcDb3dPolylineVertex
 10
147.581
 20
-3.970200000000004
 30
0.0
 70
    32
  0
VERTEX
  5
1BA5
330
1B5F
100
AcDbEntity
  8
241
  6
Continuous
100
AcDbVertex
100
AcDb3dPolylineVertex
 10
147.582
 20
-3.960579999999993
 30
0.0
 70
    32
  0
VERTEX
  5
1BA6
330
1B5F
100
AcDbEntity
  8
241
  6
Continuous
100
AcDbVertex
100
AcDb3dPolylineVertex
 10
147.583
 20
-3.950960000000009
 30
0.0
 70
    32
  0
VERTEX
  5
1BA7
330
1B5F
100
AcDbEntity
  8
241
  6
Continuous
100
AcDbVertex
100
AcDb3dPolylineVertex
 10
147.584
 20
-3.941339999999995
 30
0.0
 70
    32
  0
VERTEX
  5
1BA8
330
1B5F
100
AcDbEntity
  8
241
  6
Continuous
100
AcDbVertex
100
AcDb3dPolylineVertex
 10
147.586
 20
-3.931720000000011
 30
0.0
 70
    32
  0
VERTEX
  5
1BA9
330
1B5F
100
AcDbEntity
  8
241
  6
Continuous
100
AcDbVertex
100
AcDb3dPolylineVertex
 10
147.587
 20
-3.922110000000003
 30
0.0
 70
    32
  0
VERTEX
  5
1BAA
330
1B5F
100
AcDbEntity
  8
241
  6
Continuous
100
AcDbVertex
100
AcDb3dPolylineVertex
 10
147.588
 20
-3.912489999999991
 30
0.0
 70
    32
  0
VERTEX
  5
1BAB
330
1B5F
100
AcDbEntity
  8
241
  6
Continuous
100
AcDbVertex
100
AcDb3dPolylineVertex
 10
147.59
 20
-3.902880000000009
 30
0.0
 70
    32
  0
VERTEX
  5
1BAC
330
1B5F
100
AcDbEntity
  8
241
  6
Continuous
100
AcDbVertex
100
AcDb3dPolylineVertex
 10
147.591
 20
-3.893270000000001
 30
0.0
 70
    32
  0
VERTEX
  5
1BAD
330
1B5F
100
AcDbEntity
  8
241
  6
Continuous
100
AcDbVertex
100
AcDb3dPolylineVertex
 10
147.592
 20
-3.883659999999991
 30
0.0
 70
    32
  0
VERTEX
  5
1BAE
330
1B5F
100
AcDbEntity
  8
241
  6
Continuous
100
AcDbVertex
100
AcDb3dPolylineVertex
 10
147.594
 20
-3.874059999999984
 30
0.0
 70
    32
  0
VERTEX
  5
1BAF
330
1B5F
100
AcDbEntity
  8
241
  6
Continuous
100
AcDbVertex
100
AcDb3dPolylineVertex
 10
147.595
 20
-3.864450000000004
 30
0.0
 70
    32
  0
VERTEX
  5
1BB0
330
1B5F
100
AcDbEntity
  8
241
  6
Continuous
100
AcDbVertex
100
AcDb3dPolylineVertex
 10
147.597
 20
-3.854849999999998
 30
0.0
 70
    32
  0
VERTEX
  5
1BB1
330
1B5F
100
AcDbEntity
  8
241
  6
Continuous
100
AcDbVertex
100
AcDb3dPolylineVertex
 10
147.598
 20
-3.845249999999991
 30
0.0
 70
    32
  0
VERTEX
  5
1BB2
330
1B5F
100
AcDbEntity
  8
241
  6
Continuous
100
AcDbVertex
100
AcDb3dPolylineVertex
 10
147.599
 20
-3.835649999999986
 30
0.0
 70
    32
  0
VERTEX
  5
1BB3
330
1B5F
100
AcDbEntity
  8
241
  6
Continuous
100
AcDbVertex
100
AcDb3dPolylineVertex
 10
147.601
 20
-3.826050000000008
 30
0.0
 70
    32
  0
VERTEX
  5
1BB4
330
1B5F
100
AcDbEntity
  8
241
  6
Continuous
100
AcDbVertex
100
AcDb3dPolylineVertex
 10
147.602
 20
-3.816460000000006
 30
0.0
 70
    32
  0
VERTEX
  5
1BB5
330
1B5F
100
AcDbEntity
  8
241
  6
Continuous
100
AcDbVertex
100
AcDb3dPolylineVertex
 10
147.604
 20
-3.806870000000003
 30
0.0
 70
    32
  0
VERTEX
  5
1BB6
330
1B5F
100
AcDbEntity
  8
241
  6
Continuous
100
AcDbVertex
100
AcDb3dPolylineVertex
 10
147.605
 20
-3.79728
 30
0.0
 70
    32
  0
VERTEX
  5
1BB7
330
1B5F
100
AcDbEntity
  8
241
  6
Continuous
100
AcDbVertex
100
AcDb3dPolylineVertex
 10
147.607
 20
-3.787689999999996
 30
0.0
 70
    32
  0
VERTEX
  5
1BB8
330
1B5F
100
AcDbEntity
  8
241
  6
Continuous
100
AcDbVertex
100
AcDb3dPolylineVertex
 10
147.608
 20
-3.778099999999993
 30
0.0
 70
    32
  0
VERTEX
  5
1BB9
330
1B5F
100
AcDbEntity
  8
241
  6
Continuous
100
AcDbVertex
100
AcDb3dPolylineVertex
 10
147.61
 20
-3.768519999999995
 30
0.0
 70
    32
  0
VERTEX
  5
1BBA
330
1B5F
100
AcDbEntity
  8
241
  6
Continuous
100
AcDbVertex
100
AcDb3dPolylineVertex
 10
147.611
 20
-3.758929999999991
 30
0.0
 70
    32
  0
VERTEX
  5
1BBB
330
1B5F
100
AcDbEntity
  8
241
  6
Continuous
100
AcDbVertex
100
AcDb3dPolylineVertex
 10
147.612
 20
-3.749349999999991
 30
0.0
 70
    32
  0
VERTEX
  5
1BBC
330
1B5F
100
AcDbEntity
  8
241
  6
Continuous
100
AcDbVertex
100
AcDb3dPolylineVertex
 10
147.614
 20
-3.739779999999995
 30
0.0
 70
    32
  0
VERTEX
  5
1BBD
330
1B5F
100
AcDbEntity
  8
241
  6
Continuous
100
AcDbVertex
100
AcDb3dPolylineVertex
 10
147.616
 20
-3.730199999999995
 30
0.0
 70
    32
  0
VERTEX
  5
1BBE
330
1B5F
100
AcDbEntity
  8
241
  6
Continuous
100
AcDbVertex
100
AcDb3dPolylineVertex
 10
147.617
 20
-3.720629999999998
 30
0.0
 70
    32
  0
VERTEX
  5
1BBF
330
1B5F
100
AcDbEntity
  8
241
  6
Continuous
100
AcDbVertex
100
AcDb3dPolylineVertex
 10
147.619
 20
-3.71105
 30
0.0
 70
    32
  0
VERTEX
  5
1BC0
330
1B5F
100
AcDbEntity
  8
241
  6
Continuous
100
AcDbVertex
100
AcDb3dPolylineVertex
 10
147.62
 20
-3.701480000000002
 30
0.0
 70
    32
  0
VERTEX
  5
1BC1
330
1B5F
100
AcDbEntity
  8
241
  6
Continuous
100
AcDbVertex
100
AcDb3dPolylineVertex
 10
147.622
 20
-3.691920000000009
 30
0.0
 70
    32
  0
VERTEX
  5
1BC2
330
1B5F
100
AcDbEntity
  8
241
  6
Continuous
100
AcDbVertex
100
AcDb3dPolylineVertex
 10
147.623
 20
-3.682350000000013
 30
0.0
 70
    32
  0
VERTEX
  5
1BC3
330
1B5F
100
AcDbEntity
  8
241
  6
Continuous
100
AcDbVertex
100
AcDb3dPolylineVertex
 10
147.625
 20
-3.672789999999991
 30
0.0
 70
    32
  0
VERTEX
  5
1BC4
330
1B5F
100
AcDbEntity
  8
241
  6
Continuous
100
AcDbVertex
100
AcDb3dPolylineVertex
 10
147.626
 20
-3.663229999999998
 30
0.0
 70
    32
  0
VERTEX
  5
1BC5
330
1B5F
100
AcDbEntity
  8
241
  6
Continuous
100
AcDbVertex
100
AcDb3dPolylineVertex
 10
147.628
 20
-3.653670000000004
 30
0.0
 70
    32
  0
VERTEX
  5
1BC6
330
1B5F
100
AcDbEntity
  8
241
  6
Continuous
100
AcDbVertex
100
AcDb3dPolylineVertex
 10
147.63
 20
-3.644110000000011
 30
0.0
 70
    32
  0
VERTEX
  5
1BC7
330
1B5F
100
AcDbEntity
  8
241
  6
Continuous
100
AcDbVertex
100
AcDb3dPolylineVertex
 10
147.631
 20
-3.634559999999993
 30
0.0
 70
    32
  0
VERTEX
  5
1BC8
330
1B5F
100
AcDbEntity
  8
241
  6
Continuous
100
AcDbVertex
100
AcDb3dPolylineVertex
 10
147.633
 20
-3.625010000000003
 30
0.0
 70
    32
  0
VERTEX
  5
1BC9
330
1B5F
100
AcDbEntity
  8
241
  6
Continuous
100
AcDbVertex
100
AcDb3dPolylineVertex
 10
147.635
 20
-3.615460000000012
 30
0.0
 70
    32
  0
VERTEX
  5
1BCA
330
1B5F
100
AcDbEntity
  8
241
  6
Continuous
100
AcDbVertex
100
AcDb3dPolylineVertex
 10
147.636
 20
-3.605909999999993
 30
0.0
 70
    32
  0
VERTEX
  5
1BCB
330
1B5F
100
AcDbEntity
  8
241
  6
Continuous
100
AcDbVertex
100
AcDb3dPolylineVertex
 10
147.638
 20
-3.596360000000004
 30
0.0
 70
    32
  0
VERTEX
  5
1BCC
330
1B5F
100
AcDbEntity
  8
241
  6
Continuous
100
AcDbVertex
100
AcDb3dPolylineVertex
 10
147.64
 20
-3.586819999999987
 30
0.0
 70
    32
  0
VERTEX
  5
1BCD
330
1B5F
100
AcDbEntity
  8
241
  6
Continuous
100
AcDbVertex
100
AcDb3dPolylineVertex
 10
147.641
 20
-3.577280000000001
 30
0.0
 70
    32
  0
VERTEX
  5
1BCE
330
1B5F
100
AcDbEntity
  8
241
  6
Continuous
100
AcDbVertex
100
AcDb3dPolylineVertex
 10
147.643
 20
-3.567739999999986
 30
0.0
 70
    32
  0
VERTEX
  5
1BCF
330
1B5F
100
AcDbEntity
  8
241
  6
Continuous
100
AcDbVertex
100
AcDb3dPolylineVertex
 10
147.645
 20
-3.558210000000001
 30
0.0
 70
    32
  0
VERTEX
  5
1BD0
330
1B5F
100
AcDbEntity
  8
241
  6
Continuous
100
AcDbVertex
100
AcDb3dPolylineVertex
 10
147.646
 20
-3.548669999999986
 30
0.0
 70
    32
  0
VERTEX
  5
1BD1
330
1B5F
100
AcDbEntity
  8
241
  6
Continuous
100
AcDbVertex
100
AcDb3dPolylineVertex
 10
147.648
 20
-3.539140000000002
 30
0.0
 70
    32
  0
VERTEX
  5
1BD2
330
1B5F
100
AcDbEntity
  8
241
  6
Continuous
100
AcDbVertex
100
AcDb3dPolylineVertex
 10
147.65
 20
-3.529609999999991
 30
0.0
 70
    32
  0
VERTEX
  5
1BD3
330
1B5F
100
AcDbEntity
  8
241
  6
Continuous
100
AcDbVertex
100
AcDb3dPolylineVertex
 10
147.651
 20
-3.520090000000009
 30
0.0
 70
    32
  0
VERTEX
  5
1BD4
330
1B5F
100
AcDbEntity
  8
241
  6
Continuous
100
AcDbVertex
100
AcDb3dPolylineVertex
 10
147.653
 20
-3.510559999999998
 30
0.0
 70
    32
  0
VERTEX
  5
1BD5
330
1B5F
100
AcDbEntity
  8
241
  6
Continuous
100
AcDbVertex
100
AcDb3dPolylineVertex
 10
147.655
 20
-3.501039999999988
 30
0.0
 70
    32
  0
VERTEX
  5
1BD6
330
1B5F
100
AcDbEntity
  8
241
  6
Continuous
100
AcDbVertex
100
AcDb3dPolylineVertex
 10
147.657
 20
-3.491520000000008
 30
0.0
 70
    32
  0
VERTEX
  5
1BD7
330
1B5F
100
AcDbEntity
  8
241
  6
Continuous
100
AcDbVertex
100
AcDb3dPolylineVertex
 10
147.659
 20
-3.482010000000001
 30
0.0
 70
    32
  0
VERTEX
  5
1BD8
330
1B5F
100
AcDbEntity
  8
241
  6
Continuous
100
AcDbVertex
100
AcDb3dPolylineVertex
 10
147.66
 20
-3.472489999999993
 30
0.0
 70
    32
  0
VERTEX
  5
1BD9
330
1B5F
100
AcDbEntity
  8
241
  6
Continuous
100
AcDbVertex
100
AcDb3dPolylineVertex
 10
147.662
 20
-3.462979999999987
 30
0.0
 70
    32
  0
VERTEX
  5
1BDA
330
1B5F
100
AcDbEntity
  8
241
  6
Continuous
100
AcDbVertex
100
AcDb3dPolylineVertex
 10
147.664
 20
-3.453470000000009
 30
0.0
 70
    32
  0
VERTEX
  5
1BDB
330
1B5F
100
AcDbEntity
  8
241
  6
Continuous
100
AcDbVertex
100
AcDb3dPolylineVertex
 10
147.666
 20
-3.443970000000006
 30
0.0
 70
    32
  0
VERTEX
  5
1BDC
330
1B5F
100
AcDbEntity
  8
241
  6
Continuous
100
AcDbVertex
100
AcDb3dPolylineVertex
 10
147.668
 20
-3.434460000000001
 30
0.0
 70
    32
  0
VERTEX
  5
1BDD
330
1B5F
100
AcDbEntity
  8
241
  6
Continuous
100
AcDbVertex
100
AcDb3dPolylineVertex
 10
147.669
 20
-3.424959999999998
 30
0.0
 70
    32
  0
VERTEX
  5
1BDE
330
1B5F
100
AcDbEntity
  8
241
  6
Continuous
100
AcDbVertex
100
AcDb3dPolylineVertex
 10
147.671
 20
-3.415459999999995
 30
0.0
 70
    32
  0
VERTEX
  5
1BDF
330
1B5F
100
AcDbEntity
  8
241
  6
Continuous
100
AcDbVertex
100
AcDb3dPolylineVertex
 10
147.673
 20
-3.405969999999995
 30
0.0
 70
    32
  0
VERTEX
  5
1BE0
330
1B5F
100
AcDbEntity
  8
241
  6
Continuous
100
AcDbVertex
100
AcDb3dPolylineVertex
 10
147.675
 20
-3.396469999999993
 30
0.0
 70
    32
  0
SEQEND
  5
1BE1
330
1B5F
100
AcDbEntity
  8
241
  6
Continuous
  0
LINE
  5
1BE2
330
156C
100
AcDbEntity
  8
241
  6
Continuous
100
AcDbLine
 10
188.0
 20
-11.49647321
 30
0.0
 11
168.0
 21
-11.49647321
 31
0.0
  0
LINE
  5
1BE3
330
156C
100
AcDbEntity
  8
241
  6
Continuous
100
AcDbLine
 10
49.49999502
 20
-24.38675071
 30
0.0
 11
51.99999502
 21
-22.94337503
 31
0.0
  0
LINE
  5
1BE4
330
156C
100
AcDbEntity
  8
241
  6
Continuous
100
AcDbLine
 10
66.99999502
 20
-22.94337322999999
 30
0.0
 11
69.49999502
 21
-24.38674889999999
 31
0.0
  0
LINE
  5
1BE5
330
156C
100
AcDbEntity
  8
241
  6
Continuous
100
AcDbLine
 10
69.49999502
 20
-24.38674889999999
 30
0.0
 11
71.99999502
 21
-22.94337322999999
 31
0.0
  0
LINE
  5
1BE6
330
156C
100
AcDbEntity
  8
241
  6
Continuous
100
AcDbLine
 10
89.49999502
 20
-24.38675135
 30
0.0
 11
91.99999502
 21
-22.94337566999999
 31
0.0
  0
LINE
  5
1BE7
330
156C
100
AcDbEntity
  8
241
  6
Continuous
100
AcDbLine
 10
86.99999502
 20
-22.94337566999999
 30
0.0
 11
89.49999502
 21
-24.38675135
 31
0.0
  0
LINE
  5
1BE8
330
156C
100
AcDbEntity
  8
240
  6
Continuous
100
AcDbLine
 10
168.0
 20
-31.49647321000001
 30
0.0
 11
186.32229953
 21
-31.49647321000001
 31
0.0
  0
ARC
  5
1BE9
330
156C
100
AcDbEntity
  8
240
  6
Continuous
100
AcDbCircle
 10
167.99881734
 20
0.0035268000000031
 30
0.0
 40
40.0
100
AcDbArc
 50
319.7717976400003
 51
40.22818475933045
  0
ARC
  5
1BEA
330
156C
100
AcDbEntity
  8
240
  6
Continuous
100
AcDbCircle
 10
186.3222995333496
 20
15.50352681000001
 30
0.0
 40
16.0
100
AcDbArc
 50
40.22818475933045
 51
90.00000000000005
  0
POLYLINE
  5
1BEB
330
156C
100
AcDbEntity
  8
241
  6
Continuous
100
AcDb3dPolyline
 66
     1
 10
0.0
 20
0.0
 30
0.0
 70
     8
  0
VERTEX
  5
1BEC
330
1BEB
100
AcDbEntity
  8
241
  6
Continuous
100
AcDbVertex
100
AcDb3dPolylineVertex
 10
150.813
 20
-12.06360000000001
 30
0.0
 70
    32
  0
VERTEX
  5
1BED
330
1BEB
100
AcDbEntity
  8
241
  6
Continuous
100
AcDbVertex
100
AcDb3dPolylineVertex
 10
150.795
 20
-12.0506
 30
0.0
 70
    32
  0
VERTEX
  5
1BEE
330
1BEB
100
AcDbEntity
  8
241
  6
Continuous
100
AcDbVertex
100
AcDb3dPolylineVertex
 10
150.777
 20
-12.03739999999999
 30
0.0
 70
    32
  0
VERTEX
  5
1BEF
330
1BEB
100
AcDbEntity
  8
241
  6
Continuous
100
AcDbVertex
100
AcDb3dPolylineVertex
 10
150.759
 20
-12.02420000000001
 30
0.0
 70
    32
  0
VERTEX
  5
1BF0
330
1BEB
100
AcDbEntity
  8
241
  6
Continuous
100
AcDbVertex
100
AcDb3dPolylineVertex
 10
150.741
 20
-12.01089999999999
 30
0.0
 70
    32
  0
VERTEX
  5
1BF1
330
1BEB
100
AcDbEntity
  8
241
  6
Continuous
100
AcDbVertex
100
AcDb3dPolylineVertex
 10
150.722
 20
-11.9975
 30
0.0
 70
    32
  0
VERTEX
  5
1BF2
330
1BEB
100
AcDbEntity
  8
241
  6
Continuous
100
AcDbVertex
100
AcDb3dPolylineVertex
 10
150.704
 20
-11.98400000000001
 30
0.0
 70
    32
  0
VERTEX
  5
1BF3
330
1BEB
100
AcDbEntity
  8
241
  6
Continuous
100
AcDbVertex
100
AcDb3dPolylineVertex
 10
150.686
 20
-11.97040000000001
 30
0.0
 70
    32
  0
VERTEX
  5
1BF4
330
1BEB
100
AcDbEntity
  8
241
  6
Continuous
100
AcDbVertex
100
AcDb3dPolylineVertex
 10
150.668
 20
-11.95670000000001
 30
0.0
 70
    32
  0
VERTEX
  5
1BF5
330
1BEB
100
AcDbEntity
  8
241
  6
Continuous
100
AcDbVertex
100
AcDb3dPolylineVertex
 10
150.65
 20
-11.94300000000001
 30
0.0
 70
    32
  0
VERTEX
  5
1BF6
330
1BEB
100
AcDbEntity
  8
241
  6
Continuous
100
AcDbVertex
100
AcDb3dPolylineVertex
 10
150.632
 20
-11.9291
 30
0.0
 70
    32
  0
VERTEX
  5
1BF7
330
1BEB
100
AcDbEntity
  8
241
  6
Continuous
100
AcDbVertex
100
AcDb3dPolylineVertex
 10
150.614
 20
-11.9152
 30
0.0
 70
    32
  0
VERTEX
  5
1BF8
330
1BEB
100
AcDbEntity
  8
241
  6
Continuous
100
AcDbVertex
100
AcDb3dPolylineVertex
 10
150.596
 20
-11.90119999999999
 30
0.0
 70
    32
  0
VERTEX
  5
1BF9
330
1BEB
100
AcDbEntity
  8
241
  6
Continuous
100
AcDbVertex
100
AcDb3dPolylineVertex
 10
150.578
 20
-11.8871
 30
0.0
 70
    32
  0
VERTEX
  5
1BFA
330
1BEB
100
AcDbEntity
  8
241
  6
Continuous
100
AcDbVertex
100
AcDb3dPolylineVertex
 10
150.56
 20
-11.87289999999999
 30
0.0
 70
    32
  0
VERTEX
  5
1BFB
330
1BEB
100
AcDbEntity
  8
241
  6
Continuous
100
AcDbVertex
100
AcDb3dPolylineVertex
 10
150.542
 20
-11.85859999999999
 30
0.0
 70
    32
  0
VERTEX
  5
1BFC
330
1BEB
100
AcDbEntity
  8
241
  6
Continuous
100
AcDbVertex
100
AcDb3dPolylineVertex
 10
150.524
 20
-11.8442
 30
0.0
 70
    32
  0
VERTEX
  5
1BFD
330
1BEB
100
AcDbEntity
  8
241
  6
Continuous
100
AcDbVertex
100
AcDb3dPolylineVertex
 10
150.506
 20
-11.8298
 30
0.0
 70
    32
  0
VERTEX
  5
1BFE
330
1BEB
100
AcDbEntity
  8
241
  6
Continuous
100
AcDbVertex
100
AcDb3dPolylineVertex
 10
150.488
 20
-11.8152
 30
0.0
 70
    32
  0
VERTEX
  5
1BFF
330
1BEB
100
AcDbEntity
  8
241
  6
Continuous
100
AcDbVertex
100
AcDb3dPolylineVertex
 10
150.47
 20
-11.8006
 30
0.0
 70
    32
  0
VERTEX
  5
1C00
330
1BEB
100
AcDbEntity
  8
241
  6
Continuous
100
AcDbVertex
100
AcDb3dPolylineVertex
 10
150.452
 20
-11.7859
 30
0.0
 70
    32
  0
VERTEX
  5
1C01
330
1BEB
100
AcDbEntity
  8
241
  6
Continuous
100
AcDbVertex
100
AcDb3dPolylineVertex
 10
150.435
 20
-11.77109999999999
 30
0.0
 70
    32
  0
VERTEX
  5
1C02
330
1BEB
100
AcDbEntity
  8
241
  6
Continuous
100
AcDbVertex
100
AcDb3dPolylineVertex
 10
150.417
 20
-11.7562
 30
0.0
 70
    32
  0
VERTEX
  5
1C03
330
1BEB
100
AcDbEntity
  8
241
  6
Continuous
100
AcDbVertex
100
AcDb3dPolylineVertex
 10
150.399
 20
-11.74119999999999
 30
0.0
 70
    32
  0
VERTEX
  5
1C04
330
1BEB
100
AcDbEntity
  8
241
  6
Continuous
100
AcDbVertex
100
AcDb3dPolylineVertex
 10
150.381
 20
-11.7261
 30
0.0
 70
    32
  0
VERTEX
  5
1C05
330
1BEB
100
AcDbEntity
  8
241
  6
Continuous
100
AcDbVertex
100
AcDb3dPolylineVertex
 10
150.363
 20
-11.71100000000001
 30
0.0
 70
    32
  0
VERTEX
  5
1C06
330
1BEB
100
AcDbEntity
  8
241
  6
Continuous
100
AcDbVertex
100
AcDb3dPolylineVertex
 10
150.346
 20
-11.69569999999999
 30
0.0
 70
    32
  0
VERTEX
  5
1C07
330
1BEB
100
AcDbEntity
  8
241
  6
Continuous
100
AcDbVertex
100
AcDb3dPolylineVertex
 10
150.328
 20
-11.68039999999999
 30
0.0
 70
    32
  0
VERTEX
  5
1C08
330
1BEB
100
AcDbEntity
  8
241
  6
Continuous
100
AcDbVertex
100
AcDb3dPolylineVertex
 10
150.31
 20
-11.66499999999999
 30
0.0
 70
    32
  0
VERTEX
  5
1C09
330
1BEB
100
AcDbEntity
  8
241
  6
Continuous
100
AcDbVertex
100
AcDb3dPolylineVertex
 10
150.292
 20
-11.64949999999999
 30
0.0
 70
    32
  0
VERTEX
  5
1C0A
330
1BEB
100
AcDbEntity
  8
241
  6
Continuous
100
AcDbVertex
100
AcDb3dPolylineVertex
 10
150.275
 20
-11.63390000000001
 30
0.0
 70
    32
  0
VERTEX
  5
1C0B
330
1BEB
100
AcDbEntity
  8
241
  6
Continuous
100
AcDbVertex
100
AcDb3dPolylineVertex
 10
150.257
 20
-11.6182
 30
0.0
 70
    32
  0
VERTEX
  5
1C0C
330
1BEB
100
AcDbEntity
  8
241
  6
Continuous
100
AcDbVertex
100
AcDb3dPolylineVertex
 10
150.239
 20
-11.60239999999999
 30
0.0
 70
    32
  0
VERTEX
  5
1C0D
330
1BEB
100
AcDbEntity
  8
241
  6
Continuous
100
AcDbVertex
100
AcDb3dPolylineVertex
 10
150.222
 20
-11.5866
 30
0.0
 70
    32
  0
VERTEX
  5
1C0E
330
1BEB
100
AcDbEntity
  8
241
  6
Continuous
100
AcDbVertex
100
AcDb3dPolylineVertex
 10
150.204
 20
-11.57060000000001
 30
0.0
 70
    32
  0
VERTEX
  5
1C0F
330
1BEB
100
AcDbEntity
  8
241
  6
Continuous
100
AcDbVertex
100
AcDb3dPolylineVertex
 10
150.187
 20
-11.55459999999999
 30
0.0
 70
    32
  0
VERTEX
  5
1C10
330
1BEB
100
AcDbEntity
  8
241
  6
Continuous
100
AcDbVertex
100
AcDb3dPolylineVertex
 10
150.169
 20
-11.5385
 30
0.0
 70
    32
  0
VERTEX
  5
1C11
330
1BEB
100
AcDbEntity
  8
241
  6
Continuous
100
AcDbVertex
100
AcDb3dPolylineVertex
 10
150.151
 20
-11.5223
 30
0.0
 70
    32
  0
VERTEX
  5
1C12
330
1BEB
100
AcDbEntity
  8
241
  6
Continuous
100
AcDbVertex
100
AcDb3dPolylineVertex
 10
150.134
 20
-11.506
 30
0.0
 70
    32
  0
VERTEX
  5
1C13
330
1BEB
100
AcDbEntity
  8
241
  6
Continuous
100
AcDbVertex
100
AcDb3dPolylineVertex
 10
150.116
 20
-11.48959999999999
 30
0.0
 70
    32
  0
VERTEX
  5
1C14
330
1BEB
100
AcDbEntity
  8
241
  6
Continuous
100
AcDbVertex
100
AcDb3dPolylineVertex
 10
150.099
 20
-11.47319999999999
 30
0.0
 70
    32
  0
VERTEX
  5
1C15
330
1BEB
100
AcDbEntity
  8
241
  6
Continuous
100
AcDbVertex
100
AcDb3dPolylineVertex
 10
150.082
 20
-11.45660000000001
 30
0.0
 70
    32
  0
VERTEX
  5
1C16
330
1BEB
100
AcDbEntity
  8
241
  6
Continuous
100
AcDbVertex
100
AcDb3dPolylineVertex
 10
150.064
 20
-11.44
 30
0.0
 70
    32
  0
VERTEX
  5
1C17
330
1BEB
100
AcDbEntity
  8
241
  6
Continuous
100
AcDbVertex
100
AcDb3dPolylineVertex
 10
150.047
 20
-11.42330000000001
 30
0.0
 70
    32
  0
VERTEX
  5
1C18
330
1BEB
100
AcDbEntity
  8
241
  6
Continuous
100
AcDbVertex
100
AcDb3dPolylineVertex
 10
150.029
 20
-11.40639999999999
 30
0.0
 70
    32
  0
VERTEX
  5
1C19
330
1BEB
100
AcDbEntity
  8
241
  6
Continuous
100
AcDbVertex
100
AcDb3dPolylineVertex
 10
150.012
 20
-11.3895
 30
0.0
 70
    32
  0
VERTEX
  5
1C1A
330
1BEB
100
AcDbEntity
  8
241
  6
Continuous
100
AcDbVertex
100
AcDb3dPolylineVertex
 10
149.995
 20
-11.3726
 30
0.0
 70
    32
  0
VERTEX
  5
1C1B
330
1BEB
100
AcDbEntity
  8
241
  6
Continuous
100
AcDbVertex
100
AcDb3dPolylineVertex
 10
149.978
 20
-11.3555
 30
0.0
 70
    32
  0
VERTEX
  5
1C1C
330
1BEB
100
AcDbEntity
  8
241
  6
Continuous
100
AcDbVertex
100
AcDb3dPolylineVertex
 10
149.96
 20
-11.3383
 30
0.0
 70
    32
  0
VERTEX
  5
1C1D
330
1BEB
100
AcDbEntity
  8
241
  6
Continuous
100
AcDbVertex
100
AcDb3dPolylineVertex
 10
149.943
 20
-11.3211
 30
0.0
 70
    32
  0
VERTEX
  5
1C1E
330
1BEB
100
AcDbEntity
  8
241
  6
Continuous
100
AcDbVertex
100
AcDb3dPolylineVertex
 10
149.926
 20
-11.30379999999999
 30
0.0
 70
    32
  0
VERTEX
  5
1C1F
330
1BEB
100
AcDbEntity
  8
241
  6
Continuous
100
AcDbVertex
100
AcDb3dPolylineVertex
 10
149.909
 20
-11.28640000000001
 30
0.0
 70
    32
  0
VERTEX
  5
1C20
330
1BEB
100
AcDbEntity
  8
241
  6
Continuous
100
AcDbVertex
100
AcDb3dPolylineVertex
 10
149.892
 20
-11.2689
 30
0.0
 70
    32
  0
VERTEX
  5
1C21
330
1BEB
100
AcDbEntity
  8
241
  6
Continuous
100
AcDbVertex
100
AcDb3dPolylineVertex
 10
149.874
 20
-11.25130000000001
 30
0.0
 70
    32
  0
VERTEX
  5
1C22
330
1BEB
100
AcDbEntity
  8
241
  6
Continuous
100
AcDbVertex
100
AcDb3dPolylineVertex
 10
149.857
 20
-11.23359999999999
 30
0.0
 70
    32
  0
VERTEX
  5
1C23
330
1BEB
100
AcDbEntity
  8
241
  6
Continuous
100
AcDbVertex
100
AcDb3dPolylineVertex
 10
149.84
 20
-11.2159
 30
0.0
 70
    32
  0
VERTEX
  5
1C24
330
1BEB
100
AcDbEntity
  8
241
  6
Continuous
100
AcDbVertex
100
AcDb3dPolylineVertex
 10
149.8229999999999
 20
-11.19810000000001
 30
0.0
 70
    32
  0
VERTEX
  5
1C25
330
1BEB
100
AcDbEntity
  8
241
  6
Continuous
100
AcDbVertex
100
AcDb3dPolylineVertex
 10
149.806
 20
-11.18020000000001
 30
0.0
 70
    32
  0
VERTEX
  5
1C26
330
1BEB
100
AcDbEntity
  8
241
  6
Continuous
100
AcDbVertex
100
AcDb3dPolylineVertex
 10
149.79
 20
-11.16220000000001
 30
0.0
 70
    32
  0
VERTEX
  5
1C27
330
1BEB
100
AcDbEntity
  8
241
  6
Continuous
100
AcDbVertex
100
AcDb3dPolylineVertex
 10
149.773
 20
-11.14420000000001
 30
0.0
 70
    32
  0
VERTEX
  5
1C28
330
1BEB
100
AcDbEntity
  8
241
  6
Continuous
100
AcDbVertex
100
AcDb3dPolylineVertex
 10
149.756
 20
-11.126
 30
0.0
 70
    32
  0
VERTEX
  5
1C29
330
1BEB
100
AcDbEntity
  8
241
  6
Continuous
100
AcDbVertex
100
AcDb3dPolylineVertex
 10
149.739
 20
-11.1078
 30
0.0
 70
    32
  0
VERTEX
  5
1C2A
330
1BEB
100
AcDbEntity
  8
241
  6
Continuous
100
AcDbVertex
100
AcDb3dPolylineVertex
 10
149.722
 20
-11.08959999999999
 30
0.0
 70
    32
  0
VERTEX
  5
1C2B
330
1BEB
100
AcDbEntity
  8
241
  6
Continuous
100
AcDbVertex
100
AcDb3dPolylineVertex
 10
149.706
 20
-11.0712
 30
0.0
 70
    32
  0
VERTEX
  5
1C2C
330
1BEB
100
AcDbEntity
  8
241
  6
Continuous
100
AcDbVertex
100
AcDb3dPolylineVertex
 10
149.689
 20
-11.05279999999999
 30
0.0
 70
    32
  0
VERTEX
  5
1C2D
330
1BEB
100
AcDbEntity
  8
241
  6
Continuous
100
AcDbVertex
100
AcDb3dPolylineVertex
 10
149.672
 20
-11.0343
 30
0.0
 70
    32
  0
VERTEX
  5
1C2E
330
1BEB
100
AcDbEntity
  8
241
  6
Continuous
100
AcDbVertex
100
AcDb3dPolylineVertex
 10
149.656
 20
-11.01570000000001
 30
0.0
 70
    32
  0
VERTEX
  5
1C2F
330
1BEB
100
AcDbEntity
  8
241
  6
Continuous
100
AcDbVertex
100
AcDb3dPolylineVertex
 10
149.639
 20
-10.99700000000001
 30
0.0
 70
    32
  0
VERTEX
  5
1C30
330
1BEB
100
AcDbEntity
  8
241
  6
Continuous
100
AcDbVertex
100
AcDb3dPolylineVertex
 10
149.622
 20
-10.97829999999999
 30
0.0
 70
    32
  0
VERTEX
  5
1C31
330
1BEB
100
AcDbEntity
  8
241
  6
Continuous
100
AcDbVertex
100
AcDb3dPolylineVertex
 10
149.606
 20
-10.95949999999999
 30
0.0
 70
    32
  0
VERTEX
  5
1C32
330
1BEB
100
AcDbEntity
  8
241
  6
Continuous
100
AcDbVertex
100
AcDb3dPolylineVertex
 10
149.59
 20
-10.94059999999999
 30
0.0
 70
    32
  0
VERTEX
  5
1C33
330
1BEB
100
AcDbEntity
  8
241
  6
Continuous
100
AcDbVertex
100
AcDb3dPolylineVertex
 10
149.573
 20
-10.92160000000001
 30
0.0
 70
    32
  0
VERTEX
  5
1C34
330
1BEB
100
AcDbEntity
  8
241
  6
Continuous
100
AcDbVertex
100
AcDb3dPolylineVertex
 10
149.557
 20
-10.9026
 30
0.0
 70
    32
  0
VERTEX
  5
1C35
330
1BEB
100
AcDbEntity
  8
241
  6
Continuous
100
AcDbVertex
100
AcDb3dPolylineVertex
 10
149.54
 20
-10.8835
 30
0.0
 70
    32
  0
VERTEX
  5
1C36
330
1BEB
100
AcDbEntity
  8
241
  6
Continuous
100
AcDbVertex
100
AcDb3dPolylineVertex
 10
149.524
 20
-10.86430000000001
 30
0.0
 70
    32
  0
VERTEX
  5
1C37
330
1BEB
100
AcDbEntity
  8
241
  6
Continuous
100
AcDbVertex
100
AcDb3dPolylineVertex
 10
149.5079999999999
 20
-10.845
 30
0.0
 70
    32
  0
VERTEX
  5
1C38
330
1BEB
100
AcDbEntity
  8
241
  6
Continuous
100
AcDbVertex
100
AcDb3dPolylineVertex
 10
149.492
 20
-10.82560000000001
 30
0.0
 70
    32
  0
VERTEX
  5
1C39
330
1BEB
100
AcDbEntity
  8
241
  6
Continuous
100
AcDbVertex
100
AcDb3dPolylineVertex
 10
149.476
 20
-10.80619999999999
 30
0.0
 70
    32
  0
VERTEX
  5
1C3A
330
1BEB
100
AcDbEntity
  8
241
  6
Continuous
100
AcDbVertex
100
AcDb3dPolylineVertex
 10
149.46
 20
-10.78669999999999
 30
0.0
 70
    32
  0
VERTEX
  5
1C3B
330
1BEB
100
AcDbEntity
  8
241
  6
Continuous
100
AcDbVertex
100
AcDb3dPolylineVertex
 10
149.443
 20
-10.7672
 30
0.0
 70
    32
  0
VERTEX
  5
1C3C
330
1BEB
100
AcDbEntity
  8
241
  6
Continuous
100
AcDbVertex
100
AcDb3dPolylineVertex
 10
149.427
 20
-10.7475
 30
0.0
 70
    32
  0
VERTEX
  5
1C3D
330
1BEB
100
AcDbEntity
  8
241
  6
Continuous
100
AcDbVertex
100
AcDb3dPolylineVertex
 10
149.411
 20
-10.7278
 30
0.0
 70
    32
  0
VERTEX
  5
1C3E
330
1BEB
100
AcDbEntity
  8
241
  6
Continuous
100
AcDbVertex
100
AcDb3dPolylineVertex
 10
149.396
 20
-10.708
 30
0.0
 70
    32
  0
VERTEX
  5
1C3F
330
1BEB
100
AcDbEntity
  8
241
  6
Continuous
100
AcDbVertex
100
AcDb3dPolylineVertex
 10
149.38
 20
-10.68809999999999
 30
0.0
 70
    32
  0
VERTEX
  5
1C40
330
1BEB
100
AcDbEntity
  8
241
  6
Continuous
100
AcDbVertex
100
AcDb3dPolylineVertex
 10
149.364
 20
-10.66820000000001
 30
0.0
 70
    32
  0
VERTEX
  5
1C41
330
1BEB
100
AcDbEntity
  8
241
  6
Continuous
100
AcDbVertex
100
AcDb3dPolylineVertex
 10
149.348
 20
-10.6482
 30
0.0
 70
    32
  0
VERTEX
  5
1C42
330
1BEB
100
AcDbEntity
  8
241
  6
Continuous
100
AcDbVertex
100
AcDb3dPolylineVertex
 10
149.332
 20
-10.62809999999999
 30
0.0
 70
    32
  0
VERTEX
  5
1C43
330
1BEB
100
AcDbEntity
  8
241
  6
Continuous
100
AcDbVertex
100
AcDb3dPolylineVertex
 10
149.317
 20
-10.6079
 30
0.0
 70
    32
  0
VERTEX
  5
1C44
330
1BEB
100
AcDbEntity
  8
241
  6
Continuous
100
AcDbVertex
100
AcDb3dPolylineVertex
 10
149.301
 20
-10.58770000000001
 30
0.0
 70
    32
  0
VERTEX
  5
1C45
330
1BEB
100
AcDbEntity
  8
241
  6
Continuous
100
AcDbVertex
100
AcDb3dPolylineVertex
 10
149.285
 20
-10.56739999999999
 30
0.0
 70
    32
  0
VERTEX
  5
1C46
330
1BEB
100
AcDbEntity
  8
241
  6
Continuous
100
AcDbVertex
100
AcDb3dPolylineVertex
 10
149.27
 20
-10.54699999999999
 30
0.0
 70
    32
  0
VERTEX
  5
1C47
330
1BEB
100
AcDbEntity
  8
241
  6
Continuous
100
AcDbVertex
100
AcDb3dPolylineVertex
 10
149.254
 20
-10.5265
 30
0.0
 70
    32
  0
VERTEX
  5
1C48
330
1BEB
100
AcDbEntity
  8
241
  6
Continuous
100
AcDbVertex
100
AcDb3dPolylineVertex
 10
149.239
 20
-10.506
 30
0.0
 70
    32
  0
VERTEX
  5
1C49
330
1BEB
100
AcDbEntity
  8
241
  6
Continuous
100
AcDbVertex
100
AcDb3dPolylineVertex
 10
149.223
 20
-10.4854
 30
0.0
 70
    32
  0
VERTEX
  5
1C4A
330
1BEB
100
AcDbEntity
  8
241
  6
Continuous
100
AcDbVertex
100
AcDb3dPolylineVertex
 10
149.208
 20
-10.46469999999999
 30
0.0
 70
    32
  0
VERTEX
  5
1C4B
330
1BEB
100
AcDbEntity
  8
241
  6
Continuous
100
AcDbVertex
100
AcDb3dPolylineVertex
 10
149.1929999999999
 20
-10.44389999999998
 30
0.0
 70
    32
  0
VERTEX
  5
1C4C
330
1BEB
100
AcDbEntity
  8
241
  6
Continuous
100
AcDbVertex
100
AcDb3dPolylineVertex
 10
149.177
 20
-10.4231
 30
0.0
 70
    32
  0
VERTEX
  5
1C4D
330
1BEB
100
AcDbEntity
  8
241
  6
Continuous
100
AcDbVertex
100
AcDb3dPolylineVertex
 10
149.162
 20
-10.40219999999999
 30
0.0
 70
    32
  0
VERTEX
  5
1C4E
330
1BEB
100
AcDbEntity
  8
241
  6
Continuous
100
AcDbVertex
100
AcDb3dPolylineVertex
 10
149.147
 20
-10.38120000000001
 30
0.0
 70
    32
  0
VERTEX
  5
1C4F
330
1BEB
100
AcDbEntity
  8
241
  6
Continuous
100
AcDbVertex
100
AcDb3dPolylineVertex
 10
149.132
 20
-10.36019999999999
 30
0.0
 70
    32
  0
VERTEX
  5
1C50
330
1BEB
100
AcDbEntity
  8
241
  6
Continuous
100
AcDbVertex
100
AcDb3dPolylineVertex
 10
149.117
 20
-10.3391
 30
0.0
 70
    32
  0
VERTEX
  5
1C51
330
1BEB
100
AcDbEntity
  8
241
  6
Continuous
100
AcDbVertex
100
AcDb3dPolylineVertex
 10
149.102
 20
-10.31790000000001
 30
0.0
 70
    32
  0
VERTEX
  5
1C52
330
1BEB
100
AcDbEntity
  8
241
  6
Continuous
100
AcDbVertex
100
AcDb3dPolylineVertex
 10
149.087
 20
-10.29660000000001
 30
0.0
 70
    32
  0
VERTEX
  5
1C53
330
1BEB
100
AcDbEntity
  8
241
  6
Continuous
100
AcDbVertex
100
AcDb3dPolylineVertex
 10
149.072
 20
-10.27529999999998
 30
0.0
 70
    32
  0
VERTEX
  5
1C54
330
1BEB
100
AcDbEntity
  8
241
  6
Continuous
100
AcDbVertex
100
AcDb3dPolylineVertex
 10
149.057
 20
-10.25389999999998
 30
0.0
 70
    32
  0
VERTEX
  5
1C55
330
1BEB
100
AcDbEntity
  8
241
  6
Continuous
100
AcDbVertex
100
AcDb3dPolylineVertex
 10
149.042
 20
-10.23240000000001
 30
0.0
 70
    32
  0
VERTEX
  5
1C56
330
1BEB
100
AcDbEntity
  8
241
  6
Continuous
100
AcDbVertex
100
AcDb3dPolylineVertex
 10
149.027
 20
-10.21090000000001
 30
0.0
 70
    32
  0
VERTEX
  5
1C57
330
1BEB
100
AcDbEntity
  8
241
  6
Continuous
100
AcDbVertex
100
AcDb3dPolylineVertex
 10
149.013
 20
-10.1892
 30
0.0
 70
    32
  0
VERTEX
  5
1C58
330
1BEB
100
AcDbEntity
  8
241
  6
Continuous
100
AcDbVertex
100
AcDb3dPolylineVertex
 10
148.998
 20
-10.16759999999999
 30
0.0
 70
    32
  0
VERTEX
  5
1C59
330
1BEB
100
AcDbEntity
  8
241
  6
Continuous
100
AcDbVertex
100
AcDb3dPolylineVertex
 10
148.983
 20
-10.14580000000001
 30
0.0
 70
    32
  0
VERTEX
  5
1C5A
330
1BEB
100
AcDbEntity
  8
241
  6
Continuous
100
AcDbVertex
100
AcDb3dPolylineVertex
 10
148.969
 20
-10.12399999999999
 30
0.0
 70
    32
  0
VERTEX
  5
1C5B
330
1BEB
100
AcDbEntity
  8
241
  6
Continuous
100
AcDbVertex
100
AcDb3dPolylineVertex
 10
148.954
 20
-10.1021
 30
0.0
 70
    32
  0
VERTEX
  5
1C5C
330
1BEB
100
AcDbEntity
  8
241
  6
Continuous
100
AcDbVertex
100
AcDb3dPolylineVertex
 10
148.94
 20
-10.08009999999998
 30
0.0
 70
    32
  0
VERTEX
  5
1C5D
330
1BEB
100
AcDbEntity
  8
241
  6
Continuous
100
AcDbVertex
100
AcDb3dPolylineVertex
 10
148.925
 20
-10.05799999999999
 30
0.0
 70
    32
  0
VERTEX
  5
1C5E
330
1BEB
100
AcDbEntity
  8
241
  6
Continuous
100
AcDbVertex
100
AcDb3dPolylineVertex
 10
148.911
 20
-10.03589999999999
 30
0.0
 70
    32
  0
VERTEX
  5
1C5F
330
1BEB
100
AcDbEntity
  8
241
  6
Continuous
100
AcDbVertex
100
AcDb3dPolylineVertex
 10
148.897
 20
-10.0137
 30
0.0
 70
    32
  0
VERTEX
  5
1C60
330
1BEB
100
AcDbEntity
  8
241
  6
Continuous
100
AcDbVertex
100
AcDb3dPolylineVertex
 10
148.882
 20
-9.991489999999997
 30
0.0
 70
    32
  0
VERTEX
  5
1C61
330
1BEB
100
AcDbEntity
  8
241
  6
Continuous
100
AcDbVertex
100
AcDb3dPolylineVertex
 10
148.868
 20
-9.969159999999988
 30
0.0
 70
    32
  0
VERTEX
  5
1C62
330
1BEB
100
AcDbEntity
  8
241
  6
Continuous
100
AcDbVertex
100
AcDb3dPolylineVertex
 10
148.854
 20
-9.946769999999986
 30
0.0
 70
    32
  0
VERTEX
  5
1C63
330
1BEB
100
AcDbEntity
  8
241
  6
Continuous
100
AcDbVertex
100
AcDb3dPolylineVertex
 10
148.84
 20
-9.924309999999991
 30
0.0
 70
    32
  0
VERTEX
  5
1C64
330
1BEB
100
AcDbEntity
  8
241
  6
Continuous
100
AcDbVertex
100
AcDb3dPolylineVertex
 10
148.826
 20
-9.90177
 30
0.0
 70
    32
  0
VERTEX
  5
1C65
330
1BEB
100
AcDbEntity
  8
241
  6
Continuous
100
AcDbVertex
100
AcDb3dPolylineVertex
 10
148.812
 20
-9.879169999999987
 30
0.0
 70
    32
  0
VERTEX
  5
1C66
330
1BEB
100
AcDbEntity
  8
241
  6
Continuous
100
AcDbVertex
100
AcDb3dPolylineVertex
 10
148.798
 20
-9.856490000000007
 30
0.0
 70
    32
  0
VERTEX
  5
1C67
330
1BEB
100
AcDbEntity
  8
241
  6
Continuous
100
AcDbVertex
100
AcDb3dPolylineVertex
 10
148.784
 20
-9.833750000000009
 30
0.0
 70
    32
  0
VERTEX
  5
1C68
330
1BEB
100
AcDbEntity
  8
241
  6
Continuous
100
AcDbVertex
100
AcDb3dPolylineVertex
 10
148.77
 20
-9.810939999999988
 30
0.0
 70
    32
  0
VERTEX
  5
1C69
330
1BEB
100
AcDbEntity
  8
241
  6
Continuous
100
AcDbVertex
100
AcDb3dPolylineVertex
 10
148.756
 20
-9.788059999999999
 30
0.0
 70
    32
  0
VERTEX
  5
1C6A
330
1BEB
100
AcDbEntity
  8
241
  6
Continuous
100
AcDbVertex
100
AcDb3dPolylineVertex
 10
148.743
 20
-9.765109999999991
 30
0.0
 70
    32
  0
VERTEX
  5
1C6B
330
1BEB
100
AcDbEntity
  8
241
  6
Continuous
100
AcDbVertex
100
AcDb3dPolylineVertex
 10
148.7289999999999
 20
-9.74208999999999
 30
0.0
 70
    32
  0
VERTEX
  5
1C6C
330
1BEB
100
AcDbEntity
  8
241
  6
Continuous
100
AcDbVertex
100
AcDb3dPolylineVertex
 10
148.716
 20
-9.719009999999997
 30
0.0
 70
    32
  0
VERTEX
  5
1C6D
330
1BEB
100
AcDbEntity
  8
241
  6
Continuous
100
AcDbVertex
100
AcDb3dPolylineVertex
 10
148.702
 20
-9.695850000000008
 30
0.0
 70
    32
  0
VERTEX
  5
1C6E
330
1BEB
100
AcDbEntity
  8
241
  6
Continuous
100
AcDbVertex
100
AcDb3dPolylineVertex
 10
148.689
 20
-9.672629999999998
 30
0.0
 70
    32
  0
VERTEX
  5
1C6F
330
1BEB
100
AcDbEntity
  8
241
  6
Continuous
100
AcDbVertex
100
AcDb3dPolylineVertex
 10
148.675
 20
-9.649329999999991
 30
0.0
 70
    32
  0
VERTEX
  5
1C70
330
1BEB
100
AcDbEntity
  8
241
  6
Continuous
100
AcDbVertex
100
AcDb3dPolylineVertex
 10
148.662
 20
-9.625969999999997
 30
0.0
 70
    32
  0
VERTEX
  5
1C71
330
1BEB
100
AcDbEntity
  8
241
  6
Continuous
100
AcDbVertex
100
AcDb3dPolylineVertex
 10
148.649
 20
-9.602550000000007
 30
0.0
 70
    32
  0
VERTEX
  5
1C72
330
1BEB
100
AcDbEntity
  8
241
  6
Continuous
100
AcDbVertex
100
AcDb3dPolylineVertex
 10
148.635
 20
-9.579049999999996
 30
0.0
 70
    32
  0
VERTEX
  5
1C73
330
1BEB
100
AcDbEntity
  8
241
  6
Continuous
100
AcDbVertex
100
AcDb3dPolylineVertex
 10
148.622
 20
-9.555489999999991
 30
0.0
 70
    32
  0
VERTEX
  5
1C74
330
1BEB
100
AcDbEntity
  8
241
  6
Continuous
100
AcDbVertex
100
AcDb3dPolylineVertex
 10
148.609
 20
-9.531859999999994
 30
0.0
 70
    32
  0
VERTEX
  5
1C75
330
1BEB
100
AcDbEntity
  8
241
  6
Continuous
100
AcDbVertex
100
AcDb3dPolylineVertex
 10
148.596
 20
-9.508160000000003
 30
0.0
 70
    32
  0
VERTEX
  5
1C76
330
1BEB
100
AcDbEntity
  8
241
  6
Continuous
100
AcDbVertex
100
AcDb3dPolylineVertex
 10
148.583
 20
-9.48438999999999
 30
0.0
 70
    32
  0
VERTEX
  5
1C77
330
1BEB
100
AcDbEntity
  8
241
  6
Continuous
100
AcDbVertex
100
AcDb3dPolylineVertex
 10
148.57
 20
-9.460559999999986
 30
0.0
 70
    32
  0
VERTEX
  5
1C78
330
1BEB
100
AcDbEntity
  8
241
  6
Continuous
100
AcDbVertex
100
AcDb3dPolylineVertex
 10
148.557
 20
-9.436659999999987
 30
0.0
 70
    32
  0
VERTEX
  5
1C79
330
1BEB
100
AcDbEntity
  8
241
  6
Continuous
100
AcDbVertex
100
AcDb3dPolylineVertex
 10
148.544
 20
-9.412689999999996
 30
0.0
 70
    32
  0
VERTEX
  5
1C7A
330
1BEB
100
AcDbEntity
  8
241
  6
Continuous
100
AcDbVertex
100
AcDb3dPolylineVertex
 10
148.532
 20
-9.388659999999987
 30
0.0
 70
    32
  0
VERTEX
  5
1C7B
330
1BEB
100
AcDbEntity
  8
241
  6
Continuous
100
AcDbVertex
100
AcDb3dPolylineVertex
 10
148.519
 20
-9.364560000000011
 30
0.0
 70
    32
  0
VERTEX
  5
1C7C
330
1BEB
100
AcDbEntity
  8
241
  6
Continuous
100
AcDbVertex
100
AcDb3dPolylineVertex
 10
148.506
 20
-9.340390000000011
 30
0.0
 70
    32
  0
VERTEX
  5
1C7D
330
1BEB
100
AcDbEntity
  8
241
  6
Continuous
100
AcDbVertex
100
AcDb3dPolylineVertex
 10
148.494
 20
-9.316159999999996
 30
0.0
 70
    32
  0
VERTEX
  5
1C7E
330
1BEB
100
AcDbEntity
  8
241
  6
Continuous
100
AcDbVertex
100
AcDb3dPolylineVertex
 10
148.481
 20
-9.291859999999983
 30
0.0
 70
    32
  0
VERTEX
  5
1C7F
330
1BEB
100
AcDbEntity
  8
241
  6
Continuous
100
AcDbVertex
100
AcDb3dPolylineVertex
 10
148.469
 20
-9.267490000000007
 30
0.0
 70
    32
  0
VERTEX
  5
1C80
330
1BEB
100
AcDbEntity
  8
241
  6
Continuous
100
AcDbVertex
100
AcDb3dPolylineVertex
 10
148.456
 20
-9.243060000000012
 30
0.0
 70
    32
  0
VERTEX
  5
1C81
330
1BEB
100
AcDbEntity
  8
241
  6
Continuous
100
AcDbVertex
100
AcDb3dPolylineVertex
 10
148.444
 20
-9.218569999999999
 30
0.0
 70
    32
  0
VERTEX
  5
1C82
330
1BEB
100
AcDbEntity
  8
241
  6
Continuous
100
AcDbVertex
100
AcDb3dPolylineVertex
 10
148.432
 20
-9.193999999999988
 30
0.0
 70
    32
  0
VERTEX
  5
1C83
330
1BEB
100
AcDbEntity
  8
241
  6
Continuous
100
AcDbVertex
100
AcDb3dPolylineVertex
 10
148.42
 20
-9.169369999999986
 30
0.0
 70
    32
  0
VERTEX
  5
1C84
330
1BEB
100
AcDbEntity
  8
241
  6
Continuous
100
AcDbVertex
100
AcDb3dPolylineVertex
 10
148.407
 20
-9.144679999999992
 30
0.0
 70
    32
  0
VERTEX
  5
1C85
330
1BEB
100
AcDbEntity
  8
241
  6
Continuous
100
AcDbVertex
100
AcDb3dPolylineVertex
 10
148.395
 20
-9.119920000000007
 30
0.0
 70
    32
  0
VERTEX
  5
1C86
330
1BEB
100
AcDbEntity
  8
241
  6
Continuous
100
AcDbVertex
100
AcDb3dPolylineVertex
 10
148.383
 20
-9.09509
 30
0.0
 70
    32
  0
VERTEX
  5
1C87
330
1BEB
100
AcDbEntity
  8
241
  6
Continuous
100
AcDbVertex
100
AcDb3dPolylineVertex
 10
148.372
 20
-9.070210000000002
 30
0.0
 70
    32
  0
VERTEX
  5
1C88
330
1BEB
100
AcDbEntity
  8
241
  6
Continuous
100
AcDbVertex
100
AcDb3dPolylineVertex
 10
148.36
 20
-9.04525000000001
 30
0.0
 70
    32
  0
VERTEX
  5
1C89
330
1BEB
100
AcDbEntity
  8
241
  6
Continuous
100
AcDbVertex
100
AcDb3dPolylineVertex
 10
148.348
 20
-9.020229999999996
 30
0.0
 70
    32
  0
VERTEX
  5
1C8A
330
1BEB
100
AcDbEntity
  8
241
  6
Continuous
100
AcDbVertex
100
AcDb3dPolylineVertex
 10
148.336
 20
-8.995149999999993
 30
0.0
 70
    32
  0
VERTEX
  5
1C8B
330
1BEB
100
AcDbEntity
  8
241
  6
Continuous
100
AcDbVertex
100
AcDb3dPolylineVertex
 10
148.324
 20
-8.969999999999997
 30
0.0
 70
    32
  0
VERTEX
  5
1C8C
330
1BEB
100
AcDbEntity
  8
241
  6
Continuous
100
AcDbVertex
100
AcDb3dPolylineVertex
 10
148.313
 20
-8.944780000000008
 30
0.0
 70
    32
  0
VERTEX
  5
1C8D
330
1BEB
100
AcDbEntity
  8
241
  6
Continuous
100
AcDbVertex
100
AcDb3dPolylineVertex
 10
148.301
 20
-8.919510000000002
 30
0.0
 70
    32
  0
VERTEX
  5
1C8E
330
1BEB
100
AcDbEntity
  8
241
  6
Continuous
100
AcDbVertex
100
AcDb3dPolylineVertex
 10
148.29
 20
-8.894159999999997
 30
0.0
 70
    32
  0
VERTEX
  5
1C8F
330
1BEB
100
AcDbEntity
  8
241
  6
Continuous
100
AcDbVertex
100
AcDb3dPolylineVertex
 10
148.278
 20
-8.868760000000008
 30
0.0
 70
    32
  0
VERTEX
  5
1C90
330
1BEB
100
AcDbEntity
  8
241
  6
Continuous
100
AcDbVertex
100
AcDb3dPolylineVertex
 10
148.267
 20
-8.843289999999996
 30
0.0
 70
    32
  0
VERTEX
  5
1C91
330
1BEB
100
AcDbEntity
  8
241
  6
Continuous
100
AcDbVertex
100
AcDb3dPolylineVertex
 10
148.256
 20
-8.81775999999999
 30
0.0
 70
    32
  0
VERTEX
  5
1C92
330
1BEB
100
AcDbEntity
  8
241
  6
Continuous
100
AcDbVertex
100
AcDb3dPolylineVertex
 10
148.245
 20
-8.792159999999995
 30
0.0
 70
    32
  0
VERTEX
  5
1C93
330
1BEB
100
AcDbEntity
  8
241
  6
Continuous
100
AcDbVertex
100
AcDb3dPolylineVertex
 10
148.234
 20
-8.766520000000012
 30
0.0
 70
    32
  0
VERTEX
  5
1C94
330
1BEB
100
AcDbEntity
  8
241
  6
Continuous
100
AcDbVertex
100
AcDb3dPolylineVertex
 10
148.223
 20
-8.740849999999994
 30
0.0
 70
    32
  0
VERTEX
  5
1C95
330
1BEB
100
AcDbEntity
  8
241
  6
Continuous
100
AcDbVertex
100
AcDb3dPolylineVertex
 10
148.212
 20
-8.715149999999994
 30
0.0
 70
    32
  0
VERTEX
  5
1C96
330
1BEB
100
AcDbEntity
  8
241
  6
Continuous
100
AcDbVertex
100
AcDb3dPolylineVertex
 10
148.201
 20
-8.689420000000012
 30
0.0
 70
    32
  0
VERTEX
  5
1C97
330
1BEB
100
AcDbEntity
  8
241
  6
Continuous
100
AcDbVertex
100
AcDb3dPolylineVertex
 10
148.19
 20
-8.663649999999988
 30
0.0
 70
    32
  0
VERTEX
  5
1C98
330
1BEB
100
AcDbEntity
  8
241
  6
Continuous
100
AcDbVertex
100
AcDb3dPolylineVertex
 10
148.179
 20
-8.637850000000012
 30
0.0
 70
    32
  0
VERTEX
  5
1C99
330
1BEB
100
AcDbEntity
  8
241
  6
Continuous
100
AcDbVertex
100
AcDb3dPolylineVertex
 10
148.169
 20
-8.612020000000001
 30
0.0
 70
    32
  0
VERTEX
  5
1C9A
330
1BEB
100
AcDbEntity
  8
241
  6
Continuous
100
AcDbVertex
100
AcDb3dPolylineVertex
 10
148.158
 20
-8.586160000000006
 30
0.0
 70
    32
  0
VERTEX
  5
1C9B
330
1BEB
100
AcDbEntity
  8
241
  6
Continuous
100
AcDbVertex
100
AcDb3dPolylineVertex
 10
148.148
 20
-8.560270000000002
 30
0.0
 70
    32
  0
VERTEX
  5
1C9C
330
1BEB
100
AcDbEntity
  8
241
  6
Continuous
100
AcDbVertex
100
AcDb3dPolylineVertex
 10
148.137
 20
-8.534339999999986
 30
0.0
 70
    32
  0
VERTEX
  5
1C9D
330
1BEB
100
AcDbEntity
  8
241
  6
Continuous
100
AcDbVertex
100
AcDb3dPolylineVertex
 10
148.127
 20
-8.508389999999991
 30
0.0
 70
    32
  0
VERTEX
  5
1C9E
330
1BEB
100
AcDbEntity
  8
241
  6
Continuous
100
AcDbVertex
100
AcDb3dPolylineVertex
 10
148.117
 20
-8.482400000000012
 30
0.0
 70
    32
  0
VERTEX
  5
1C9F
330
1BEB
100
AcDbEntity
  8
241
  6
Continuous
100
AcDbVertex
100
AcDb3dPolylineVertex
 10
148.107
 20
-8.456389999999997
 30
0.0
 70
    32
  0
VERTEX
  5
1CA0
330
1BEB
100
AcDbEntity
  8
241
  6
Continuous
100
AcDbVertex
100
AcDb3dPolylineVertex
 10
148.097
 20
-8.430340000000001
 30
0.0
 70
    32
  0
VERTEX
  5
1CA1
330
1BEB
100
AcDbEntity
  8
241
  6
Continuous
100
AcDbVertex
100
AcDb3dPolylineVertex
 10
148.087
 20
-8.404259999999991
 30
0.0
 70
    32
  0
VERTEX
  5
1CA2
330
1BEB
100
AcDbEntity
  8
241
  6
Continuous
100
AcDbVertex
100
AcDb3dPolylineVertex
 10
148.077
 20
-8.378160000000008
 30
0.0
 70
    32
  0
VERTEX
  5
1CA3
330
1BEB
100
AcDbEntity
  8
241
  6
Continuous
100
AcDbVertex
100
AcDb3dPolylineVertex
 10
148.067
 20
-8.35202000000001
 30
0.0
 70
    32
  0
VERTEX
  5
1CA4
330
1BEB
100
AcDbEntity
  8
241
  6
Continuous
100
AcDbVertex
100
AcDb3dPolylineVertex
 10
148.057
 20
-8.325860000000004
 30
0.0
 70
    32
  0
VERTEX
  5
1CA5
330
1BEB
100
AcDbEntity
  8
241
  6
Continuous
100
AcDbVertex
100
AcDb3dPolylineVertex
 10
148.048
 20
-8.299669999999991
 30
0.0
 70
    32
  0
VERTEX
  5
1CA6
330
1BEB
100
AcDbEntity
  8
241
  6
Continuous
100
AcDbVertex
100
AcDb3dPolylineVertex
 10
148.038
 20
-8.273439999999991
 30
0.0
 70
    32
  0
VERTEX
  5
1CA7
330
1BEB
100
AcDbEntity
  8
241
  6
Continuous
100
AcDbVertex
100
AcDb3dPolylineVertex
 10
148.029
 20
-8.247189999999987
 30
0.0
 70
    32
  0
VERTEX
  5
1CA8
330
1BEB
100
AcDbEntity
  8
241
  6
Continuous
100
AcDbVertex
100
AcDb3dPolylineVertex
 10
148.019
 20
-8.220910000000001
 30
0.0
 70
    32
  0
VERTEX
  5
1CA9
330
1BEB
100
AcDbEntity
  8
241
  6
Continuous
100
AcDbVertex
100
AcDb3dPolylineVertex
 10
148.01
 20
-8.194610000000011
 30
0.0
 70
    32
  0
VERTEX
  5
1CAA
330
1BEB
100
AcDbEntity
  8
241
  6
Continuous
100
AcDbVertex
100
AcDb3dPolylineVertex
 10
148.001
 20
-8.168270000000006
 30
0.0
 70
    32
  0
VERTEX
  5
1CAB
330
1BEB
100
AcDbEntity
  8
241
  6
Continuous
100
AcDbVertex
100
AcDb3dPolylineVertex
 10
147.992
 20
-8.141909999999995
 30
0.0
 70
    32
  0
VERTEX
  5
1CAC
330
1BEB
100
AcDbEntity
  8
241
  6
Continuous
100
AcDbVertex
100
AcDb3dPolylineVertex
 10
147.983
 20
-8.115520000000001
 30
0.0
 70
    32
  0
VERTEX
  5
1CAD
330
1BEB
100
AcDbEntity
  8
241
  6
Continuous
100
AcDbVertex
100
AcDb3dPolylineVertex
 10
147.974
 20
-8.089100000000001
 30
0.0
 70
    32
  0
VERTEX
  5
1CAE
330
1BEB
100
AcDbEntity
  8
241
  6
Continuous
100
AcDbVertex
100
AcDb3dPolylineVertex
 10
147.965
 20
-8.06264999999999
 30
0.0
 70
    32
  0
VERTEX
  5
1CAF
330
1BEB
100
AcDbEntity
  8
241
  6
Continuous
100
AcDbVertex
100
AcDb3dPolylineVertex
 10
147.956
 20
-8.036180000000001
 30
0.0
 70
    32
  0
VERTEX
  5
1CB0
330
1BEB
100
AcDbEntity
  8
241
  6
Continuous
100
AcDbVertex
100
AcDb3dPolylineVertex
 10
147.947
 20
-8.009680000000003
 30
0.0
 70
    32
  0
VERTEX
  5
1CB1
330
1BEB
100
AcDbEntity
  8
241
  6
Continuous
100
AcDbVertex
100
AcDb3dPolylineVertex
 10
147.939
 20
-7.983159999999998
 30
0.0
 70
    32
  0
VERTEX
  5
1CB2
330
1BEB
100
AcDbEntity
  8
241
  6
Continuous
100
AcDbVertex
100
AcDb3dPolylineVertex
 10
147.93
 20
-7.956600000000008
 30
0.0
 70
    32
  0
VERTEX
  5
1CB3
330
1BEB
100
AcDbEntity
  8
241
  6
Continuous
100
AcDbVertex
100
AcDb3dPolylineVertex
 10
147.922
 20
-7.930020000000013
 30
0.0
 70
    32
  0
VERTEX
  5
1CB4
330
1BEB
100
AcDbEntity
  8
241
  6
Continuous
100
AcDbVertex
100
AcDb3dPolylineVertex
 10
147.913
 20
-7.903420000000012
 30
0.0
 70
    32
  0
VERTEX
  5
1CB5
330
1BEB
100
AcDbEntity
  8
241
  6
Continuous
100
AcDbVertex
100
AcDb3dPolylineVertex
 10
147.905
 20
-7.876789999999998
 30
0.0
 70
    32
  0
VERTEX
  5
1CB6
330
1BEB
100
AcDbEntity
  8
241
  6
Continuous
100
AcDbVertex
100
AcDb3dPolylineVertex
 10
147.897
 20
-7.850140000000009
 30
0.0
 70
    32
  0
VERTEX
  5
1CB7
330
1BEB
100
AcDbEntity
  8
241
  6
Continuous
100
AcDbVertex
100
AcDb3dPolylineVertex
 10
147.888
 20
-7.823460000000012
 30
0.0
 70
    32
  0
VERTEX
  5
1CB8
330
1BEB
100
AcDbEntity
  8
241
  6
Continuous
100
AcDbVertex
100
AcDb3dPolylineVertex
 10
147.88
 20
-7.796750000000002
 30
0.0
 70
    32
  0
VERTEX
  5
1CB9
330
1BEB
100
AcDbEntity
  8
241
  6
Continuous
100
AcDbVertex
100
AcDb3dPolylineVertex
 10
147.872
 20
-7.770019999999987
 30
0.0
 70
    32
  0
VERTEX
  5
1CBA
330
1BEB
100
AcDbEntity
  8
241
  6
Continuous
100
AcDbVertex
100
AcDb3dPolylineVertex
 10
147.865
 20
-7.743269999999995
 30
0.0
 70
    32
  0
VERTEX
  5
1CBB
330
1BEB
100
AcDbEntity
  8
241
  6
Continuous
100
AcDbVertex
100
AcDb3dPolylineVertex
 10
147.857
 20
-7.716489999999991
 30
0.0
 70
    32
  0
VERTEX
  5
1CBC
330
1BEB
100
AcDbEntity
  8
241
  6
Continuous
100
AcDbVertex
100
AcDb3dPolylineVertex
 10
147.849
 20
-7.689680000000008
 30
0.0
 70
    32
  0
VERTEX
  5
1CBD
330
1BEB
100
AcDbEntity
  8
241
  6
Continuous
100
AcDbVertex
100
AcDb3dPolylineVertex
 10
147.841
 20
-7.662859999999994
 30
0.0
 70
    32
  0
VERTEX
  5
1CBE
330
1BEB
100
AcDbEntity
  8
241
  6
Continuous
100
AcDbVertex
100
AcDb3dPolylineVertex
 10
147.834
 20
-7.636009999999997
 30
0.0
 70
    32
  0
VERTEX
  5
1CBF
330
1BEB
100
AcDbEntity
  8
241
  6
Continuous
100
AcDbVertex
100
AcDb3dPolylineVertex
 10
147.826
 20
-7.609129999999991
 30
0.0
 70
    32
  0
VERTEX
  5
1CC0
330
1BEB
100
AcDbEntity
  8
241
  6
Continuous
100
AcDbVertex
100
AcDb3dPolylineVertex
 10
147.819
 20
-7.582230000000008
 30
0.0
 70
    32
  0
VERTEX
  5
1CC1
330
1BEB
100
AcDbEntity
  8
241
  6
Continuous
100
AcDbVertex
100
AcDb3dPolylineVertex
 10
147.812
 20
-7.555309999999991
 30
0.0
 70
    32
  0
VERTEX
  5
1CC2
330
1BEB
100
AcDbEntity
  8
241
  6
Continuous
100
AcDbVertex
100
AcDb3dPolylineVertex
 10
147.804
 20
-7.528369999999995
 30
0.0
 70
    32
  0
VERTEX
  5
1CC3
330
1BEB
100
AcDbEntity
  8
241
  6
Continuous
100
AcDbVertex
100
AcDb3dPolylineVertex
 10
147.797
 20
-7.501399999999987
 30
0.0
 70
    32
  0
VERTEX
  5
1CC4
330
1BEB
100
AcDbEntity
  8
241
  6
Continuous
100
AcDbVertex
100
AcDb3dPolylineVertex
 10
147.79
 20
-7.474410000000005
 30
0.0
 70
    32
  0
VERTEX
  5
1CC5
330
1BEB
100
AcDbEntity
  8
241
  6
Continuous
100
AcDbVertex
100
AcDb3dPolylineVertex
 10
147.783
 20
-7.447399999999986
 30
0.0
 70
    32
  0
VERTEX
  5
1CC6
330
1BEB
100
AcDbEntity
  8
241
  6
Continuous
100
AcDbVertex
100
AcDb3dPolylineVertex
 10
147.776
 20
-7.420369999999991
 30
0.0
 70
    32
  0
VERTEX
  5
1CC7
330
1BEB
100
AcDbEntity
  8
241
  6
Continuous
100
AcDbVertex
100
AcDb3dPolylineVertex
 10
147.77
 20
-7.393319999999986
 30
0.0
 70
    32
  0
VERTEX
  5
1CC8
330
1BEB
100
AcDbEntity
  8
241
  6
Continuous
100
AcDbVertex
100
AcDb3dPolylineVertex
 10
147.763
 20
-7.366240000000003
 30
0.0
 70
    32
  0
VERTEX
  5
1CC9
330
1BEB
100
AcDbEntity
  8
241
  6
Continuous
100
AcDbVertex
100
AcDb3dPolylineVertex
 10
147.756
 20
-7.339139999999987
 30
0.0
 70
    32
  0
VERTEX
  5
1CCA
330
1BEB
100
AcDbEntity
  8
241
  6
Continuous
100
AcDbVertex
100
AcDb3dPolylineVertex
 10
147.75
 20
-7.312019999999987
 30
0.0
 70
    32
  0
VERTEX
  5
1CCB
330
1BEB
100
AcDbEntity
  8
241
  6
Continuous
100
AcDbVertex
100
AcDb3dPolylineVertex
 10
147.743
 20
-7.284879999999986
 30
0.0
 70
    32
  0
VERTEX
  5
1CCC
330
1BEB
100
AcDbEntity
  8
241
  6
Continuous
100
AcDbVertex
100
AcDb3dPolylineVertex
 10
147.737
 20
-7.257720000000006
 30
0.0
 70
    32
  0
VERTEX
  5
1CCD
330
1BEB
100
AcDbEntity
  8
241
  6
Continuous
100
AcDbVertex
100
AcDb3dPolylineVertex
 10
147.731
 20
-7.23053999999999
 30
0.0
 70
    32
  0
VERTEX
  5
1CCE
330
1BEB
100
AcDbEntity
  8
241
  6
Continuous
100
AcDbVertex
100
AcDb3dPolylineVertex
 10
147.724
 20
-7.203339999999997
 30
0.0
 70
    32
  0
VERTEX
  5
1CCF
330
1BEB
100
AcDbEntity
  8
241
  6
Continuous
100
AcDbVertex
100
AcDb3dPolylineVertex
 10
147.718
 20
-7.176119999999997
 30
0.0
 70
    32
  0
VERTEX
  5
1CD0
330
1BEB
100
AcDbEntity
  8
241
  6
Continuous
100
AcDbVertex
100
AcDb3dPolylineVertex
 10
147.712
 20
-7.148879999999991
 30
0.0
 70
    32
  0
VERTEX
  5
1CD1
330
1BEB
100
AcDbEntity
  8
241
  6
Continuous
100
AcDbVertex
100
AcDb3dPolylineVertex
 10
147.706
 20
-7.121620000000008
 30
0.0
 70
    32
  0
VERTEX
  5
1CD2
330
1BEB
100
AcDbEntity
  8
241
  6
Continuous
100
AcDbVertex
100
AcDb3dPolylineVertex
 10
147.7
 20
-7.094330000000012
 30
0.0
 70
    32
  0
VERTEX
  5
1CD3
330
1BEB
100
AcDbEntity
  8
241
  6
Continuous
100
AcDbVertex
100
AcDb3dPolylineVertex
 10
147.695
 20
-7.067039999999991
 30
0.0
 70
    32
  0
VERTEX
  5
1CD4
330
1BEB
100
AcDbEntity
  8
241
  6
Continuous
100
AcDbVertex
100
AcDb3dPolylineVertex
 10
147.689
 20
-7.039719999999986
 30
0.0
 70
    32
  0
VERTEX
  5
1CD5
330
1BEB
100
AcDbEntity
  8
241
  6
Continuous
100
AcDbVertex
100
AcDb3dPolylineVertex
 10
147.683
 20
-7.012380000000008
 30
0.0
 70
    32
  0
VERTEX
  5
1CD6
330
1BEB
100
AcDbEntity
  8
241
  6
Continuous
100
AcDbVertex
100
AcDb3dPolylineVertex
 10
147.678
 20
-6.985019999999991
 30
0.0
 70
    32
  0
VERTEX
  5
1CD7
330
1BEB
100
AcDbEntity
  8
241
  6
Continuous
100
AcDbVertex
100
AcDb3dPolylineVertex
 10
147.672
 20
-6.957650000000001
 30
0.0
 70
    32
  0
VERTEX
  5
1CD8
330
1BEB
100
AcDbEntity
  8
241
  6
Continuous
100
AcDbVertex
100
AcDb3dPolylineVertex
 10
147.667
 20
-6.930260000000003
 30
0.0
 70
    32
  0
VERTEX
  5
1CD9
330
1BEB
100
AcDbEntity
  8
241
  6
Continuous
100
AcDbVertex
100
AcDb3dPolylineVertex
 10
147.662
 20
-6.902839999999997
 30
0.0
 70
    32
  0
VERTEX
  5
1CDA
330
1BEB
100
AcDbEntity
  8
241
  6
Continuous
100
AcDbVertex
100
AcDb3dPolylineVertex
 10
147.656
 20
-6.875419999999992
 30
0.0
 70
    32
  0
VERTEX
  5
1CDB
330
1BEB
100
AcDbEntity
  8
241
  6
Continuous
100
AcDbVertex
100
AcDb3dPolylineVertex
 10
147.651
 20
-6.847970000000002
 30
0.0
 70
    32
  0
VERTEX
  5
1CDC
330
1BEB
100
AcDbEntity
  8
241
  6
Continuous
100
AcDbVertex
100
AcDb3dPolylineVertex
 10
147.646
 20
-6.820510000000012
 30
0.0
 70
    32
  0
VERTEX
  5
1CDD
330
1BEB
100
AcDbEntity
  8
241
  6
Continuous
100
AcDbVertex
100
AcDb3dPolylineVertex
 10
147.641
 20
-6.793029999999986
 30
0.0
 70
    32
  0
VERTEX
  5
1CDE
330
1BEB
100
AcDbEntity
  8
241
  6
Continuous
100
AcDbVertex
100
AcDb3dPolylineVertex
 10
147.636
 20
-6.765530000000013
 30
0.0
 70
    32
  0
VERTEX
  5
1CDF
330
1BEB
100
AcDbEntity
  8
241
  6
Continuous
100
AcDbVertex
100
AcDb3dPolylineVertex
 10
147.632
 20
-6.738020000000005
 30
0.0
 70
    32
  0
VERTEX
  5
1CE0
330
1BEB
100
AcDbEntity
  8
241
  6
Continuous
100
AcDbVertex
100
AcDb3dPolylineVertex
 10
147.627
 20
-6.710489999999992
 30
0.0
 70
    32
  0
VERTEX
  5
1CE1
330
1BEB
100
AcDbEntity
  8
241
  6
Continuous
100
AcDbVertex
100
AcDb3dPolylineVertex
 10
147.622
 20
-6.682940000000002
 30
0.0
 70
    32
  0
VERTEX
  5
1CE2
330
1BEB
100
AcDbEntity
  8
241
  6
Continuous
100
AcDbVertex
100
AcDb3dPolylineVertex
 10
147.618
 20
-6.655380000000008
 30
0.0
 70
    32
  0
VERTEX
  5
1CE3
330
1BEB
100
AcDbEntity
  8
241
  6
Continuous
100
AcDbVertex
100
AcDb3dPolylineVertex
 10
147.613
 20
-6.627800000000008
 30
0.0
 70
    32
  0
VERTEX
  5
1CE4
330
1BEB
100
AcDbEntity
  8
241
  6
Continuous
100
AcDbVertex
100
AcDb3dPolylineVertex
 10
147.609
 20
-6.6002
 30
0.0
 70
    32
  0
VERTEX
  5
1CE5
330
1BEB
100
AcDbEntity
  8
241
  6
Continuous
100
AcDbVertex
100
AcDb3dPolylineVertex
 10
147.605
 20
-6.572599999999994
 30
0.0
 70
    32
  0
VERTEX
  5
1CE6
330
1BEB
100
AcDbEntity
  8
241
  6
Continuous
100
AcDbVertex
100
AcDb3dPolylineVertex
 10
147.601
 20
-6.544970000000006
 30
0.0
 70
    32
  0
VERTEX
  5
1CE7
330
1BEB
100
AcDbEntity
  8
241
  6
Continuous
100
AcDbVertex
100
AcDb3dPolylineVertex
 10
147.596
 20
-6.517329999999986
 30
0.0
 70
    32
  0
VERTEX
  5
1CE8
330
1BEB
100
AcDbEntity
  8
241
  6
Continuous
100
AcDbVertex
100
AcDb3dPolylineVertex
 10
147.592
 20
-6.489679999999991
 30
0.0
 70
    32
  0
VERTEX
  5
1CE9
330
1BEB
100
AcDbEntity
  8
241
  6
Continuous
100
AcDbVertex
100
AcDb3dPolylineVertex
 10
147.589
 20
-6.462009999999991
 30
0.0
 70
    32
  0
VERTEX
  5
1CEA
330
1BEB
100
AcDbEntity
  8
241
  6
Continuous
100
AcDbVertex
100
AcDb3dPolylineVertex
 10
147.585
 20
-6.434329999999986
 30
0.0
 70
    32
  0
VERTEX
  5
1CEB
330
1BEB
100
AcDbEntity
  8
241
  6
Continuous
100
AcDbVertex
100
AcDb3dPolylineVertex
 10
147.581
 20
-6.406630000000006
 30
0.0
 70
    32
  0
VERTEX
  5
1CEC
330
1BEB
100
AcDbEntity
  8
241
  6
Continuous
100
AcDbVertex
100
AcDb3dPolylineVertex
 10
147.577
 20
-6.378919999999991
 30
0.0
 70
    32
  0
VERTEX
  5
1CED
330
1BEB
100
AcDbEntity
  8
241
  6
Continuous
100
AcDbVertex
100
AcDb3dPolylineVertex
 10
147.574
 20
-6.351190000000002
 30
0.0
 70
    32
  0
VERTEX
  5
1CEE
330
1BEB
100
AcDbEntity
  8
241
  6
Continuous
100
AcDbVertex
100
AcDb3dPolylineVertex
 10
147.57
 20
-6.323450000000008
 30
0.0
 70
    32
  0
VERTEX
  5
1CEF
330
1BEB
100
AcDbEntity
  8
241
  6
Continuous
100
AcDbVertex
100
AcDb3dPolylineVertex
 10
147.567
 20
-6.295700000000009
 30
0.0
 70
    32
  0
VERTEX
  5
1CF0
330
1BEB
100
AcDbEntity
  8
241
  6
Continuous
100
AcDbVertex
100
AcDb3dPolylineVertex
 10
147.563
 20
-6.267940000000009
 30
0.0
 70
    32
  0
VERTEX
  5
1CF1
330
1BEB
100
AcDbEntity
  8
241
  6
Continuous
100
AcDbVertex
100
AcDb3dPolylineVertex
 10
147.56
 20
-6.240160000000002
 30
0.0
 70
    32
  0
VERTEX
  5
1CF2
330
1BEB
100
AcDbEntity
  8
241
  6
Continuous
100
AcDbVertex
100
AcDb3dPolylineVertex
 10
147.557
 20
-6.212379999999996
 30
0.0
 70
    32
  0
VERTEX
  5
1CF3
330
1BEB
100
AcDbEntity
  8
241
  6
Continuous
100
AcDbVertex
100
AcDb3dPolylineVertex
 10
147.554
 20
-6.184590000000013
 30
0.0
 70
    32
  0
VERTEX
  5
1CF4
330
1BEB
100
AcDbEntity
  8
241
  6
Continuous
100
AcDbVertex
100
AcDb3dPolylineVertex
 10
147.551
 20
-6.156789999999999
 30
0.0
 70
    32
  0
VERTEX
  5
1CF5
330
1BEB
100
AcDbEntity
  8
241
  6
Continuous
100
AcDbVertex
100
AcDb3dPolylineVertex
 10
147.548
 20
-6.12899999999999
 30
0.0
 70
    32
  0
VERTEX
  5
1CF6
330
1BEB
100
AcDbEntity
  8
241
  6
Continuous
100
AcDbVertex
100
AcDb3dPolylineVertex
 10
147.545
 20
-6.101200000000004
 30
0.0
 70
    32
  0
VERTEX
  5
1CF7
330
1BEB
100
AcDbEntity
  8
241
  6
Continuous
100
AcDbVertex
100
AcDb3dPolylineVertex
 10
147.542
 20
-6.073399999999991
 30
0.0
 70
    32
  0
VERTEX
  5
1CF8
330
1BEB
100
AcDbEntity
  8
241
  6
Continuous
100
AcDbVertex
100
AcDb3dPolylineVertex
 10
147.54
 20
-6.045600000000008
 30
0.0
 70
    32
  0
VERTEX
  5
1CF9
330
1BEB
100
AcDbEntity
  8
241
  6
Continuous
100
AcDbVertex
100
AcDb3dPolylineVertex
 10
147.537
 20
-6.017799999999994
 30
0.0
 70
    32
  0
VERTEX
  5
1CFA
330
1BEB
100
AcDbEntity
  8
241
  6
Continuous
100
AcDbVertex
100
AcDb3dPolylineVertex
 10
147.535
 20
-5.990000000000008
 30
0.0
 70
    32
  0
VERTEX
  5
1CFB
330
1BEB
100
AcDbEntity
  8
241
  6
Continuous
100
AcDbVertex
100
AcDb3dPolylineVertex
 10
147.532
 20
-5.962189999999991
 30
0.0
 70
    32
  0
VERTEX
  5
1CFC
330
1BEB
100
AcDbEntity
  8
241
  6
Continuous
100
AcDbVertex
100
AcDb3dPolylineVertex
 10
147.53
 20
-5.934380000000003
 30
0.0
 70
    32
  0
VERTEX
  5
1CFD
330
1BEB
100
AcDbEntity
  8
241
  6
Continuous
100
AcDbVertex
100
AcDb3dPolylineVertex
 10
147.528
 20
-5.906579999999991
 30
0.0
 70
    32
  0
VERTEX
  5
1CFE
330
1BEB
100
AcDbEntity
  8
241
  6
Continuous
100
AcDbVertex
100
AcDb3dPolylineVertex
 10
147.526
 20
-5.878770000000002
 30
0.0
 70
    32
  0
VERTEX
  5
1CFF
330
1BEB
100
AcDbEntity
  8
241
  6
Continuous
100
AcDbVertex
100
AcDb3dPolylineVertex
 10
147.524
 20
-5.850950000000011
 30
0.0
 70
    32
  0
VERTEX
  5
1D00
330
1BEB
100
AcDbEntity
  8
241
  6
Continuous
100
AcDbVertex
100
AcDb3dPolylineVertex
 10
147.522
 20
-5.823139999999995
 30
0.0
 70
    32
  0
VERTEX
  5
1D01
330
1BEB
100
AcDbEntity
  8
241
  6
Continuous
100
AcDbVertex
100
AcDb3dPolylineVertex
 10
147.52
 20
-5.795330000000006
 30
0.0
 70
    32
  0
VERTEX
  5
1D02
330
1BEB
100
AcDbEntity
  8
241
  6
Continuous
100
AcDbVertex
100
AcDb3dPolylineVertex
 10
147.518
 20
-5.76751999999999
 30
0.0
 70
    32
  0
VERTEX
  5
1D03
330
1BEB
100
AcDbEntity
  8
241
  6
Continuous
100
AcDbVertex
100
AcDb3dPolylineVertex
 10
147.516
 20
-5.739699999999999
 30
0.0
 70
    32
  0
VERTEX
  5
1D04
330
1BEB
100
AcDbEntity
  8
241
  6
Continuous
100
AcDbVertex
100
AcDb3dPolylineVertex
 10
147.515
 20
-5.711890000000011
 30
0.0
 70
    32
  0
VERTEX
  5
1D05
330
1BEB
100
AcDbEntity
  8
241
  6
Continuous
100
AcDbVertex
100
AcDb3dPolylineVertex
 10
147.513
 20
-5.684069999999991
 30
0.0
 70
    32
  0
VERTEX
  5
1D06
330
1BEB
100
AcDbEntity
  8
241
  6
Continuous
100
AcDbVertex
100
AcDb3dPolylineVertex
 10
147.512
 20
-5.656260000000002
 30
0.0
 70
    32
  0
VERTEX
  5
1D07
330
1BEB
100
AcDbEntity
  8
241
  6
Continuous
100
AcDbVertex
100
AcDb3dPolylineVertex
 10
147.51
 20
-5.628440000000011
 30
0.0
 70
    32
  0
VERTEX
  5
1D08
330
1BEB
100
AcDbEntity
  8
241
  6
Continuous
100
AcDbVertex
100
AcDb3dPolylineVertex
 10
147.5089999999999
 20
-5.600619999999991
 30
0.0
 70
    32
  0
VERTEX
  5
1D09
330
1BEB
100
AcDbEntity
  8
241
  6
Continuous
100
AcDbVertex
100
AcDb3dPolylineVertex
 10
147.508
 20
-5.572810000000003
 30
0.0
 70
    32
  0
VERTEX
  5
1D0A
330
1BEB
100
AcDbEntity
  8
241
  6
Continuous
100
AcDbVertex
100
AcDb3dPolylineVertex
 10
147.507
 20
-5.544990000000011
 30
0.0
 70
    32
  0
VERTEX
  5
1D0B
330
1BEB
100
AcDbEntity
  8
241
  6
Continuous
100
AcDbVertex
100
AcDb3dPolylineVertex
 10
147.506
 20
-5.517179999999996
 30
0.0
 70
    32
  0
VERTEX
  5
1D0C
330
1BEB
100
AcDbEntity
  8
241
  6
Continuous
100
AcDbVertex
100
AcDb3dPolylineVertex
 10
147.505
 20
-5.489360000000004
 30
0.0
 70
    32
  0
VERTEX
  5
1D0D
330
1BEB
100
AcDbEntity
  8
241
  6
Continuous
100
AcDbVertex
100
AcDb3dPolylineVertex
 10
147.504
 20
-5.461549999999988
 30
0.0
 70
    32
  0
VERTEX
  5
1D0E
330
1BEB
100
AcDbEntity
  8
241
  6
Continuous
100
AcDbVertex
100
AcDb3dPolylineVertex
 10
147.503
 20
-5.433729999999997
 30
0.0
 70
    32
  0
VERTEX
  5
1D0F
330
1BEB
100
AcDbEntity
  8
241
  6
Continuous
100
AcDbVertex
100
AcDb3dPolylineVertex
 10
147.503
 20
-5.405920000000008
 30
0.0
 70
    32
  0
VERTEX
  5
1D10
330
1BEB
100
AcDbEntity
  8
241
  6
Continuous
100
AcDbVertex
100
AcDb3dPolylineVertex
 10
147.502
 20
-5.378109999999991
 30
0.0
 70
    32
  0
VERTEX
  5
1D11
330
1BEB
100
AcDbEntity
  8
241
  6
Continuous
100
AcDbVertex
100
AcDb3dPolylineVertex
 10
147.501
 20
-5.350300000000004
 30
0.0
 70
    32
  0
VERTEX
  5
1D12
330
1BEB
100
AcDbEntity
  8
241
  6
Continuous
100
AcDbVertex
100
AcDb3dPolylineVertex
 10
147.501
 20
-5.322489999999987
 30
0.0
 70
    32
  0
VERTEX
  5
1D13
330
1BEB
100
AcDbEntity
  8
241
  6
Continuous
100
AcDbVertex
100
AcDb3dPolylineVertex
 10
147.501
 20
-5.294679999999998
 30
0.0
 70
    32
  0
VERTEX
  5
1D14
330
1BEB
100
AcDbEntity
  8
241
  6
Continuous
100
AcDbVertex
100
AcDb3dPolylineVertex
 10
147.5
 20
-5.266870000000011
 30
0.0
 70
    32
  0
VERTEX
  5
1D15
330
1BEB
100
AcDbEntity
  8
241
  6
Continuous
100
AcDbVertex
100
AcDb3dPolylineVertex
 10
147.5
 20
-5.239069999999998
 30
0.0
 70
    32
  0
VERTEX
  5
1D16
330
1BEB
100
AcDbEntity
  8
241
  6
Continuous
100
AcDbVertex
100
AcDb3dPolylineVertex
 10
147.5
 20
-5.211260000000009
 30
0.0
 70
    32
  0
VERTEX
  5
1D17
330
1BEB
100
AcDbEntity
  8
241
  6
Continuous
100
AcDbVertex
100
AcDb3dPolylineVertex
 10
147.5
 20
-5.183459999999995
 30
0.0
 70
    32
  0
VERTEX
  5
1D18
330
1BEB
100
AcDbEntity
  8
241
  6
Continuous
100
AcDbVertex
100
AcDb3dPolylineVertex
 10
147.5
 20
-5.155660000000011
 30
0.0
 70
    32
  0
VERTEX
  5
1D19
330
1BEB
100
AcDbEntity
  8
241
  6
Continuous
100
AcDbVertex
100
AcDb3dPolylineVertex
 10
147.5
 20
-5.127859999999998
 30
0.0
 70
    32
  0
VERTEX
  5
1D1A
330
1BEB
100
AcDbEntity
  8
241
  6
Continuous
100
AcDbVertex
100
AcDb3dPolylineVertex
 10
147.5
 20
-5.100069999999988
 30
0.0
 70
    32
  0
VERTEX
  5
1D1B
330
1BEB
100
AcDbEntity
  8
241
  6
Continuous
100
AcDbVertex
100
AcDb3dPolylineVertex
 10
147.501
 20
-5.072270000000003
 30
0.0
 70
    32
  0
VERTEX
  5
1D1C
330
1BEB
100
AcDbEntity
  8
241
  6
Continuous
100
AcDbVertex
100
AcDb3dPolylineVertex
 10
147.501
 20
-5.044479999999992
 30
0.0
 70
    32
  0
VERTEX
  5
1D1D
330
1BEB
100
AcDbEntity
  8
241
  6
Continuous
100
AcDbVertex
100
AcDb3dPolylineVertex
 10
147.502
 20
-5.016690000000012
 30
0.0
 70
    32
  0
VERTEX
  5
1D1E
330
1BEB
100
AcDbEntity
  8
241
  6
Continuous
100
AcDbVertex
100
AcDb3dPolylineVertex
 10
147.502
 20
-4.988910000000004
 30
0.0
 70
    32
  0
VERTEX
  5
1D1F
330
1BEB
100
AcDbEntity
  8
241
  6
Continuous
100
AcDbVertex
100
AcDb3dPolylineVertex
 10
147.503
 20
-4.961119999999993
 30
0.0
 70
    32
  0
VERTEX
  5
1D20
330
1BEB
100
AcDbEntity
  8
241
  6
Continuous
100
AcDbVertex
100
AcDb3dPolylineVertex
 10
147.504
 20
-4.933339999999986
 30
0.0
 70
    32
  0
VERTEX
  5
1D21
330
1BEB
100
AcDbEntity
  8
241
  6
Continuous
100
AcDbVertex
100
AcDb3dPolylineVertex
 10
147.504
 20
-4.905560000000007
 30
0.0
 70
    32
  0
VERTEX
  5
1D22
330
1BEB
100
AcDbEntity
  8
241
  6
Continuous
100
AcDbVertex
100
AcDb3dPolylineVertex
 10
147.505
 20
-4.877790000000004
 30
0.0
 70
    32
  0
VERTEX
  5
1D23
330
1BEB
100
AcDbEntity
  8
241
  6
Continuous
100
AcDbVertex
100
AcDb3dPolylineVertex
 10
147.506
 20
-4.850019999999999
 30
0.0
 70
    32
  0
VERTEX
  5
1D24
330
1BEB
100
AcDbEntity
  8
241
  6
Continuous
100
AcDbVertex
100
AcDb3dPolylineVertex
 10
147.507
 20
-4.822249999999995
 30
0.0
 70
    32
  0
VERTEX
  5
1D25
330
1BEB
100
AcDbEntity
  8
241
  6
Continuous
100
AcDbVertex
100
AcDb3dPolylineVertex
 10
147.508
 20
-4.794489999999996
 30
0.0
 70
    32
  0
VERTEX
  5
1D26
330
1BEB
100
AcDbEntity
  8
241
  6
Continuous
100
AcDbVertex
100
AcDb3dPolylineVertex
 10
147.51
 20
-4.766729999999995
 30
0.0
 70
    32
  0
VERTEX
  5
1D27
330
1BEB
100
AcDbEntity
  8
241
  6
Continuous
100
AcDbVertex
100
AcDb3dPolylineVertex
 10
147.511
 20
-4.738969999999993
 30
0.0
 70
    32
  0
VERTEX
  5
1D28
330
1BEB
100
AcDbEntity
  8
241
  6
Continuous
100
AcDbVertex
100
AcDb3dPolylineVertex
 10
147.512
 20
-4.711209999999994
 30
0.0
 70
    32
  0
VERTEX
  5
1D29
330
1BEB
100
AcDbEntity
  8
241
  6
Continuous
100
AcDbVertex
100
AcDb3dPolylineVertex
 10
147.514
 20
-4.683469999999998
 30
0.0
 70
    32
  0
VERTEX
  5
1D2A
330
1BEB
100
AcDbEntity
  8
241
  6
Continuous
100
AcDbVertex
100
AcDb3dPolylineVertex
 10
147.515
 20
-4.655720000000001
 30
0.0
 70
    32
  0
VERTEX
  5
1D2B
330
1BEB
100
AcDbEntity
  8
241
  6
Continuous
100
AcDbVertex
100
AcDb3dPolylineVertex
 10
147.517
 20
-4.627980000000006
 30
0.0
 70
    32
  0
SEQEND
  5
1D2C
330
1BEB
100
AcDbEntity
  8
241
  6
Continuous
  0
LINE
  5
1D2D
330
156C
100
AcDbEntity
  8
240
  6
Continuous
100
AcDbLine
 10
0.0
 20
-31.5
 30
0.0
 11
0.0
 21
-21.63061199114219
 31
0.0
  0
LINE
  5
1D2E
330
156C
100
AcDbEntity
  8
240
  6
Continuous
100
AcDbLine
 10
-38.0
 20
20.68052849476302
 30
0.0
 11
-38.0
 21
-20.68052849476314
 31
0.0
  0
LINE
  5
1D2F
330
156C
100
AcDbEntity
  8
243
  6
HIDDEN2
100
AcDbLine
 10
-38.0
 20
3.594500000000009
 30
0.0
 11
-31.80000000000001
 21
3.594500000000009
 31
0.0
  0
LINE
  5
1D30
330
156C
100
AcDbEntity
  8
243
  6
HIDDEN2
100
AcDbLine
 10
-38.0
 20
-3.594500000000009
 30
0.0
 11
-31.80000000000001
 21
-3.594500000000009
 31
0.0
  0
LINE
  5
1D31
330
156C
100
AcDbEntity
  8
243
  6
HIDDEN2
100
AcDbLine
 10
-31.80000000000001
 20
3.594500000000009
 30
0.0
 11
-31.80000000000001
 21
-3.594500000000009
 31
0.0
  0
LINE
  5
1D32
330
156C
100
AcDbEntity
  8
241
  6
Continuous
100
AcDbLine
 10
22.0
 20
31.5
 30
0.0
 11
22.0
 21
-31.5
 31
0.0
  0
LINE
  5
1D33
330
156C
100
AcDbEntity
  8
240
  6
Continuous
100
AcDbLine
 10
0.0
 20
31.5
 30
0.0
 11
0.0
 21
21.63061199114185
 31
0.0
  0
LINE
  5
1D34
330
156C
100
AcDbEntity
  8
241
  6
Continuous
100
AcDbLine
 10
0.0
 20
21.63061199114185
 30
0.0
 11
0.0
 21
-21.63061199114219
 31
0.0
  0
LINE
  5
1D35
330
156C
100
AcDbEntity
  8
240
  6
Continuous
100
AcDbLine
 10
0.0
 20
-21.63061199114219
 30
0.0
 11
-38.0
 21
-20.68052849476311
 31
0.0
1001
GRPNAME
1000
PASTMD35
  0
LINE
  5
1D36
330
156C
100
AcDbEntity
  8
240
  6
Continuous
100
AcDbLine
 10
0.0
 20
21.63061199114185
 30
0.0
 11
-38.0
 21
20.68052849476302
 31
0.0
1001
GRPNAME
1000
PASTMD35
  0
LINE
  5
1D37
330
156C
100
AcDbEntity
  8
240
  6
Continuous
100
AcDbLine
 10
0.0
 20
31.5
 30
0.0
 11
23.93301270776024
 21
31.5
 31
0.0
  0
LINE
  5
1D38
330
156C
100
AcDbEntity
  8
241
  6
Continuous
100
AcDbLine
 10
9.949999999999986
 20
-8.992341421163473
 30
0.0
 11
9.949999999999986
 21
-30.18137425657125
 31
0.0
1001
GRPNAME
1000
PASTMD30
  0
LINE
  5
1D39
330
156C
100
AcDbEntity
  8
241
  6
Continuous
100
AcDbLine
 10
9.949999999999986
 20
-30.18137425657125
 30
0.0
 11
14.05000000000001
 21
-30.18137425657125
 31
0.0
1001
GRPNAME
1000
PASTMD30
  0
LINE
  5
1D3A
330
156C
100
AcDbEntity
  8
241
  6
Continuous
100
AcDbLine
 10
14.05000000000055
 20
-8.992341421163473
 30
0.0
 11
14.05000000000001
 21
-30.18137425657125
 31
0.0
1001
GRPNAME
1000
PASTMD30
  0
LINE
  5
1D3B
330
156C
100
AcDbEntity
  8
241
  6
Continuous
100
AcDbLine
 10
9.949999999999986
 20
-8.992341421163473
 30
0.0
 11
14.05000000000055
 21
-8.992341421163473
 31
0.0
1001
GRPNAME
1000
PASTMD30
  0
ARC
  5
1D3C
330
156C
100
AcDbEntity
  8
241
  6
Continuous
100
AcDbCircle
 10
-16.22882725694342
 20
-19.58685783886659
 30
0.0
 40
32.07882725694369
100
AcDbArc
 50
340.715134509019
 51
19.2848654909792
  0
ARC
  5
1D3D
330
156C
100
AcDbEntity
  8
241
  6
Continuous
100
AcDbCircle
 10
40.22882725694372
 20
-19.58685783886736
 30
0.0
 40
32.07882725694374
100
AcDbArc
 50
160.715134509019
 51
199.2848654909809
  0
LINE
  5
1D3E
330
156C
100
AcDbEntity
  8
241
  6
Continuous
100
AcDbLine
 10
9.949999999999986
 20
8.992341421163473
 30
0.0
 11
9.949999999999986
 21
30.18137425657125
 31
0.0
1001
GRPNAME
1000
PASTMD30
  0
LINE
  5
1D3F
330
156C
100
AcDbEntity
  8
241
  6
Continuous
100
AcDbLine
 10
9.949999999999986
 20
30.18137425657125
 30
0.0
 11
14.05000000000001
 21
30.18137425657125
 31
0.0
1001
GRPNAME
1000
PASTMD30
  0
LINE
  5
1D40
330
156C
100
AcDbEntity
  8
241
  6
Continuous
100
AcDbLine
 10
14.05000000000055
 20
8.992341421163473
 30
0.0
 11
14.05000000000001
 21
30.18137425657125
 31
0.0
1001
GRPNAME
1000
PASTMD30
  0
LINE
  5
1D41
330
156C
100
AcDbEntity
  8
241
  6
Continuous
100
AcDbLine
 10
9.949999999999986
 20
8.992341421163473
 30
0.0
 11
14.05000000000055
 21
8.992341421163473
 31
0.0
1001
GRPNAME
1000
PASTMD30
  0
ARC
  5
1D42
330
156C
100
AcDbEntity
  8
241
  6
Continuous
100
AcDbCircle
 10
-16.22882725694342
 20
19.58685783886659
 30
0.0
 40
32.07882725694369
100
AcDbArc
 50
340.7151345090208
 51
19.28486549098092
  0
ARC
  5
1D43
330
156C
100
AcDbEntity
  8
241
  6
Continuous
100
AcDbCircle
 10
40.22882725694372
 20
19.58685783886736
 30
0.0
 40
32.07882725694374
100
AcDbArc
 50
160.715134509019
 51
199.2848654909809
  0
ARC
  5
1D44
330
156C
100
AcDbEntity
  8
243
  6
HIDDEN2
100
AcDbCircle
 10
-34.18660144659555
 20
0.0
 30
0.0
 40
4.314660672045017
100
AcDbArc
 50
303.5825392047218
 51
56.41746079527819
  0
LINE
  5
1D45
330
156C
100
AcDbEntity
  8
242
  6
PHANTOM2
100
AcDbLine
 10
34.99999999999579
 20
39.99999999999966
 30
0.0
 11
95.99999982260442
 21
39.99999999999966
 31
0.0
  0
ARC
  5
1D46
330
156C
100
AcDbEntity
  8
242
  6
PHANTOM2
100
AcDbCircle
 10
95.99999982260442
 20
35.99999999999966
 30
0.0
 40
4.0
100
AcDbArc
 50
0.0
 51
90.00000000000005
  0
ARC
  5
1D47
330
156C
100
AcDbEntity
  8
242
  6
PHANTOM2
100
AcDbCircle
 10
34.99999999999579
 20
37.99999999999972
 30
0.0
 40
2.0
100
AcDbArc
 50
90.00000000000005
 51
180.0
  0
LINE
  5
1D48
330
156C
100
AcDbEntity
  8
242
  6
PHANTOM2
100
AcDbLine
 10
33.0064984481719
 20
36.23547843512944
 30
0.0
 11
33.00649844817178
 21
37.90180316075282
 31
0.0
  0
LINE
  5
1D49
330
156C
100
AcDbEntity
  8
242
  6
PHANTOM2
100
AcDbLine
 10
34.99999999999579
 20
-39.99999999999966
 30
0.0
 11
95.99999982260442
 21
-39.99999999999966
 31
0.0
  0
ARC
  5
1D4A
330
156C
100
AcDbEntity
  8
242
  6
PHANTOM2
100
AcDbCircle
 10
95.99999982260442
 20
-35.99999999999966
 30
0.0
 40
4.0
100
AcDbArc
 50
270.0
 51
0.0
  0
ARC
  5
1D4B
330
156C
100
AcDbEntity
  8
242
  6
PHANTOM2
100
AcDbCircle
 10
34.99999999999579
 20
-37.99999999999972
 30
0.0
 40
2.0
100
AcDbArc
 50
180.0
 51
270.0
  0
LINE
  5
1D4C
330
156C
100
AcDbEntity
  8
242
  6
PHANTOM2
100
AcDbLine
 10
33.0064984481719
 20
-36.23547843512944
 30
0.0
 11
33.00649844817178
 21
-37.90180316075282
 31
0.0
  0
ARC
  5
1D4D
330
156C
100
AcDbEntity
  8
240
  6
Continuous
100
AcDbCircle
 10
168.0
 20
0.0035268000000031
 30
0.0
 40
31.5
100
AcDbArc
 50
90.00000000000005
 51
270.0
  0
TEXT
  5
1D4E
330
156C
100
AcDbEntity
  8
241
  6
Continuous
100
AcDbText
 10
-38.0
 20
70.0
 30
0.0
 40
5.0
  1
C6-180-BH20L-32100
  7
YOKO
 11
-38.0
 21
70.0
 31
0.0
100
AcDbText
 73
     1
  0
LINE
  5
1D4F
330
156C
100
AcDbEntity
  8
250
  6
Continuous
100
AcDbLine
 10
-18.78586727632071
 20
-22.94225232523718
 30
0.0
 11
-17.34899450124752
 21
-21.19684900813124
 31
0.0
  0
LINE
  5
1D50
330
156C
100
AcDbEntity
  8
250
  6
Continuous
100
AcDbLine
 10
-18.14212172617428
 20
-23.31391899190386
 30
0.0
 11
-17.34899450124752
 21
-21.19684900813124
 31
0.0
  0
LINE
  5
1D51
330
156C
100
AcDbEntity
  8
250
  6
Continuous
100
AcDbLine
 10
-17.34899450124752
 20
-21.19684900813124
 30
0.0
 11
-18.46399450124753
 21
-23.12808565857054
 31
0.0
  0
LWPOLYLINE
  5
1D52
330
156C
100
AcDbEntity
  8
250
  6
Continuous
100
AcDbPolyline
 90
        2
 70
     0
 43
0.0
 10
-18.46399450124753
 20
-23.12808565857054
 10
-23.84889586488546
 20
-32.45500841413838
  0
TEXT
  5
1D53
330
156C
100
AcDbEntity
  8
250
  6
Continuous
100
AcDbText
 10
-31.71556253155214
 20
-31.45500841413838
 30
0.0
 40
2.799999999999998
  1
C6
  7
YOKO
100
AcDbText
1001
ITEMNAME
1000
LNSP3
  0
LINE
  5
1D54
330
156C
100
AcDbEntity
  8
250
  6
Continuous
100
AcDbLine
 10
-23.84889586488546
 20
-32.45500841413838
 30
0.0
 11
-34.11556253155211
 21
-32.45500841413838
 31
0.0
1001
ITEMNAME
1000
LNSP2
  0
LINE
  5
1D55
330
156C
100
AcDbEntity
  8
247
  6
Continuous
100
AcDbLine
 10
6.0
 20
-17.25000000007
 30
0.0
 11
6.0
 21
-10.55769230803
 31
0.0
  0
ARC
  5
1D56
330
156C
100
AcDbEntity
  8
247
  6
Continuous
100
AcDbCircle
 10
4.250000000069973
 20
-17.25000000007
 30
0.0
 40
1.749999999929999
100
AcDbArc
 50
180.0
 51
0.0
  0
ARC
  5
1D57
330
156C
100
AcDbEntity
  8
247
  6
Continuous
100
AcDbCircle
 10
4.250000000069973
 20
-10.55769230803
 30
0.0
 40
1.749999999929999
100
AcDbArc
 50
0.0
 51
180.0
  0
LINE
  5
1D58
330
156C
100
AcDbEntity
  8
247
  6
Continuous
100
AcDbLine
 10
2.500000000140004
 20
-16.38461538472
 30
0.0
 11
5.500000000020007
 21
-17.24485154196202
 31
0.0
  0
LINE
  5
1D59
330
156C
100
AcDbEntity
  8
247
  6
Continuous
100
AcDbLine
 10
3.923076923160008
 20
-15.48498381833582
 30
0.0
 11
3.923076923160008
 21
-16.79267612597582
 31
0.0
  0
ARC
  5
1D5A
330
156C
100
AcDbEntity
  8
247
  6
Continuous
100
AcDbCircle
 10
3.04959866770298
 20
-15.14514381608978
 30
0.0
 40
0.5538165441895348
100
AcDbArc
 50
72.99788967529164
 51
172.9241662185103
  0
ARC
  5
1D5B
330
156C
100
AcDbEntity
  8
247
  6
Continuous
100
AcDbCircle
 10
2.936033044465773
 20
-15.56687832302879
 30
0.0
 40
0.9904354236226808
100
AcDbArc
 50
4.742936852202213
 51
73.84922627326637
1001
GENIUS_GENOBJ-N-FIL_13
1002
{
1000
OWNER
1000
GEN
1002
}
1001
GENIUS_GENODEF_13
1002
{
1000
HIER
1070
     0
1002
}
1002
{
1000
MANEDIT
1070
     0
1002
}
1002
{
1000
NOSEL
1070
     0
1002
}
1002
{
1000
BEHIND
1070
     0
1002
}
1002
{
1000
OTHER
1070
     0
1002
}
1002
{
1000
REACTOR
1002
}
  0
LINE
  5
1D5C
330
156C
100
AcDbEntity
  8
247
  6
Continuous
100
AcDbLine
 10
5.500000000020007
 20
-15.93715923432199
 30
0.0
 11
5.500000000020007
 21
-17.24485154196202
 31
0.0
  0
LINE
  5
1D5D
330
156C
100
AcDbEntity
  8
247
  6
Continuous
100
AcDbLine
 10
2.500000000140004
 20
-16.38461538472
 30
0.0
 11
2.500000000140004
 21
-15.07692307707998
 31
0.0
  0
ARC
  5
1D5E
330
156C
100
AcDbEntity
  8
247
  6
Continuous
100
AcDbCircle
 10
4.482024232665533
 20
-15.56091963654697
 30
0.0
 40
0.5640818586791229
100
AcDbArc
 50
65.99094165252903
 51
172.263443459069
  0
ARC
  5
1D5F
330
156C
100
AcDbEntity
  8
247
  6
Continuous
100
AcDbCircle
 10
4.487429039186563
 20
-16.03826268534706
 30
0.0
 40
1.017605944623098
100
AcDbArc
 50
5.701985164259776
 51
77.27733843682243
1001
GENIUS_GENOBJ-N-FIL_13
1002
{
1000
OWNER
1000
GEN
1002
}
1001
GENIUS_GENODEF_13
1002
{
1000
HIER
1070
     0
1002
}
1002
{
1000
MANEDIT
1070
     0
1002
}
1002
{
1000
NOSEL
1070
     0
1002
}
1002
{
1000
BEHIND
1070
     0
1002
}
1002
{
1000
OTHER
1070
     0
1002
}
1002
{
1000
REACTOR
1002
}
  0
LINE
  5
1D60
330
156C
100
AcDbEntity
  8
247
  6
Continuous
100
AcDbLine
 10
5.500000000020007
 20
-14.283313080542
 30
0.0
 11
2.500000000140004
 21
-13.42307692330001
 31
0.0
  0
LINE
  5
1D61
330
156C
100
AcDbEntity
  8
247
  6
Continuous
100
AcDbLine
 10
2.500000000140004
 20
-11.00000000032
 30
0.0
 11
2.500000000140004
 21
-11.5657366194566
 31
0.0
  0
LINE
  5
1D62
330
156C
100
AcDbEntity
  8
247
  6
Continuous
100
AcDbLine
 10
5.500000000020007
 20
-12.46153846179999
 30
0.0
 11
5.500000000020007
 21
-11.84615384644001
 31
0.0
  0
ARC
  5
1D63
330
156C
100
AcDbEntity
  8
247
  6
Continuous
100
AcDbCircle
 10
4.583285135973366
 20
-10.70879120912286
 30
0.0
 40
2.252650082342211
100
AcDbArc
 50
202.3594881415258
 51
254.9932485428464
  0
ARC
  5
1D64
330
156C
100
AcDbEntity
  8
247
  6
Continuous
100
AcDbCircle
 10
3.308312655194526
 20
-11.37406947921323
 30
0.0
 40
0.8906723995727782
100
AcDbArc
 50
94.99458931907513
 51
155.166328957304
1001
GENIUS_GENOBJ-N-FIL_13
1002
{
1000
OWNER
1000
GEN
1002
}
1001
GENIUS_GENODEF_13
1002
{
1000
HIER
1070
     0
1002
}
1002
{
1000
MANEDIT
1070
     0
1002
}
1002
{
1000
NOSEL
1070
     0
1002
}
1002
{
1000
BEHIND
1070
     0
1002
}
1002
{
1000
OTHER
1070
     0
1002
}
1002
{
1000
REACTOR
1002
}
  0
ARC
  5
1D65
330
156C
100
AcDbEntity
  8
247
  6
Continuous
100
AcDbCircle
 10
4.160145888667782
 20
-12.22645888621258
 30
0.0
 40
1.392781735586712
100
AcDbArc
 50
15.8460965557807
 51
82.32513700416919
  0
ARC
  5
1D66
330
156C
100
AcDbEntity
  8
247
  6
Continuous
100
AcDbCircle
 10
4.459243431527283
 20
-11.64221272584035
 30
0.0
 40
1.324563662670287
100
AcDbArc
 50
249.7136016704966
 51
321.7887456564108
1001
GENIUS_GENOBJ-N-FIL_13
1002
{
1000
OWNER
1000
GEN
1002
}
1001
GENIUS_GENODEF_13
1002
{
1000
HIER
1070
     0
1002
}
1002
{
1000
MANEDIT
1070
     0
1002
}
1002
{
1000
NOSEL
1070
     0
1002
}
1002
{
1000
BEHIND
1070
     0
1002
}
1002
{
1000
OTHER
1070
     0
1002
}
1002
{
1000
REACTOR
1002
}
  0
LINE
  5
1D67
330
156C
100
AcDbEntity
  8
247
  6
Continuous
100
AcDbLine
 10
4.346153846219976
 20
-11.53846153876
 30
0.0
 11
4.346153846219976
 21
-10.84615384648
 31
0.0
  0
LINE
  5
1D68
330
156C
100
AcDbEntity
  8
247
  6
Continuous
100
AcDbLine
 10
2.500000000139976
 20
-17.25000000007
 30
0.0
 11
2.500000000139976
 21
-16.57692307702001
 31
0.0
  0
LINE
  5
1D69
330
156C
100
AcDbEntity
  8
250
  6
Continuous
370
    -3
100
AcDbLine
 10
0.0
 20
32.0
 30
0.0
 11
0.0000000000000011
 21
57.0
 31
0.0
  0
LINE
  5
1D6A
330
156C
100
AcDbEntity
  8
250
  6
Continuous
370
    -3
100
AcDbLine
 10
100.0
 20
8.18629150000001
 30
0.0
 11
100.0
 21
57.0
 31
0.0
  0
LINE
  5
1D6B
330
156C
100
AcDbEntity
  8
250
  6
Continuous
370
    -3
100
AcDbLine
 10
2.0
 20
56.0
 30
0.0
 11
98.0
 21
56.0
 31
0.0
  0
INSERT
  5
1D6C
330
156C
100
AcDbEntity
  8
250
  6
Continuous
370
    -3
100
AcDbBlockReference
  2
_OPEN
 10
0.0000000000000011
 20
56.0
 30
0.0
 41
2.0
 42
2.0
 43
2.0
 50
180.0
  0
INSERT
  5
1D6D
330
156C
100
AcDbEntity
  8
250
  6
Continuous
370
    -3
100
AcDbBlockReference
  2
_OPEN
 10
100.0
 20
56.0
 30
0.0
 41
2.0
 42
2.0
 43
2.0
  0
MTEXT
  5
1D6E
330
156C
100
AcDbEntity
  8
250
  6
Continuous
370
    -3
100
AcDbMText
 10
50.0
 20
58.39999999999999
 30
0.0
 40
2.799999999999998
 41
0.0
 71
     5
 72
     1
  1
\A1;100
 73
     1
 44
1.0
1001
ACAD
1000
MTEXTBEGIN
1070
    73
1070
     1
1070
    44
1040
1.0
1070
    74
1070
     0
1000
MTEXTEND
  0
LINE
  5
1D6F
330
156C
100
AcDbEntity
  8
250
  6
Continuous
370
    -3
100
AcDbLine
 10
168.0
 20
-42.49304489999999
 30
0.0
 11
168.0
 21
-50.0
 31
0.0
  0
LINE
  5
1D70
330
156C
100
AcDbEntity
  8
250
  6
Continuous
370
    -3
100
AcDbLine
 10
188.0
 20
-31.90827138
 30
0.0
 11
188.0
 21
-50.0
 31
0.0
  0
LINE
  5
1D71
330
156C
100
AcDbEntity
  8
250
  6
Continuous
370
    -3
100
AcDbLine
 10
170.0
 20
-49.0
 30
0.0
 11
186.0
 21
-49.0
 31
0.0
  0
INSERT
  5
1D72
330
156C
100
AcDbEntity
  8
250
  6
Continuous
370
    -3
100
AcDbBlockReference
  2
_OPEN
 10
168.0
 20
-49.0
 30
0.0
 41
2.0
 42
2.0
 43
2.0
 50
180.0
  0
INSERT
  5
1D73
330
156C
100
AcDbEntity
  8
250
  6
Continuous
370
    -3
100
AcDbBlockReference
  2
_OPEN
 10
188.0
 20
-49.0
 30
0.0
 41
2.0
 42
2.0
 43
2.0
  0
MTEXT
  5
1D74
330
156C
100
AcDbEntity
  8
250
  6
Continuous
370
    -3
100
AcDbMText
 10
178.0
 20
-46.59999999999999
 30
0.0
 40
2.799999999999998
 41
0.0
 71
     5
 72
     1
  1
\A1;□20
 73
     1
 44
1.0
1001
ACAD
1000
MTEXTBEGIN
1070
    73
1070
     1
1070
    44
1040
1.0
1070
    74
1070
     0
1000
MTEXTEND
  0
LINE
  5
1D75
330
156C
100
AcDbEntity
  8
250
  6
Continuous
370
    -3
100
AcDbLine
 10
136.0622664850422
 20
-20.58916461375276
 30
0.0
 11
199.9308771949575
 21
20.60307453375276
 31
0.0
  0
INSERT
  5
1D76
330
156C
100
AcDbEntity
  8
250
  6
Continuous
370
    -3
100
AcDbBlockReference
  2
_OPEN
 10
134.3815135716234
 20
-21.67317090710816
 30
0.0
 41
2.0
 42
2.0
 43
2.0
 50
212.8201061069622
  0
INSERT
  5
1D77
330
156C
100
AcDbEntity
  8
250
  6
Continuous
370
    -3
100
AcDbBlockReference
  2
_OPEN
 10
201.6116301083763
 20
21.68708082710822
 30
0.0
 41
2.0
 42
2.0
 43
2.0
 50
32.82010610696217
  0
MTEXT
  5
1D78
330
156C
100
AcDbEntity
  8
250
  6
Continuous
370
    -3
100
AcDbMText
 10
177.7715337084559
 20
9.167206927910143
 30
0.0
 40
2.799999999999998
 41
0.0
 71
     5
 72
     1
  1
\A1;（\U+03C680）
 11
0.8403764567094121
 21
0.5420031466777051
 31
0.0
 73
     1
 44
1.0
1001
ACAD
1000
MTEXTBEGIN
1070
    73
1070
     1
1070
    44
1040
1.0
1070
    74
1070
     0
1000
MTEXTEND
  0
LINE
  5
1D79
330
156C
100
AcDbEntity
  8
250
  6
Continuous
370
    -3
100
AcDbLine
 10
100.5
 20
-31.5
 30
0.0
 11
113.0
 21
-31.5
 31
0.0
  0
LINE
  5
1D7A
330
156C
100
AcDbEntity
  8
250
  6
Continuous
370
    -3
100
AcDbLine
 10
101.43301271
 20
0.0
 30
0.0
 11
113.0
 21
0.0
 31
0.0
  0
LINE
  5
1D7B
330
156C
100
AcDbEntity
  8
250
  6
Continuous
370
    -3
100
AcDbLine
 10
112.0
 20
-29.5
 30
0.0
 11
112.0
 21
-2.0
 31
0.0
  0
LINE
  5
1D7C
330
156C
100
AcDbEntity
  8
250
  6
Continuous
100
AcDbLine
 10
112.33333334
 20
-29.5
 30
0.0
 11
112.0
 21
-31.5
 31
0.0
  0
LINE
  5
1D7D
330
156C
100
AcDbEntity
  8
250
  6
Continuous
100
AcDbLine
 10
111.66666666
 20
-29.5
 30
0.0
 11
112.0
 21
-31.5
 31
0.0
  0
LINE
  5
1D7E
330
156C
100
AcDbEntity
  8
250
  6
Continuous
100
AcDbLine
 10
112.0
 20
-31.5
 30
0.0
 11
112.0
 21
-29.5
 31
0.0
  0
LINE
  5
1D7F
330
156C
100
AcDbEntity
  8
250
  6
Continuous
100
AcDbLine
 10
111.66666666
 20
-2.0
 30
0.0
 11
112.0
 21
0.0
 31
0.0
  0
LINE
  5
1D80
330
156C
100
AcDbEntity
  8
250
  6
Continuous
100
AcDbLine
 10
112.33333334
 20
-2.0
 30
0.0
 11
112.0
 21
0.0
 31
0.0
  0
LINE
  5
1D81
330
156C
100
AcDbEntity
  8
250
  6
Continuous
100
AcDbLine
 10
112.0
 20
0.0
 30
0.0
 11
112.0
 21
-2.0
 31
0.0
  0
TEXT
  5
1D82
330
156C
100
AcDbEntity
  8
250
  6
Continuous
100
AcDbText
 10
111.0
 20
-20.41666666666666
 30
0.0
 40
2.799999999999998
  1
31.5
 50
90.0
100
AcDbText
  0
VIEWPORT
  5
22
102
{ACAD_XDICTIONARY
360
1E34
102
}
330
1568
100
AcDbEntity
 67
     1
  8
0
100
AcDbViewport
 10
261.51769912
 20
148.5
 30
0.0
 40
523.03539823
 41
297.0
 68
     1
 69
     1
 12
261.51769912
 22
148.5
 13
0.0
 23
0.0
 14
1.0
 24
1.0
 15
10.0
 25
10.0
 16
0.0
 26
0.0
 36
1.0
 17
0.0
 27
0.0
 37
0.0
 42
50.0
 43
0.0
 44
0.0
 45
297.0
 50
0.0
 51
0.0
 72
   100
 90
    32800
  1

281
     0
 71
     0
 74
     0
110
0.0
120
0.0
130
0.0
111
1.0
121
0.0
131
0.0
112
0.0
122
1.0
132
0.0
 79
     0
146
0.0
1001
GENIUS_GENOBJ-N-SDF_13
1002
{
1000
OWNER
1000
GEN
1002
}
1001
GENIUS_GENODEF_13
1002
{
1000
HIER
1070
     0
1002
}
1002
{
1000
MANEDIT
1070
     0
1002
}
1002
{
1000
NOSEL
1070
     0
1002
}
1002
{
1000
BEHIND
1070
     0
1002
}
1002
{
1000
OTHER
1070
     0
1002
}
1002
{
1000
REACTOR
1002
}
1001
GENIUS_GENSCREG_15
1000
PF
1040
1.0
1000
DF
1040
1.0
1000
MIN
1011
0.0000000049999471
1021
0.0
1031
0.0
1000
MAX
1011
523.035398235
1021
297.0
1031
0.0
1000
FLAGS
1070
     4
  0
ENDSEC
  0
SECTION
  2
OBJECTS
  0
DICTIONARY
  5
1509
330
0
100
AcDbDictionary
281
     1
  3
ACAD_CIP_PREVIOUS_PRODUCT_INFO
350
15B8
  3
ACAD_COLOR
350
155F
  3
ACAD_DETAILVIEWSTYLE
350
1566
  3
ACAD_GROUP
350
150A
  3
ACAD_LAYOUT
350
155E
  3
ACAD_MATERIAL
350
150D
  3
ACAD_MLEADERSTYLE
350
1562
  3
ACAD_MLINESTYLE
350
155B
  3
ACAD_PLOTSETTINGS
350
155D
  3
ACAD_PLOTSTYLENAME
350
150B
  3
ACAD_SCALELIST
350
153F
  3
ACAD_SECTIONVIEWSTYLE
350
1564
  3
ACAD_TABLESTYLE
350
1560
  3
ACAD_VISUALSTYLE
350
1526
  3
ACDB_RECOMPOSE_DATA
350
1E32
  3
AcDbVariableDictionary
350
1D91
  3
DWGPROPS
350
1E33
  0
DICTIONARY
  5
15CD
330
14FF
100
AcDbDictionary
280
     1
281
     1
  3
ACAD_LAYERSTATES
360
15CE
  0
DICTIONARY
  5
1D83
330
1551
100
AcDbDictionary
280
     1
281
     1
  3
ADSK_XREC_LAYER_RECONCILED
360
1D84
  0
DICTIONARY
  5
1D85
330
1570
100
AcDbDictionary
280
     1
281
     1
  3
ADSK_XREC_LAYER_RECONCILED
360
1D86
  0
DICTIONARY
  5
1D87
330
1580
100
AcDbDictionary
280
     1
281
     1
  3
ADSK_XREC_LAYER_RECONCILED
360
1D88
  0
DICTIONARY
  5
1D89
330
1581
100
AcDbDictionary
280
     1
281
     1
  3
ADSK_XREC_LAYER_RECONCILED
360
1D8A
  0
DICTIONARY
  5
1D8B
330
1582
100
AcDbDictionary
280
     1
281
     1
  3
ADSK_XREC_LAYER_RECONCILED
360
1D8C
  0
DICTIONARY
  5
1D8D
330
1584
100
AcDbDictionary
280
     1
281
     1
  3
ADSK_XREC_LAYER_RECONCILED
360
1D8E
  0
DICTIONARY
  5
15C9
330
15C8
100
AcDbDictionary
280
     1
281
     1
  3
ADSK_XREC_LAYER_RECONCILED
360
1D8F
  0
DICTIONARY
  5
15CB
330
15CA
100
AcDbDictionary
280
     1
281
     1
  3
ADSK_XREC_LAYER_RECONCILED
360
1D90
  0
DICTIONARY
  5
1E34
330
22
100
AcDbDictionary
280
     1
281
     1
  3
ACAD_XREC_ROUNDTRIP
360
1E35
  0
XRECORD
  5
15B8
102
{ACAD_REACTORS
330
1509
102
}
330
1509
100
AcDbXrecord
280
     1
300
ACD
300
2014
300
ACD_F_S
  0
DICTIONARY
  5
155F
102
{ACAD_REACTORS
330
1509
102
}
330
1509
100
AcDbDictionary
281
     1
  0
DICTIONARY
  5
1566
102
{ACAD_REACTORS
330
1509
102
}
330
1509
100
AcDbDictionary
281
     1
  3
Imperial24
350
1567
  0
DICTIONARY
  5
150A
102
{ACAD_REACTORS
330
1509
102
}
330
1509
100
AcDbDictionary
281
     1
  0
DICTIONARY
  5
155E
102
{ACAD_REACTORS
330
1509
102
}
330
1509
100
AcDbDictionary
281
     1
  3
Model
350
156F
  3
レイアウト1
350
156B
  0
DICTIONARY
  5
150D
102
{ACAD_REACTORS
330
1509
102
}
330
1509
100
AcDbDictionary
281
     1
  3
ByBlock
350
1516
  3
ByLayer
350
150E
  3
Global
350
151E
  0
DICTIONARY
  5
1562
102
{ACAD_REACTORS
330
1509
102
}
330
1509
100
AcDbDictionary
281
     1
  3
Standard
350
1563
  0
DICTIONARY
  5
155B
102
{ACAD_REACTORS
330
1509
102
}
330
1509
100
AcDbDictionary
281
     1
  3
Standard
350
155C
  0
DICTIONARY
  5
155D
102
{ACAD_REACTORS
330
1509
102
}
330
1509
100
AcDbDictionary
281
     1
  0
ACDBDICTIONARYWDFLT
  5
150B
102
{ACAD_REACTORS
330
1509
102
}
330
1509
100
AcDbDictionary
281
     1
  3
Normal
350
150C
100
AcDbDictionaryWithDefault
340
150C
  0
DICTIONARY
  5
153F
102
{ACAD_REACTORS
330
1509
102
}
330
1509
100
AcDbDictionary
281
     1
  3
A0
350
1540
  3
A1
350
1541
  3
A2
350
1542
  3
A3
350
1543
  3
A4
350
1544
  3
A5
350
1545
  3
A6
350
1546
  3
A7
350
1547
  3
A8
350
1548
  3
A9
350
1549
  3
B0
350
154A
  3
B1
350
154B
  3
B2
350
154C
  3
B3
350
154D
  3
B4
350
154E
  3
B5
350
154F
  3
B6
350
1550
  0
DICTIONARY
  5
1564
102
{ACAD_REACTORS
330
1509
102
}
330
1509
100
AcDbDictionary
281
     1
  3
Imperial24
350
1565
  0
DICTIONARY
  5
1560
102
{ACAD_REACTORS
330
1509
102
}
330
1509
100
AcDbDictionary
281
     1
  3
Standard
350
1561
  0
DICTIONARY
  5
1526
102
{ACAD_REACTORS
330
1509
102
}
330
1509
100
AcDbDictionary
281
     1
  3
2dWireframe
350
152C
  3
Basic
350
152B
  3
Brighten
350
1532
  3
ColorChange
350
1536
  3
Conceptual
350
152F
  3
Dim
350
1531
  3
EdgeColorOff
350
153E
  3
Facepattern
350
1535
  3
Flat
350
1527
  3
FlatWithEdges
350
1528
  3
Gouraud
350
1529
  3
GouraudWithEdges
350
152A
  3
Hidden
350
152E
  3
JitterOff
350
153C
  3
Linepattern
350
1534
  3
OverhangOff
350
153D
  3
Realistic
350
1530
  3
Shaded
350
153B
  3
Shaded with edges
350
153A
  3
Shades of Gray
350
1537
  3
Sketchy
350
1538
  3
Thicken
350
1533
  3
Wireframe
350
152D
  3
X-Ray
350
1539
  0
XRECORD
  5
1E32
102
{ACAD_REACTORS
330
1509
102
}
330
1509
100
AcDbXrecord
280
     1
 90
        1
330
1561
  0
DICTIONARY
  5
1D91
102
{ACAD_REACTORS
330
1509
102
}
330
1509
100
AcDbDictionary
281
     1
  3
CANNOSCALE
350
1D96
  3
CMLEADERSTYLE
350
1D93
  3
CTABLESTYLE
350
1D92
  3
CVIEWDETAILSTYLE
350
1D94
  3
CVIEWSECTIONSTYLE
350
1D95
  3
DIMASSOC
350
1D99
  3
INDEXCTL
350
1D98
  3
SORTENTS
350
1D97
  3
XCLIPFRAME
350
1E30
  0
XRECORD
  5
1E33
102
{ACAD_REACTORS
330
1509
102
}
330
1509
100
AcDbXrecord
280
     1
  1
DWGPROPS COOKIE
  2

  3

  4

  6

  7

  8
AWTEC
  9

300
=
301
=
302
=
303
=
304
=
305
=
306
=
307
=
308
=
309
=
 40
0.0301942476851852
 41
2455106.585659179
 42
2457869.580722639
  1

 90
        0
  0
DICTIONARY
  5
15CE
102
{ACAD_REACTORS
330
15CD
102
}
330
15CD
100
AcDbDictionary
281
     1
  0
XRECORD
  5
1D84
102
{ACAD_REACTORS
330
1D83
102
}
330
1D83
100
AcDbXrecord
280
     1
290
     1
  0
XRECORD
  5
1D86
102
{ACAD_REACTORS
330
1D85
102
}
330
1D85
100
AcDbXrecord
280
     1
290
     1
  0
XRECORD
  5
1D88
102
{ACAD_REACTORS
330
1D87
102
}
330
1D87
100
AcDbXrecord
280
     1
290
     1
  0
XRECORD
  5
1D8A
102
{ACAD_REACTORS
330
1D89
102
}
330
1D89
100
AcDbXrecord
280
     1
290
     1
  0
XRECORD
  5
1D8C
102
{ACAD_REACTORS
330
1D8B
102
}
330
1D8B
100
AcDbXrecord
280
     1
290
     1
  0
XRECORD
  5
1D8E
102
{ACAD_REACTORS
330
1D8D
102
}
330
1D8D
100
AcDbXrecord
280
     1
290
     1
  0
XRECORD
  5
1D8F
102
{ACAD_REACTORS
330
15C9
102
}
330
15C9
100
AcDbXrecord
280
     1
290
     1
  0
XRECORD
  5
1D90
102
{ACAD_REACTORS
330
15CB
102
}
330
15CB
100
AcDbXrecord
280
     1
290
     1
  0
XRECORD
  5
1E35
102
{ACAD_REACTORS
330
1E34
102
}
330
1E34
100
AcDbXrecord
280
     1
102
SHADEPLOT
 70
     0
  0
ACDBDETAILVIEWSTYLE
  5
1567
102
{ACAD_XDICTIONARY
360
1E69
102
}
102
{ACAD_REACTORS
330
1566
102
}
330
1566
100
AcDbModelDocViewStyle
 70
     0
  3
Imperial24
290
     0
100
AcDbDetailViewStyle
 70
     0
 71
     0
 90
        3
 71
     1
340
1552
 40
0.24
340
0
 40
0.24
300

 40
0.36
280
     3
 71
     2
340
1559
 90
       25
 71
     3
340
1552
 40
0.24
 90
        1
 40
0.75
 90
        1
300
%<\AcVar ViewType \f "%tc1">% %<\AcVar ViewDetailId>%\PSCALE %<\AcVar ViewScale \f "%sn">%
 71
     4
340
1559
 90
       25
340
1559
 90
       25
280
     0
  0
LAYOUT
  5
156F
102
{ACAD_XDICTIONARY
360
1E6D
102
}
102
{ACAD_REACTORS
330
155E
102
}
330
155E
100
AcDbPlotSettings
  1

  2
Canon LBP5610
  4
A4
  6

 40
5.789083003997802
 41
5.7890625
 42
5.789077758789062
 43
5.789093017578125
 44
209.9733276367186
 45
296.9259948730469
 46
27.57462240900613
 47
0.0
 48
0.0
 49
0.0
140
0.0
141
0.0
142
1.0
143
0.8726876882152463
 70
 11956
 72
     1
 73
     1
 74
     1
  7
big.ctb
 75
     0
147
1.145885307543552
148
39.01400649968298
149
50.00706188407811
100
AcDbLayout
  1
Model
 70
     1
 71
     0
 10
0.0
 20
0.0
 11
12.0
 21
9.0
 12
0.0
 22
0.0
 32
0.0
 14
0.0
 24
0.0
 34
0.0
 15
0.0
 25
0.0
 35
0.0
146
0.0
 13
0.0
 23
0.0
 33
0.0
 16
1.0
 26
0.0
 36
0.0
 17
0.0
 27
1.0
 37
0.0
 76
     0
330
156C
331
1572
1001
ACAD_PSEXT
1000
Canon LBP5610
1000
Canon LBP5610
1000
IP_192.168.120.151
1000

1070
     0
  0
LAYOUT
  5
156B
102
{ACAD_XDICTIONARY
360
1E6B
102
}
102
{ACAD_REACTORS
330
155E
102
}
330
155E
100
AcDbPlotSettings
  1

  2
CubePDF
  4

  6

 40
0.0
 41
0.0
 42
0.0
 43
0.0
 44
0.0
 45
0.0
 46
0.0
 47
0.0
 48
0.0
 49
0.0
140
0.0
141
0.0
142
1.0
143
1.0
 70
   688
 72
     0
 73
     0
 74
     5
  7
big.ctb
 75
    16
147
1.0
148
0.0
149
0.0
100
AcDbLayout
  1
レイアウト1
 70
     1
 71
     1
 10
0.0
 20
0.0
 11
420.0
 21
297.0
 12
0.0
 22
0.0
 32
0.0
 14
1.000000000000000E+20
 24
1.000000000000000E+20
 34
1.000000000000000E+20
 15
-1.000000000000000E+20
 25
-1.000000000000000E+20
 35
-1.000000000000000E+20
146
0.0
 13
0.0
 23
0.0
 33
0.0
 16
1.0
 26
0.0
 36
0.0
 17
0.0
 27
1.0
 37
0.0
 76
     0
330
1568
331
22
  0
MATERIAL
  5
1516
102
{ACAD_XDICTIONARY
360
1517
102
}
102
{ACAD_REACTORS
330
150D
102
}
330
150D
100
AcDbMaterial
  1
ByBlock
 72
     0
 43
0.0208333333333333
 43
0.0
 43
0.0
 43
0.0
 43
0.0
 43
0.0208333333333333
 43
0.0
 43
0.0
 43
0.0
 43
0.0
 43
1.0
 43
0.0
 43
0.0
 43
0.0
 43
0.0
 43
1.0
 77
     0
 47
0.0208333333333333
 47
0.0
 47
0.0
 47
0.0
 47
0.0
 47
0.0208333333333333
 47
0.0
 47
0.0
 47
0.0
 47
0.0
 47
1.0
 47
0.0
 47
0.0
 47
0.0
 47
0.0
 47
1.0
171
     0
 49
0.0208333333333333
 49
0.0
 49
0.0
 49
0.0
 49
0.0
 49
0.0208333333333333
 49
0.0
 49
0.0
 49
0.0
 49
0.0
 49
1.0
 49
0.0
 49
0.0
 49
0.0
 49
0.0
 49
1.0
175
     0
142
0.0208333333333333
142
0.0
142
0.0
142
0.0
142
0.0
142
0.0208333333333333
142
0.0
142
0.0
142
0.0
142
0.0
142
1.0
142
0.0
142
0.0
142
0.0
142
0.0
142
1.0
179
     0
144
0.0208333333333333
144
0.0
144
0.0
144
0.0
144
0.0
144
0.0208333333333333
144
0.0
144
0.0
144
0.0
144
0.0
144
1.0
144
0.0
144
0.0
144
0.0
144
0.0
144
1.0
147
0.0208333333333333
147
0.0
147
0.0
147
0.0
147
0.0
147
0.0208333333333333
147
0.0
147
0.0
147
0.0
147
0.0
147
1.0
147
0.0
147
0.0
147
0.0
147
0.0
147
1.0
  0
MATERIAL
  5
150E
102
{ACAD_XDICTIONARY
360
150F
102
}
102
{ACAD_REACTORS
330
150D
102
}
330
150D
100
AcDbMaterial
  1
ByLayer
 72
     0
 43
0.0208333333333333
 43
0.0
 43
0.0
 43
0.0
 43
0.0
 43
0.0208333333333333
 43
0.0
 43
0.0
 43
0.0
 43
0.0
 43
1.0
 43
0.0
 43
0.0
 43
0.0
 43
0.0
 43
1.0
 77
     0
 47
0.0208333333333333
 47
0.0
 47
0.0
 47
0.0
 47
0.0
 47
0.0208333333333333
 47
0.0
 47
0.0
 47
0.0
 47
0.0
 47
1.0
 47
0.0
 47
0.0
 47
0.0
 47
0.0
 47
1.0
171
     0
 49
0.0208333333333333
 49
0.0
 49
0.0
 49
0.0
 49
0.0
 49
0.0208333333333333
 49
0.0
 49
0.0
 49
0.0
 49
0.0
 49
1.0
 49
0.0
 49
0.0
 49
0.0
 49
0.0
 49
1.0
175
     0
142
0.0208333333333333
142
0.0
142
0.0
142
0.0
142
0.0
142
0.0208333333333333
142
0.0
142
0.0
142
0.0
142
0.0
142
1.0
142
0.0
142
0.0
142
0.0
142
0.0
142
1.0
179
     0
144
0.0208333333333333
144
0.0
144
0.0
144
0.0
144
0.0
144
0.0208333333333333
144
0.0
144
0.0
144
0.0
144
0.0
144
1.0
144
0.0
144
0.0
144
0.0
144
0.0
144
1.0
147
0.0208333333333333
147
0.0
147
0.0
147
0.0
147
0.0
147
0.0208333333333333
147
0.0
147
0.0
147
0.0
147
0.0
147
1.0
147
0.0
147
0.0
147
0.0
147
0.0
147
1.0
  0
MATERIAL
  5
151E
102
{ACAD_XDICTIONARY
360
151F
102
}
102
{ACAD_REACTORS
330
150D
102
}
330
150D
100
AcDbMaterial
  1
Global
 72
     0
 43
0.0208333333333333
 43
0.0
 43
0.0
 43
0.0
 43
0.0
 43
0.0208333333333333
 43
0.0
 43
0.0
 43
0.0
 43
0.0
 43
1.0
 43
0.0
 43
0.0
 43
0.0
 43
0.0
 43
1.0
 77
     0
 47
0.0208333333333333
 47
0.0
 47
0.0
 47
0.0
 47
0.0
 47
0.0208333333333333
 47
0.0
 47
0.0
 47
0.0
 47
0.0
 47
1.0
 47
0.0
 47
0.0
 47
0.0
 47
0.0
 47
1.0
171
     0
 49
0.0208333333333333
 49
0.0
 49
0.0
 49
0.0
 49
0.0
 49
0.0208333333333333
 49
0.0
 49
0.0
 49
0.0
 49
0.0
 49
1.0
 49
0.0
 49
0.0
 49
0.0
 49
0.0
 49
1.0
175
     0
142
0.0208333333333333
142
0.0
142
0.0
142
0.0
142
0.0
142
0.0208333333333333
142
0.0
142
0.0
142
0.0
142
0.0
142
1.0
142
0.0
142
0.0
142
0.0
142
0.0
142
1.0
179
     0
144
0.0208333333333333
144
0.0
144
0.0
144
0.0
144
0.0
144
0.0208333333333333
144
0.0
144
0.0
144
0.0
144
0.0
144
1.0
144
0.0
144
0.0
144
0.0
144
0.0
144
1.0
147
0.0208333333333333
147
0.0
147
0.0
147
0.0
147
0.0
147
0.0208333333333333
147
0.0
147
0.0
147
0.0
147
0.0
147
1.0
147
0.0
147
0.0
147
0.0
147
0.0
147
1.0
  0
MLEADERSTYLE
  5
1563
102
{ACAD_REACTORS
330
1562
102
}
330
1562
100
AcDbMLeaderStyle
170
     2
171
     1
172
     0
 90
        2
 40
0.0
 41
0.0
173
     1
 91
-1056964608
340
1557
 92
       -2
290
     1
 42
0.09
291
     1
 43
0.36
  3
Standard
 44
0.18
300

342
1552
174
     1
178
     6
175
     1
176
     0
 93
-1056964608
 45
0.18
292
     0
297
     0
 46
0.18
 94
-1056964608
 47
1.0
 49
1.0
140
1.0
293
     1
141
0.0
294
     1
177
     0
142
1.0
295
     0
296
     0
143
0.125
1001
ACAD_MLEADERVER
1070
     2
  0
MLINESTYLE
  5
155C
102
{ACAD_REACTORS
330
155B
102
}
330
155B
100
AcDbMlineStyle
  2
STANDARD
 70
     0
  3

 62
   256
 51
90.0
 52
90.0
 71
     2
 49
0.5
 62
   256
  6
BYLAYER
 49
-0.5
 62
   256
  6
BYLAYER
  0
ACDBPLACEHOLDER
  5
150C
102
{ACAD_REACTORS
330
150B
102
}
330
150B
  0
SCALE
  5
1540
102
{ACAD_REACTORS
330
153F
102
}
330
153F
100
AcDbScale
 70
     0
300
1:1
140
1.0
141
1.0
290
     1
  0
SCALE
  5
1541
102
{ACAD_REACTORS
330
153F
102
}
330
153F
100
AcDbScale
 70
     0
300
1/128" = 1'-0"
140
0.0078125
141
12.0
290
     0
  0
SCALE
  5
1542
102
{ACAD_REACTORS
330
153F
102
}
330
153F
100
AcDbScale
 70
     0
300
1/64" = 1'-0"
140
0.015625
141
12.0
290
     0
  0
SCALE
  5
1543
102
{ACAD_REACTORS
330
153F
102
}
330
153F
100
AcDbScale
 70
     0
300
1/32" = 1'-0"
140
0.03125
141
12.0
290
     0
  0
SCALE
  5
1544
102
{ACAD_REACTORS
330
153F
102
}
330
153F
100
AcDbScale
 70
     0
300
1/16" = 1'-0"
140
0.0625
141
12.0
290
     0
  0
SCALE
  5
1545
102
{ACAD_REACTORS
330
153F
102
}
330
153F
100
AcDbScale
 70
     0
300
3/32" = 1'-0"
140
0.09375
141
12.0
290
     0
  0
SCALE
  5
1546
102
{ACAD_REACTORS
330
153F
102
}
330
153F
100
AcDbScale
 70
     0
300
1/8" = 1'-0"
140
0.125
141
12.0
290
     0
  0
SCALE
  5
1547
102
{ACAD_REACTORS
330
153F
102
}
330
153F
100
AcDbScale
 70
     0
300
3/16" = 1'-0"
140
0.1875
141
12.0
290
     0
  0
SCALE
  5
1548
102
{ACAD_REACTORS
330
153F
102
}
330
153F
100
AcDbScale
 70
     0
300
1/4" = 1'-0"
140
0.25
141
12.0
290
     0
  0
SCALE
  5
1549
102
{ACAD_REACTORS
330
153F
102
}
330
153F
100
AcDbScale
 70
     0
300
3/8" = 1'-0"
140
0.375
141
12.0
290
     0
  0
SCALE
  5
154A
102
{ACAD_REACTORS
330
153F
102
}
330
153F
100
AcDbScale
 70
     0
300
1/2" = 1'-0"
140
0.5
141
12.0
290
     0
  0
SCALE
  5
154B
102
{ACAD_REACTORS
330
153F
102
}
330
153F
100
AcDbScale
 70
     0
300
3/4" = 1'-0"
140
0.75
141
12.0
290
     0
  0
SCALE
  5
154C
102
{ACAD_REACTORS
330
153F
102
}
330
153F
100
AcDbScale
 70
     0
300
1" = 1'-0"
140
1.0
141
12.0
290
     0
  0
SCALE
  5
154D
102
{ACAD_REACTORS
330
153F
102
}
330
153F
100
AcDbScale
 70
     0
300
1-1/2" = 1'-0"
140
1.5
141
12.0
290
     0
  0
SCALE
  5
154E
102
{ACAD_REACTORS
330
153F
102
}
330
153F
100
AcDbScale
 70
     0
300
3" = 1'-0"
140
3.0
141
12.0
290
     0
  0
SCALE
  5
154F
102
{ACAD_REACTORS
330
153F
102
}
330
153F
100
AcDbScale
 70
     0
300
6" = 1'-0"
140
6.0
141
12.0
290
     0
  0
SCALE
  5
1550
102
{ACAD_REACTORS
330
153F
102
}
330
153F
100
AcDbScale
 70
     0
300
1'-0" = 1'-0"
140
12.0
141
12.0
290
     0
  0
ACDBSECTIONVIEWSTYLE
  5
1565
102
{ACAD_XDICTIONARY
360
1E67
102
}
102
{ACAD_REACTORS
330
1564
102
}
330
1564
100
AcDbModelDocViewStyle
 70
     0
  3
Imperial24
290
     0
100
AcDbSectionViewStyle
 70
     0
 71
     0
 90
       78
 71
     1
340
1552
 40
0.24
340
0
340
0
 40
0.24
300
I, O, Q, S, X, Z
 40
0.48
 90
        3
 40
0.18
 90
        1
 71
     2
340
1559
 90
       25
340
1559
 90
       50
 40
0.24
 40
0.0
 40
0.24
 71
     3
340
1552
 40
0.24
 90
        1
 40
0.75
 90
        1
300
%<\AcVar ViewType \f "%tc1">% %<\AcVar ViewSectionStartId>%-%<\AcVar ViewSectionEndId>%\PSCALE %<\AcVar ViewScale \f "%sn">%
 71
     4
300
ANSI31
 40
1.0
 90
        0
290
     0
290
     0
 90
        6
 40
0.0
 40
1.570796326794896
 40
0.2617993877991494
 40
1.308996938995747
 40
-0.2617993877991494
 40
1.832595714594045
  0
TABLESTYLE
  5
1561
102
{ACAD_XDICTIONARY
360
1DE6
102
}
102
{ACAD_REACTORS
330
1560
102
}
330
1560
100
AcDbTableStyle
  3
Standard
 70
     0
 71
     0
 40
0.06
 41
0.06
280
     0
281
     0
  7
STANDARD
140
0.18
170
     2
 62
     0
 63
     7
283
     0
274
    -2
284
     1
 64
     0
275
    -2
285
     1
 65
     0
276
    -2
286
     1
 66
     0
277
    -2
287
     1
 67
     0
278
    -2
288
     1
 68
     0
279
    -2
289
     1
 69
     0
  7
STANDARD
140
0.25
170
     5
 62
     0
 63
     7
283
     0
274
    -2
284
     1
 64
     0
275
    -2
285
     1
 65
     0
276
    -2
286
     1
 66
     0
277
    -2
287
     1
 67
     0
278
    -2
288
     1
 68
     0
279
    -2
289
     1
 69
     0
  7
STANDARD
140
0.18
170
     5
 62
     0
 63
     7
283
     0
274
    -2
284
     1
 64
     0
275
    -2
285
     1
 65
     0
276
    -2
286
     1
 66
     0
277
    -2
287
     1
 67
     0
278
    -2
288
     1
 68
     0
279
    -2
289
     1
 69
     0
  0
VISUALSTYLE
  5
152C
102
{ACAD_XDICTIONARY
360
1E40
102
}
102
{ACAD_REACTORS
330
1526
102
}
330
1526
100
AcDbVisualStyle
  2

 70
     4
 71
     0
 72
     2
 73
     0
 90
        0
 40
-0.6
 41
-30.0
 62
     5
 63
     7
 74
     1
 91
        4
 64
     7
 65
   257
 75
     1
175
     1
 42
1.0
 92
        0
 66
   257
 43
1.0
 76
     1
 77
     6
 78
     2
 67
     7
 79
     5
170
     0
171
     0
290
     0
174
     0
 93
        1
 44
0.0
173
     0
291
     0
 45
0.0
1001
ACAD
1000
AcDbSavedByObjectVersion
1070
     0
  0
VISUALSTYLE
  5
152B
102
{ACAD_XDICTIONARY
360
1E3E
102
}
102
{ACAD_REACTORS
330
1526
102
}
330
1526
100
AcDbVisualStyle
  2

 70
     7
 71
     1
 72
     0
 73
     1
 90
        0
 40
-0.6
 41
-30.0
 62
     5
 63
     7
 74
     0
 91
        4
 64
     7
 65
   257
 75
     1
175
     1
 42
1.0
 92
        8
 66
     7
 43
1.0
 76
     1
 77
     6
 78
     2
 67
     7
 79
     5
170
     0
171
     0
290
     0
174
     0
 93
        1
 44
0.0
173
     0
291
     1
 45
0.0
1001
ACAD
1000
AcDbSavedByObjectVersion
1070
     0
  0
VISUALSTYLE
  5
1532
102
{ACAD_XDICTIONARY
360
1E4C
102
}
102
{ACAD_REACTORS
330
1526
102
}
330
1526
100
AcDbVisualStyle
  2

 70
    12
 71
     2
 72
     2
 73
     0
 90
        0
 40
-0.6
 41
-30.0
 62
     5
 63
     7
 74
     1
 91
        4
 64
     7
 65
   257
 75
     1
175
     1
 42
1.0
 92
        8
 66
     7
 43
1.0
 76
     1
 77
     6
 78
     2
 67
     7
 79
     5
170
     0
171
     0
290
     0
174
     0
 93
        1
 44
50.0
173
     0
291
     1
 45
0.0
1001
ACAD
1000
AcDbSavedByObjectVersion
1070
     0
  0
VISUALSTYLE
  5
1536
102
{ACAD_XDICTIONARY
360
1E54
102
}
102
{ACAD_REACTORS
330
1526
102
}
330
1526
100
AcDbVisualStyle
  2

 70
    16
 71
     2
 72
     2
 73
     3
 90
        0
 40
-0.6
 41
-30.0
 62
     5
 63
     8
 74
     1
 91
        4
 64
     7
 65
   257
 75
     1
175
     1
 42
1.0
 92
        8
 66
     8
 43
1.0
 76
     1
 77
     6
 78
     2
 67
     7
 79
     5
170
     0
171
     0
290
     0
174
     0
 93
        1
 44
0.0
173
     0
291
     1
 45
0.0
1001
ACAD
1000
AcDbSavedByObjectVersion
1070
     0
  0
VISUALSTYLE
  5
152F
102
{ACAD_XDICTIONARY
360
1E46
102
}
102
{ACAD_REACTORS
330
1526
102
}
330
1526
100
AcDbVisualStyle
  2

 70
     9
 71
     3
 72
     2
 73
     0
 90
        0
 40
-0.6
 41
-30.0
 62
     5
 63
     7
 74
     2
 91
        2
 64
     7
 65
   257
 75
     1
175
     1
 42
179.0
 92
        8
 66
     7
 43
1.0
 76
     1
 77
     6
 78
     2
 67
     7
 79
     3
170
     0
171
     0
290
     0
174
     0
 93
        1
 44
0.0
173
     0
291
     0
 45
0.0
1001
ACAD
1000
AcDbSavedByObjectVersion
1070
     0
  0
VISUALSTYLE
  5
1531
102
{ACAD_XDICTIONARY
360
1E4A
102
}
102
{ACAD_REACTORS
330
1526
102
}
330
1526
100
AcDbVisualStyle
  2

 70
    11
 71
     2
 72
     2
 73
     0
 90
        0
 40
-0.6
 41
-30.0
 62
     5
 63
     7
 74
     1
 91
        4
 64
     7
 65
   257
 75
     1
175
     1
 42
1.0
 92
        8
 66
     7
 43
1.0
 76
     1
 77
     6
 78
     2
 67
     7
 79
     5
170
     0
171
     0
290
     0
174
     0
 93
        1
 44
-50.0
173
     0
291
     1
 45
0.0
1001
ACAD
1000
AcDbSavedByObjectVersion
1070
     0
  0
VISUALSTYLE
  5
153E
102
{ACAD_XDICTIONARY
360
1E64
102
}
102
{ACAD_REACTORS
330
1526
102
}
330
1526
100
AcDbVisualStyle
  2

 70
    22
 71
     2
 72
     2
 73
     0
 90
        0
 40
-0.6
 41
-30.0
 62
     5
 63
     7
 74
     1
 91
        4
 64
     7
 65
   257
 75
     1
175
     1
 42
1.0
 92
        8
 66
     7
 43
1.0
 76
     1
 77
     6
 78
     2
 67
     7
 79
     5
170
     0
171
     0
290
     0
174
     0
 93
        1
 44
0.0
173
     0
291
     1
 45
0.0
1001
ACAD
1000
AcDbSavedByObjectVersion
1070
     0
  0
VISUALSTYLE
  5
1535
102
{ACAD_XDICTIONARY
360
1E52
102
}
102
{ACAD_REACTORS
330
1526
102
}
330
1526
100
AcDbVisualStyle
  2

 70
    15
 71
     2
 72
     2
 73
     0
 90
        0
 40
-0.6
 41
-30.0
 62
     5
 63
     7
 74
     1
 91
        4
 64
     7
 65
   257
 75
     1
175
     1
 42
1.0
 92
        8
 66
     7
 43
1.0
 76
     1
 77
     6
 78
     2
 67
     7
 79
     5
170
     0
171
     0
290
     0
174
     0
 93
        1
 44
0.0
173
     0
291
     1
 45
0.0
1001
ACAD
1000
AcDbSavedByObjectVersion
1070
     0
  0
VISUALSTYLE
  5
1527
102
{ACAD_XDICTIONARY
360
1E36
102
}
102
{ACAD_REACTORS
330
1526
102
}
330
1526
100
AcDbVisualStyle
  2

 70
     0
 71
     2
 72
     1
 73
     1
 90
        2
 40
-0.6
 41
30.0
 62
     5
 63
     7
 74
     0
 91
        0
 64
     7
 65
   257
 75
     1
175
     1
 42
1.0
 92
        8
 66
     7
 43
1.0
 76
     1
 77
     6
 78
     2
 67
     7
 79
     5
170
     0
171
     0
290
     0
174
     0
 93
       13
 44
0.0
173
     0
291
     1
 45
0.0
1001
ACAD
1000
AcDbSavedByObjectVersion
1070
     0
  0
VISUALSTYLE
  5
1528
102
{ACAD_XDICTIONARY
360
1E38
102
}
102
{ACAD_REACTORS
330
1526
102
}
330
1526
100
AcDbVisualStyle
  2

 70
     1
 71
     2
 72
     1
 73
     1
 90
        2
 40
-0.6
 41
30.0
 62
     5
 63
     7
 74
     1
 91
        0
 64
     7
 65
   257
 75
     1
175
     1
 42
1.0
 92
        0
 66
   257
 43
1.0
 76
     1
 77
     6
 78
     2
 67
     7
 79
     5
170
     0
171
     0
290
     0
174
     0
 93
       13
 44
0.0
173
     0
291
     1
 45
0.0
1001
ACAD
1000
AcDbSavedByObjectVersion
1070
     0
  0
VISUALSTYLE
  5
1529
102
{ACAD_XDICTIONARY
360
1E3A
102
}
102
{ACAD_REACTORS
330
1526
102
}
330
1526
100
AcDbVisualStyle
  2

 70
     2
 71
     2
 72
     2
 73
     1
 90
        2
 40
-0.6
 41
30.0
 62
     5
 63
     7
 74
     0
 91
        0
 64
     7
 65
   257
 75
     1
175
     1
 42
1.0
 92
        0
 66
     7
 43
1.0
 76
     1
 77
     6
 78
     2
 67
     7
 79
     5
170
     0
171
     0
290
     0
174
     0
 93
       13
 44
0.0
173
     0
291
     1
 45
0.0
1001
ACAD
1000
AcDbSavedByObjectVersion
1070
     0
  0
VISUALSTYLE
  5
152A
102
{ACAD_XDICTIONARY
360
1E3C
102
}
102
{ACAD_REACTORS
330
1526
102
}
330
1526
100
AcDbVisualStyle
  2

 70
     3
 71
     2
 72
     2
 73
     1
 90
        2
 40
-0.6
 41
30.0
 62
     5
 63
     7
 74
     1
 91
        0
 64
     7
 65
   257
 75
     1
175
     1
 42
1.0
 92
        0
 66
   257
 43
1.0
 76
     1
 77
     6
 78
     2
 67
     7
 79
     5
170
     0
171
     0
290
     0
174
     0
 93
       13
 44
0.0
173
     0
291
     1
 45
0.0
1001
ACAD
1000
AcDbSavedByObjectVersion
1070
     0
  0
VISUALSTYLE
  5
152E
102
{ACAD_XDICTIONARY
360
1E44
102
}
102
{ACAD_REACTORS
330
1526
102
}
330
1526
100
AcDbVisualStyle
  2

 70
     6
 71
     1
 72
     2
 73
     2
 90
        0
 40
-0.6
 41
-30.0
 62
     5
 63
     7
 74
     2
 91
        2
 64
     7
 65
   257
 75
     2
175
     1
 42
40.0
 92
        0
 66
   257
 43
1.0
 76
     1
 77
     6
 78
     2
 67
     7
 79
     3
170
     0
171
     0
290
     0
174
     0
 93
        1
 44
0.0
173
     0
291
     0
 45
0.0
1001
ACAD
1000
AcDbSavedByObjectVersion
1070
     0
  0
VISUALSTYLE
  5
153C
102
{ACAD_XDICTIONARY
360
1E60
102
}
102
{ACAD_REACTORS
330
1526
102
}
330
1526
100
AcDbVisualStyle
  2

 70
    20
 71
     2
 72
     2
 73
     0
 90
        0
 40
-0.6
 41
-30.0
 62
     5
 63
     7
 74
     1
 91
        4
 64
     7
 65
   257
 75
     1
175
     1
 42
1.0
 92
       10
 66
     7
 43
1.0
 76
     1
 77
     6
 78
     2
 67
     7
 79
     5
170
     0
171
     0
290
     0
174
     0
 93
        1
 44
0.0
173
     0
291
     1
 45
0.0
1001
ACAD
1000
AcDbSavedByObjectVersion
1070
     0
  0
VISUALSTYLE
  5
1534
102
{ACAD_XDICTIONARY
360
1E50
102
}
102
{ACAD_REACTORS
330
1526
102
}
330
1526
100
AcDbVisualStyle
  2

 70
    14
 71
     2
 72
     2
 73
     0
 90
        0
 40
-0.6
 41
-30.0
 62
     5
 63
     7
 74
     1
 91
        4
 64
     7
 65
   257
 75
     7
175
     7
 42
1.0
 92
        8
 66
     7
 43
1.0
 76
     1
 77
     6
 78
     2
 67
     7
 79
     5
170
     0
171
     0
290
     0
174
     0
 93
        1
 44
0.0
173
     0
291
     1
 45
0.0
1001
ACAD
1000
AcDbSavedByObjectVersion
1070
     0
  0
VISUALSTYLE
  5
153D
102
{ACAD_XDICTIONARY
360
1E62
102
}
102
{ACAD_REACTORS
330
1526
102
}
330
1526
100
AcDbVisualStyle
  2

 70
    21
 71
     2
 72
     2
 73
     0
 90
        0
 40
-0.6
 41
-30.0
 62
     5
 63
     7
 74
     1
 91
        4
 64
     7
 65
   257
 75
     1
175
     1
 42
1.0
 92
        9
 66
     7
 43
1.0
 76
     1
 77
     6
 78
     2
 67
     7
 79
     5
170
     0
171
     0
290
     0
174
     0
 93
        1
 44
0.0
173
     0
291
     1
 45
0.0
1001
ACAD
1000
AcDbSavedByObjectVersion
1070
     0
  0
VISUALSTYLE
  5
1530
102
{ACAD_XDICTIONARY
360
1E48
102
}
102
{ACAD_REACTORS
330
1526
102
}
330
1526
100
AcDbVisualStyle
  2

 70
     8
 71
     2
 72
     3
 73
     0
 90
        2
 40
-0.6
 41
30.0
 62
     5
 63
     7
 74
     0
 91
        0
 64
     7
 65
   257
 75
     1
175
     1
 42
1.0
 92
        8
 66
   257
 43
1.0
 76
     1
 77
     6
 78
     2
 67
     7
 79
     3
170
     0
171
     0
290
     0
174
     0
 93
       13
 44
0.0
173
     0
291
     0
 45
0.0
1001
ACAD
1000
AcDbSavedByObjectVersion
1070
     0
  0
VISUALSTYLE
  5
153B
102
{ACAD_XDICTIONARY
360
1E5E
102
}
102
{ACAD_REACTORS
330
1526
102
}
330
1526
100
AcDbVisualStyle
  2

 70
    27
 71
     2
 72
     2
 73
     1
 90
        2
 40
-0.6
 41
30.0
 62
     5
 63
     7
 74
     0
 91
        4
 64
     7
 65
   257
 75
     1
175
     1
 42
1.0
 92
        8
 66
   257
 43
1.0
 76
     1
 77
     6
 78
     2
 67
     8
 79
     3
170
     0
171
     0
290
     0
174
     0
 93
        5
 44
0.0
173
     0
291
     0
 45
0.0
1001
ACAD
1000
AcDbSavedByObjectVersion
1070
     0
  0
VISUALSTYLE
  5
153A
102
{ACAD_XDICTIONARY
360
1E5C
102
}
102
{ACAD_REACTORS
330
1526
102
}
330
1526
100
AcDbVisualStyle
  2

 70
    26
 71
     2
 72
     2
 73
     1
 90
        2
 40
-0.6
 41
30.0
 62
     5
 63
     7
 74
     1
 91
       10
 64
     7
 65
   257
 75
     2
175
     1
 42
1.0
 92
        8
 66
   257
 43
1.0
 76
     1
 77
     6
 78
     2
 67
     7
 79
     3
170
     0
171
     0
290
     0
174
     0
 93
        5
 44
0.0
173
     0
291
     0
 45
0.0
1001
ACAD
1000
AcDbSavedByObjectVersion
1070
     0
  0
VISUALSTYLE
  5
1537
102
{ACAD_XDICTIONARY
360
1E56
102
}
102
{ACAD_REACTORS
330
1526
102
}
330
1526
100
AcDbVisualStyle
  2

 70
    23
 71
     2
 72
     2
 73
     3
 90
        0
 40
-0.6
 41
-30.0
 62
     5
 63
     7
 74
     2
 91
        2
 64
     7
 65
     7
 75
     1
175
     1
 42
40.0
 92
        8
 66
     7
 43
1.0
 76
     1
 77
     6
 78
     2
 67
     7
 79
     3
170
     0
171
     0
290
     0
174
     0
 93
        1
 44
0.0
173
     0
291
     0
 45
0.0
1001
ACAD
1000
AcDbSavedByObjectVersion
1070
     0
  0
VISUALSTYLE
  5
1538
102
{ACAD_XDICTIONARY
360
1E58
102
}
102
{ACAD_REACTORS
330
1526
102
}
330
1526
100
AcDbVisualStyle
  2

 70
    24
 71
     1
 72
     2
 73
     2
 90
        0
 40
-0.6
 41
-30.0
 62
     5
 63
     7
 74
     2
 91
        2
 64
     7
 65
     7
 75
     1
175
     1
 42
40.0
 92
       11
 66
     7
 43
1.0
 76
     1
 77
     6
 78
     2
 67
     7
 79
     6
170
     0
171
     0
290
     0
174
     0
 93
        1
 44
0.0
173
     0
291
     0
 45
0.0
1001
ACAD
1000
AcDbSavedByObjectVersion
1070
     0
  0
VISUALSTYLE
  5
1533
102
{ACAD_XDICTIONARY
360
1E4E
102
}
102
{ACAD_REACTORS
330
1526
102
}
330
1526
100
AcDbVisualStyle
  2

 70
    13
 71
     2
 72
     2
 73
     0
 90
        0
 40
-0.6
 41
-30.0
 62
     5
 63
     7
 74
     1
 91
        4
 64
     7
 65
   257
 75
     1
175
     1
 42
1.0
 92
       12
 66
     7
 43
1.0
 76
     1
 77
     6
 78
     2
 67
     7
 79
     5
170
     0
171
     0
290
     0
174
     0
 93
        1
 44
0.0
173
     0
291
     1
 45
0.0
1001
ACAD
1000
AcDbSavedByObjectVersion
1070
     0
  0
VISUALSTYLE
  5
152D
102
{ACAD_XDICTIONARY
360
1E42
102
}
102
{ACAD_REACTORS
330
1526
102
}
330
1526
100
AcDbVisualStyle
  2

 70
     5
 71
     0
 72
     2
 73
     0
 90
        0
 40
-0.6
 41
-30.0
 62
     5
 63
     7
 74
     1
 91
        4
 64
     7
 65
   257
 75
     1
175
     1
 42
1.0
 92
        0
 66
   257
 43
1.0
 76
     1
 77
     6
 78
     2
 67
     7
 79
     3
170
     0
171
     0
290
     0
174
     0
 93
        1
 44
0.0
173
     0
291
     0
 45
0.0
1001
ACAD
1000
AcDbSavedByObjectVersion
1070
     0
  0
VISUALSTYLE
  5
1539
102
{ACAD_XDICTIONARY
360
1E5A
102
}
102
{ACAD_REACTORS
330
1526
102
}
330
1526
100
AcDbVisualStyle
  2

 70
    25
 71
     2
 72
     2
 73
     1
 90
        1
 40
0.5
 41
-30.0
 62
     5
 63
     7
 74
     1
 91
        0
 64
     7
 65
   257
 75
     1
175
     1
 42
1.0
 92
        8
 66
     7
 43
1.0
 76
     1
 77
     6
 78
     2
 67
     7
 79
     3
170
     0
171
     0
290
     0
174
     0
 93
       13
 44
0.0
173
     0
291
     0
 45
0.0
1001
ACAD
1000
AcDbSavedByObjectVersion
1070
     0
  0
DICTIONARYVAR
  5
1D96
102
{ACAD_REACTORS
330
1D91
102
}
330
1D91
100
DictionaryVariables
280
     0
  1
1:1
  0
DICTIONARYVAR
  5
1D93
102
{ACAD_REACTORS
330
1D91
102
}
330
1D91
100
DictionaryVariables
280
     0
  1
STANDARD
  0
DICTIONARYVAR
  5
1D92
102
{ACAD_REACTORS
330
1D91
102
}
330
1D91
100
DictionaryVariables
280
     0
  1
STANDARD
  0
DICTIONARYVAR
  5
1D94
102
{ACAD_REACTORS
330
1D91
102
}
330
1D91
100
DictionaryVariables
280
     0
  1
Imperial24
  0
DICTIONARYVAR
  5
1D95
102
{ACAD_REACTORS
330
1D91
102
}
330
1D91
100
DictionaryVariables
280
     0
  1
Imperial24
  0
DICTIONARYVAR
  5
1D99
102
{ACAD_REACTORS
330
1D91
102
}
330
1D91
100
DictionaryVariables
280
     0
  1
1
  0
DICTIONARYVAR
  5
1D98
102
{ACAD_REACTORS
330
1D91
102
}
330
1D91
100
DictionaryVariables
280
     0
  1
0
  0
DICTIONARYVAR
  5
1D97
102
{ACAD_REACTORS
330
1D91
102
}
330
1D91
100
DictionaryVariables
280
     0
  1
127
  0
DICTIONARYVAR
  5
1E30
102
{ACAD_REACTORS
330
1D91
102
}
330
1D91
100
DictionaryVariables
280
     0
  1
2
  0
DICTIONARY
  5
1E69
330
1567
100
AcDbDictionary
280
     1
281
     1
  3
ACAD_XREC_ROUNDTRIP
360
1E6A
  0
DICTIONARY
  5
1E6D
330
156F
100
AcDbDictionary
280
     1
281
     1
  3
ACAD_XREC_ROUNDTRIP
360
1E6E
  0
DICTIONARY
  5
1E6B
330
156B
100
AcDbDictionary
280
     1
281
     1
  3
ACAD_XREC_ROUNDTRIP
360
1E6C
  0
DICTIONARY
  5
1517
330
1516
100
AcDbDictionary
280
     1
281
     1
  3
ACAD_XREC_ROUNDTRIP
360
1DED
  3
BUMPTILE
360
1519
  3
DIFFUSETILE
360
1518
  3
OPACITYTILE
360
151C
  3
REFLECTIONTILE
360
151B
  3
REFRACTIONTILE
360
151D
  3
SPECULARTILE
360
151A
  0
DICTIONARY
  5
150F
330
150E
100
AcDbDictionary
280
     1
281
     1
  3
ACAD_XREC_ROUNDTRIP
360
1DEC
  3
BUMPTILE
360
1511
  3
DIFFUSETILE
360
1510
  3
OPACITYTILE
360
1514
  3
REFLECTIONTILE
360
1513
  3
REFRACTIONTILE
360
1515
  3
SPECULARTILE
360
1512
  0
DICTIONARY
  5
151F
330
151E
100
AcDbDictionary
280
     1
281
     1
  3
ACAD_XREC_ROUNDTRIP
360
1DEE
  3
BUMPTILE
360
1521
  3
DIFFUSETILE
360
1520
  3
OPACITYTILE
360
1524
  3
REFLECTIONTILE
360
1523
  3
REFRACTIONTILE
360
1525
  3
SPECULARTILE
360
1522
  0
DICTIONARY
  5
1E67
330
1565
100
AcDbDictionary
280
     1
281
     1
  3
ACAD_XREC_ROUNDTRIP
360
1E68
  0
DICTIONARY
  5
1DE6
330
1561
100
AcDbDictionary
280
     1
281
     1
  3
ACAD_ROUNDTRIP_2008_TABLESTYLE_CELLSTYLEMAP
360
1E31
  3
ACAD_XREC_ROUNDTRIP
360
1E66
  0
DICTIONARY
  5
1E40
330
152C
100
AcDbDictionary
280
     1
281
     1
  3
ACAD_XREC_ROUNDTRIP
360
1E41
  0
DICTIONARY
  5
1E3E
330
152B
100
AcDbDictionary
280
     1
281
     1
  3
ACAD_XREC_ROUNDTRIP
360
1E3F
  0
DICTIONARY
  5
1E4C
330
1532
100
AcDbDictionary
280
     1
281
     1
  3
ACAD_XREC_ROUNDTRIP
360
1E4D
  0
DICTIONARY
  5
1E54
330
1536
100
AcDbDictionary
280
     1
281
     1
  3
ACAD_XREC_ROUNDTRIP
360
1E55
  0
DICTIONARY
  5
1E46
330
152F
100
AcDbDictionary
280
     1
281
     1
  3
ACAD_XREC_ROUNDTRIP
360
1E47
  0
DICTIONARY
  5
1E4A
330
1531
100
AcDbDictionary
280
     1
281
     1
  3
ACAD_XREC_ROUNDTRIP
360
1E4B
  0
DICTIONARY
  5
1E64
330
153E
100
AcDbDictionary
280
     1
281
     1
  3
ACAD_XREC_ROUNDTRIP
360
1E65
  0
DICTIONARY
  5
1E52
330
1535
100
AcDbDictionary
280
     1
281
     1
  3
ACAD_XREC_ROUNDTRIP
360
1E53
  0
DICTIONARY
  5
1E36
330
1527
100
AcDbDictionary
280
     1
281
     1
  3
ACAD_XREC_ROUNDTRIP
360
1E37
  0
DICTIONARY
  5
1E38
330
1528
100
AcDbDictionary
280
     1
281
     1
  3
ACAD_XREC_ROUNDTRIP
360
1E39
  0
DICTIONARY
  5
1E3A
330
1529
100
AcDbDictionary
280
     1
281
     1
  3
ACAD_XREC_ROUNDTRIP
360
1E3B
  0
DICTIONARY
  5
1E3C
330
152A
100
AcDbDictionary
280
     1
281
     1
  3
ACAD_XREC_ROUNDTRIP
360
1E3D
  0
DICTIONARY
  5
1E44
330
152E
100
AcDbDictionary
280
     1
281
     1
  3
ACAD_XREC_ROUNDTRIP
360
1E45
  0
DICTIONARY
  5
1E60
330
153C
100
AcDbDictionary
280
     1
281
     1
  3
ACAD_XREC_ROUNDTRIP
360
1E61
  0
DICTIONARY
  5
1E50
330
1534
100
AcDbDictionary
280
     1
281
     1
  3
ACAD_XREC_ROUNDTRIP
360
1E51
  0
DICTIONARY
  5
1E62
330
153D
100
AcDbDictionary
280
     1
281
     1
  3
ACAD_XREC_ROUNDTRIP
360
1E63
  0
DICTIONARY
  5
1E48
330
1530
100
AcDbDictionary
280
     1
281
     1
  3
ACAD_XREC_ROUNDTRIP
360
1E49
  0
DICTIONARY
  5
1E5E
330
153B
100
AcDbDictionary
280
     1
281
     1
  3
ACAD_XREC_ROUNDTRIP
360
1E5F
  0
DICTIONARY
  5
1E5C
330
153A
100
AcDbDictionary
280
     1
281
     1
  3
ACAD_XREC_ROUNDTRIP
360
1E5D
  0
DICTIONARY
  5
1E56
330
1537
100
AcDbDictionary
280
     1
281
     1
  3
ACAD_XREC_ROUNDTRIP
360
1E57
  0
DICTIONARY
  5
1E58
330
1538
100
AcDbDictionary
280
     1
281
     1
  3
ACAD_XREC_ROUNDTRIP
360
1E59
  0
DICTIONARY
  5
1E4E
330
1533
100
AcDbDictionary
280
     1
281
     1
  3
ACAD_XREC_ROUNDTRIP
360
1E4F
  0
DICTIONARY
  5
1E42
330
152D
100
AcDbDictionary
280
     1
281
     1
  3
ACAD_XREC_ROUNDTRIP
360
1E43
  0
DICTIONARY
  5
1E5A
330
1539
100
AcDbDictionary
280
     1
281
     1
  3
ACAD_XREC_ROUNDTRIP
360
1E5B
  0
XRECORD
  5
1E6A
102
{ACAD_REACTORS
330
1E69
102
}
330
1E69
100
AcDbXrecord
280
     1
102
DISPLAYNAME
  1
Imperial24
102
FLAGS
 90
        0
  0
XRECORD
  5
1E6E
102
{ACAD_REACTORS
330
1E6D
102
}
330
1E6D
100
AcDbXrecord
280
     1
102
SHADEPLOT
 70
     0
102
SHADEPLOTRESLEVEL
 70
     2
102
SHADEPLOTCUSTOMDPI
 70
   300
  0
XRECORD
  5
1E6C
102
{ACAD_REACTORS
330
1E6B
102
}
330
1E6B
100
AcDbXrecord
280
     1
102
SHADEPLOT
 70
     0
102
SHADEPLOTRESLEVEL
 70
     2
102
SHADEPLOTCUSTOMDPI
 70
   300
  0
XRECORD
  5
1DED
102
{ACAD_REACTORS
330
1517
102
}
330
1517
100
AcDbXrecord
280
     1
102
MATERIAL
148
0.0
149
0.0
149
0.0
 93
        0
 94
      127
282
     0
 72
     0
 77
     0
171
     0
175
     0
179
     0
273
     0
  0
XRECORD
  5
1519
102
{ACAD_REACTORS
330
1517
102
}
330
1517
100
AcDbXrecord
280
     1
270
     1
271
     1
  0
XRECORD
  5
1518
102
{ACAD_REACTORS
330
1517
102
}
330
1517
100
AcDbXrecord
280
     1
270
     1
271
     1
  0
XRECORD
  5
151C
102
{ACAD_REACTORS
330
1517
102
}
330
1517
100
AcDbXrecord
280
     1
270
     1
271
     1
  0
XRECORD
  5
151B
102
{ACAD_REACTORS
330
1517
102
}
330
1517
100
AcDbXrecord
280
     1
270
     1
271
     1
  0
XRECORD
  5
151D
102
{ACAD_REACTORS
330
1517
102
}
330
1517
100
AcDbXrecord
280
     1
270
     1
271
     1
  0
XRECORD
  5
151A
102
{ACAD_REACTORS
330
1517
102
}
330
1517
100
AcDbXrecord
280
     1
270
     1
271
     1
  0
XRECORD
  5
1DEC
102
{ACAD_REACTORS
330
150F
102
}
330
150F
100
AcDbXrecord
280
     1
102
MATERIAL
148
0.0
149
0.0
149
0.0
 93
        0
 94
      127
282
     0
 72
     0
 77
     0
171
     0
175
     0
179
     0
273
     0
  0
XRECORD
  5
1511
102
{ACAD_REACTORS
330
150F
102
}
330
150F
100
AcDbXrecord
280
     1
270
     1
271
     1
  0
XRECORD
  5
1510
102
{ACAD_REACTORS
330
150F
102
}
330
150F
100
AcDbXrecord
280
     1
270
     1
271
     1
  0
XRECORD
  5
1514
102
{ACAD_REACTORS
330
150F
102
}
330
150F
100
AcDbXrecord
280
     1
270
     1
271
     1
  0
XRECORD
  5
1513
102
{ACAD_REACTORS
330
150F
102
}
330
150F
100
AcDbXrecord
280
     1
270
     1
271
     1
  0
XRECORD
  5
1515
102
{ACAD_REACTORS
330
150F
102
}
330
150F
100
AcDbXrecord
280
     1
270
     1
271
     1
  0
XRECORD
  5
1512
102
{ACAD_REACTORS
330
150F
102
}
330
150F
100
AcDbXrecord
280
     1
270
     1
271
     1
  0
XRECORD
  5
1DEE
102
{ACAD_REACTORS
330
151F
102
}
330
151F
100
AcDbXrecord
280
     1
102
MATERIAL
148
0.0
149
0.0
149
0.0
 93
        0
 94
      127
282
     0
 72
     0
 77
     0
171
     0
175
     0
179
     0
273
     0
  0
XRECORD
  5
1521
102
{ACAD_REACTORS
330
151F
102
}
330
151F
100
AcDbXrecord
280
     1
270
     1
271
     1
  0
XRECORD
  5
1520
102
{ACAD_REACTORS
330
151F
102
}
330
151F
100
AcDbXrecord
280
     1
270
     1
271
     1
  0
XRECORD
  5
1524
102
{ACAD_REACTORS
330
151F
102
}
330
151F
100
AcDbXrecord
280
     1
270
     1
271
     1
  0
XRECORD
  5
1523
102
{ACAD_REACTORS
330
151F
102
}
330
151F
100
AcDbXrecord
280
     1
270
     1
271
     1
  0
XRECORD
  5
1525
102
{ACAD_REACTORS
330
151F
102
}
330
151F
100
AcDbXrecord
280
     1
270
     1
271
     1
  0
XRECORD
  5
1522
102
{ACAD_REACTORS
330
151F
102
}
330
151F
100
AcDbXrecord
280
     1
270
     1
271
     1
  0
XRECORD
  5
1E68
102
{ACAD_REACTORS
330
1E67
102
}
330
1E67
100
AcDbXrecord
280
     1
102
DISPLAYNAME
  1
Imperial24
102
FLAGS
 90
        0
  0
CELLSTYLEMAP
  5
1E31
102
{ACAD_REACTORS
330
1DE6
102
}
330
1DE6
100
AcDbCellStyleMap
 90
        3
300
CELLSTYLE
  1
TABLEFORMAT_BEGIN
 90
        5
170
     1
 91
        0
 92
    32768
 62
   257
 93
        1
300
CONTENTFORMAT
  1
CONTENTFORMAT_BEGIN
 90
        0
 91
        0
 92
      512
 93
        0
300

 40
0.0
140
1.0
 94
        5
 62
     0
340
1552
144
0.25
309
CONTENTFORMAT_END
171
     1
301
MARGIN
  1
CELLMARGIN_BEGIN
 40
0.06
 40
0.06
 40
0.06
 40
0.06
 40
0.18
 40
0.18
309
CELLMARGIN_END
 94
        6
 95
        1
302
GRIDFORMAT
  1
GRIDFORMAT_BEGIN
 90
        0
 91
        1
 62
     0
 92
       -2
340
0
 93
        0
 40
0.045
309
GRIDFORMAT_END
 95
        2
302
GRIDFORMAT
  1
GRIDFORMAT_BEGIN
 90
        0
 91
        1
 62
     0
 92
       -2
340
0
 93
        0
 40
0.045
309
GRIDFORMAT_END
 95
        4
302
GRIDFORMAT
  1
GRIDFORMAT_BEGIN
 90
        0
 91
        1
 62
     0
 92
       -2
340
0
 93
        0
 40
0.045
309
GRIDFORMAT_END
 95
        8
302
GRIDFORMAT
  1
GRIDFORMAT_BEGIN
 90
        0
 91
        1
 62
     0
 92
       -2
340
0
 93
        0
 40
0.045
309
GRIDFORMAT_END
 95
       16
302
GRIDFORMAT
  1
GRIDFORMAT_BEGIN
 90
        0
 91
        1
 62
     0
 92
       -2
340
0
 93
        0
 40
0.045
309
GRIDFORMAT_END
 95
       32
302
GRIDFORMAT
  1
GRIDFORMAT_BEGIN
 90
        0
 91
        1
 62
     0
 92
       -2
340
0
 93
        0
 40
0.045
309
GRIDFORMAT_END
309
TABLEFORMAT_END
  1
CELLSTYLE_BEGIN
 90
        1
 91
        1
300
_TITLE
309
CELLSTYLE_END
300
CELLSTYLE
  1
TABLEFORMAT_BEGIN
 90
        5
170
     1
 91
        0
 92
        0
 62
   257
 93
        1
300
CONTENTFORMAT
  1
CONTENTFORMAT_BEGIN
 90
        0
 91
        0
 92
      512
 93
        0
300

 40
0.0
140
1.0
 94
        5
 62
     0
340
1552
144
0.18
309
CONTENTFORMAT_END
171
     1
301
MARGIN
  1
CELLMARGIN_BEGIN
 40
0.06
 40
0.06
 40
0.06
 40
0.06
 40
0.18
 40
0.18
309
CELLMARGIN_END
 94
        6
 95
        1
302
GRIDFORMAT
  1
GRIDFORMAT_BEGIN
 90
        0
 91
        1
 62
     0
 92
       -2
340
0
 93
        0
 40
0.045
309
GRIDFORMAT_END
 95
        2
302
GRIDFORMAT
  1
GRIDFORMAT_BEGIN
 90
        0
 91
        1
 62
     0
 92
       -2
340
0
 93
        0
 40
0.045
309
GRIDFORMAT_END
 95
        4
302
GRIDFORMAT
  1
GRIDFORMAT_BEGIN
 90
        0
 91
        1
 62
     0
 92
       -2
340
0
 93
        0
 40
0.045
309
GRIDFORMAT_END
 95
        8
302
GRIDFORMAT
  1
GRIDFORMAT_BEGIN
 90
        0
 91
        1
 62
     0
 92
       -2
340
0
 93
        0
 40
0.045
309
GRIDFORMAT_END
 95
       16
302
GRIDFORMAT
  1
GRIDFORMAT_BEGIN
 90
        0
 91
        1
 62
     0
 92
       -2
340
0
 93
        0
 40
0.045
309
GRIDFORMAT_END
 95
       32
302
GRIDFORMAT
  1
GRIDFORMAT_BEGIN
 90
        0
 91
        1
 62
     0
 92
       -2
340
0
 93
        0
 40
0.045
309
GRIDFORMAT_END
309
TABLEFORMAT_END
  1
CELLSTYLE_BEGIN
 90
        2
 91
        1
300
_HEADER
309
CELLSTYLE_END
300
CELLSTYLE
  1
TABLEFORMAT_BEGIN
 90
        5
170
     1
 91
        0
 92
        0
 62
   257
 93
        1
300
CONTENTFORMAT
  1
CONTENTFORMAT_BEGIN
 90
        0
 91
        0
 92
      512
 93
        0
300

 40
0.0
140
1.0
 94
        2
 62
     0
340
1552
144
0.18
309
CONTENTFORMAT_END
171
     1
301
MARGIN
  1
CELLMARGIN_BEGIN
 40
0.06
 40
0.06
 40
0.06
 40
0.06
 40
0.18
 40
0.18
309
CELLMARGIN_END
 94
        6
 95
        1
302
GRIDFORMAT
  1
GRIDFORMAT_BEGIN
 90
        0
 91
        1
 62
     0
 92
       -2
340
0
 93
        0
 40
0.045
309
GRIDFORMAT_END
 95
        2
302
GRIDFORMAT
  1
GRIDFORMAT_BEGIN
 90
        0
 91
        1
 62
     0
 92
       -2
340
0
 93
        0
 40
0.045
309
GRIDFORMAT_END
 95
        4
302
GRIDFORMAT
  1
GRIDFORMAT_BEGIN
 90
        0
 91
        1
 62
     0
 92
       -2
340
0
 93
        0
 40
0.045
309
GRIDFORMAT_END
 95
        8
302
GRIDFORMAT
  1
GRIDFORMAT_BEGIN
 90
        0
 91
        1
 62
     0
 92
       -2
340
0
 93
        0
 40
0.045
309
GRIDFORMAT_END
 95
       16
302
GRIDFORMAT
  1
GRIDFORMAT_BEGIN
 90
        0
 91
        1
 62
     0
 92
       -2
340
0
 93
        0
 40
0.045
309
GRIDFORMAT_END
 95
       32
302
GRIDFORMAT
  1
GRIDFORMAT_BEGIN
 90
        0
 91
        1
 62
     0
 92
       -2
340
0
 93
        0
 40
0.045
309
GRIDFORMAT_END
309
TABLEFORMAT_END
  1
CELLSTYLE_BEGIN
 90
        3
 91
        2
300
_DATA
309
CELLSTYLE_END
  0
XRECORD
  5
1E66
102
{ACAD_REACTORS
330
1DE6
102
}
330
1DE6
100
AcDbXrecord
280
     1
102
ACAD_ROUNDTRIP_PRE2007_TABLESTYLE
 90
      512
 91
        0
  1

 92
      512
 93
        0
  2

 94
      512
 95
        0
  3

  0
XRECORD
  5
1E41
102
{ACAD_REACTORS
330
1E40
102
}
330
1E40
100
AcDbXrecord
280
     1
102
RTVSPost2010Prop28
280
     1
102
RTVSPost2010PropOp28
 70
     1
102
RTVSPost2010Prop29
280
     1
102
RTVSPost2010PropOp29
 70
     1
102
RTVSPost2010Prop30
280
     0
102
RTVSPost2010PropOp30
 70
     1
102
RTVSPost2010Prop31
280
     0
102
RTVSPost2010PropOp31
 70
     1
102
RTVSPost2010Prop32
280
     0
102
RTVSPost2010PropOp32
 70
     1
102
RTVSPost2010Prop33
280
     0
102
RTVSPost2010PropOp33
 70
     1
102
RTVSPost2010Prop34
280
     0
102
RTVSPost2010PropOp34
 70
     1
102
RTVSPost2010Prop35
280
     0
102
RTVSPost2010PropOp35
 70
     1
102
RTVSPost2010Prop36
280
     0
102
RTVSPost2010PropOp36
 70
     1
102
RTVSPost2010Prop37
 90
       50
102
RTVSPost2010PropOp37
 70
     1
102
RTVSPost2010Prop38
140
0.0
102
RTVSPost2010PropOp38
 70
     1
102
RTVSPost2010Prop39
140
1.0
102
RTVSPost2010PropOp39
 70
     1
102
RTVSPost2010Prop40
 90
        0
102
RTVSPost2010PropOp40
 70
     1
102
RTVSPost2010Prop41ColorIndex
 90
       18
102
RTVSPost2010Prop41ColorRGB
 90
        0
102
RTVSPost2010PropOp41
 70
     1
102
RTVSPost2010Prop42
 90
       50
102
RTVSPost2010PropOp42
 70
     1
102
RTVSPost2010Prop43
 90
        3
102
RTVSPost2010PropOp43
 70
     1
102
RTVSPost2010Prop44ColorIndex
 90
        5
102
RTVSPost2010Prop44ColorRGB
 90
      255
102
RTVSPost2010PropOp44
 70
     1
102
RTVSPost2010Prop45
280
     0
102
RTVSPost2010PropOp45
 70
     1
102
RTVSPost2010Prop46
 90
       50
102
RTVSPost2010PropOp46
 70
     1
102
RTVSPost2010Prop47
 90
       50
102
RTVSPost2010PropOp47
 70
     1
102
RTVSPost2010Prop48
 90
       50
102
RTVSPost2010PropOp48
 70
     1
102
RTVSPost2010Prop49
280
     0
102
RTVSPost2010PropOp49
 70
     1
102
RTVSPost2010Prop50
 90
       50
102
RTVSPost2010PropOp50
 70
     1
102
RTVSPost2010Prop51ColorIndex
 90
      256
102
RTVSPost2010Prop51ColorRGB
 90
-16777216
102
RTVSPost2010PropOp51
 70
     0
102
RTVSPost2010Prop52
140
1.0
102
RTVSPost2010PropOp52
 70
     0
102
RTVSPost2010Prop53
 90
        2
102
RTVSPost2010PropOp53
 70
     1
102
RTVSPost2010Prop54
  1
strokes_ogs.tif
102
RTVSPost2010PropOp54
 70
     1
102
RTVSPost2010Prop55
280
     0
102
RTVSPost2010PropOp55
 70
     1
102
RTVSPost2010Prop56
140
1.0
102
RTVSPost2010PropOp56
 70
     1
102
RTVSPost2010Prop57
140
1.0
102
RTVSPost2010PropOp57
 70
     1
102
RTVSPropertyOp0
 70
     1
102
RTVSPropertyOp1
 70
     1
102
RTVSPropertyOp2
 70
     1
102
RTVSPropertyOp3
 70
     1
102
RTVSPropertyOp4
 70
     1
102
RTVSPropertyOp5
 70
     1
102
RTVSPropertyOp6
 70
     1
102
RTVSPropertyOp7
 70
     1
102
RTVSPropertyOp8
 70
     1
102
RTVSPropertyOp9
 70
     1
102
RTVSPropertyOp10
 70
     1
102
RTVSPropertyOp11
 70
     1
102
RTVSPropertyOp12
 70
     1
102
RTVSPropertyOp13
 70
     1
102
RTVSPropertyOp14
 70
     1
102
RTVSPropertyOp15
 70
     1
102
RTVSPropertyOp16
 70
     1
102
RTVSPropertyOp17
 70
     1
102
RTVSPropertyOp18
 70
     1
102
RTVSPropertyOp19
 70
     1
102
RTVSPropertyOp20
 70
     1
102
RTVSPropertyOp21
 70
     1
102
RTVSPropertyOp22
 70
     1
102
RTVSPropertyOp23
 70
     1
102
RTVSPropertyOp24
 70
     1
102
RTVSPropertyOp25
 70
     1
102
RTVSPropertyOp26
 70
     1
102
RTVSPropertyOp27
 70
     1
102
RTVSPropertyOp28
 70
     1
102
RTVSPropertyOp29
 70
     1
102
RTVSPropertyOp30
 70
     1
102
RTVSPropertyOp31
 70
     1
102
RTVSPropertyOp32
 70
     1
102
RTVSPropertyOp33
 70
     1
102
RTVSPropertyOp34
 70
     1
102
RTVSPropertyOp35
 70
     1
102
RTVSPropertyOp36
 70
     1
102
RTVSPropertyOp37
 70
     1
102
RTVSPropertyOp38
 70
     1
102
RTVSPropertyOp39
 70
     1
102
RTVSPropertyOp40
 70
     1
102
RTVSPropertyOp41
 70
     1
102
RTVSPropertyOp42
 70
     1
102
RTVSPropertyOp43
 70
     1
102
RTVSPropertyOp44
 70
     1
102
RTVSPropertyOp45
 70
     1
102
RTVSPropertyOp46
 70
     1
102
RTVSPropertyOp47
 70
     1
102
RTVSPropertyOp48
 70
     1
102
RTVSPropertyOp49
 70
     1
102
RTVSPropertyOp50
 70
     1
102
RTVSPropertyOp51
 70
     0
102
RTVSPropertyOp52
 70
     0
102
RTVSPropertyOp53
 70
     1
102
RTVSPropertyOp54
 70
     1
102
RTVSPropertyOp55
 70
     1
102
RTVSPropertyOp56
 70
     1
102
RTVSPropertyOp57
 70
     1
102
RTVSPropertyOp58
 70
     1
102
RTVSPropertyOp59
 70
     1
102
RTVSPropertyOp60
 70
     1
102
RTVSPropertyOp61
 70
     1
102
RTVSPropertyOp62
 70
     1
  0
XRECORD
  5
1E3F
102
{ACAD_REACTORS
330
1E3E
102
}
330
1E3E
100
AcDbXrecord
280
     1
102
RTVSPost2010Prop28
280
     0
102
RTVSPost2010PropOp28
 70
     1
102
RTVSPost2010Prop29
280
     1
102
RTVSPost2010PropOp29
 70
     1
102
RTVSPost2010Prop30
280
     1
102
RTVSPost2010PropOp30
 70
     1
102
RTVSPost2010Prop31
280
     0
102
RTVSPost2010PropOp31
 70
     1
102
RTVSPost2010Prop32
280
     0
102
RTVSPost2010PropOp32
 70
     1
102
RTVSPost2010Prop33
280
     0
102
RTVSPost2010PropOp33
 70
     1
102
RTVSPost2010Prop34
280
     0
102
RTVSPost2010PropOp34
 70
     1
102
RTVSPost2010Prop35
280
     0
102
RTVSPost2010PropOp35
 70
     1
102
RTVSPost2010Prop36
280
     0
102
RTVSPost2010PropOp36
 70
     1
102
RTVSPost2010Prop37
 90
       50
102
RTVSPost2010PropOp37
 70
     1
102
RTVSPost2010Prop38
140
0.0
102
RTVSPost2010PropOp38
 70
     1
102
RTVSPost2010Prop39
140
1.0
102
RTVSPost2010PropOp39
 70
     1
102
RTVSPost2010Prop40
 90
        0
102
RTVSPost2010PropOp40
 70
     1
102
RTVSPost2010Prop41ColorIndex
 90
       18
102
RTVSPost2010Prop41ColorRGB
 90
        0
102
RTVSPost2010PropOp41
 70
     1
102
RTVSPost2010Prop42
 90
       50
102
RTVSPost2010PropOp42
 70
     1
102
RTVSPost2010Prop43
 90
        3
102
RTVSPost2010PropOp43
 70
     1
102
RTVSPost2010Prop44ColorIndex
 90
        5
102
RTVSPost2010Prop44ColorRGB
 90
      255
102
RTVSPost2010PropOp44
 70
     1
102
RTVSPost2010Prop45
280
     0
102
RTVSPost2010PropOp45
 70
     1
102
RTVSPost2010Prop46
 90
       50
102
RTVSPost2010PropOp46
 70
     1
102
RTVSPost2010Prop47
 90
       50
102
RTVSPost2010PropOp47
 70
     1
102
RTVSPost2010Prop48
 90
       50
102
RTVSPost2010PropOp48
 70
     1
102
RTVSPost2010Prop49
280
     0
102
RTVSPost2010PropOp49
 70
     1
102
RTVSPost2010Prop50
 90
       50
102
RTVSPost2010PropOp50
 70
     1
102
RTVSPost2010Prop51ColorIndex
 90
      256
102
RTVSPost2010Prop51ColorRGB
 90
-16777216
102
RTVSPost2010PropOp51
 70
     0
102
RTVSPost2010Prop52
140
1.0
102
RTVSPost2010PropOp52
 70
     0
102
RTVSPost2010Prop53
 90
        2
102
RTVSPost2010PropOp53
 70
     1
102
RTVSPost2010Prop54
  1
strokes_ogs.tif
102
RTVSPost2010PropOp54
 70
     1
102
RTVSPost2010Prop55
280
     0
102
RTVSPost2010PropOp55
 70
     1
102
RTVSPost2010Prop56
140
1.0
102
RTVSPost2010PropOp56
 70
     1
102
RTVSPost2010Prop57
140
1.0
102
RTVSPost2010PropOp57
 70
     1
102
RTVSPropertyOp0
 70
     1
102
RTVSPropertyOp1
 70
     1
102
RTVSPropertyOp2
 70
     1
102
RTVSPropertyOp3
 70
     1
102
RTVSPropertyOp4
 70
     1
102
RTVSPropertyOp5
 70
     1
102
RTVSPropertyOp6
 70
     1
102
RTVSPropertyOp7
 70
     1
102
RTVSPropertyOp8
 70
     1
102
RTVSPropertyOp9
 70
     1
102
RTVSPropertyOp10
 70
     1
102
RTVSPropertyOp11
 70
     1
102
RTVSPropertyOp12
 70
     1
102
RTVSPropertyOp13
 70
     1
102
RTVSPropertyOp14
 70
     1
102
RTVSPropertyOp15
 70
     1
102
RTVSPropertyOp16
 70
     1
102
RTVSPropertyOp17
 70
     1
102
RTVSPropertyOp18
 70
     1
102
RTVSPropertyOp19
 70
     1
102
RTVSPropertyOp20
 70
     1
102
RTVSPropertyOp21
 70
     1
102
RTVSPropertyOp22
 70
     1
102
RTVSPropertyOp23
 70
     1
102
RTVSPropertyOp24
 70
     1
102
RTVSPropertyOp25
 70
     1
102
RTVSPropertyOp26
 70
     1
102
RTVSPropertyOp27
 70
     1
102
RTVSPropertyOp28
 70
     1
102
RTVSPropertyOp29
 70
     1
102
RTVSPropertyOp30
 70
     1
102
RTVSPropertyOp31
 70
     1
102
RTVSPropertyOp32
 70
     1
102
RTVSPropertyOp33
 70
     1
102
RTVSPropertyOp34
 70
     1
102
RTVSPropertyOp35
 70
     1
102
RTVSPropertyOp36
 70
     1
102
RTVSPropertyOp37
 70
     1
102
RTVSPropertyOp38
 70
     1
102
RTVSPropertyOp39
 70
     1
102
RTVSPropertyOp40
 70
     1
102
RTVSPropertyOp41
 70
     1
102
RTVSPropertyOp42
 70
     1
102
RTVSPropertyOp43
 70
     1
102
RTVSPropertyOp44
 70
     1
102
RTVSPropertyOp45
 70
     1
102
RTVSPropertyOp46
 70
     1
102
RTVSPropertyOp47
 70
     1
102
RTVSPropertyOp48
 70
     1
102
RTVSPropertyOp49
 70
     1
102
RTVSPropertyOp50
 70
     1
102
RTVSPropertyOp51
 70
     0
102
RTVSPropertyOp52
 70
     0
102
RTVSPropertyOp53
 70
     1
102
RTVSPropertyOp54
 70
     1
102
RTVSPropertyOp55
 70
     1
102
RTVSPropertyOp56
 70
     1
102
RTVSPropertyOp57
 70
     1
102
RTVSPropertyOp58
 70
     1
102
RTVSPropertyOp59
 70
     1
102
RTVSPropertyOp60
 70
     1
102
RTVSPropertyOp61
 70
     1
102
RTVSPropertyOp62
 70
     1
  0
XRECORD
  5
1E4D
102
{ACAD_REACTORS
330
1E4C
102
}
330
1E4C
100
AcDbXrecord
280
     1
102
RTVSPost2010Prop28
280
     0
102
RTVSPost2010PropOp28
 70
     1
102
RTVSPost2010Prop29
280
     1
102
RTVSPost2010PropOp29
 70
     1
102
RTVSPost2010Prop30
280
     1
102
RTVSPost2010PropOp30
 70
     1
102
RTVSPost2010Prop31
280
     0
102
RTVSPost2010PropOp31
 70
     1
102
RTVSPost2010Prop32
280
     0
102
RTVSPost2010PropOp32
 70
     1
102
RTVSPost2010Prop33
280
     0
102
RTVSPost2010PropOp33
 70
     1
102
RTVSPost2010Prop34
280
     0
102
RTVSPost2010PropOp34
 70
     1
102
RTVSPost2010Prop35
280
     0
102
RTVSPost2010PropOp35
 70
     1
102
RTVSPost2010Prop36
280
     0
102
RTVSPost2010PropOp36
 70
     1
102
RTVSPost2010Prop37
 90
       50
102
RTVSPost2010PropOp37
 70
     1
102
RTVSPost2010Prop38
140
0.0
102
RTVSPost2010PropOp38
 70
     1
102
RTVSPost2010Prop39
140
1.0
102
RTVSPost2010PropOp39
 70
     1
102
RTVSPost2010Prop40
 90
        0
102
RTVSPost2010PropOp40
 70
     1
102
RTVSPost2010Prop41ColorIndex
 90
       18
102
RTVSPost2010Prop41ColorRGB
 90
        0
102
RTVSPost2010PropOp41
 70
     1
102
RTVSPost2010Prop42
 90
       50
102
RTVSPost2010PropOp42
 70
     1
102
RTVSPost2010Prop43
 90
        3
102
RTVSPost2010PropOp43
 70
     1
102
RTVSPost2010Prop44ColorIndex
 90
        5
102
RTVSPost2010Prop44ColorRGB
 90
      255
102
RTVSPost2010PropOp44
 70
     1
102
RTVSPost2010Prop45
280
     0
102
RTVSPost2010PropOp45
 70
     1
102
RTVSPost2010Prop46
 90
       50
102
RTVSPost2010PropOp46
 70
     1
102
RTVSPost2010Prop47
 90
       50
102
RTVSPost2010PropOp47
 70
     1
102
RTVSPost2010Prop48
 90
       50
102
RTVSPost2010PropOp48
 70
     1
102
RTVSPost2010Prop49
280
     0
102
RTVSPost2010PropOp49
 70
     1
102
RTVSPost2010Prop50
 90
       50
102
RTVSPost2010PropOp50
 70
     1
102
RTVSPost2010Prop51ColorIndex
 90
      256
102
RTVSPost2010Prop51ColorRGB
 90
-16777216
102
RTVSPost2010PropOp51
 70
     0
102
RTVSPost2010Prop52
140
1.0
102
RTVSPost2010PropOp52
 70
     0
102
RTVSPost2010Prop53
 90
        2
102
RTVSPost2010PropOp53
 70
     1
102
RTVSPost2010Prop54
  1
strokes_ogs.tif
102
RTVSPost2010PropOp54
 70
     1
102
RTVSPost2010Prop55
280
     0
102
RTVSPost2010PropOp55
 70
     1
102
RTVSPost2010Prop56
140
1.0
102
RTVSPost2010PropOp56
 70
     1
102
RTVSPost2010Prop57
140
1.0
102
RTVSPost2010PropOp57
 70
     1
102
RTVSPropertyOp0
 70
     1
102
RTVSPropertyOp1
 70
     1
102
RTVSPropertyOp2
 70
     1
102
RTVSPropertyOp3
 70
     1
102
RTVSPropertyOp4
 70
     1
102
RTVSPropertyOp5
 70
     1
102
RTVSPropertyOp6
 70
     1
102
RTVSPropertyOp7
 70
     1
102
RTVSPropertyOp8
 70
     1
102
RTVSPropertyOp9
 70
     1
102
RTVSPropertyOp10
 70
     1
102
RTVSPropertyOp11
 70
     1
102
RTVSPropertyOp12
 70
     1
102
RTVSPropertyOp13
 70
     1
102
RTVSPropertyOp14
 70
     1
102
RTVSPropertyOp15
 70
     1
102
RTVSPropertyOp16
 70
     1
102
RTVSPropertyOp17
 70
     1
102
RTVSPropertyOp18
 70
     1
102
RTVSPropertyOp19
 70
     1
102
RTVSPropertyOp20
 70
     1
102
RTVSPropertyOp21
 70
     1
102
RTVSPropertyOp22
 70
     1
102
RTVSPropertyOp23
 70
     1
102
RTVSPropertyOp24
 70
     1
102
RTVSPropertyOp25
 70
     1
102
RTVSPropertyOp26
 70
     1
102
RTVSPropertyOp27
 70
     1
102
RTVSPropertyOp28
 70
     1
102
RTVSPropertyOp29
 70
     1
102
RTVSPropertyOp30
 70
     1
102
RTVSPropertyOp31
 70
     1
102
RTVSPropertyOp32
 70
     1
102
RTVSPropertyOp33
 70
     1
102
RTVSPropertyOp34
 70
     1
102
RTVSPropertyOp35
 70
     1
102
RTVSPropertyOp36
 70
     1
102
RTVSPropertyOp37
 70
     1
102
RTVSPropertyOp38
 70
     1
102
RTVSPropertyOp39
 70
     1
102
RTVSPropertyOp40
 70
     1
102
RTVSPropertyOp41
 70
     1
102
RTVSPropertyOp42
 70
     1
102
RTVSPropertyOp43
 70
     1
102
RTVSPropertyOp44
 70
     1
102
RTVSPropertyOp45
 70
     1
102
RTVSPropertyOp46
 70
     1
102
RTVSPropertyOp47
 70
     1
102
RTVSPropertyOp48
 70
     1
102
RTVSPropertyOp49
 70
     1
102
RTVSPropertyOp50
 70
     1
102
RTVSPropertyOp51
 70
     0
102
RTVSPropertyOp52
 70
     0
102
RTVSPropertyOp53
 70
     1
102
RTVSPropertyOp54
 70
     1
102
RTVSPropertyOp55
 70
     1
102
RTVSPropertyOp56
 70
     1
102
RTVSPropertyOp57
 70
     1
102
RTVSPropertyOp58
 70
     1
102
RTVSPropertyOp59
 70
     1
102
RTVSPropertyOp60
 70
     1
102
RTVSPropertyOp61
 70
     1
102
RTVSPropertyOp62
 70
     1
  0
XRECORD
  5
1E55
102
{ACAD_REACTORS
330
1E54
102
}
330
1E54
100
AcDbXrecord
280
     1
102
RTVSPost2010Prop28
280
     0
102
RTVSPost2010PropOp28
 70
     1
102
RTVSPost2010Prop29
280
     1
102
RTVSPost2010PropOp29
 70
     1
102
RTVSPost2010Prop30
280
     1
102
RTVSPost2010PropOp30
 70
     1
102
RTVSPost2010Prop31
280
     0
102
RTVSPost2010PropOp31
 70
     1
102
RTVSPost2010Prop32
280
     0
102
RTVSPost2010PropOp32
 70
     1
102
RTVSPost2010Prop33
280
     0
102
RTVSPost2010PropOp33
 70
     1
102
RTVSPost2010Prop34
280
     0
102
RTVSPost2010PropOp34
 70
     1
102
RTVSPost2010Prop35
280
     0
102
RTVSPost2010PropOp35
 70
     1
102
RTVSPost2010Prop36
280
     0
102
RTVSPost2010PropOp36
 70
     1
102
RTVSPost2010Prop37
 90
       50
102
RTVSPost2010PropOp37
 70
     1
102
RTVSPost2010Prop38
140
0.0
102
RTVSPost2010PropOp38
 70
     1
102
RTVSPost2010Prop39
140
1.0
102
RTVSPost2010PropOp39
 70
     1
102
RTVSPost2010Prop40
 90
        0
102
RTVSPost2010PropOp40
 70
     1
102
RTVSPost2010Prop41ColorIndex
 90
       18
102
RTVSPost2010Prop41ColorRGB
 90
        0
102
RTVSPost2010PropOp41
 70
     1
102
RTVSPost2010Prop42
 90
       50
102
RTVSPost2010PropOp42
 70
     1
102
RTVSPost2010Prop43
 90
        3
102
RTVSPost2010PropOp43
 70
     1
102
RTVSPost2010Prop44ColorIndex
 90
        5
102
RTVSPost2010Prop44ColorRGB
 90
      255
102
RTVSPost2010PropOp44
 70
     1
102
RTVSPost2010Prop45
280
     0
102
RTVSPost2010PropOp45
 70
     1
102
RTVSPost2010Prop46
 90
       50
102
RTVSPost2010PropOp46
 70
     1
102
RTVSPost2010Prop47
 90
       50
102
RTVSPost2010PropOp47
 70
     1
102
RTVSPost2010Prop48
 90
       50
102
RTVSPost2010PropOp48
 70
     1
102
RTVSPost2010Prop49
280
     0
102
RTVSPost2010PropOp49
 70
     1
102
RTVSPost2010Prop50
 90
       50
102
RTVSPost2010PropOp50
 70
     1
102
RTVSPost2010Prop51ColorIndex
 90
      256
102
RTVSPost2010Prop51ColorRGB
 90
-16777216
102
RTVSPost2010PropOp51
 70
     0
102
RTVSPost2010Prop52
140
1.0
102
RTVSPost2010PropOp52
 70
     0
102
RTVSPost2010Prop53
 90
        2
102
RTVSPost2010PropOp53
 70
     1
102
RTVSPost2010Prop54
  1
strokes_ogs.tif
102
RTVSPost2010PropOp54
 70
     1
102
RTVSPost2010Prop55
280
     0
102
RTVSPost2010PropOp55
 70
     1
102
RTVSPost2010Prop56
140
1.0
102
RTVSPost2010PropOp56
 70
     1
102
RTVSPost2010Prop57
140
1.0
102
RTVSPost2010PropOp57
 70
     1
102
RTVSPropertyOp0
 70
     1
102
RTVSPropertyOp1
 70
     1
102
RTVSPropertyOp2
 70
     1
102
RTVSPropertyOp3
 70
     1
102
RTVSPropertyOp4
 70
     1
102
RTVSPropertyOp5
 70
     1
102
RTVSPropertyOp6
 70
     1
102
RTVSPropertyOp7
 70
     1
102
RTVSPropertyOp8
 70
     1
102
RTVSPropertyOp9
 70
     1
102
RTVSPropertyOp10
 70
     1
102
RTVSPropertyOp11
 70
     1
102
RTVSPropertyOp12
 70
     1
102
RTVSPropertyOp13
 70
     1
102
RTVSPropertyOp14
 70
     1
102
RTVSPropertyOp15
 70
     1
102
RTVSPropertyOp16
 70
     1
102
RTVSPropertyOp17
 70
     1
102
RTVSPropertyOp18
 70
     1
102
RTVSPropertyOp19
 70
     1
102
RTVSPropertyOp20
 70
     1
102
RTVSPropertyOp21
 70
     1
102
RTVSPropertyOp22
 70
     1
102
RTVSPropertyOp23
 70
     1
102
RTVSPropertyOp24
 70
     1
102
RTVSPropertyOp25
 70
     1
102
RTVSPropertyOp26
 70
     1
102
RTVSPropertyOp27
 70
     1
102
RTVSPropertyOp28
 70
     1
102
RTVSPropertyOp29
 70
     1
102
RTVSPropertyOp30
 70
     1
102
RTVSPropertyOp31
 70
     1
102
RTVSPropertyOp32
 70
     1
102
RTVSPropertyOp33
 70
     1
102
RTVSPropertyOp34
 70
     1
102
RTVSPropertyOp35
 70
     1
102
RTVSPropertyOp36
 70
     1
102
RTVSPropertyOp37
 70
     1
102
RTVSPropertyOp38
 70
     1
102
RTVSPropertyOp39
 70
     1
102
RTVSPropertyOp40
 70
     1
102
RTVSPropertyOp41
 70
     1
102
RTVSPropertyOp42
 70
     1
102
RTVSPropertyOp43
 70
     1
102
RTVSPropertyOp44
 70
     1
102
RTVSPropertyOp45
 70
     1
102
RTVSPropertyOp46
 70
     1
102
RTVSPropertyOp47
 70
     1
102
RTVSPropertyOp48
 70
     1
102
RTVSPropertyOp49
 70
     1
102
RTVSPropertyOp50
 70
     1
102
RTVSPropertyOp51
 70
     0
102
RTVSPropertyOp52
 70
     0
102
RTVSPropertyOp53
 70
     1
102
RTVSPropertyOp54
 70
     1
102
RTVSPropertyOp55
 70
     1
102
RTVSPropertyOp56
 70
     1
102
RTVSPropertyOp57
 70
     1
102
RTVSPropertyOp58
 70
     1
102
RTVSPropertyOp59
 70
     1
102
RTVSPropertyOp60
 70
     1
102
RTVSPropertyOp61
 70
     1
102
RTVSPropertyOp62
 70
     1
  0
XRECORD
  5
1E47
102
{ACAD_REACTORS
330
1E46
102
}
330
1E46
100
AcDbXrecord
280
     1
102
RTVSPost2010Prop28
280
     0
102
RTVSPost2010PropOp28
 70
     1
102
RTVSPost2010Prop29
280
     1
102
RTVSPost2010PropOp29
 70
     1
102
RTVSPost2010Prop30
280
     1
102
RTVSPost2010PropOp30
 70
     1
102
RTVSPost2010Prop31
280
     0
102
RTVSPost2010PropOp31
 70
     1
102
RTVSPost2010Prop32
280
     0
102
RTVSPost2010PropOp32
 70
     1
102
RTVSPost2010Prop33
280
     0
102
RTVSPost2010PropOp33
 70
     1
102
RTVSPost2010Prop34
280
     0
102
RTVSPost2010PropOp34
 70
     1
102
RTVSPost2010Prop35
280
     0
102
RTVSPost2010PropOp35
 70
     1
102
RTVSPost2010Prop36
280
     0
102
RTVSPost2010PropOp36
 70
     1
102
RTVSPost2010Prop37
 90
       50
102
RTVSPost2010PropOp37
 70
     1
102
RTVSPost2010Prop38
140
0.0
102
RTVSPost2010PropOp38
 70
     1
102
RTVSPost2010Prop39
140
1.0
102
RTVSPost2010PropOp39
 70
     1
102
RTVSPost2010Prop40
 90
        0
102
RTVSPost2010PropOp40
 70
     1
102
RTVSPost2010Prop41ColorIndex
 90
       18
102
RTVSPost2010Prop41ColorRGB
 90
        0
102
RTVSPost2010PropOp41
 70
     1
102
RTVSPost2010Prop42
 90
       50
102
RTVSPost2010PropOp42
 70
     1
102
RTVSPost2010Prop43
 90
        3
102
RTVSPost2010PropOp43
 70
     1
102
RTVSPost2010Prop44ColorIndex
 90
        5
102
RTVSPost2010Prop44ColorRGB
 90
      255
102
RTVSPost2010PropOp44
 70
     1
102
RTVSPost2010Prop45
280
     0
102
RTVSPost2010PropOp45
 70
     1
102
RTVSPost2010Prop46
 90
       50
102
RTVSPost2010PropOp46
 70
     1
102
RTVSPost2010Prop47
 90
       50
102
RTVSPost2010PropOp47
 70
     1
102
RTVSPost2010Prop48
 90
       50
102
RTVSPost2010PropOp48
 70
     1
102
RTVSPost2010Prop49
280
     0
102
RTVSPost2010PropOp49
 70
     1
102
RTVSPost2010Prop50
 90
       50
102
RTVSPost2010PropOp50
 70
     1
102
RTVSPost2010Prop51ColorIndex
 90
      256
102
RTVSPost2010Prop51ColorRGB
 90
-16777216
102
RTVSPost2010PropOp51
 70
     0
102
RTVSPost2010Prop52
140
1.0
102
RTVSPost2010PropOp52
 70
     0
102
RTVSPost2010Prop53
 90
        2
102
RTVSPost2010PropOp53
 70
     1
102
RTVSPost2010Prop54
  1
strokes_ogs.tif
102
RTVSPost2010PropOp54
 70
     1
102
RTVSPost2010Prop55
280
     0
102
RTVSPost2010PropOp55
 70
     1
102
RTVSPost2010Prop56
140
1.0
102
RTVSPost2010PropOp56
 70
     1
102
RTVSPost2010Prop57
140
1.0
102
RTVSPost2010PropOp57
 70
     1
102
RTVSPropertyOp0
 70
     1
102
RTVSPropertyOp1
 70
     1
102
RTVSPropertyOp2
 70
     1
102
RTVSPropertyOp3
 70
     1
102
RTVSPropertyOp4
 70
     1
102
RTVSPropertyOp5
 70
     1
102
RTVSPropertyOp6
 70
     1
102
RTVSPropertyOp7
 70
     1
102
RTVSPropertyOp8
 70
     1
102
RTVSPropertyOp9
 70
     1
102
RTVSPropertyOp10
 70
     1
102
RTVSPropertyOp11
 70
     1
102
RTVSPropertyOp12
 70
     1
102
RTVSPropertyOp13
 70
     1
102
RTVSPropertyOp14
 70
     1
102
RTVSPropertyOp15
 70
     1
102
RTVSPropertyOp16
 70
     1
102
RTVSPropertyOp17
 70
     1
102
RTVSPropertyOp18
 70
     1
102
RTVSPropertyOp19
 70
     1
102
RTVSPropertyOp20
 70
     1
102
RTVSPropertyOp21
 70
     1
102
RTVSPropertyOp22
 70
     1
102
RTVSPropertyOp23
 70
     1
102
RTVSPropertyOp24
 70
     1
102
RTVSPropertyOp25
 70
     1
102
RTVSPropertyOp26
 70
     1
102
RTVSPropertyOp27
 70
     1
102
RTVSPropertyOp28
 70
     1
102
RTVSPropertyOp29
 70
     1
102
RTVSPropertyOp30
 70
     1
102
RTVSPropertyOp31
 70
     1
102
RTVSPropertyOp32
 70
     1
102
RTVSPropertyOp33
 70
     1
102
RTVSPropertyOp34
 70
     1
102
RTVSPropertyOp35
 70
     1
102
RTVSPropertyOp36
 70
     1
102
RTVSPropertyOp37
 70
     1
102
RTVSPropertyOp38
 70
     1
102
RTVSPropertyOp39
 70
     1
102
RTVSPropertyOp40
 70
     1
102
RTVSPropertyOp41
 70
     1
102
RTVSPropertyOp42
 70
     1
102
RTVSPropertyOp43
 70
     1
102
RTVSPropertyOp44
 70
     1
102
RTVSPropertyOp45
 70
     1
102
RTVSPropertyOp46
 70
     1
102
RTVSPropertyOp47
 70
     1
102
RTVSPropertyOp48
 70
     1
102
RTVSPropertyOp49
 70
     1
102
RTVSPropertyOp50
 70
     1
102
RTVSPropertyOp51
 70
     0
102
RTVSPropertyOp52
 70
     0
102
RTVSPropertyOp53
 70
     1
102
RTVSPropertyOp54
 70
     1
102
RTVSPropertyOp55
 70
     1
102
RTVSPropertyOp56
 70
     1
102
RTVSPropertyOp57
 70
     1
102
RTVSPropertyOp58
 70
     1
102
RTVSPropertyOp59
 70
     1
102
RTVSPropertyOp60
 70
     1
102
RTVSPropertyOp61
 70
     1
102
RTVSPropertyOp62
 70
     1
  0
XRECORD
  5
1E4B
102
{ACAD_REACTORS
330
1E4A
102
}
330
1E4A
100
AcDbXrecord
280
     1
102
RTVSPost2010Prop28
280
     0
102
RTVSPost2010PropOp28
 70
     1
102
RTVSPost2010Prop29
280
     1
102
RTVSPost2010PropOp29
 70
     1
102
RTVSPost2010Prop30
280
     1
102
RTVSPost2010PropOp30
 70
     1
102
RTVSPost2010Prop31
280
     0
102
RTVSPost2010PropOp31
 70
     1
102
RTVSPost2010Prop32
280
     0
102
RTVSPost2010PropOp32
 70
     1
102
RTVSPost2010Prop33
280
     0
102
RTVSPost2010PropOp33
 70
     1
102
RTVSPost2010Prop34
280
     0
102
RTVSPost2010PropOp34
 70
     1
102
RTVSPost2010Prop35
280
     0
102
RTVSPost2010PropOp35
 70
     1
102
RTVSPost2010Prop36
280
     0
102
RTVSPost2010PropOp36
 70
     1
102
RTVSPost2010Prop37
 90
       50
102
RTVSPost2010PropOp37
 70
     1
102
RTVSPost2010Prop38
140
0.0
102
RTVSPost2010PropOp38
 70
     1
102
RTVSPost2010Prop39
140
1.0
102
RTVSPost2010PropOp39
 70
     1
102
RTVSPost2010Prop40
 90
        0
102
RTVSPost2010PropOp40
 70
     1
102
RTVSPost2010Prop41ColorIndex
 90
       18
102
RTVSPost2010Prop41ColorRGB
 90
        0
102
RTVSPost2010PropOp41
 70
     1
102
RTVSPost2010Prop42
 90
       50
102
RTVSPost2010PropOp42
 70
     1
102
RTVSPost2010Prop43
 90
        3
102
RTVSPost2010PropOp43
 70
     1
102
RTVSPost2010Prop44ColorIndex
 90
        5
102
RTVSPost2010Prop44ColorRGB
 90
      255
102
RTVSPost2010PropOp44
 70
     1
102
RTVSPost2010Prop45
280
     0
102
RTVSPost2010PropOp45
 70
     1
102
RTVSPost2010Prop46
 90
       50
102
RTVSPost2010PropOp46
 70
     1
102
RTVSPost2010Prop47
 90
       50
102
RTVSPost2010PropOp47
 70
     1
102
RTVSPost2010Prop48
 90
       50
102
RTVSPost2010PropOp48
 70
     1
102
RTVSPost2010Prop49
280
     0
102
RTVSPost2010PropOp49
 70
     1
102
RTVSPost2010Prop50
 90
       50
102
RTVSPost2010PropOp50
 70
     1
102
RTVSPost2010Prop51ColorIndex
 90
      256
102
RTVSPost2010Prop51ColorRGB
 90
-16777216
102
RTVSPost2010PropOp51
 70
     0
102
RTVSPost2010Prop52
140
1.0
102
RTVSPost2010PropOp52
 70
     0
102
RTVSPost2010Prop53
 90
        2
102
RTVSPost2010PropOp53
 70
     1
102
RTVSPost2010Prop54
  1
strokes_ogs.tif
102
RTVSPost2010PropOp54
 70
     1
102
RTVSPost2010Prop55
280
     0
102
RTVSPost2010PropOp55
 70
     1
102
RTVSPost2010Prop56
140
1.0
102
RTVSPost2010PropOp56
 70
     1
102
RTVSPost2010Prop57
140
1.0
102
RTVSPost2010PropOp57
 70
     1
102
RTVSPropertyOp0
 70
     1
102
RTVSPropertyOp1
 70
     1
102
RTVSPropertyOp2
 70
     1
102
RTVSPropertyOp3
 70
     1
102
RTVSPropertyOp4
 70
     1
102
RTVSPropertyOp5
 70
     1
102
RTVSPropertyOp6
 70
     1
102
RTVSPropertyOp7
 70
     1
102
RTVSPropertyOp8
 70
     1
102
RTVSPropertyOp9
 70
     1
102
RTVSPropertyOp10
 70
     1
102
RTVSPropertyOp11
 70
     1
102
RTVSPropertyOp12
 70
     1
102
RTVSPropertyOp13
 70
     1
102
RTVSPropertyOp14
 70
     1
102
RTVSPropertyOp15
 70
     1
102
RTVSPropertyOp16
 70
     1
102
RTVSPropertyOp17
 70
     1
102
RTVSPropertyOp18
 70
     1
102
RTVSPropertyOp19
 70
     1
102
RTVSPropertyOp20
 70
     1
102
RTVSPropertyOp21
 70
     1
102
RTVSPropertyOp22
 70
     1
102
RTVSPropertyOp23
 70
     1
102
RTVSPropertyOp24
 70
     1
102
RTVSPropertyOp25
 70
     1
102
RTVSPropertyOp26
 70
     1
102
RTVSPropertyOp27
 70
     1
102
RTVSPropertyOp28
 70
     1
102
RTVSPropertyOp29
 70
     1
102
RTVSPropertyOp30
 70
     1
102
RTVSPropertyOp31
 70
     1
102
RTVSPropertyOp32
 70
     1
102
RTVSPropertyOp33
 70
     1
102
RTVSPropertyOp34
 70
     1
102
RTVSPropertyOp35
 70
     1
102
RTVSPropertyOp36
 70
     1
102
RTVSPropertyOp37
 70
     1
102
RTVSPropertyOp38
 70
     1
102
RTVSPropertyOp39
 70
     1
102
RTVSPropertyOp40
 70
     1
102
RTVSPropertyOp41
 70
     1
102
RTVSPropertyOp42
 70
     1
102
RTVSPropertyOp43
 70
     1
102
RTVSPropertyOp44
 70
     1
102
RTVSPropertyOp45
 70
     1
102
RTVSPropertyOp46
 70
     1
102
RTVSPropertyOp47
 70
     1
102
RTVSPropertyOp48
 70
     1
102
RTVSPropertyOp49
 70
     1
102
RTVSPropertyOp50
 70
     1
102
RTVSPropertyOp51
 70
     0
102
RTVSPropertyOp52
 70
     0
102
RTVSPropertyOp53
 70
     1
102
RTVSPropertyOp54
 70
     1
102
RTVSPropertyOp55
 70
     1
102
RTVSPropertyOp56
 70
     1
102
RTVSPropertyOp57
 70
     1
102
RTVSPropertyOp58
 70
     1
102
RTVSPropertyOp59
 70
     1
102
RTVSPropertyOp60
 70
     1
102
RTVSPropertyOp61
 70
     1
102
RTVSPropertyOp62
 70
     1
  0
XRECORD
  5
1E65
102
{ACAD_REACTORS
330
1E64
102
}
330
1E64
100
AcDbXrecord
280
     1
102
RTVSPost2010Prop28
280
     0
102
RTVSPost2010PropOp28
 70
     1
102
RTVSPost2010Prop29
280
     1
102
RTVSPost2010PropOp29
 70
     1
102
RTVSPost2010Prop30
280
     1
102
RTVSPost2010PropOp30
 70
     1
102
RTVSPost2010Prop31
280
     0
102
RTVSPost2010PropOp31
 70
     1
102
RTVSPost2010Prop32
280
     0
102
RTVSPost2010PropOp32
 70
     1
102
RTVSPost2010Prop33
280
     0
102
RTVSPost2010PropOp33
 70
     1
102
RTVSPost2010Prop34
280
     0
102
RTVSPost2010PropOp34
 70
     1
102
RTVSPost2010Prop35
280
     0
102
RTVSPost2010PropOp35
 70
     1
102
RTVSPost2010Prop36
280
     0
102
RTVSPost2010PropOp36
 70
     1
102
RTVSPost2010Prop37
 90
       50
102
RTVSPost2010PropOp37
 70
     0
102
RTVSPost2010Prop38
140
0.0
102
RTVSPost2010PropOp38
 70
     0
102
RTVSPost2010Prop39
140
1.0
102
RTVSPost2010PropOp39
 70
     0
102
RTVSPost2010Prop40
 90
        0
102
RTVSPost2010PropOp40
 70
     0
102
RTVSPost2010Prop41ColorIndex
 90
       18
102
RTVSPost2010Prop41ColorRGB
 90
        0
102
RTVSPost2010PropOp41
 70
     0
102
RTVSPost2010Prop42
 90
       50
102
RTVSPost2010PropOp42
 70
     0
102
RTVSPost2010Prop43
 90
        3
102
RTVSPost2010PropOp43
 70
     0
102
RTVSPost2010Prop44ColorIndex
 90
        5
102
RTVSPost2010Prop44ColorRGB
 90
      255
102
RTVSPost2010PropOp44
 70
     0
102
RTVSPost2010Prop45
280
     0
102
RTVSPost2010PropOp45
 70
     1
102
RTVSPost2010Prop46
 90
       50
102
RTVSPost2010PropOp46
 70
     0
102
RTVSPost2010Prop47
 90
       50
102
RTVSPost2010PropOp47
 70
     0
102
RTVSPost2010Prop48
 90
       50
102
RTVSPost2010PropOp48
 70
     0
102
RTVSPost2010Prop49
280
     0
102
RTVSPost2010PropOp49
 70
     1
102
RTVSPost2010Prop50
 90
       50
102
RTVSPost2010PropOp50
 70
     0
102
RTVSPost2010Prop51ColorIndex
 90
      256
102
RTVSPost2010Prop51ColorRGB
 90
-16777216
102
RTVSPost2010PropOp51
 70
     0
102
RTVSPost2010Prop52
140
1.0
102
RTVSPost2010PropOp52
 70
     0
102
RTVSPost2010Prop53
 90
        2
102
RTVSPost2010PropOp53
 70
     0
102
RTVSPost2010Prop54
  1
strokes_ogs.tif
102
RTVSPost2010PropOp54
 70
     0
102
RTVSPost2010Prop55
280
     0
102
RTVSPost2010PropOp55
 70
     1
102
RTVSPost2010Prop56
140
1.0
102
RTVSPost2010PropOp56
 70
     0
102
RTVSPost2010Prop57
140
1.0
102
RTVSPost2010PropOp57
 70
     0
102
RTVSPropertyOp0
 70
     0
102
RTVSPropertyOp1
 70
     0
102
RTVSPropertyOp2
 70
     0
102
RTVSPropertyOp3
 70
     0
102
RTVSPropertyOp4
 70
     0
102
RTVSPropertyOp5
 70
     0
102
RTVSPropertyOp6
 70
     0
102
RTVSPropertyOp7
 70
     0
102
RTVSPropertyOp8
 70
     0
102
RTVSPropertyOp9
 70
     0
102
RTVSPropertyOp10
 70
     0
102
RTVSPropertyOp11
 70
     0
102
RTVSPropertyOp12
 70
     0
102
RTVSPropertyOp13
 70
     0
102
RTVSPropertyOp14
 70
     2
102
RTVSPropertyOp15
 70
     0
102
RTVSPropertyOp16
 70
     0
102
RTVSPropertyOp17
 70
     0
102
RTVSPropertyOp18
 70
     0
102
RTVSPropertyOp19
 70
     0
102
RTVSPropertyOp20
 70
     0
102
RTVSPropertyOp21
 70
     0
102
RTVSPropertyOp22
 70
     0
102
RTVSPropertyOp23
 70
     0
102
RTVSPropertyOp24
 70
     0
102
RTVSPropertyOp25
 70
     0
102
RTVSPropertyOp26
 70
     0
102
RTVSPropertyOp27
 70
     0
102
RTVSPropertyOp28
 70
     1
102
RTVSPropertyOp29
 70
     1
102
RTVSPropertyOp30
 70
     1
102
RTVSPropertyOp31
 70
     1
102
RTVSPropertyOp32
 70
     1
102
RTVSPropertyOp33
 70
     1
102
RTVSPropertyOp34
 70
     1
102
RTVSPropertyOp35
 70
     1
102
RTVSPropertyOp36
 70
     1
102
RTVSPropertyOp37
 70
     0
102
RTVSPropertyOp38
 70
     0
102
RTVSPropertyOp39
 70
     0
102
RTVSPropertyOp40
 70
     0
102
RTVSPropertyOp41
 70
     0
102
RTVSPropertyOp42
 70
     0
102
RTVSPropertyOp43
 70
     0
102
RTVSPropertyOp44
 70
     0
102
RTVSPropertyOp45
 70
     1
102
RTVSPropertyOp46
 70
     0
102
RTVSPropertyOp47
 70
     0
102
RTVSPropertyOp48
 70
     0
102
RTVSPropertyOp49
 70
     1
102
RTVSPropertyOp50
 70
     0
102
RTVSPropertyOp51
 70
     0
102
RTVSPropertyOp52
 70
     0
102
RTVSPropertyOp53
 70
     0
102
RTVSPropertyOp54
 70
     0
102
RTVSPropertyOp55
 70
     1
102
RTVSPropertyOp56
 70
     0
102
RTVSPropertyOp57
 70
     0
102
RTVSPropertyOp58
 70
     0
102
RTVSPropertyOp59
 70
     0
102
RTVSPropertyOp60
 70
     0
102
RTVSPropertyOp61
 70
     0
102
RTVSPropertyOp62
 70
     0
  0
XRECORD
  5
1E53
102
{ACAD_REACTORS
330
1E52
102
}
330
1E52
100
AcDbXrecord
280
     1
102
RTVSPost2010Prop28
280
     0
102
RTVSPost2010PropOp28
 70
     1
102
RTVSPost2010Prop29
280
     1
102
RTVSPost2010PropOp29
 70
     1
102
RTVSPost2010Prop30
280
     1
102
RTVSPost2010PropOp30
 70
     1
102
RTVSPost2010Prop31
280
     0
102
RTVSPost2010PropOp31
 70
     1
102
RTVSPost2010Prop32
280
     0
102
RTVSPost2010PropOp32
 70
     1
102
RTVSPost2010Prop33
280
     0
102
RTVSPost2010PropOp33
 70
     1
102
RTVSPost2010Prop34
280
     0
102
RTVSPost2010PropOp34
 70
     1
102
RTVSPost2010Prop35
280
     0
102
RTVSPost2010PropOp35
 70
     1
102
RTVSPost2010Prop36
280
     0
102
RTVSPost2010PropOp36
 70
     1
102
RTVSPost2010Prop37
 90
       50
102
RTVSPost2010PropOp37
 70
     1
102
RTVSPost2010Prop38
140
0.0
102
RTVSPost2010PropOp38
 70
     1
102
RTVSPost2010Prop39
140
1.0
102
RTVSPost2010PropOp39
 70
     1
102
RTVSPost2010Prop40
 90
        0
102
RTVSPost2010PropOp40
 70
     1
102
RTVSPost2010Prop41ColorIndex
 90
       18
102
RTVSPost2010Prop41ColorRGB
 90
        0
102
RTVSPost2010PropOp41
 70
     1
102
RTVSPost2010Prop42
 90
       50
102
RTVSPost2010PropOp42
 70
     1
102
RTVSPost2010Prop43
 90
        3
102
RTVSPost2010PropOp43
 70
     1
102
RTVSPost2010Prop44ColorIndex
 90
        5
102
RTVSPost2010Prop44ColorRGB
 90
      255
102
RTVSPost2010PropOp44
 70
     1
102
RTVSPost2010Prop45
280
     0
102
RTVSPost2010PropOp45
 70
     1
102
RTVSPost2010Prop46
 90
       50
102
RTVSPost2010PropOp46
 70
     1
102
RTVSPost2010Prop47
 90
       50
102
RTVSPost2010PropOp47
 70
     1
102
RTVSPost2010Prop48
 90
       50
102
RTVSPost2010PropOp48
 70
     1
102
RTVSPost2010Prop49
280
     0
102
RTVSPost2010PropOp49
 70
     1
102
RTVSPost2010Prop50
 90
       50
102
RTVSPost2010PropOp50
 70
     1
102
RTVSPost2010Prop51ColorIndex
 90
      256
102
RTVSPost2010Prop51ColorRGB
 90
-16777216
102
RTVSPost2010PropOp51
 70
     0
102
RTVSPost2010Prop52
140
1.0
102
RTVSPost2010PropOp52
 70
     0
102
RTVSPost2010Prop53
 90
        2
102
RTVSPost2010PropOp53
 70
     1
102
RTVSPost2010Prop54
  1
strokes_ogs.tif
102
RTVSPost2010PropOp54
 70
     1
102
RTVSPost2010Prop55
280
     0
102
RTVSPost2010PropOp55
 70
     1
102
RTVSPost2010Prop56
140
1.0
102
RTVSPost2010PropOp56
 70
     1
102
RTVSPost2010Prop57
140
1.0
102
RTVSPost2010PropOp57
 70
     1
102
RTVSPropertyOp0
 70
     1
102
RTVSPropertyOp1
 70
     1
102
RTVSPropertyOp2
 70
     1
102
RTVSPropertyOp3
 70
     1
102
RTVSPropertyOp4
 70
     1
102
RTVSPropertyOp5
 70
     1
102
RTVSPropertyOp6
 70
     1
102
RTVSPropertyOp7
 70
     1
102
RTVSPropertyOp8
 70
     1
102
RTVSPropertyOp9
 70
     1
102
RTVSPropertyOp10
 70
     1
102
RTVSPropertyOp11
 70
     1
102
RTVSPropertyOp12
 70
     1
102
RTVSPropertyOp13
 70
     1
102
RTVSPropertyOp14
 70
     1
102
RTVSPropertyOp15
 70
     1
102
RTVSPropertyOp16
 70
     1
102
RTVSPropertyOp17
 70
     1
102
RTVSPropertyOp18
 70
     1
102
RTVSPropertyOp19
 70
     1
102
RTVSPropertyOp20
 70
     1
102
RTVSPropertyOp21
 70
     1
102
RTVSPropertyOp22
 70
     1
102
RTVSPropertyOp23
 70
     1
102
RTVSPropertyOp24
 70
     1
102
RTVSPropertyOp25
 70
     1
102
RTVSPropertyOp26
 70
     1
102
RTVSPropertyOp27
 70
     1
102
RTVSPropertyOp28
 70
     1
102
RTVSPropertyOp29
 70
     1
102
RTVSPropertyOp30
 70
     1
102
RTVSPropertyOp31
 70
     1
102
RTVSPropertyOp32
 70
     1
102
RTVSPropertyOp33
 70
     1
102
RTVSPropertyOp34
 70
     1
102
RTVSPropertyOp35
 70
     1
102
RTVSPropertyOp36
 70
     1
102
RTVSPropertyOp37
 70
     1
102
RTVSPropertyOp38
 70
     1
102
RTVSPropertyOp39
 70
     1
102
RTVSPropertyOp40
 70
     1
102
RTVSPropertyOp41
 70
     1
102
RTVSPropertyOp42
 70
     1
102
RTVSPropertyOp43
 70
     1
102
RTVSPropertyOp44
 70
     1
102
RTVSPropertyOp45
 70
     1
102
RTVSPropertyOp46
 70
     1
102
RTVSPropertyOp47
 70
     1
102
RTVSPropertyOp48
 70
     1
102
RTVSPropertyOp49
 70
     1
102
RTVSPropertyOp50
 70
     1
102
RTVSPropertyOp51
 70
     0
102
RTVSPropertyOp52
 70
     0
102
RTVSPropertyOp53
 70
     1
102
RTVSPropertyOp54
 70
     1
102
RTVSPropertyOp55
 70
     1
102
RTVSPropertyOp56
 70
     1
102
RTVSPropertyOp57
 70
     1
102
RTVSPropertyOp58
 70
     1
102
RTVSPropertyOp59
 70
     1
102
RTVSPropertyOp60
 70
     1
102
RTVSPropertyOp61
 70
     1
102
RTVSPropertyOp62
 70
     1
  0
XRECORD
  5
1E37
102
{ACAD_REACTORS
330
1E36
102
}
330
1E36
100
AcDbXrecord
280
     1
102
RTVSPost2010Prop28
280
     0
102
RTVSPost2010PropOp28
 70
     1
102
RTVSPost2010Prop29
280
     1
102
RTVSPost2010PropOp29
 70
     1
102
RTVSPost2010Prop30
280
     1
102
RTVSPost2010PropOp30
 70
     1
102
RTVSPost2010Prop31
280
     0
102
RTVSPost2010PropOp31
 70
     1
102
RTVSPost2010Prop32
280
     0
102
RTVSPost2010PropOp32
 70
     1
102
RTVSPost2010Prop33
280
     0
102
RTVSPost2010PropOp33
 70
     1
102
RTVSPost2010Prop34
280
     0
102
RTVSPost2010PropOp34
 70
     1
102
RTVSPost2010Prop35
280
     0
102
RTVSPost2010PropOp35
 70
     1
102
RTVSPost2010Prop36
280
     0
102
RTVSPost2010PropOp36
 70
     1
102
RTVSPost2010Prop37
 90
       50
102
RTVSPost2010PropOp37
 70
     1
102
RTVSPost2010Prop38
140
0.0
102
RTVSPost2010PropOp38
 70
     1
102
RTVSPost2010Prop39
140
1.0
102
RTVSPost2010PropOp39
 70
     1
102
RTVSPost2010Prop40
 90
        0
102
RTVSPost2010PropOp40
 70
     1
102
RTVSPost2010Prop41ColorIndex
 90
       18
102
RTVSPost2010Prop41ColorRGB
 90
        0
102
RTVSPost2010PropOp41
 70
     1
102
RTVSPost2010Prop42
 90
       50
102
RTVSPost2010PropOp42
 70
     1
102
RTVSPost2010Prop43
 90
        3
102
RTVSPost2010PropOp43
 70
     1
102
RTVSPost2010Prop44ColorIndex
 90
        5
102
RTVSPost2010Prop44ColorRGB
 90
      255
102
RTVSPost2010PropOp44
 70
     1
102
RTVSPost2010Prop45
280
     0
102
RTVSPost2010PropOp45
 70
     1
102
RTVSPost2010Prop46
 90
       50
102
RTVSPost2010PropOp46
 70
     1
102
RTVSPost2010Prop47
 90
       50
102
RTVSPost2010PropOp47
 70
     1
102
RTVSPost2010Prop48
 90
       50
102
RTVSPost2010PropOp48
 70
     1
102
RTVSPost2010Prop49
280
     0
102
RTVSPost2010PropOp49
 70
     1
102
RTVSPost2010Prop50
 90
       50
102
RTVSPost2010PropOp50
 70
     1
102
RTVSPost2010Prop51ColorIndex
 90
      256
102
RTVSPost2010Prop51ColorRGB
 90
-16777216
102
RTVSPost2010PropOp51
 70
     0
102
RTVSPost2010Prop52
140
1.0
102
RTVSPost2010PropOp52
 70
     0
102
RTVSPost2010Prop53
 90
        2
102
RTVSPost2010PropOp53
 70
     1
102
RTVSPost2010Prop54
  1
strokes_ogs.tif
102
RTVSPost2010PropOp54
 70
     1
102
RTVSPost2010Prop55
280
     0
102
RTVSPost2010PropOp55
 70
     1
102
RTVSPost2010Prop56
140
1.0
102
RTVSPost2010PropOp56
 70
     1
102
RTVSPost2010Prop57
140
1.0
102
RTVSPost2010PropOp57
 70
     1
102
RTVSPropertyOp0
 70
     1
102
RTVSPropertyOp1
 70
     1
102
RTVSPropertyOp2
 70
     1
102
RTVSPropertyOp3
 70
     1
102
RTVSPropertyOp4
 70
     1
102
RTVSPropertyOp5
 70
     1
102
RTVSPropertyOp6
 70
     1
102
RTVSPropertyOp7
 70
     1
102
RTVSPropertyOp8
 70
     1
102
RTVSPropertyOp9
 70
     1
102
RTVSPropertyOp10
 70
     1
102
RTVSPropertyOp11
 70
     1
102
RTVSPropertyOp12
 70
     1
102
RTVSPropertyOp13
 70
     1
102
RTVSPropertyOp14
 70
     1
102
RTVSPropertyOp15
 70
     1
102
RTVSPropertyOp16
 70
     1
102
RTVSPropertyOp17
 70
     1
102
RTVSPropertyOp18
 70
     1
102
RTVSPropertyOp19
 70
     1
102
RTVSPropertyOp20
 70
     1
102
RTVSPropertyOp21
 70
     1
102
RTVSPropertyOp22
 70
     1
102
RTVSPropertyOp23
 70
     1
102
RTVSPropertyOp24
 70
     1
102
RTVSPropertyOp25
 70
     1
102
RTVSPropertyOp26
 70
     1
102
RTVSPropertyOp27
 70
     1
102
RTVSPropertyOp28
 70
     1
102
RTVSPropertyOp29
 70
     1
102
RTVSPropertyOp30
 70
     1
102
RTVSPropertyOp31
 70
     1
102
RTVSPropertyOp32
 70
     1
102
RTVSPropertyOp33
 70
     1
102
RTVSPropertyOp34
 70
     1
102
RTVSPropertyOp35
 70
     1
102
RTVSPropertyOp36
 70
     1
102
RTVSPropertyOp37
 70
     1
102
RTVSPropertyOp38
 70
     1
102
RTVSPropertyOp39
 70
     1
102
RTVSPropertyOp40
 70
     1
102
RTVSPropertyOp41
 70
     1
102
RTVSPropertyOp42
 70
     1
102
RTVSPropertyOp43
 70
     1
102
RTVSPropertyOp44
 70
     1
102
RTVSPropertyOp45
 70
     1
102
RTVSPropertyOp46
 70
     1
102
RTVSPropertyOp47
 70
     1
102
RTVSPropertyOp48
 70
     1
102
RTVSPropertyOp49
 70
     1
102
RTVSPropertyOp50
 70
     1
102
RTVSPropertyOp51
 70
     0
102
RTVSPropertyOp52
 70
     0
102
RTVSPropertyOp53
 70
     1
102
RTVSPropertyOp54
 70
     1
102
RTVSPropertyOp55
 70
     1
102
RTVSPropertyOp56
 70
     1
102
RTVSPropertyOp57
 70
     1
102
RTVSPropertyOp58
 70
     1
102
RTVSPropertyOp59
 70
     1
102
RTVSPropertyOp60
 70
     1
102
RTVSPropertyOp61
 70
     1
102
RTVSPropertyOp62
 70
     1
  0
XRECORD
  5
1E39
102
{ACAD_REACTORS
330
1E38
102
}
330
1E38
100
AcDbXrecord
280
     1
102
RTVSPost2010Prop28
280
     0
102
RTVSPost2010PropOp28
 70
     1
102
RTVSPost2010Prop29
280
     1
102
RTVSPost2010PropOp29
 70
     1
102
RTVSPost2010Prop30
280
     1
102
RTVSPost2010PropOp30
 70
     1
102
RTVSPost2010Prop31
280
     0
102
RTVSPost2010PropOp31
 70
     1
102
RTVSPost2010Prop32
280
     0
102
RTVSPost2010PropOp32
 70
     1
102
RTVSPost2010Prop33
280
     0
102
RTVSPost2010PropOp33
 70
     1
102
RTVSPost2010Prop34
280
     0
102
RTVSPost2010PropOp34
 70
     1
102
RTVSPost2010Prop35
280
     0
102
RTVSPost2010PropOp35
 70
     1
102
RTVSPost2010Prop36
280
     0
102
RTVSPost2010PropOp36
 70
     1
102
RTVSPost2010Prop37
 90
       50
102
RTVSPost2010PropOp37
 70
     1
102
RTVSPost2010Prop38
140
0.0
102
RTVSPost2010PropOp38
 70
     1
102
RTVSPost2010Prop39
140
1.0
102
RTVSPost2010PropOp39
 70
     1
102
RTVSPost2010Prop40
 90
        0
102
RTVSPost2010PropOp40
 70
     1
102
RTVSPost2010Prop41ColorIndex
 90
       18
102
RTVSPost2010Prop41ColorRGB
 90
        0
102
RTVSPost2010PropOp41
 70
     1
102
RTVSPost2010Prop42
 90
       50
102
RTVSPost2010PropOp42
 70
     1
102
RTVSPost2010Prop43
 90
        3
102
RTVSPost2010PropOp43
 70
     1
102
RTVSPost2010Prop44ColorIndex
 90
        5
102
RTVSPost2010Prop44ColorRGB
 90
      255
102
RTVSPost2010PropOp44
 70
     1
102
RTVSPost2010Prop45
280
     0
102
RTVSPost2010PropOp45
 70
     1
102
RTVSPost2010Prop46
 90
       50
102
RTVSPost2010PropOp46
 70
     1
102
RTVSPost2010Prop47
 90
       50
102
RTVSPost2010PropOp47
 70
     1
102
RTVSPost2010Prop48
 90
       50
102
RTVSPost2010PropOp48
 70
     1
102
RTVSPost2010Prop49
280
     0
102
RTVSPost2010PropOp49
 70
     1
102
RTVSPost2010Prop50
 90
       50
102
RTVSPost2010PropOp50
 70
     1
102
RTVSPost2010Prop51ColorIndex
 90
      256
102
RTVSPost2010Prop51ColorRGB
 90
-16777216
102
RTVSPost2010PropOp51
 70
     0
102
RTVSPost2010Prop52
140
1.0
102
RTVSPost2010PropOp52
 70
     0
102
RTVSPost2010Prop53
 90
        2
102
RTVSPost2010PropOp53
 70
     1
102
RTVSPost2010Prop54
  1
strokes_ogs.tif
102
RTVSPost2010PropOp54
 70
     1
102
RTVSPost2010Prop55
280
     0
102
RTVSPost2010PropOp55
 70
     1
102
RTVSPost2010Prop56
140
1.0
102
RTVSPost2010PropOp56
 70
     1
102
RTVSPost2010Prop57
140
1.0
102
RTVSPost2010PropOp57
 70
     1
102
RTVSPropertyOp0
 70
     1
102
RTVSPropertyOp1
 70
     1
102
RTVSPropertyOp2
 70
     1
102
RTVSPropertyOp3
 70
     1
102
RTVSPropertyOp4
 70
     1
102
RTVSPropertyOp5
 70
     1
102
RTVSPropertyOp6
 70
     1
102
RTVSPropertyOp7
 70
     1
102
RTVSPropertyOp8
 70
     1
102
RTVSPropertyOp9
 70
     1
102
RTVSPropertyOp10
 70
     1
102
RTVSPropertyOp11
 70
     1
102
RTVSPropertyOp12
 70
     1
102
RTVSPropertyOp13
 70
     1
102
RTVSPropertyOp14
 70
     1
102
RTVSPropertyOp15
 70
     1
102
RTVSPropertyOp16
 70
     1
102
RTVSPropertyOp17
 70
     1
102
RTVSPropertyOp18
 70
     1
102
RTVSPropertyOp19
 70
     1
102
RTVSPropertyOp20
 70
     1
102
RTVSPropertyOp21
 70
     1
102
RTVSPropertyOp22
 70
     1
102
RTVSPropertyOp23
 70
     1
102
RTVSPropertyOp24
 70
     1
102
RTVSPropertyOp25
 70
     1
102
RTVSPropertyOp26
 70
     1
102
RTVSPropertyOp27
 70
     1
102
RTVSPropertyOp28
 70
     1
102
RTVSPropertyOp29
 70
     1
102
RTVSPropertyOp30
 70
     1
102
RTVSPropertyOp31
 70
     1
102
RTVSPropertyOp32
 70
     1
102
RTVSPropertyOp33
 70
     1
102
RTVSPropertyOp34
 70
     1
102
RTVSPropertyOp35
 70
     1
102
RTVSPropertyOp36
 70
     1
102
RTVSPropertyOp37
 70
     1
102
RTVSPropertyOp38
 70
     1
102
RTVSPropertyOp39
 70
     1
102
RTVSPropertyOp40
 70
     1
102
RTVSPropertyOp41
 70
     1
102
RTVSPropertyOp42
 70
     1
102
RTVSPropertyOp43
 70
     1
102
RTVSPropertyOp44
 70
     1
102
RTVSPropertyOp45
 70
     1
102
RTVSPropertyOp46
 70
     1
102
RTVSPropertyOp47
 70
     1
102
RTVSPropertyOp48
 70
     1
102
RTVSPropertyOp49
 70
     1
102
RTVSPropertyOp50
 70
     1
102
RTVSPropertyOp51
 70
     0
102
RTVSPropertyOp52
 70
     0
102
RTVSPropertyOp53
 70
     1
102
RTVSPropertyOp54
 70
     1
102
RTVSPropertyOp55
 70
     1
102
RTVSPropertyOp56
 70
     1
102
RTVSPropertyOp57
 70
     1
102
RTVSPropertyOp58
 70
     1
102
RTVSPropertyOp59
 70
     1
102
RTVSPropertyOp60
 70
     1
102
RTVSPropertyOp61
 70
     1
102
RTVSPropertyOp62
 70
     1
  0
XRECORD
  5
1E3B
102
{ACAD_REACTORS
330
1E3A
102
}
330
1E3A
100
AcDbXrecord
280
     1
102
RTVSPost2010Prop28
280
     0
102
RTVSPost2010PropOp28
 70
     1
102
RTVSPost2010Prop29
280
     1
102
RTVSPost2010PropOp29
 70
     1
102
RTVSPost2010Prop30
280
     1
102
RTVSPost2010PropOp30
 70
     1
102
RTVSPost2010Prop31
280
     0
102
RTVSPost2010PropOp31
 70
     1
102
RTVSPost2010Prop32
280
     0
102
RTVSPost2010PropOp32
 70
     1
102
RTVSPost2010Prop33
280
     0
102
RTVSPost2010PropOp33
 70
     1
102
RTVSPost2010Prop34
280
     0
102
RTVSPost2010PropOp34
 70
     1
102
RTVSPost2010Prop35
280
     0
102
RTVSPost2010PropOp35
 70
     1
102
RTVSPost2010Prop36
280
     0
102
RTVSPost2010PropOp36
 70
     1
102
RTVSPost2010Prop37
 90
       50
102
RTVSPost2010PropOp37
 70
     1
102
RTVSPost2010Prop38
140
0.0
102
RTVSPost2010PropOp38
 70
     1
102
RTVSPost2010Prop39
140
1.0
102
RTVSPost2010PropOp39
 70
     1
102
RTVSPost2010Prop40
 90
        0
102
RTVSPost2010PropOp40
 70
     1
102
RTVSPost2010Prop41ColorIndex
 90
       18
102
RTVSPost2010Prop41ColorRGB
 90
        0
102
RTVSPost2010PropOp41
 70
     1
102
RTVSPost2010Prop42
 90
       50
102
RTVSPost2010PropOp42
 70
     1
102
RTVSPost2010Prop43
 90
        3
102
RTVSPost2010PropOp43
 70
     1
102
RTVSPost2010Prop44ColorIndex
 90
        5
102
RTVSPost2010Prop44ColorRGB
 90
      255
102
RTVSPost2010PropOp44
 70
     1
102
RTVSPost2010Prop45
280
     0
102
RTVSPost2010PropOp45
 70
     1
102
RTVSPost2010Prop46
 90
       50
102
RTVSPost2010PropOp46
 70
     1
102
RTVSPost2010Prop47
 90
       50
102
RTVSPost2010PropOp47
 70
     1
102
RTVSPost2010Prop48
 90
       50
102
RTVSPost2010PropOp48
 70
     1
102
RTVSPost2010Prop49
280
     0
102
RTVSPost2010PropOp49
 70
     1
102
RTVSPost2010Prop50
 90
       50
102
RTVSPost2010PropOp50
 70
     1
102
RTVSPost2010Prop51ColorIndex
 90
      256
102
RTVSPost2010Prop51ColorRGB
 90
-16777216
102
RTVSPost2010PropOp51
 70
     0
102
RTVSPost2010Prop52
140
1.0
102
RTVSPost2010PropOp52
 70
     0
102
RTVSPost2010Prop53
 90
        2
102
RTVSPost2010PropOp53
 70
     1
102
RTVSPost2010Prop54
  1
strokes_ogs.tif
102
RTVSPost2010PropOp54
 70
     1
102
RTVSPost2010Prop55
280
     0
102
RTVSPost2010PropOp55
 70
     1
102
RTVSPost2010Prop56
140
1.0
102
RTVSPost2010PropOp56
 70
     1
102
RTVSPost2010Prop57
140
1.0
102
RTVSPost2010PropOp57
 70
     1
102
RTVSPropertyOp0
 70
     1
102
RTVSPropertyOp1
 70
     1
102
RTVSPropertyOp2
 70
     1
102
RTVSPropertyOp3
 70
     1
102
RTVSPropertyOp4
 70
     1
102
RTVSPropertyOp5
 70
     1
102
RTVSPropertyOp6
 70
     1
102
RTVSPropertyOp7
 70
     1
102
RTVSPropertyOp8
 70
     1
102
RTVSPropertyOp9
 70
     1
102
RTVSPropertyOp10
 70
     1
102
RTVSPropertyOp11
 70
     1
102
RTVSPropertyOp12
 70
     1
102
RTVSPropertyOp13
 70
     1
102
RTVSPropertyOp14
 70
     1
102
RTVSPropertyOp15
 70
     1
102
RTVSPropertyOp16
 70
     1
102
RTVSPropertyOp17
 70
     1
102
RTVSPropertyOp18
 70
     1
102
RTVSPropertyOp19
 70
     1
102
RTVSPropertyOp20
 70
     1
102
RTVSPropertyOp21
 70
     1
102
RTVSPropertyOp22
 70
     1
102
RTVSPropertyOp23
 70
     1
102
RTVSPropertyOp24
 70
     1
102
RTVSPropertyOp25
 70
     1
102
RTVSPropertyOp26
 70
     1
102
RTVSPropertyOp27
 70
     1
102
RTVSPropertyOp28
 70
     1
102
RTVSPropertyOp29
 70
     1
102
RTVSPropertyOp30
 70
     1
102
RTVSPropertyOp31
 70
     1
102
RTVSPropertyOp32
 70
     1
102
RTVSPropertyOp33
 70
     1
102
RTVSPropertyOp34
 70
     1
102
RTVSPropertyOp35
 70
     1
102
RTVSPropertyOp36
 70
     1
102
RTVSPropertyOp37
 70
     1
102
RTVSPropertyOp38
 70
     1
102
RTVSPropertyOp39
 70
     1
102
RTVSPropertyOp40
 70
     1
102
RTVSPropertyOp41
 70
     1
102
RTVSPropertyOp42
 70
     1
102
RTVSPropertyOp43
 70
     1
102
RTVSPropertyOp44
 70
     1
102
RTVSPropertyOp45
 70
     1
102
RTVSPropertyOp46
 70
     1
102
RTVSPropertyOp47
 70
     1
102
RTVSPropertyOp48
 70
     1
102
RTVSPropertyOp49
 70
     1
102
RTVSPropertyOp50
 70
     1
102
RTVSPropertyOp51
 70
     0
102
RTVSPropertyOp52
 70
     0
102
RTVSPropertyOp53
 70
     1
102
RTVSPropertyOp54
 70
     1
102
RTVSPropertyOp55
 70
     1
102
RTVSPropertyOp56
 70
     1
102
RTVSPropertyOp57
 70
     1
102
RTVSPropertyOp58
 70
     1
102
RTVSPropertyOp59
 70
     1
102
RTVSPropertyOp60
 70
     1
102
RTVSPropertyOp61
 70
     1
102
RTVSPropertyOp62
 70
     1
  0
XRECORD
  5
1E3D
102
{ACAD_REACTORS
330
1E3C
102
}
330
1E3C
100
AcDbXrecord
280
     1
102
RTVSPost2010Prop28
280
     0
102
RTVSPost2010PropOp28
 70
     1
102
RTVSPost2010Prop29
280
     1
102
RTVSPost2010PropOp29
 70
     1
102
RTVSPost2010Prop30
280
     1
102
RTVSPost2010PropOp30
 70
     1
102
RTVSPost2010Prop31
280
     0
102
RTVSPost2010PropOp31
 70
     1
102
RTVSPost2010Prop32
280
     0
102
RTVSPost2010PropOp32
 70
     1
102
RTVSPost2010Prop33
280
     0
102
RTVSPost2010PropOp33
 70
     1
102
RTVSPost2010Prop34
280
     0
102
RTVSPost2010PropOp34
 70
     1
102
RTVSPost2010Prop35
280
     0
102
RTVSPost2010PropOp35
 70
     1
102
RTVSPost2010Prop36
280
     0
102
RTVSPost2010PropOp36
 70
     1
102
RTVSPost2010Prop37
 90
       50
102
RTVSPost2010PropOp37
 70
     1
102
RTVSPost2010Prop38
140
0.0
102
RTVSPost2010PropOp38
 70
     1
102
RTVSPost2010Prop39
140
1.0
102
RTVSPost2010PropOp39
 70
     1
102
RTVSPost2010Prop40
 90
        0
102
RTVSPost2010PropOp40
 70
     1
102
RTVSPost2010Prop41ColorIndex
 90
       18
102
RTVSPost2010Prop41ColorRGB
 90
        0
102
RTVSPost2010PropOp41
 70
     1
102
RTVSPost2010Prop42
 90
       50
102
RTVSPost2010PropOp42
 70
     1
102
RTVSPost2010Prop43
 90
        3
102
RTVSPost2010PropOp43
 70
     1
102
RTVSPost2010Prop44ColorIndex
 90
        5
102
RTVSPost2010Prop44ColorRGB
 90
      255
102
RTVSPost2010PropOp44
 70
     1
102
RTVSPost2010Prop45
280
     0
102
RTVSPost2010PropOp45
 70
     1
102
RTVSPost2010Prop46
 90
       50
102
RTVSPost2010PropOp46
 70
     1
102
RTVSPost2010Prop47
 90
       50
102
RTVSPost2010PropOp47
 70
     1
102
RTVSPost2010Prop48
 90
       50
102
RTVSPost2010PropOp48
 70
     1
102
RTVSPost2010Prop49
280
     0
102
RTVSPost2010PropOp49
 70
     1
102
RTVSPost2010Prop50
 90
       50
102
RTVSPost2010PropOp50
 70
     1
102
RTVSPost2010Prop51ColorIndex
 90
      256
102
RTVSPost2010Prop51ColorRGB
 90
-16777216
102
RTVSPost2010PropOp51
 70
     0
102
RTVSPost2010Prop52
140
1.0
102
RTVSPost2010PropOp52
 70
     0
102
RTVSPost2010Prop53
 90
        2
102
RTVSPost2010PropOp53
 70
     1
102
RTVSPost2010Prop54
  1
strokes_ogs.tif
102
RTVSPost2010PropOp54
 70
     1
102
RTVSPost2010Prop55
280
     0
102
RTVSPost2010PropOp55
 70
     1
102
RTVSPost2010Prop56
140
1.0
102
RTVSPost2010PropOp56
 70
     1
102
RTVSPost2010Prop57
140
1.0
102
RTVSPost2010PropOp57
 70
     1
102
RTVSPropertyOp0
 70
     1
102
RTVSPropertyOp1
 70
     1
102
RTVSPropertyOp2
 70
     1
102
RTVSPropertyOp3
 70
     1
102
RTVSPropertyOp4
 70
     1
102
RTVSPropertyOp5
 70
     1
102
RTVSPropertyOp6
 70
     1
102
RTVSPropertyOp7
 70
     1
102
RTVSPropertyOp8
 70
     1
102
RTVSPropertyOp9
 70
     1
102
RTVSPropertyOp10
 70
     1
102
RTVSPropertyOp11
 70
     1
102
RTVSPropertyOp12
 70
     1
102
RTVSPropertyOp13
 70
     1
102
RTVSPropertyOp14
 70
     1
102
RTVSPropertyOp15
 70
     1
102
RTVSPropertyOp16
 70
     1
102
RTVSPropertyOp17
 70
     1
102
RTVSPropertyOp18
 70
     1
102
RTVSPropertyOp19
 70
     1
102
RTVSPropertyOp20
 70
     1
102
RTVSPropertyOp21
 70
     1
102
RTVSPropertyOp22
 70
     1
102
RTVSPropertyOp23
 70
     1
102
RTVSPropertyOp24
 70
     1
102
RTVSPropertyOp25
 70
     1
102
RTVSPropertyOp26
 70
     1
102
RTVSPropertyOp27
 70
     1
102
RTVSPropertyOp28
 70
     1
102
RTVSPropertyOp29
 70
     1
102
RTVSPropertyOp30
 70
     1
102
RTVSPropertyOp31
 70
     1
102
RTVSPropertyOp32
 70
     1
102
RTVSPropertyOp33
 70
     1
102
RTVSPropertyOp34
 70
     1
102
RTVSPropertyOp35
 70
     1
102
RTVSPropertyOp36
 70
     1
102
RTVSPropertyOp37
 70
     1
102
RTVSPropertyOp38
 70
     1
102
RTVSPropertyOp39
 70
     1
102
RTVSPropertyOp40
 70
     1
102
RTVSPropertyOp41
 70
     1
102
RTVSPropertyOp42
 70
     1
102
RTVSPropertyOp43
 70
     1
102
RTVSPropertyOp44
 70
     1
102
RTVSPropertyOp45
 70
     1
102
RTVSPropertyOp46
 70
     1
102
RTVSPropertyOp47
 70
     1
102
RTVSPropertyOp48
 70
     1
102
RTVSPropertyOp49
 70
     1
102
RTVSPropertyOp50
 70
     1
102
RTVSPropertyOp51
 70
     0
102
RTVSPropertyOp52
 70
     0
102
RTVSPropertyOp53
 70
     1
102
RTVSPropertyOp54
 70
     1
102
RTVSPropertyOp55
 70
     1
102
RTVSPropertyOp56
 70
     1
102
RTVSPropertyOp57
 70
     1
102
RTVSPropertyOp58
 70
     1
102
RTVSPropertyOp59
 70
     1
102
RTVSPropertyOp60
 70
     1
102
RTVSPropertyOp61
 70
     1
102
RTVSPropertyOp62
 70
     1
  0
XRECORD
  5
1E45
102
{ACAD_REACTORS
330
1E44
102
}
330
1E44
100
AcDbXrecord
280
     1
102
RTVSPost2010Prop28
280
     0
102
RTVSPost2010PropOp28
 70
     1
102
RTVSPost2010Prop29
280
     1
102
RTVSPost2010PropOp29
 70
     1
102
RTVSPost2010Prop30
280
     1
102
RTVSPost2010PropOp30
 70
     1
102
RTVSPost2010Prop31
280
     0
102
RTVSPost2010PropOp31
 70
     1
102
RTVSPost2010Prop32
280
     0
102
RTVSPost2010PropOp32
 70
     1
102
RTVSPost2010Prop33
280
     0
102
RTVSPost2010PropOp33
 70
     1
102
RTVSPost2010Prop34
280
     0
102
RTVSPost2010PropOp34
 70
     1
102
RTVSPost2010Prop35
280
     0
102
RTVSPost2010PropOp35
 70
     1
102
RTVSPost2010Prop36
280
     0
102
RTVSPost2010PropOp36
 70
     1
102
RTVSPost2010Prop37
 90
       50
102
RTVSPost2010PropOp37
 70
     1
102
RTVSPost2010Prop38
140
0.0
102
RTVSPost2010PropOp38
 70
     1
102
RTVSPost2010Prop39
140
1.0
102
RTVSPost2010PropOp39
 70
     1
102
RTVSPost2010Prop40
 90
        0
102
RTVSPost2010PropOp40
 70
     1
102
RTVSPost2010Prop41ColorIndex
 90
       18
102
RTVSPost2010Prop41ColorRGB
 90
        0
102
RTVSPost2010PropOp41
 70
     1
102
RTVSPost2010Prop42
 90
       50
102
RTVSPost2010PropOp42
 70
     1
102
RTVSPost2010Prop43
 90
        3
102
RTVSPost2010PropOp43
 70
     1
102
RTVSPost2010Prop44ColorIndex
 90
        5
102
RTVSPost2010Prop44ColorRGB
 90
      255
102
RTVSPost2010PropOp44
 70
     1
102
RTVSPost2010Prop45
280
     0
102
RTVSPost2010PropOp45
 70
     1
102
RTVSPost2010Prop46
 90
       50
102
RTVSPost2010PropOp46
 70
     1
102
RTVSPost2010Prop47
 90
       50
102
RTVSPost2010PropOp47
 70
     1
102
RTVSPost2010Prop48
 90
       50
102
RTVSPost2010PropOp48
 70
     1
102
RTVSPost2010Prop49
280
     0
102
RTVSPost2010PropOp49
 70
     1
102
RTVSPost2010Prop50
 90
       50
102
RTVSPost2010PropOp50
 70
     1
102
RTVSPost2010Prop51ColorIndex
 90
      256
102
RTVSPost2010Prop51ColorRGB
 90
-16777216
102
RTVSPost2010PropOp51
 70
     0
102
RTVSPost2010Prop52
140
1.0
102
RTVSPost2010PropOp52
 70
     0
102
RTVSPost2010Prop53
 90
        2
102
RTVSPost2010PropOp53
 70
     1
102
RTVSPost2010Prop54
  1
strokes_ogs.tif
102
RTVSPost2010PropOp54
 70
     1
102
RTVSPost2010Prop55
280
     0
102
RTVSPost2010PropOp55
 70
     1
102
RTVSPost2010Prop56
140
1.0
102
RTVSPost2010PropOp56
 70
     1
102
RTVSPost2010Prop57
140
1.0
102
RTVSPost2010PropOp57
 70
     1
102
RTVSPropertyOp0
 70
     1
102
RTVSPropertyOp1
 70
     1
102
RTVSPropertyOp2
 70
     1
102
RTVSPropertyOp3
 70
     1
102
RTVSPropertyOp4
 70
     1
102
RTVSPropertyOp5
 70
     1
102
RTVSPropertyOp6
 70
     1
102
RTVSPropertyOp7
 70
     1
102
RTVSPropertyOp8
 70
     1
102
RTVSPropertyOp9
 70
     1
102
RTVSPropertyOp10
 70
     1
102
RTVSPropertyOp11
 70
     1
102
RTVSPropertyOp12
 70
     1
102
RTVSPropertyOp13
 70
     1
102
RTVSPropertyOp14
 70
     1
102
RTVSPropertyOp15
 70
     1
102
RTVSPropertyOp16
 70
     1
102
RTVSPropertyOp17
 70
     1
102
RTVSPropertyOp18
 70
     1
102
RTVSPropertyOp19
 70
     1
102
RTVSPropertyOp20
 70
     1
102
RTVSPropertyOp21
 70
     1
102
RTVSPropertyOp22
 70
     1
102
RTVSPropertyOp23
 70
     1
102
RTVSPropertyOp24
 70
     1
102
RTVSPropertyOp25
 70
     1
102
RTVSPropertyOp26
 70
     1
102
RTVSPropertyOp27
 70
     1
102
RTVSPropertyOp28
 70
     1
102
RTVSPropertyOp29
 70
     1
102
RTVSPropertyOp30
 70
     1
102
RTVSPropertyOp31
 70
     1
102
RTVSPropertyOp32
 70
     1
102
RTVSPropertyOp33
 70
     1
102
RTVSPropertyOp34
 70
     1
102
RTVSPropertyOp35
 70
     1
102
RTVSPropertyOp36
 70
     1
102
RTVSPropertyOp37
 70
     1
102
RTVSPropertyOp38
 70
     1
102
RTVSPropertyOp39
 70
     1
102
RTVSPropertyOp40
 70
     1
102
RTVSPropertyOp41
 70
     1
102
RTVSPropertyOp42
 70
     1
102
RTVSPropertyOp43
 70
     1
102
RTVSPropertyOp44
 70
     1
102
RTVSPropertyOp45
 70
     1
102
RTVSPropertyOp46
 70
     1
102
RTVSPropertyOp47
 70
     1
102
RTVSPropertyOp48
 70
     1
102
RTVSPropertyOp49
 70
     1
102
RTVSPropertyOp50
 70
     1
102
RTVSPropertyOp51
 70
     0
102
RTVSPropertyOp52
 70
     0
102
RTVSPropertyOp53
 70
     1
102
RTVSPropertyOp54
 70
     1
102
RTVSPropertyOp55
 70
     1
102
RTVSPropertyOp56
 70
     1
102
RTVSPropertyOp57
 70
     1
102
RTVSPropertyOp58
 70
     1
102
RTVSPropertyOp59
 70
     1
102
RTVSPropertyOp60
 70
     1
102
RTVSPropertyOp61
 70
     1
102
RTVSPropertyOp62
 70
     1
  0
XRECORD
  5
1E61
102
{ACAD_REACTORS
330
1E60
102
}
330
1E60
100
AcDbXrecord
280
     1
102
RTVSPost2010Prop28
280
     0
102
RTVSPost2010PropOp28
 70
     1
102
RTVSPost2010Prop29
280
     1
102
RTVSPost2010PropOp29
 70
     1
102
RTVSPost2010Prop30
280
     1
102
RTVSPost2010PropOp30
 70
     1
102
RTVSPost2010Prop31
280
     0
102
RTVSPost2010PropOp31
 70
     1
102
RTVSPost2010Prop32
280
     0
102
RTVSPost2010PropOp32
 70
     1
102
RTVSPost2010Prop33
280
     0
102
RTVSPost2010PropOp33
 70
     1
102
RTVSPost2010Prop34
280
     0
102
RTVSPost2010PropOp34
 70
     1
102
RTVSPost2010Prop35
280
     0
102
RTVSPost2010PropOp35
 70
     1
102
RTVSPost2010Prop36
280
     0
102
RTVSPost2010PropOp36
 70
     1
102
RTVSPost2010Prop37
 90
       50
102
RTVSPost2010PropOp37
 70
     0
102
RTVSPost2010Prop38
140
0.0
102
RTVSPost2010PropOp38
 70
     0
102
RTVSPost2010Prop39
140
1.0
102
RTVSPost2010PropOp39
 70
     0
102
RTVSPost2010Prop40
 90
        0
102
RTVSPost2010PropOp40
 70
     0
102
RTVSPost2010Prop41ColorIndex
 90
       18
102
RTVSPost2010Prop41ColorRGB
 90
        0
102
RTVSPost2010PropOp41
 70
     0
102
RTVSPost2010Prop42
 90
       50
102
RTVSPost2010PropOp42
 70
     0
102
RTVSPost2010Prop43
 90
        3
102
RTVSPost2010PropOp43
 70
     0
102
RTVSPost2010Prop44ColorIndex
 90
        5
102
RTVSPost2010Prop44ColorRGB
 90
      255
102
RTVSPost2010PropOp44
 70
     0
102
RTVSPost2010Prop45
280
     0
102
RTVSPost2010PropOp45
 70
     1
102
RTVSPost2010Prop46
 90
       50
102
RTVSPost2010PropOp46
 70
     0
102
RTVSPost2010Prop47
 90
       50
102
RTVSPost2010PropOp47
 70
     0
102
RTVSPost2010Prop48
 90
       50
102
RTVSPost2010PropOp48
 70
     0
102
RTVSPost2010Prop49
280
     0
102
RTVSPost2010PropOp49
 70
     1
102
RTVSPost2010Prop50
 90
       50
102
RTVSPost2010PropOp50
 70
     0
102
RTVSPost2010Prop51ColorIndex
 90
      256
102
RTVSPost2010Prop51ColorRGB
 90
-16777216
102
RTVSPost2010PropOp51
 70
     0
102
RTVSPost2010Prop52
140
1.0
102
RTVSPost2010PropOp52
 70
     0
102
RTVSPost2010Prop53
 90
        2
102
RTVSPost2010PropOp53
 70
     0
102
RTVSPost2010Prop54
  1
strokes_ogs.tif
102
RTVSPost2010PropOp54
 70
     0
102
RTVSPost2010Prop55
280
     0
102
RTVSPost2010PropOp55
 70
     1
102
RTVSPost2010Prop56
140
1.0
102
RTVSPost2010PropOp56
 70
     0
102
RTVSPost2010Prop57
140
1.0
102
RTVSPost2010PropOp57
 70
     0
102
RTVSPropertyOp0
 70
     0
102
RTVSPropertyOp1
 70
     0
102
RTVSPropertyOp2
 70
     0
102
RTVSPropertyOp3
 70
     0
102
RTVSPropertyOp4
 70
     0
102
RTVSPropertyOp5
 70
     0
102
RTVSPropertyOp6
 70
     0
102
RTVSPropertyOp7
 70
     0
102
RTVSPropertyOp8
 70
     0
102
RTVSPropertyOp9
 70
     0
102
RTVSPropertyOp10
 70
     0
102
RTVSPropertyOp11
 70
     0
102
RTVSPropertyOp12
 70
     0
102
RTVSPropertyOp13
 70
     0
102
RTVSPropertyOp14
 70
     2
102
RTVSPropertyOp15
 70
     0
102
RTVSPropertyOp16
 70
     0
102
RTVSPropertyOp17
 70
     0
102
RTVSPropertyOp18
 70
     0
102
RTVSPropertyOp19
 70
     0
102
RTVSPropertyOp20
 70
     0
102
RTVSPropertyOp21
 70
     0
102
RTVSPropertyOp22
 70
     0
102
RTVSPropertyOp23
 70
     0
102
RTVSPropertyOp24
 70
     0
102
RTVSPropertyOp25
 70
     0
102
RTVSPropertyOp26
 70
     0
102
RTVSPropertyOp27
 70
     0
102
RTVSPropertyOp28
 70
     1
102
RTVSPropertyOp29
 70
     1
102
RTVSPropertyOp30
 70
     1
102
RTVSPropertyOp31
 70
     1
102
RTVSPropertyOp32
 70
     1
102
RTVSPropertyOp33
 70
     1
102
RTVSPropertyOp34
 70
     1
102
RTVSPropertyOp35
 70
     1
102
RTVSPropertyOp36
 70
     1
102
RTVSPropertyOp37
 70
     0
102
RTVSPropertyOp38
 70
     0
102
RTVSPropertyOp39
 70
     0
102
RTVSPropertyOp40
 70
     0
102
RTVSPropertyOp41
 70
     0
102
RTVSPropertyOp42
 70
     0
102
RTVSPropertyOp43
 70
     0
102
RTVSPropertyOp44
 70
     0
102
RTVSPropertyOp45
 70
     1
102
RTVSPropertyOp46
 70
     0
102
RTVSPropertyOp47
 70
     0
102
RTVSPropertyOp48
 70
     0
102
RTVSPropertyOp49
 70
     1
102
RTVSPropertyOp50
 70
     0
102
RTVSPropertyOp51
 70
     0
102
RTVSPropertyOp52
 70
     0
102
RTVSPropertyOp53
 70
     0
102
RTVSPropertyOp54
 70
     0
102
RTVSPropertyOp55
 70
     1
102
RTVSPropertyOp56
 70
     0
102
RTVSPropertyOp57
 70
     0
102
RTVSPropertyOp58
 70
     0
102
RTVSPropertyOp59
 70
     0
102
RTVSPropertyOp60
 70
     0
102
RTVSPropertyOp61
 70
     0
102
RTVSPropertyOp62
 70
     0
  0
XRECORD
  5
1E51
102
{ACAD_REACTORS
330
1E50
102
}
330
1E50
100
AcDbXrecord
280
     1
102
RTVSPost2010Prop28
280
     0
102
RTVSPost2010PropOp28
 70
     1
102
RTVSPost2010Prop29
280
     1
102
RTVSPost2010PropOp29
 70
     1
102
RTVSPost2010Prop30
280
     1
102
RTVSPost2010PropOp30
 70
     1
102
RTVSPost2010Prop31
280
     0
102
RTVSPost2010PropOp31
 70
     1
102
RTVSPost2010Prop32
280
     0
102
RTVSPost2010PropOp32
 70
     1
102
RTVSPost2010Prop33
280
     0
102
RTVSPost2010PropOp33
 70
     1
102
RTVSPost2010Prop34
280
     0
102
RTVSPost2010PropOp34
 70
     1
102
RTVSPost2010Prop35
280
     0
102
RTVSPost2010PropOp35
 70
     1
102
RTVSPost2010Prop36
280
     0
102
RTVSPost2010PropOp36
 70
     1
102
RTVSPost2010Prop37
 90
       50
102
RTVSPost2010PropOp37
 70
     1
102
RTVSPost2010Prop38
140
0.0
102
RTVSPost2010PropOp38
 70
     1
102
RTVSPost2010Prop39
140
1.0
102
RTVSPost2010PropOp39
 70
     1
102
RTVSPost2010Prop40
 90
        0
102
RTVSPost2010PropOp40
 70
     1
102
RTVSPost2010Prop41ColorIndex
 90
       18
102
RTVSPost2010Prop41ColorRGB
 90
        0
102
RTVSPost2010PropOp41
 70
     1
102
RTVSPost2010Prop42
 90
       50
102
RTVSPost2010PropOp42
 70
     1
102
RTVSPost2010Prop43
 90
        3
102
RTVSPost2010PropOp43
 70
     1
102
RTVSPost2010Prop44ColorIndex
 90
        5
102
RTVSPost2010Prop44ColorRGB
 90
      255
102
RTVSPost2010PropOp44
 70
     1
102
RTVSPost2010Prop45
280
     0
102
RTVSPost2010PropOp45
 70
     1
102
RTVSPost2010Prop46
 90
       50
102
RTVSPost2010PropOp46
 70
     1
102
RTVSPost2010Prop47
 90
       50
102
RTVSPost2010PropOp47
 70
     1
102
RTVSPost2010Prop48
 90
       50
102
RTVSPost2010PropOp48
 70
     1
102
RTVSPost2010Prop49
280
     0
102
RTVSPost2010PropOp49
 70
     1
102
RTVSPost2010Prop50
 90
       50
102
RTVSPost2010PropOp50
 70
     1
102
RTVSPost2010Prop51ColorIndex
 90
      256
102
RTVSPost2010Prop51ColorRGB
 90
-16777216
102
RTVSPost2010PropOp51
 70
     0
102
RTVSPost2010Prop52
140
1.0
102
RTVSPost2010PropOp52
 70
     0
102
RTVSPost2010Prop53
 90
        2
102
RTVSPost2010PropOp53
 70
     1
102
RTVSPost2010Prop54
  1
strokes_ogs.tif
102
RTVSPost2010PropOp54
 70
     1
102
RTVSPost2010Prop55
280
     0
102
RTVSPost2010PropOp55
 70
     1
102
RTVSPost2010Prop56
140
1.0
102
RTVSPost2010PropOp56
 70
     1
102
RTVSPost2010Prop57
140
1.0
102
RTVSPost2010PropOp57
 70
     1
102
RTVSPropertyOp0
 70
     1
102
RTVSPropertyOp1
 70
     1
102
RTVSPropertyOp2
 70
     1
102
RTVSPropertyOp3
 70
     1
102
RTVSPropertyOp4
 70
     1
102
RTVSPropertyOp5
 70
     1
102
RTVSPropertyOp6
 70
     1
102
RTVSPropertyOp7
 70
     1
102
RTVSPropertyOp8
 70
     1
102
RTVSPropertyOp9
 70
     1
102
RTVSPropertyOp10
 70
     1
102
RTVSPropertyOp11
 70
     1
102
RTVSPropertyOp12
 70
     1
102
RTVSPropertyOp13
 70
     1
102
RTVSPropertyOp14
 70
     1
102
RTVSPropertyOp15
 70
     1
102
RTVSPropertyOp16
 70
     1
102
RTVSPropertyOp17
 70
     1
102
RTVSPropertyOp18
 70
     1
102
RTVSPropertyOp19
 70
     1
102
RTVSPropertyOp20
 70
     1
102
RTVSPropertyOp21
 70
     1
102
RTVSPropertyOp22
 70
     1
102
RTVSPropertyOp23
 70
     1
102
RTVSPropertyOp24
 70
     1
102
RTVSPropertyOp25
 70
     1
102
RTVSPropertyOp26
 70
     1
102
RTVSPropertyOp27
 70
     1
102
RTVSPropertyOp28
 70
     1
102
RTVSPropertyOp29
 70
     1
102
RTVSPropertyOp30
 70
     1
102
RTVSPropertyOp31
 70
     1
102
RTVSPropertyOp32
 70
     1
102
RTVSPropertyOp33
 70
     1
102
RTVSPropertyOp34
 70
     1
102
RTVSPropertyOp35
 70
     1
102
RTVSPropertyOp36
 70
     1
102
RTVSPropertyOp37
 70
     1
102
RTVSPropertyOp38
 70
     1
102
RTVSPropertyOp39
 70
     1
102
RTVSPropertyOp40
 70
     1
102
RTVSPropertyOp41
 70
     1
102
RTVSPropertyOp42
 70
     1
102
RTVSPropertyOp43
 70
     1
102
RTVSPropertyOp44
 70
     1
102
RTVSPropertyOp45
 70
     1
102
RTVSPropertyOp46
 70
     1
102
RTVSPropertyOp47
 70
     1
102
RTVSPropertyOp48
 70
     1
102
RTVSPropertyOp49
 70
     1
102
RTVSPropertyOp50
 70
     1
102
RTVSPropertyOp51
 70
     0
102
RTVSPropertyOp52
 70
     0
102
RTVSPropertyOp53
 70
     1
102
RTVSPropertyOp54
 70
     1
102
RTVSPropertyOp55
 70
     1
102
RTVSPropertyOp56
 70
     1
102
RTVSPropertyOp57
 70
     1
102
RTVSPropertyOp58
 70
     1
102
RTVSPropertyOp59
 70
     1
102
RTVSPropertyOp60
 70
     1
102
RTVSPropertyOp61
 70
     1
102
RTVSPropertyOp62
 70
     1
  0
XRECORD
  5
1E63
102
{ACAD_REACTORS
330
1E62
102
}
330
1E62
100
AcDbXrecord
280
     1
102
RTVSPost2010Prop28
280
     0
102
RTVSPost2010PropOp28
 70
     1
102
RTVSPost2010Prop29
280
     1
102
RTVSPost2010PropOp29
 70
     1
102
RTVSPost2010Prop30
280
     1
102
RTVSPost2010PropOp30
 70
     1
102
RTVSPost2010Prop31
280
     0
102
RTVSPost2010PropOp31
 70
     1
102
RTVSPost2010Prop32
280
     0
102
RTVSPost2010PropOp32
 70
     1
102
RTVSPost2010Prop33
280
     0
102
RTVSPost2010PropOp33
 70
     1
102
RTVSPost2010Prop34
280
     0
102
RTVSPost2010PropOp34
 70
     1
102
RTVSPost2010Prop35
280
     0
102
RTVSPost2010PropOp35
 70
     1
102
RTVSPost2010Prop36
280
     0
102
RTVSPost2010PropOp36
 70
     1
102
RTVSPost2010Prop37
 90
       50
102
RTVSPost2010PropOp37
 70
     0
102
RTVSPost2010Prop38
140
0.0
102
RTVSPost2010PropOp38
 70
     0
102
RTVSPost2010Prop39
140
1.0
102
RTVSPost2010PropOp39
 70
     0
102
RTVSPost2010Prop40
 90
        0
102
RTVSPost2010PropOp40
 70
     0
102
RTVSPost2010Prop41ColorIndex
 90
       18
102
RTVSPost2010Prop41ColorRGB
 90
        0
102
RTVSPost2010PropOp41
 70
     0
102
RTVSPost2010Prop42
 90
       50
102
RTVSPost2010PropOp42
 70
     0
102
RTVSPost2010Prop43
 90
        3
102
RTVSPost2010PropOp43
 70
     0
102
RTVSPost2010Prop44ColorIndex
 90
        5
102
RTVSPost2010Prop44ColorRGB
 90
      255
102
RTVSPost2010PropOp44
 70
     0
102
RTVSPost2010Prop45
280
     0
102
RTVSPost2010PropOp45
 70
     1
102
RTVSPost2010Prop46
 90
       50
102
RTVSPost2010PropOp46
 70
     0
102
RTVSPost2010Prop47
 90
       50
102
RTVSPost2010PropOp47
 70
     0
102
RTVSPost2010Prop48
 90
       50
102
RTVSPost2010PropOp48
 70
     0
102
RTVSPost2010Prop49
280
     0
102
RTVSPost2010PropOp49
 70
     1
102
RTVSPost2010Prop50
 90
       50
102
RTVSPost2010PropOp50
 70
     0
102
RTVSPost2010Prop51ColorIndex
 90
      256
102
RTVSPost2010Prop51ColorRGB
 90
-16777216
102
RTVSPost2010PropOp51
 70
     0
102
RTVSPost2010Prop52
140
1.0
102
RTVSPost2010PropOp52
 70
     0
102
RTVSPost2010Prop53
 90
        2
102
RTVSPost2010PropOp53
 70
     0
102
RTVSPost2010Prop54
  1
strokes_ogs.tif
102
RTVSPost2010PropOp54
 70
     0
102
RTVSPost2010Prop55
280
     0
102
RTVSPost2010PropOp55
 70
     1
102
RTVSPost2010Prop56
140
1.0
102
RTVSPost2010PropOp56
 70
     0
102
RTVSPost2010Prop57
140
1.0
102
RTVSPost2010PropOp57
 70
     0
102
RTVSPropertyOp0
 70
     0
102
RTVSPropertyOp1
 70
     0
102
RTVSPropertyOp2
 70
     0
102
RTVSPropertyOp3
 70
     0
102
RTVSPropertyOp4
 70
     0
102
RTVSPropertyOp5
 70
     0
102
RTVSPropertyOp6
 70
     0
102
RTVSPropertyOp7
 70
     0
102
RTVSPropertyOp8
 70
     0
102
RTVSPropertyOp9
 70
     0
102
RTVSPropertyOp10
 70
     0
102
RTVSPropertyOp11
 70
     0
102
RTVSPropertyOp12
 70
     0
102
RTVSPropertyOp13
 70
     0
102
RTVSPropertyOp14
 70
     2
102
RTVSPropertyOp15
 70
     0
102
RTVSPropertyOp16
 70
     0
102
RTVSPropertyOp17
 70
     0
102
RTVSPropertyOp18
 70
     0
102
RTVSPropertyOp19
 70
     0
102
RTVSPropertyOp20
 70
     0
102
RTVSPropertyOp21
 70
     0
102
RTVSPropertyOp22
 70
     0
102
RTVSPropertyOp23
 70
     0
102
RTVSPropertyOp24
 70
     0
102
RTVSPropertyOp25
 70
     0
102
RTVSPropertyOp26
 70
     0
102
RTVSPropertyOp27
 70
     0
102
RTVSPropertyOp28
 70
     1
102
RTVSPropertyOp29
 70
     1
102
RTVSPropertyOp30
 70
     1
102
RTVSPropertyOp31
 70
     1
102
RTVSPropertyOp32
 70
     1
102
RTVSPropertyOp33
 70
     1
102
RTVSPropertyOp34
 70
     1
102
RTVSPropertyOp35
 70
     1
102
RTVSPropertyOp36
 70
     1
102
RTVSPropertyOp37
 70
     0
102
RTVSPropertyOp38
 70
     0
102
RTVSPropertyOp39
 70
     0
102
RTVSPropertyOp40
 70
     0
102
RTVSPropertyOp41
 70
     0
102
RTVSPropertyOp42
 70
     0
102
RTVSPropertyOp43
 70
     0
102
RTVSPropertyOp44
 70
     0
102
RTVSPropertyOp45
 70
     1
102
RTVSPropertyOp46
 70
     0
102
RTVSPropertyOp47
 70
     0
102
RTVSPropertyOp48
 70
     0
102
RTVSPropertyOp49
 70
     1
102
RTVSPropertyOp50
 70
     0
102
RTVSPropertyOp51
 70
     0
102
RTVSPropertyOp52
 70
     0
102
RTVSPropertyOp53
 70
     0
102
RTVSPropertyOp54
 70
     0
102
RTVSPropertyOp55
 70
     1
102
RTVSPropertyOp56
 70
     0
102
RTVSPropertyOp57
 70
     0
102
RTVSPropertyOp58
 70
     0
102
RTVSPropertyOp59
 70
     0
102
RTVSPropertyOp60
 70
     0
102
RTVSPropertyOp61
 70
     0
102
RTVSPropertyOp62
 70
     0
  0
XRECORD
  5
1E49
102
{ACAD_REACTORS
330
1E48
102
}
330
1E48
100
AcDbXrecord
280
     1
102
RTVSPost2010Prop28
280
     0
102
RTVSPost2010PropOp28
 70
     1
102
RTVSPost2010Prop29
280
     1
102
RTVSPost2010PropOp29
 70
     1
102
RTVSPost2010Prop30
280
     1
102
RTVSPost2010PropOp30
 70
     1
102
RTVSPost2010Prop31
280
     0
102
RTVSPost2010PropOp31
 70
     1
102
RTVSPost2010Prop32
280
     0
102
RTVSPost2010PropOp32
 70
     1
102
RTVSPost2010Prop33
280
     0
102
RTVSPost2010PropOp33
 70
     1
102
RTVSPost2010Prop34
280
     0
102
RTVSPost2010PropOp34
 70
     1
102
RTVSPost2010Prop35
280
     0
102
RTVSPost2010PropOp35
 70
     1
102
RTVSPost2010Prop36
280
     0
102
RTVSPost2010PropOp36
 70
     1
102
RTVSPost2010Prop37
 90
       50
102
RTVSPost2010PropOp37
 70
     1
102
RTVSPost2010Prop38
140
0.0
102
RTVSPost2010PropOp38
 70
     1
102
RTVSPost2010Prop39
140
1.0
102
RTVSPost2010PropOp39
 70
     1
102
RTVSPost2010Prop40
 90
        0
102
RTVSPost2010PropOp40
 70
     1
102
RTVSPost2010Prop41ColorIndex
 90
       18
102
RTVSPost2010Prop41ColorRGB
 90
        0
102
RTVSPost2010PropOp41
 70
     1
102
RTVSPost2010Prop42
 90
       50
102
RTVSPost2010PropOp42
 70
     1
102
RTVSPost2010Prop43
 90
        3
102
RTVSPost2010PropOp43
 70
     1
102
RTVSPost2010Prop44ColorIndex
 90
        5
102
RTVSPost2010Prop44ColorRGB
 90
      255
102
RTVSPost2010PropOp44
 70
     1
102
RTVSPost2010Prop45
280
     0
102
RTVSPost2010PropOp45
 70
     1
102
RTVSPost2010Prop46
 90
       50
102
RTVSPost2010PropOp46
 70
     1
102
RTVSPost2010Prop47
 90
       50
102
RTVSPost2010PropOp47
 70
     1
102
RTVSPost2010Prop48
 90
       50
102
RTVSPost2010PropOp48
 70
     1
102
RTVSPost2010Prop49
280
     0
102
RTVSPost2010PropOp49
 70
     1
102
RTVSPost2010Prop50
 90
       50
102
RTVSPost2010PropOp50
 70
     1
102
RTVSPost2010Prop51ColorIndex
 90
      256
102
RTVSPost2010Prop51ColorRGB
 90
-16777216
102
RTVSPost2010PropOp51
 70
     0
102
RTVSPost2010Prop52
140
1.0
102
RTVSPost2010PropOp52
 70
     0
102
RTVSPost2010Prop53
 90
        2
102
RTVSPost2010PropOp53
 70
     1
102
RTVSPost2010Prop54
  1
strokes_ogs.tif
102
RTVSPost2010PropOp54
 70
     1
102
RTVSPost2010Prop55
280
     0
102
RTVSPost2010PropOp55
 70
     1
102
RTVSPost2010Prop56
140
1.0
102
RTVSPost2010PropOp56
 70
     1
102
RTVSPost2010Prop57
140
1.0
102
RTVSPost2010PropOp57
 70
     1
102
RTVSPropertyOp0
 70
     1
102
RTVSPropertyOp1
 70
     1
102
RTVSPropertyOp2
 70
     1
102
RTVSPropertyOp3
 70
     1
102
RTVSPropertyOp4
 70
     1
102
RTVSPropertyOp5
 70
     1
102
RTVSPropertyOp6
 70
     1
102
RTVSPropertyOp7
 70
     1
102
RTVSPropertyOp8
 70
     1
102
RTVSPropertyOp9
 70
     1
102
RTVSPropertyOp10
 70
     1
102
RTVSPropertyOp11
 70
     1
102
RTVSPropertyOp12
 70
     1
102
RTVSPropertyOp13
 70
     1
102
RTVSPropertyOp14
 70
     1
102
RTVSPropertyOp15
 70
     1
102
RTVSPropertyOp16
 70
     1
102
RTVSPropertyOp17
 70
     1
102
RTVSPropertyOp18
 70
     1
102
RTVSPropertyOp19
 70
     1
102
RTVSPropertyOp20
 70
     1
102
RTVSPropertyOp21
 70
     1
102
RTVSPropertyOp22
 70
     1
102
RTVSPropertyOp23
 70
     1
102
RTVSPropertyOp24
 70
     1
102
RTVSPropertyOp25
 70
     1
102
RTVSPropertyOp26
 70
     1
102
RTVSPropertyOp27
 70
     1
102
RTVSPropertyOp28
 70
     1
102
RTVSPropertyOp29
 70
     1
102
RTVSPropertyOp30
 70
     1
102
RTVSPropertyOp31
 70
     1
102
RTVSPropertyOp32
 70
     1
102
RTVSPropertyOp33
 70
     1
102
RTVSPropertyOp34
 70
     1
102
RTVSPropertyOp35
 70
     1
102
RTVSPropertyOp36
 70
     1
102
RTVSPropertyOp37
 70
     1
102
RTVSPropertyOp38
 70
     1
102
RTVSPropertyOp39
 70
     1
102
RTVSPropertyOp40
 70
     1
102
RTVSPropertyOp41
 70
     1
102
RTVSPropertyOp42
 70
     1
102
RTVSPropertyOp43
 70
     1
102
RTVSPropertyOp44
 70
     1
102
RTVSPropertyOp45
 70
     1
102
RTVSPropertyOp46
 70
     1
102
RTVSPropertyOp47
 70
     1
102
RTVSPropertyOp48
 70
     1
102
RTVSPropertyOp49
 70
     1
102
RTVSPropertyOp50
 70
     1
102
RTVSPropertyOp51
 70
     0
102
RTVSPropertyOp52
 70
     0
102
RTVSPropertyOp53
 70
     1
102
RTVSPropertyOp54
 70
     1
102
RTVSPropertyOp55
 70
     1
102
RTVSPropertyOp56
 70
     1
102
RTVSPropertyOp57
 70
     1
102
RTVSPropertyOp58
 70
     1
102
RTVSPropertyOp59
 70
     1
102
RTVSPropertyOp60
 70
     1
102
RTVSPropertyOp61
 70
     1
102
RTVSPropertyOp62
 70
     1
  0
XRECORD
  5
1E5F
102
{ACAD_REACTORS
330
1E5E
102
}
330
1E5E
100
AcDbXrecord
280
     1
102
RTVSPost2010Prop28
280
     0
102
RTVSPost2010PropOp28
 70
     1
102
RTVSPost2010Prop29
280
     1
102
RTVSPost2010PropOp29
 70
     1
102
RTVSPost2010Prop30
280
     1
102
RTVSPost2010PropOp30
 70
     1
102
RTVSPost2010Prop31
280
     0
102
RTVSPost2010PropOp31
 70
     1
102
RTVSPost2010Prop32
280
     0
102
RTVSPost2010PropOp32
 70
     1
102
RTVSPost2010Prop33
280
     0
102
RTVSPost2010PropOp33
 70
     1
102
RTVSPost2010Prop34
280
     0
102
RTVSPost2010PropOp34
 70
     1
102
RTVSPost2010Prop35
280
     0
102
RTVSPost2010PropOp35
 70
     1
102
RTVSPost2010Prop36
280
     0
102
RTVSPost2010PropOp36
 70
     1
102
RTVSPost2010Prop37
 90
       50
102
RTVSPost2010PropOp37
 70
     1
102
RTVSPost2010Prop38
140
0.0
102
RTVSPost2010PropOp38
 70
     1
102
RTVSPost2010Prop39
140
1.0
102
RTVSPost2010PropOp39
 70
     1
102
RTVSPost2010Prop40
 90
        0
102
RTVSPost2010PropOp40
 70
     1
102
RTVSPost2010Prop41ColorIndex
 90
       18
102
RTVSPost2010Prop41ColorRGB
 90
        0
102
RTVSPost2010PropOp41
 70
     1
102
RTVSPost2010Prop42
 90
       50
102
RTVSPost2010PropOp42
 70
     1
102
RTVSPost2010Prop43
 90
        3
102
RTVSPost2010PropOp43
 70
     1
102
RTVSPost2010Prop44ColorIndex
 90
        5
102
RTVSPost2010Prop44ColorRGB
 90
      255
102
RTVSPost2010PropOp44
 70
     1
102
RTVSPost2010Prop45
280
     0
102
RTVSPost2010PropOp45
 70
     1
102
RTVSPost2010Prop46
 90
       50
102
RTVSPost2010PropOp46
 70
     1
102
RTVSPost2010Prop47
 90
       50
102
RTVSPost2010PropOp47
 70
     1
102
RTVSPost2010Prop48
 90
       50
102
RTVSPost2010PropOp48
 70
     1
102
RTVSPost2010Prop49
280
     0
102
RTVSPost2010PropOp49
 70
     1
102
RTVSPost2010Prop50
 90
       50
102
RTVSPost2010PropOp50
 70
     1
102
RTVSPost2010Prop51ColorIndex
 90
      256
102
RTVSPost2010Prop51ColorRGB
 90
-16777216
102
RTVSPost2010PropOp51
 70
     0
102
RTVSPost2010Prop52
140
1.0
102
RTVSPost2010PropOp52
 70
     0
102
RTVSPost2010Prop53
 90
        2
102
RTVSPost2010PropOp53
 70
     1
102
RTVSPost2010Prop54
  1
strokes_ogs.tif
102
RTVSPost2010PropOp54
 70
     1
102
RTVSPost2010Prop55
280
     0
102
RTVSPost2010PropOp55
 70
     1
102
RTVSPost2010Prop56
140
1.0
102
RTVSPost2010PropOp56
 70
     1
102
RTVSPost2010Prop57
140
1.0
102
RTVSPost2010PropOp57
 70
     1
102
RTVSPropertyOp0
 70
     1
102
RTVSPropertyOp1
 70
     1
102
RTVSPropertyOp2
 70
     1
102
RTVSPropertyOp3
 70
     1
102
RTVSPropertyOp4
 70
     1
102
RTVSPropertyOp5
 70
     1
102
RTVSPropertyOp6
 70
     1
102
RTVSPropertyOp7
 70
     1
102
RTVSPropertyOp8
 70
     1
102
RTVSPropertyOp9
 70
     1
102
RTVSPropertyOp10
 70
     1
102
RTVSPropertyOp11
 70
     1
102
RTVSPropertyOp12
 70
     1
102
RTVSPropertyOp13
 70
     1
102
RTVSPropertyOp14
 70
     1
102
RTVSPropertyOp15
 70
     1
102
RTVSPropertyOp16
 70
     1
102
RTVSPropertyOp17
 70
     1
102
RTVSPropertyOp18
 70
     1
102
RTVSPropertyOp19
 70
     1
102
RTVSPropertyOp20
 70
     1
102
RTVSPropertyOp21
 70
     1
102
RTVSPropertyOp22
 70
     1
102
RTVSPropertyOp23
 70
     1
102
RTVSPropertyOp24
 70
     1
102
RTVSPropertyOp25
 70
     1
102
RTVSPropertyOp26
 70
     1
102
RTVSPropertyOp27
 70
     1
102
RTVSPropertyOp28
 70
     1
102
RTVSPropertyOp29
 70
     1
102
RTVSPropertyOp30
 70
     1
102
RTVSPropertyOp31
 70
     1
102
RTVSPropertyOp32
 70
     1
102
RTVSPropertyOp33
 70
     1
102
RTVSPropertyOp34
 70
     1
102
RTVSPropertyOp35
 70
     1
102
RTVSPropertyOp36
 70
     1
102
RTVSPropertyOp37
 70
     1
102
RTVSPropertyOp38
 70
     1
102
RTVSPropertyOp39
 70
     1
102
RTVSPropertyOp40
 70
     1
102
RTVSPropertyOp41
 70
     1
102
RTVSPropertyOp42
 70
     1
102
RTVSPropertyOp43
 70
     1
102
RTVSPropertyOp44
 70
     1
102
RTVSPropertyOp45
 70
     1
102
RTVSPropertyOp46
 70
     1
102
RTVSPropertyOp47
 70
     1
102
RTVSPropertyOp48
 70
     1
102
RTVSPropertyOp49
 70
     1
102
RTVSPropertyOp50
 70
     1
102
RTVSPropertyOp51
 70
     0
102
RTVSPropertyOp52
 70
     0
102
RTVSPropertyOp53
 70
     1
102
RTVSPropertyOp54
 70
     1
102
RTVSPropertyOp55
 70
     1
102
RTVSPropertyOp56
 70
     1
102
RTVSPropertyOp57
 70
     1
102
RTVSPropertyOp58
 70
     1
102
RTVSPropertyOp59
 70
     1
102
RTVSPropertyOp60
 70
     1
102
RTVSPropertyOp61
 70
     1
102
RTVSPropertyOp62
 70
     1
  0
XRECORD
  5
1E5D
102
{ACAD_REACTORS
330
1E5C
102
}
330
1E5C
100
AcDbXrecord
280
     1
102
RTVSPost2010Prop28
280
     0
102
RTVSPost2010PropOp28
 70
     1
102
RTVSPost2010Prop29
280
     1
102
RTVSPost2010PropOp29
 70
     1
102
RTVSPost2010Prop30
280
     1
102
RTVSPost2010PropOp30
 70
     1
102
RTVSPost2010Prop31
280
     0
102
RTVSPost2010PropOp31
 70
     1
102
RTVSPost2010Prop32
280
     0
102
RTVSPost2010PropOp32
 70
     1
102
RTVSPost2010Prop33
280
     0
102
RTVSPost2010PropOp33
 70
     1
102
RTVSPost2010Prop34
280
     0
102
RTVSPost2010PropOp34
 70
     1
102
RTVSPost2010Prop35
280
     0
102
RTVSPost2010PropOp35
 70
     1
102
RTVSPost2010Prop36
280
     0
102
RTVSPost2010PropOp36
 70
     1
102
RTVSPost2010Prop37
 90
       50
102
RTVSPost2010PropOp37
 70
     1
102
RTVSPost2010Prop38
140
0.0
102
RTVSPost2010PropOp38
 70
     1
102
RTVSPost2010Prop39
140
1.0
102
RTVSPost2010PropOp39
 70
     1
102
RTVSPost2010Prop40
 90
        0
102
RTVSPost2010PropOp40
 70
     1
102
RTVSPost2010Prop41ColorIndex
 90
       18
102
RTVSPost2010Prop41ColorRGB
 90
        0
102
RTVSPost2010PropOp41
 70
     1
102
RTVSPost2010Prop42
 90
       50
102
RTVSPost2010PropOp42
 70
     1
102
RTVSPost2010Prop43
 90
        3
102
RTVSPost2010PropOp43
 70
     1
102
RTVSPost2010Prop44ColorIndex
 90
        5
102
RTVSPost2010Prop44ColorRGB
 90
      255
102
RTVSPost2010PropOp44
 70
     1
102
RTVSPost2010Prop45
280
     0
102
RTVSPost2010PropOp45
 70
     1
102
RTVSPost2010Prop46
 90
       50
102
RTVSPost2010PropOp46
 70
     1
102
RTVSPost2010Prop47
 90
       50
102
RTVSPost2010PropOp47
 70
     1
102
RTVSPost2010Prop48
 90
       50
102
RTVSPost2010PropOp48
 70
     1
102
RTVSPost2010Prop49
280
     0
102
RTVSPost2010PropOp49
 70
     1
102
RTVSPost2010Prop50
 90
       50
102
RTVSPost2010PropOp50
 70
     1
102
RTVSPost2010Prop51ColorIndex
 90
      256
102
RTVSPost2010Prop51ColorRGB
 90
-16777216
102
RTVSPost2010PropOp51
 70
     0
102
RTVSPost2010Prop52
140
1.0
102
RTVSPost2010PropOp52
 70
     0
102
RTVSPost2010Prop53
 90
        2
102
RTVSPost2010PropOp53
 70
     1
102
RTVSPost2010Prop54
  1
strokes_ogs.tif
102
RTVSPost2010PropOp54
 70
     1
102
RTVSPost2010Prop55
280
     0
102
RTVSPost2010PropOp55
 70
     1
102
RTVSPost2010Prop56
140
1.0
102
RTVSPost2010PropOp56
 70
     1
102
RTVSPost2010Prop57
140
1.0
102
RTVSPost2010PropOp57
 70
     1
102
RTVSPropertyOp0
 70
     1
102
RTVSPropertyOp1
 70
     1
102
RTVSPropertyOp2
 70
     1
102
RTVSPropertyOp3
 70
     1
102
RTVSPropertyOp4
 70
     1
102
RTVSPropertyOp5
 70
     1
102
RTVSPropertyOp6
 70
     1
102
RTVSPropertyOp7
 70
     1
102
RTVSPropertyOp8
 70
     1
102
RTVSPropertyOp9
 70
     1
102
RTVSPropertyOp10
 70
     1
102
RTVSPropertyOp11
 70
     1
102
RTVSPropertyOp12
 70
     1
102
RTVSPropertyOp13
 70
     1
102
RTVSPropertyOp14
 70
     1
102
RTVSPropertyOp15
 70
     1
102
RTVSPropertyOp16
 70
     1
102
RTVSPropertyOp17
 70
     1
102
RTVSPropertyOp18
 70
     1
102
RTVSPropertyOp19
 70
     1
102
RTVSPropertyOp20
 70
     1
102
RTVSPropertyOp21
 70
     1
102
RTVSPropertyOp22
 70
     1
102
RTVSPropertyOp23
 70
     1
102
RTVSPropertyOp24
 70
     1
102
RTVSPropertyOp25
 70
     1
102
RTVSPropertyOp26
 70
     1
102
RTVSPropertyOp27
 70
     1
102
RTVSPropertyOp28
 70
     1
102
RTVSPropertyOp29
 70
     1
102
RTVSPropertyOp30
 70
     1
102
RTVSPropertyOp31
 70
     1
102
RTVSPropertyOp32
 70
     1
102
RTVSPropertyOp33
 70
     1
102
RTVSPropertyOp34
 70
     1
102
RTVSPropertyOp35
 70
     1
102
RTVSPropertyOp36
 70
     1
102
RTVSPropertyOp37
 70
     1
102
RTVSPropertyOp38
 70
     1
102
RTVSPropertyOp39
 70
     1
102
RTVSPropertyOp40
 70
     1
102
RTVSPropertyOp41
 70
     1
102
RTVSPropertyOp42
 70
     1
102
RTVSPropertyOp43
 70
     1
102
RTVSPropertyOp44
 70
     1
102
RTVSPropertyOp45
 70
     1
102
RTVSPropertyOp46
 70
     1
102
RTVSPropertyOp47
 70
     1
102
RTVSPropertyOp48
 70
     1
102
RTVSPropertyOp49
 70
     1
102
RTVSPropertyOp50
 70
     1
102
RTVSPropertyOp51
 70
     0
102
RTVSPropertyOp52
 70
     0
102
RTVSPropertyOp53
 70
     1
102
RTVSPropertyOp54
 70
     1
102
RTVSPropertyOp55
 70
     1
102
RTVSPropertyOp56
 70
     1
102
RTVSPropertyOp57
 70
     1
102
RTVSPropertyOp58
 70
     1
102
RTVSPropertyOp59
 70
     1
102
RTVSPropertyOp60
 70
     1
102
RTVSPropertyOp61
 70
     1
102
RTVSPropertyOp62
 70
     1
  0
XRECORD
  5
1E57
102
{ACAD_REACTORS
330
1E56
102
}
330
1E56
100
AcDbXrecord
280
     1
102
RTVSPost2010Prop28
280
     0
102
RTVSPost2010PropOp28
 70
     1
102
RTVSPost2010Prop29
280
     1
102
RTVSPost2010PropOp29
 70
     1
102
RTVSPost2010Prop30
280
     1
102
RTVSPost2010PropOp30
 70
     1
102
RTVSPost2010Prop31
280
     0
102
RTVSPost2010PropOp31
 70
     1
102
RTVSPost2010Prop32
280
     0
102
RTVSPost2010PropOp32
 70
     1
102
RTVSPost2010Prop33
280
     0
102
RTVSPost2010PropOp33
 70
     1
102
RTVSPost2010Prop34
280
     0
102
RTVSPost2010PropOp34
 70
     1
102
RTVSPost2010Prop35
280
     0
102
RTVSPost2010PropOp35
 70
     1
102
RTVSPost2010Prop36
280
     0
102
RTVSPost2010PropOp36
 70
     1
102
RTVSPost2010Prop37
 90
       50
102
RTVSPost2010PropOp37
 70
     1
102
RTVSPost2010Prop38
140
0.0
102
RTVSPost2010PropOp38
 70
     1
102
RTVSPost2010Prop39
140
1.0
102
RTVSPost2010PropOp39
 70
     1
102
RTVSPost2010Prop40
 90
        0
102
RTVSPost2010PropOp40
 70
     1
102
RTVSPost2010Prop41ColorIndex
 90
       18
102
RTVSPost2010Prop41ColorRGB
 90
        0
102
RTVSPost2010PropOp41
 70
     1
102
RTVSPost2010Prop42
 90
       50
102
RTVSPost2010PropOp42
 70
     1
102
RTVSPost2010Prop43
 90
        3
102
RTVSPost2010PropOp43
 70
     1
102
RTVSPost2010Prop44ColorIndex
 90
        5
102
RTVSPost2010Prop44ColorRGB
 90
      255
102
RTVSPost2010PropOp44
 70
     1
102
RTVSPost2010Prop45
280
     0
102
RTVSPost2010PropOp45
 70
     1
102
RTVSPost2010Prop46
 90
       50
102
RTVSPost2010PropOp46
 70
     1
102
RTVSPost2010Prop47
 90
       50
102
RTVSPost2010PropOp47
 70
     1
102
RTVSPost2010Prop48
 90
       50
102
RTVSPost2010PropOp48
 70
     1
102
RTVSPost2010Prop49
280
     0
102
RTVSPost2010PropOp49
 70
     1
102
RTVSPost2010Prop50
 90
       50
102
RTVSPost2010PropOp50
 70
     1
102
RTVSPost2010Prop51ColorIndex
 90
      256
102
RTVSPost2010Prop51ColorRGB
 90
-16777216
102
RTVSPost2010PropOp51
 70
     0
102
RTVSPost2010Prop52
140
1.0
102
RTVSPost2010PropOp52
 70
     0
102
RTVSPost2010Prop53
 90
        2
102
RTVSPost2010PropOp53
 70
     1
102
RTVSPost2010Prop54
  1
strokes_ogs.tif
102
RTVSPost2010PropOp54
 70
     1
102
RTVSPost2010Prop55
280
     0
102
RTVSPost2010PropOp55
 70
     1
102
RTVSPost2010Prop56
140
1.0
102
RTVSPost2010PropOp56
 70
     1
102
RTVSPost2010Prop57
140
1.0
102
RTVSPost2010PropOp57
 70
     1
102
RTVSPropertyOp0
 70
     1
102
RTVSPropertyOp1
 70
     1
102
RTVSPropertyOp2
 70
     1
102
RTVSPropertyOp3
 70
     1
102
RTVSPropertyOp4
 70
     1
102
RTVSPropertyOp5
 70
     1
102
RTVSPropertyOp6
 70
     1
102
RTVSPropertyOp7
 70
     1
102
RTVSPropertyOp8
 70
     1
102
RTVSPropertyOp9
 70
     1
102
RTVSPropertyOp10
 70
     1
102
RTVSPropertyOp11
 70
     1
102
RTVSPropertyOp12
 70
     1
102
RTVSPropertyOp13
 70
     1
102
RTVSPropertyOp14
 70
     1
102
RTVSPropertyOp15
 70
     1
102
RTVSPropertyOp16
 70
     1
102
RTVSPropertyOp17
 70
     1
102
RTVSPropertyOp18
 70
     1
102
RTVSPropertyOp19
 70
     1
102
RTVSPropertyOp20
 70
     1
102
RTVSPropertyOp21
 70
     1
102
RTVSPropertyOp22
 70
     1
102
RTVSPropertyOp23
 70
     1
102
RTVSPropertyOp24
 70
     1
102
RTVSPropertyOp25
 70
     1
102
RTVSPropertyOp26
 70
     1
102
RTVSPropertyOp27
 70
     1
102
RTVSPropertyOp28
 70
     1
102
RTVSPropertyOp29
 70
     1
102
RTVSPropertyOp30
 70
     1
102
RTVSPropertyOp31
 70
     1
102
RTVSPropertyOp32
 70
     1
102
RTVSPropertyOp33
 70
     1
102
RTVSPropertyOp34
 70
     1
102
RTVSPropertyOp35
 70
     1
102
RTVSPropertyOp36
 70
     1
102
RTVSPropertyOp37
 70
     1
102
RTVSPropertyOp38
 70
     1
102
RTVSPropertyOp39
 70
     1
102
RTVSPropertyOp40
 70
     1
102
RTVSPropertyOp41
 70
     1
102
RTVSPropertyOp42
 70
     1
102
RTVSPropertyOp43
 70
     1
102
RTVSPropertyOp44
 70
     1
102
RTVSPropertyOp45
 70
     1
102
RTVSPropertyOp46
 70
     1
102
RTVSPropertyOp47
 70
     1
102
RTVSPropertyOp48
 70
     1
102
RTVSPropertyOp49
 70
     1
102
RTVSPropertyOp50
 70
     1
102
RTVSPropertyOp51
 70
     0
102
RTVSPropertyOp52
 70
     0
102
RTVSPropertyOp53
 70
     1
102
RTVSPropertyOp54
 70
     1
102
RTVSPropertyOp55
 70
     1
102
RTVSPropertyOp56
 70
     1
102
RTVSPropertyOp57
 70
     1
102
RTVSPropertyOp58
 70
     1
102
RTVSPropertyOp59
 70
     1
102
RTVSPropertyOp60
 70
     1
102
RTVSPropertyOp61
 70
     1
102
RTVSPropertyOp62
 70
     1
  0
XRECORD
  5
1E59
102
{ACAD_REACTORS
330
1E58
102
}
330
1E58
100
AcDbXrecord
280
     1
102
RTVSPost2010Prop28
280
     0
102
RTVSPost2010PropOp28
 70
     1
102
RTVSPost2010Prop29
280
     1
102
RTVSPost2010PropOp29
 70
     1
102
RTVSPost2010Prop30
280
     1
102
RTVSPost2010PropOp30
 70
     1
102
RTVSPost2010Prop31
280
     0
102
RTVSPost2010PropOp31
 70
     1
102
RTVSPost2010Prop32
280
     0
102
RTVSPost2010PropOp32
 70
     1
102
RTVSPost2010Prop33
280
     0
102
RTVSPost2010PropOp33
 70
     1
102
RTVSPost2010Prop34
280
     0
102
RTVSPost2010PropOp34
 70
     1
102
RTVSPost2010Prop35
280
     0
102
RTVSPost2010PropOp35
 70
     1
102
RTVSPost2010Prop36
280
     0
102
RTVSPost2010PropOp36
 70
     1
102
RTVSPost2010Prop37
 90
       50
102
RTVSPost2010PropOp37
 70
     1
102
RTVSPost2010Prop38
140
0.0
102
RTVSPost2010PropOp38
 70
     1
102
RTVSPost2010Prop39
140
1.0
102
RTVSPost2010PropOp39
 70
     1
102
RTVSPost2010Prop40
 90
        0
102
RTVSPost2010PropOp40
 70
     1
102
RTVSPost2010Prop41ColorIndex
 90
       18
102
RTVSPost2010Prop41ColorRGB
 90
        0
102
RTVSPost2010PropOp41
 70
     1
102
RTVSPost2010Prop42
 90
       50
102
RTVSPost2010PropOp42
 70
     1
102
RTVSPost2010Prop43
 90
        3
102
RTVSPost2010PropOp43
 70
     1
102
RTVSPost2010Prop44ColorIndex
 90
        5
102
RTVSPost2010Prop44ColorRGB
 90
      255
102
RTVSPost2010PropOp44
 70
     1
102
RTVSPost2010Prop45
280
     0
102
RTVSPost2010PropOp45
 70
     1
102
RTVSPost2010Prop46
 90
       50
102
RTVSPost2010PropOp46
 70
     1
102
RTVSPost2010Prop47
 90
       50
102
RTVSPost2010PropOp47
 70
     1
102
RTVSPost2010Prop48
 90
       50
102
RTVSPost2010PropOp48
 70
     1
102
RTVSPost2010Prop49
280
     0
102
RTVSPost2010PropOp49
 70
     1
102
RTVSPost2010Prop50
 90
       50
102
RTVSPost2010PropOp50
 70
     1
102
RTVSPost2010Prop51ColorIndex
 90
      256
102
RTVSPost2010Prop51ColorRGB
 90
-16777216
102
RTVSPost2010PropOp51
 70
     0
102
RTVSPost2010Prop52
140
1.0
102
RTVSPost2010PropOp52
 70
     0
102
RTVSPost2010Prop53
 90
        2
102
RTVSPost2010PropOp53
 70
     1
102
RTVSPost2010Prop54
  1
strokes_ogs.tif
102
RTVSPost2010PropOp54
 70
     1
102
RTVSPost2010Prop55
280
     0
102
RTVSPost2010PropOp55
 70
     1
102
RTVSPost2010Prop56
140
1.0
102
RTVSPost2010PropOp56
 70
     1
102
RTVSPost2010Prop57
140
1.0
102
RTVSPost2010PropOp57
 70
     1
102
RTVSPropertyOp0
 70
     1
102
RTVSPropertyOp1
 70
     1
102
RTVSPropertyOp2
 70
     1
102
RTVSPropertyOp3
 70
     1
102
RTVSPropertyOp4
 70
     1
102
RTVSPropertyOp5
 70
     1
102
RTVSPropertyOp6
 70
     1
102
RTVSPropertyOp7
 70
     1
102
RTVSPropertyOp8
 70
     1
102
RTVSPropertyOp9
 70
     1
102
RTVSPropertyOp10
 70
     1
102
RTVSPropertyOp11
 70
     1
102
RTVSPropertyOp12
 70
     1
102
RTVSPropertyOp13
 70
     1
102
RTVSPropertyOp14
 70
     1
102
RTVSPropertyOp15
 70
     1
102
RTVSPropertyOp16
 70
     1
102
RTVSPropertyOp17
 70
     1
102
RTVSPropertyOp18
 70
     1
102
RTVSPropertyOp19
 70
     1
102
RTVSPropertyOp20
 70
     1
102
RTVSPropertyOp21
 70
     1
102
RTVSPropertyOp22
 70
     1
102
RTVSPropertyOp23
 70
     1
102
RTVSPropertyOp24
 70
     1
102
RTVSPropertyOp25
 70
     1
102
RTVSPropertyOp26
 70
     1
102
RTVSPropertyOp27
 70
     1
102
RTVSPropertyOp28
 70
     1
102
RTVSPropertyOp29
 70
     1
102
RTVSPropertyOp30
 70
     1
102
RTVSPropertyOp31
 70
     1
102
RTVSPropertyOp32
 70
     1
102
RTVSPropertyOp33
 70
     1
102
RTVSPropertyOp34
 70
     1
102
RTVSPropertyOp35
 70
     1
102
RTVSPropertyOp36
 70
     1
102
RTVSPropertyOp37
 70
     1
102
RTVSPropertyOp38
 70
     1
102
RTVSPropertyOp39
 70
     1
102
RTVSPropertyOp40
 70
     1
102
RTVSPropertyOp41
 70
     1
102
RTVSPropertyOp42
 70
     1
102
RTVSPropertyOp43
 70
     1
102
RTVSPropertyOp44
 70
     1
102
RTVSPropertyOp45
 70
     1
102
RTVSPropertyOp46
 70
     1
102
RTVSPropertyOp47
 70
     1
102
RTVSPropertyOp48
 70
     1
102
RTVSPropertyOp49
 70
     1
102
RTVSPropertyOp50
 70
     1
102
RTVSPropertyOp51
 70
     0
102
RTVSPropertyOp52
 70
     0
102
RTVSPropertyOp53
 70
     1
102
RTVSPropertyOp54
 70
     1
102
RTVSPropertyOp55
 70
     1
102
RTVSPropertyOp56
 70
     1
102
RTVSPropertyOp57
 70
     1
102
RTVSPropertyOp58
 70
     1
102
RTVSPropertyOp59
 70
     1
102
RTVSPropertyOp60
 70
     1
102
RTVSPropertyOp61
 70
     1
102
RTVSPropertyOp62
 70
     1
  0
XRECORD
  5
1E4F
102
{ACAD_REACTORS
330
1E4E
102
}
330
1E4E
100
AcDbXrecord
280
     1
102
RTVSPost2010Prop28
280
     0
102
RTVSPost2010PropOp28
 70
     1
102
RTVSPost2010Prop29
280
     1
102
RTVSPost2010PropOp29
 70
     1
102
RTVSPost2010Prop30
280
     1
102
RTVSPost2010PropOp30
 70
     1
102
RTVSPost2010Prop31
280
     0
102
RTVSPost2010PropOp31
 70
     1
102
RTVSPost2010Prop32
280
     0
102
RTVSPost2010PropOp32
 70
     1
102
RTVSPost2010Prop33
280
     0
102
RTVSPost2010PropOp33
 70
     1
102
RTVSPost2010Prop34
280
     0
102
RTVSPost2010PropOp34
 70
     1
102
RTVSPost2010Prop35
280
     0
102
RTVSPost2010PropOp35
 70
     1
102
RTVSPost2010Prop36
280
     0
102
RTVSPost2010PropOp36
 70
     1
102
RTVSPost2010Prop37
 90
       50
102
RTVSPost2010PropOp37
 70
     1
102
RTVSPost2010Prop38
140
0.0
102
RTVSPost2010PropOp38
 70
     1
102
RTVSPost2010Prop39
140
1.0
102
RTVSPost2010PropOp39
 70
     1
102
RTVSPost2010Prop40
 90
        0
102
RTVSPost2010PropOp40
 70
     1
102
RTVSPost2010Prop41ColorIndex
 90
       18
102
RTVSPost2010Prop41ColorRGB
 90
        0
102
RTVSPost2010PropOp41
 70
     1
102
RTVSPost2010Prop42
 90
       50
102
RTVSPost2010PropOp42
 70
     1
102
RTVSPost2010Prop43
 90
        3
102
RTVSPost2010PropOp43
 70
     1
102
RTVSPost2010Prop44ColorIndex
 90
        5
102
RTVSPost2010Prop44ColorRGB
 90
      255
102
RTVSPost2010PropOp44
 70
     1
102
RTVSPost2010Prop45
280
     0
102
RTVSPost2010PropOp45
 70
     1
102
RTVSPost2010Prop46
 90
       50
102
RTVSPost2010PropOp46
 70
     1
102
RTVSPost2010Prop47
 90
       50
102
RTVSPost2010PropOp47
 70
     1
102
RTVSPost2010Prop48
 90
       50
102
RTVSPost2010PropOp48
 70
     1
102
RTVSPost2010Prop49
280
     0
102
RTVSPost2010PropOp49
 70
     1
102
RTVSPost2010Prop50
 90
       50
102
RTVSPost2010PropOp50
 70
     1
102
RTVSPost2010Prop51ColorIndex
 90
      256
102
RTVSPost2010Prop51ColorRGB
 90
-16777216
102
RTVSPost2010PropOp51
 70
     0
102
RTVSPost2010Prop52
140
1.0
102
RTVSPost2010PropOp52
 70
     0
102
RTVSPost2010Prop53
 90
        2
102
RTVSPost2010PropOp53
 70
     1
102
RTVSPost2010Prop54
  1
strokes_ogs.tif
102
RTVSPost2010PropOp54
 70
     1
102
RTVSPost2010Prop55
280
     0
102
RTVSPost2010PropOp55
 70
     1
102
RTVSPost2010Prop56
140
1.0
102
RTVSPost2010PropOp56
 70
     1
102
RTVSPost2010Prop57
140
1.0
102
RTVSPost2010PropOp57
 70
     1
102
RTVSPropertyOp0
 70
     1
102
RTVSPropertyOp1
 70
     1
102
RTVSPropertyOp2
 70
     1
102
RTVSPropertyOp3
 70
     1
102
RTVSPropertyOp4
 70
     1
102
RTVSPropertyOp5
 70
     1
102
RTVSPropertyOp6
 70
     1
102
RTVSPropertyOp7
 70
     1
102
RTVSPropertyOp8
 70
     1
102
RTVSPropertyOp9
 70
     1
102
RTVSPropertyOp10
 70
     1
102
RTVSPropertyOp11
 70
     1
102
RTVSPropertyOp12
 70
     1
102
RTVSPropertyOp13
 70
     1
102
RTVSPropertyOp14
 70
     1
102
RTVSPropertyOp15
 70
     1
102
RTVSPropertyOp16
 70
     1
102
RTVSPropertyOp17
 70
     1
102
RTVSPropertyOp18
 70
     1
102
RTVSPropertyOp19
 70
     1
102
RTVSPropertyOp20
 70
     1
102
RTVSPropertyOp21
 70
     1
102
RTVSPropertyOp22
 70
     1
102
RTVSPropertyOp23
 70
     1
102
RTVSPropertyOp24
 70
     1
102
RTVSPropertyOp25
 70
     1
102
RTVSPropertyOp26
 70
     1
102
RTVSPropertyOp27
 70
     1
102
RTVSPropertyOp28
 70
     1
102
RTVSPropertyOp29
 70
     1
102
RTVSPropertyOp30
 70
     1
102
RTVSPropertyOp31
 70
     1
102
RTVSPropertyOp32
 70
     1
102
RTVSPropertyOp33
 70
     1
102
RTVSPropertyOp34
 70
     1
102
RTVSPropertyOp35
 70
     1
102
RTVSPropertyOp36
 70
     1
102
RTVSPropertyOp37
 70
     1
102
RTVSPropertyOp38
 70
     1
102
RTVSPropertyOp39
 70
     1
102
RTVSPropertyOp40
 70
     1
102
RTVSPropertyOp41
 70
     1
102
RTVSPropertyOp42
 70
     1
102
RTVSPropertyOp43
 70
     1
102
RTVSPropertyOp44
 70
     1
102
RTVSPropertyOp45
 70
     1
102
RTVSPropertyOp46
 70
     1
102
RTVSPropertyOp47
 70
     1
102
RTVSPropertyOp48
 70
     1
102
RTVSPropertyOp49
 70
     1
102
RTVSPropertyOp50
 70
     1
102
RTVSPropertyOp51
 70
     0
102
RTVSPropertyOp52
 70
     0
102
RTVSPropertyOp53
 70
     1
102
RTVSPropertyOp54
 70
     1
102
RTVSPropertyOp55
 70
     1
102
RTVSPropertyOp56
 70
     1
102
RTVSPropertyOp57
 70
     1
102
RTVSPropertyOp58
 70
     1
102
RTVSPropertyOp59
 70
     1
102
RTVSPropertyOp60
 70
     1
102
RTVSPropertyOp61
 70
     1
102
RTVSPropertyOp62
 70
     1
  0
XRECORD
  5
1E43
102
{ACAD_REACTORS
330
1E42
102
}
330
1E42
100
AcDbXrecord
280
     1
102
RTVSPost2010Prop28
280
     0
102
RTVSPost2010PropOp28
 70
     1
102
RTVSPost2010Prop29
280
     1
102
RTVSPost2010PropOp29
 70
     1
102
RTVSPost2010Prop30
280
     1
102
RTVSPost2010PropOp30
 70
     1
102
RTVSPost2010Prop31
280
     0
102
RTVSPost2010PropOp31
 70
     1
102
RTVSPost2010Prop32
280
     0
102
RTVSPost2010PropOp32
 70
     1
102
RTVSPost2010Prop33
280
     0
102
RTVSPost2010PropOp33
 70
     1
102
RTVSPost2010Prop34
280
     0
102
RTVSPost2010PropOp34
 70
     1
102
RTVSPost2010Prop35
280
     0
102
RTVSPost2010PropOp35
 70
     1
102
RTVSPost2010Prop36
280
     0
102
RTVSPost2010PropOp36
 70
     1
102
RTVSPost2010Prop37
 90
       50
102
RTVSPost2010PropOp37
 70
     1
102
RTVSPost2010Prop38
140
0.0
102
RTVSPost2010PropOp38
 70
     1
102
RTVSPost2010Prop39
140
1.0
102
RTVSPost2010PropOp39
 70
     1
102
RTVSPost2010Prop40
 90
        0
102
RTVSPost2010PropOp40
 70
     1
102
RTVSPost2010Prop41ColorIndex
 90
       18
102
RTVSPost2010Prop41ColorRGB
 90
        0
102
RTVSPost2010PropOp41
 70
     1
102
RTVSPost2010Prop42
 90
       50
102
RTVSPost2010PropOp42
 70
     1
102
RTVSPost2010Prop43
 90
        3
102
RTVSPost2010PropOp43
 70
     1
102
RTVSPost2010Prop44ColorIndex
 90
        5
102
RTVSPost2010Prop44ColorRGB
 90
      255
102
RTVSPost2010PropOp44
 70
     1
102
RTVSPost2010Prop45
280
     0
102
RTVSPost2010PropOp45
 70
     1
102
RTVSPost2010Prop46
 90
       50
102
RTVSPost2010PropOp46
 70
     1
102
RTVSPost2010Prop47
 90
       50
102
RTVSPost2010PropOp47
 70
     1
102
RTVSPost2010Prop48
 90
       50
102
RTVSPost2010PropOp48
 70
     1
102
RTVSPost2010Prop49
280
     0
102
RTVSPost2010PropOp49
 70
     1
102
RTVSPost2010Prop50
 90
       50
102
RTVSPost2010PropOp50
 70
     1
102
RTVSPost2010Prop51ColorIndex
 90
      256
102
RTVSPost2010Prop51ColorRGB
 90
-16777216
102
RTVSPost2010PropOp51
 70
     0
102
RTVSPost2010Prop52
140
1.0
102
RTVSPost2010PropOp52
 70
     0
102
RTVSPost2010Prop53
 90
        2
102
RTVSPost2010PropOp53
 70
     1
102
RTVSPost2010Prop54
  1
strokes_ogs.tif
102
RTVSPost2010PropOp54
 70
     1
102
RTVSPost2010Prop55
280
     0
102
RTVSPost2010PropOp55
 70
     1
102
RTVSPost2010Prop56
140
1.0
102
RTVSPost2010PropOp56
 70
     1
102
RTVSPost2010Prop57
140
1.0
102
RTVSPost2010PropOp57
 70
     1
102
RTVSPropertyOp0
 70
     1
102
RTVSPropertyOp1
 70
     1
102
RTVSPropertyOp2
 70
     1
102
RTVSPropertyOp3
 70
     1
102
RTVSPropertyOp4
 70
     1
102
RTVSPropertyOp5
 70
     1
102
RTVSPropertyOp6
 70
     1
102
RTVSPropertyOp7
 70
     1
102
RTVSPropertyOp8
 70
     1
102
RTVSPropertyOp9
 70
     1
102
RTVSPropertyOp10
 70
     1
102
RTVSPropertyOp11
 70
     1
102
RTVSPropertyOp12
 70
     1
102
RTVSPropertyOp13
 70
     1
102
RTVSPropertyOp14
 70
     1
102
RTVSPropertyOp15
 70
     1
102
RTVSPropertyOp16
 70
     1
102
RTVSPropertyOp17
 70
     1
102
RTVSPropertyOp18
 70
     1
102
RTVSPropertyOp19
 70
     1
102
RTVSPropertyOp20
 70
     1
102
RTVSPropertyOp21
 70
     1
102
RTVSPropertyOp22
 70
     1
102
RTVSPropertyOp23
 70
     1
102
RTVSPropertyOp24
 70
     1
102
RTVSPropertyOp25
 70
     1
102
RTVSPropertyOp26
 70
     1
102
RTVSPropertyOp27
 70
     1
102
RTVSPropertyOp28
 70
     1
102
RTVSPropertyOp29
 70
     1
102
RTVSPropertyOp30
 70
     1
102
RTVSPropertyOp31
 70
     1
102
RTVSPropertyOp32
 70
     1
102
RTVSPropertyOp33
 70
     1
102
RTVSPropertyOp34
 70
     1
102
RTVSPropertyOp35
 70
     1
102
RTVSPropertyOp36
 70
     1
102
RTVSPropertyOp37
 70
     1
102
RTVSPropertyOp38
 70
     1
102
RTVSPropertyOp39
 70
     1
102
RTVSPropertyOp40
 70
     1
102
RTVSPropertyOp41
 70
     1
102
RTVSPropertyOp42
 70
     1
102
RTVSPropertyOp43
 70
     1
102
RTVSPropertyOp44
 70
     1
102
RTVSPropertyOp45
 70
     1
102
RTVSPropertyOp46
 70
     1
102
RTVSPropertyOp47
 70
     1
102
RTVSPropertyOp48
 70
     1
102
RTVSPropertyOp49
 70
     1
102
RTVSPropertyOp50
 70
     1
102
RTVSPropertyOp51
 70
     0
102
RTVSPropertyOp52
 70
     0
102
RTVSPropertyOp53
 70
     1
102
RTVSPropertyOp54
 70
     1
102
RTVSPropertyOp55
 70
     1
102
RTVSPropertyOp56
 70
     1
102
RTVSPropertyOp57
 70
     1
102
RTVSPropertyOp58
 70
     1
102
RTVSPropertyOp59
 70
     1
102
RTVSPropertyOp60
 70
     1
102
RTVSPropertyOp61
 70
     1
102
RTVSPropertyOp62
 70
     1
  0
XRECORD
  5
1E5B
102
{ACAD_REACTORS
330
1E5A
102
}
330
1E5A
100
AcDbXrecord
280
     1
102
RTVSPost2010Prop28
280
     0
102
RTVSPost2010PropOp28
 70
     1
102
RTVSPost2010Prop29
280
     1
102
RTVSPost2010PropOp29
 70
     1
102
RTVSPost2010Prop30
280
     1
102
RTVSPost2010PropOp30
 70
     1
102
RTVSPost2010Prop31
280
     0
102
RTVSPost2010PropOp31
 70
     1
102
RTVSPost2010Prop32
280
     0
102
RTVSPost2010PropOp32
 70
     1
102
RTVSPost2010Prop33
280
     0
102
RTVSPost2010PropOp33
 70
     1
102
RTVSPost2010Prop34
280
     0
102
RTVSPost2010PropOp34
 70
     1
102
RTVSPost2010Prop35
280
     0
102
RTVSPost2010PropOp35
 70
     1
102
RTVSPost2010Prop36
280
     0
102
RTVSPost2010PropOp36
 70
     1
102
RTVSPost2010Prop37
 90
       50
102
RTVSPost2010PropOp37
 70
     1
102
RTVSPost2010Prop38
140
0.0
102
RTVSPost2010PropOp38
 70
     1
102
RTVSPost2010Prop39
140
1.0
102
RTVSPost2010PropOp39
 70
     1
102
RTVSPost2010Prop40
 90
        0
102
RTVSPost2010PropOp40
 70
     1
102
RTVSPost2010Prop41ColorIndex
 90
       18
102
RTVSPost2010Prop41ColorRGB
 90
        0
102
RTVSPost2010PropOp41
 70
     1
102
RTVSPost2010Prop42
 90
       50
102
RTVSPost2010PropOp42
 70
     1
102
RTVSPost2010Prop43
 90
        3
102
RTVSPost2010PropOp43
 70
     1
102
RTVSPost2010Prop44ColorIndex
 90
        5
102
RTVSPost2010Prop44ColorRGB
 90
      255
102
RTVSPost2010PropOp44
 70
     1
102
RTVSPost2010Prop45
280
     0
102
RTVSPost2010PropOp45
 70
     1
102
RTVSPost2010Prop46
 90
       50
102
RTVSPost2010PropOp46
 70
     1
102
RTVSPost2010Prop47
 90
       50
102
RTVSPost2010PropOp47
 70
     1
102
RTVSPost2010Prop48
 90
       50
102
RTVSPost2010PropOp48
 70
     1
102
RTVSPost2010Prop49
280
     0
102
RTVSPost2010PropOp49
 70
     1
102
RTVSPost2010Prop50
 90
       50
102
RTVSPost2010PropOp50
 70
     1
102
RTVSPost2010Prop51ColorIndex
 90
      256
102
RTVSPost2010Prop51ColorRGB
 90
-16777216
102
RTVSPost2010PropOp51
 70
     0
102
RTVSPost2010Prop52
140
1.0
102
RTVSPost2010PropOp52
 70
     0
102
RTVSPost2010Prop53
 90
        2
102
RTVSPost2010PropOp53
 70
     1
102
RTVSPost2010Prop54
  1
strokes_ogs.tif
102
RTVSPost2010PropOp54
 70
     1
102
RTVSPost2010Prop55
280
     0
102
RTVSPost2010PropOp55
 70
     1
102
RTVSPost2010Prop56
140
1.0
102
RTVSPost2010PropOp56
 70
     1
102
RTVSPost2010Prop57
140
1.0
102
RTVSPost2010PropOp57
 70
     1
102
RTVSPropertyOp0
 70
     1
102
RTVSPropertyOp1
 70
     1
102
RTVSPropertyOp2
 70
     1
102
RTVSPropertyOp3
 70
     1
102
RTVSPropertyOp4
 70
     1
102
RTVSPropertyOp5
 70
     1
102
RTVSPropertyOp6
 70
     1
102
RTVSPropertyOp7
 70
     1
102
RTVSPropertyOp8
 70
     1
102
RTVSPropertyOp9
 70
     1
102
RTVSPropertyOp10
 70
     1
102
RTVSPropertyOp11
 70
     1
102
RTVSPropertyOp12
 70
     1
102
RTVSPropertyOp13
 70
     1
102
RTVSPropertyOp14
 70
     1
102
RTVSPropertyOp15
 70
     1
102
RTVSPropertyOp16
 70
     1
102
RTVSPropertyOp17
 70
     1
102
RTVSPropertyOp18
 70
     1
102
RTVSPropertyOp19
 70
     1
102
RTVSPropertyOp20
 70
     1
102
RTVSPropertyOp21
 70
     1
102
RTVSPropertyOp22
 70
     1
102
RTVSPropertyOp23
 70
     1
102
RTVSPropertyOp24
 70
     1
102
RTVSPropertyOp25
 70
     1
102
RTVSPropertyOp26
 70
     1
102
RTVSPropertyOp27
 70
     1
102
RTVSPropertyOp28
 70
     1
102
RTVSPropertyOp29
 70
     1
102
RTVSPropertyOp30
 70
     1
102
RTVSPropertyOp31
 70
     1
102
RTVSPropertyOp32
 70
     1
102
RTVSPropertyOp33
 70
     1
102
RTVSPropertyOp34
 70
     1
102
RTVSPropertyOp35
 70
     1
102
RTVSPropertyOp36
 70
     1
102
RTVSPropertyOp37
 70
     1
102
RTVSPropertyOp38
 70
     1
102
RTVSPropertyOp39
 70
     1
102
RTVSPropertyOp40
 70
     1
102
RTVSPropertyOp41
 70
     1
102
RTVSPropertyOp42
 70
     1
102
RTVSPropertyOp43
 70
     1
102
RTVSPropertyOp44
 70
     1
102
RTVSPropertyOp45
 70
     1
102
RTVSPropertyOp46
 70
     1
102
RTVSPropertyOp47
 70
     1
102
RTVSPropertyOp48
 70
     1
102
RTVSPropertyOp49
 70
     1
102
RTVSPropertyOp50
 70
     1
102
RTVSPropertyOp51
 70
     0
102
RTVSPropertyOp52
 70
     0
102
RTVSPropertyOp53
 70
     1
102
RTVSPropertyOp54
 70
     1
102
RTVSPropertyOp55
 70
     1
102
RTVSPropertyOp56
 70
     1
102
RTVSPropertyOp57
 70
     1
102
RTVSPropertyOp58
 70
     1
102
RTVSPropertyOp59
 70
     1
102
RTVSPropertyOp60
 70
     1
102
RTVSPropertyOp61
 70
     1
102
RTVSPropertyOp62
 70
     1
  0
ENDSEC
  0
EOF
