  0
SECTION
  2
HEADER
  9
$ACADVER
  1
AC1009
  9
$INSBASE
 10
0.0
 20
0.0
 30
0.0
  9
$EXTMIN
 10
-31.277984010391911
 20
-27.000000000000028
 30
0.0
  9
$EXTMAX
 10
120.5048772800022
 20
61.000000000000021
 30
0.0
  9
$LIMMIN
 10
0.0
 20
0.0
  9
$LIMMAX
 10
297.0
 20
210.0
  9
$ORTHOMODE
 70
     1
  9
$REGENMODE
 70
     1
  9
$FILLMODE
 70
     1
  9
$QTEXTMODE
 70
     0
  9
$MIRRTEXT
 70
     1
  9
$DRAGMODE
 70
     2
  9
$LTSCALE
 40
10.0
  9
$OSMODE
 70
    35
  9
$ATTMODE
 70
     1
  9
$TEXTSIZE
 40
3.0
  9
$TRACEWID
 40
1.0
  9
$TEXTSTYLE
  7
YOKO
  9
$CLAYER
  8
240
  9
$CELTYPE
  6
BYLAYER
  9
$CECOLOR
 62
   256
  9
$DIMSCALE
 40
1.0
  9
$DIMASZ
 40
2.2299999999999991
  9
$DIMEXO
 40
0.5
  9
$DIMDLI
 40
7.0
  9
$DIMRND
 40
0.0
  9
$DIMDLE
 40
0.0
  9
$DIMEXE
 40
1.0
  9
$DIMTP
 40
0.0
  9
$DIMTM
 40
0.01
  9
$DIMTXT
 40
2.7999999999999989
  9
$DIMCEN
 40
0.0
  9
$DIMTSZ
 40
0.0
  9
$DIMTOL
 70
     0
  9
$DIMLIM
 70
     0
  9
$DIMTIH
 70
     0
  9
$DIMTOH
 70
     0
  9
$DIMSE1
 70
     0
  9
$DIMSE2
 70
     0
  9
$DIMTAD
 70
     3
  9
$DIMZIN
 70
     9
  9
$DIMBLK
  1
OPEN
  9
$DIMASO
 70
     1
  9
$DIMSHO
 70
     1
  9
$DIMPOST
  1

  9
$DIMAPOST
  1

  9
$DIMALT
 70
     0
  9
$DIMALTD
 70
     2
  9
$DIMALTF
 40
25.399999999999999
  9
$DIMLFAC
 40
1.0
  9
$DIMTOFL
 70
     1
  9
$DIMTVP
 40
0.0
  9
$DIMTIX
 70
     1
  9
$DIMSOXD
 70
     0
  9
$DIMSAH
 70
     0
  9
$DIMBLK1
  1

  9
$DIMBLK2
  1

  9
$DIMSTYLE
  2
BIGT
  9
$DIMCLRD
 70
   256
  9
$DIMCLRE
 70
   256
  9
$DIMCLRT
 70
    40
  9
$DIMTFAC
 40
1.0
  9
$DIMGAP
 40
1.0
  9
$LUNITS
 70
     2
  9
$LUPREC
 70
     6
  9
$SKETCHINC
 40
1.0
  9
$FILLETRAD
 40
0.0
  9
$AUNITS
 70
     0
  9
$AUPREC
 70
     6
  9
$MENU
  1
.
  9
$ELEVATION
 40
0.0
  9
$PELEVATION
 40
0.0
  9
$THICKNESS
 40
0.0
  9
$LIMCHECK
 70
     0
  9
$BLIPMODE
 70
     0
  9
$CHAMFERA
 40
0.2
  9
$CHAMFERB
 40
0.2
  9
$SKPOLY
 70
     0
  9
$TDCREATE
 40
2457745.4252306479
  9
$TDUPDATE
 40
2457745.611859919
  9
$TDINDWG
 40
0.011135
  9
$TDUSRTIMER
 40
0.0111349653
  9
$USRTIMER
 70
     1
  9
$ANGBASE
 50
0.0
  9
$ANGDIR
 70
     0
  9
$PDMODE
 70
     1
  9
$PDSIZE
 40
0.0
  9
$PLINEWID
 40
0.0
  9
$COORDS
 70
     1
  9
$SPLFRAME
 70
     0
  9
$SPLINETYPE
 70
     6
  9
$SPLINESEGS
 70
     4
  9
$ATTDIA
 70
     1
  9
$ATTREQ
 70
     1
  9
$HANDLING
 70
     1
  9
$HANDSEED
  5
468B
  9
$SURFTAB1
 70
     6
  9
$SURFTAB2
 70
     6
  9
$SURFTYPE
 70
     6
  9
$SURFU
 70
     6
  9
$SURFV
 70
     6
  9
$UCSNAME
  2

  9
$UCSORG
 10
0.0
 20
0.0
 30
0.0
  9
$UCSXDIR
 10
1.0
 20
0.0
 30
0.0
  9
$UCSYDIR
 10
0.0
 20
1.0
 30
0.0
  9
$PUCSNAME
  2

  9
$PUCSORG
 10
0.0
 20
0.0
 30
0.0
  9
$PUCSXDIR
 10
1.0
 20
0.0
 30
0.0
  9
$PUCSYDIR
 10
0.0
 20
1.0
 30
0.0
  9
$USERI1
 70
     1
  9
$USERI2
 70
     0
  9
$USERI3
 70
     0
  9
$USERI4
 70
     0
  9
$USERI5
 70
     0
  9
$USERR1
 40
0.0
  9
$USERR2
 40
0.0
  9
$USERR3
 40
0.0
  9
$USERR4
 40
0.0
  9
$USERR5
 40
0.0
  9
$WORLDVIEW
 70
     1
  9
$SHADEDGE
 70
     3
  9
$SHADEDIF
 70
    70
  9
$TILEMODE
 70
     1
  9
$MAXACTVP
 70
    16
  9
$PLIMCHECK
 70
     0
  9
$PEXTMIN
 10
1.0000000000000000E+020
 20
1.0000000000000000E+020
 30
1.0000000000000000E+020
  9
$PEXTMAX
 10
-1.0000000000000000E+020
 20
-1.0000000000000000E+020
 30
-1.0000000000000000E+020
  9
$PLIMMIN
 10
0.0
 20
0.0
  9
$PLIMMAX
 10
420.0
 20
297.0
  9
$UNITMODE
 70
     0
  9
$VISRETAIN
 70
     1
  9
$PLINEGEN
 70
     0
  9
$PSLTSCALE
 70
     1
  0
ENDSEC
  0
SECTION
  2
TABLES
  0
TABLE
  2
VPORT
 70
     1
  0
VPORT
  2
*ACTIVE
 70
     0
 10
0.0
 20
0.0
 11
1.0
 21
1.0
 12
33.046583366314167
 22
17.545359568056991
 13
0.0
 23
0.0
 14
7.0
 24
7.0
 15
7.0
 25
7.0
 16
0.0
 26
0.0
 36
1.0
 17
0.0
 27
0.0
 37
0.0
 40
167.16195966700539
 41
1.464403066812705
 42
50.0
 43
0.0
 44
0.0
 50
0.0
 51
0.0
 71
     0
 72
  2000
 73
     1
 74
     0
 75
     0
 76
     1
 77
     0
 78
     0
  0
ENDTAB
  0
TABLE
  2
LTYPE
 70
    16
  0
LTYPE
  2
CONTINUOUS
 70
     0
  3
Solid line
 72
    65
 73
     0
 40
0.0
  0
LTYPE
  2
CENTER2
 70
     0
  3
___ _ ___ _ ___ _ ___ _ ___ _ ___ _ ___ _ ___ _
 72
    65
 73
     4
 40
1.125
 49
0.75
 49
-0.125
 49
0.125
 49
-0.125
  0
LTYPE
  2
HIDDEN2
 70
     0
  3
_ _ _ _ _ _ _ _ _ _ _ _ _ _ _ _ _ _ _ _ _ _ _ _
 72
    65
 73
     2
 40
0.1875
 49
0.125
 49
-0.0625
  0
LTYPE
  2
PHANTOM2
 70
     0
  3
___ _ _ ___ _ _ ___ _ _ ___ _ _ ___ _ _ ___ _ _
 72
    65
 73
     6
 40
1.25
 49
0.625
 49
-0.125
 49
0.125
 49
-0.125
 49
0.125
 49
-0.125
  0
LTYPE
  2
AM_ISO02W050
 70
     0
  3
__ __ __ __ __ __ __ __ __ __ __ __ __ __ __
 72
    65
 73
     2
 40
7.5
 49
6.0
 49
-1.5
  0
LTYPE
  2
AMCONSTR
 70
     0
  3
_______________________
 72
    65
 73
     2
 40
9999.0
 49
9999.0
 49
0.0
  0
LTYPE
  2
ACISOWELD
 70
     0
  3
_ _ _ _ _
 72
    65
 73
     2
 40
2.0
 49
2.0
 49
-1.0
  0
LTYPE
  2
ACISOTGB
 70
     0
  3
__ . . __ . .
 72
    65
 73
     6
 40
9.0
 49
4.0
 49
-1.0
 49
1.0
 49
-1.0
 49
1.0
 49
-1.0
  0
LTYPE
  2
ACISOTGL
 70
     0
  3
_ _ _ _ _
 72
    65
 73
     2
 40
3.0
 49
2.0
 49
-1.0
  0
LTYPE
  2
ACJISTGB
 70
     0
  3
__ . . __ . .
 72
    65
 73
     6
 40
9.0
 49
4.0
 49
-1.0
 49
1.0
 49
-1.0
 49
1.0
 49
-1.0
  0
LTYPE
  2
ACJISTGL
 70
     0
  3
_ _ _ _ _
 72
    65
 73
     2
 40
3.0
 49
2.0
 49
-1.0
  0
ENDTAB
  0
TABLE
  2
LAYER
 70
     8
  0
LAYER
  2
0
 70
     0
 62
     7
  6
CONTINUOUS
  0
LAYER
  2
DEFPOINTS
 70
     0
 62
     7
  6
CONTINUOUS
  0
LAYER
  2
245
 70
     0
 62
     2
  6
CENTER2
  0
LAYER
  2
240
 70
     0
 62
     4
  6
CONTINUOUS
  0
LAYER
  2
241
 70
     0
 62
   211
  6
CONTINUOUS
  0
LAYER
  2
243
 70
     0
 62
   211
  6
HIDDEN2
  0
LAYER
  2
247
 70
     0
 62
    60
  6
CONTINUOUS
  0
LAYER
  2
250
 70
     0
 62
     3
  6
CONTINUOUS
  0
ENDTAB
  0
TABLE
  2
STYLE
 70
     7
  0
STYLE
  2
STANDARD
 70
     0
 40
0.0
 41
1.0
 50
0.0
 71
     0
 42
3.0
  3
romans.shx
  4
extfont.shx
  0
STYLE
  2
ACISOTS
 70
     0
 40
1.0
 41
1.0
 50
0.0
 71
     0
 42
3.0
  3
amgdt.shx
  4
extfont.shx
  0
STYLE
  2
ACISOGDT
 70
     0
 40
0.0
 41
1.0
 50
0.0
 71
     0
 42
3.0
  3
amgdt.shx
  4
extfont.shx
  0
STYLE
  2
ACJISTS
 70
     0
 40
1.0
 41
1.0
 50
0.0
 71
     0
 42
3.0
  3
amgdt.shx
  4
extfont.shx
  0
STYLE
  2
ACJISGDT
 70
     0
 40
0.0
 41
1.0
 50
0.0
 71
     0
 42
3.0
  3
amgdt.shx
  4
extfont.shx
  0
STYLE
  2
YOKO
 70
     0
 40
0.0
 41
1.0
 50
0.0
 71
     0
 42
3.0
  3
romans.shx
  4
extfont.shx
  0
ENDTAB
  0
TABLE
  2
VIEW
 70
     0
  0
ENDTAB
  0
TABLE
  2
UCS
 70
     0
  0
ENDTAB
  0
TABLE
  2
APPID
 70
    38
  0
APPID
  2
ACAD
 70
     0
  0
APPID
  2
GLOBAL
 70
     0
  0
APPID
  2
DETAIL
 70
     0
  0
APPID
  2
GRPNAME
 70
     0
  0
APPID
  2
GPARA
 70
     0
  0
APPID
  2
MCAD_NO_VIS
 70
     0
  0
APPID
  2
ACAD_TEMP_GRAPHIC
 70
     0
  0
APPID
  2
ACATTRIBSERVICES
 70
     0
  0
APPID
  2
GENIUS_GENSCREG_15
 70
     0
  0
APPID
  2
GENIUS_GENODEF_13
 70
     0
  0
APPID
  2
GENIUS_GENOBJ-N-SDF_13
 70
     0
  0
APPID
  2
GENIUS_GENREC_14
 70
     0
  0
APPID
  2
GENIUS_GENOBJ-N-REC_13
 70
     0
  0
APPID
  2
GENIUS_GENDIMSH_14
 70
     0
  0
APPID
  2
GENIUS_GENOBJ-N-DIM_13
 70
     0
  0
APPID
  2
GENIUS_GENDIM_13
 70
     0
  0
APPID
  2
GENIUS_GENDTOL_13
 70
     0
  0
APPID
  2
GENIUS_GENOLIS_13
 70
     0
  0
APPID
  2
GENIUS_GENOENT_13
 70
     0
  0
APPID
  2
GENIUS_GENOBJ-F-FEM_13
 70
     0
  0
APPID
  2
GENIUS_GENOREF_13
 70
     0
  0
APPID
  2
GENIUS_GEFFEM_13
 70
     0
  0
APPID
  2
GENIUS_GEFFEMP_13
 70
     0
  0
APPID
  2
AD_DRAW
 70
     0
  0
APPID
  2
DESIGNERASSEMBLIES
 70
     0
  0
APPID
  2
ACADM_DIM_EDIT
 70
     0
  0
APPID
  2
AMDT_DM_ADJ
 70
     0
  0
APPID
  2
ITEMNAME
 70
     0
  0
APPID
  2
GENIUS_GENOBJ-N-FIL_13
 70
     0
  0
APPID
  2
GENIUS_GENFIL_13
 70
     0
  0
APPID
  2
GENIUS_GENOBJ-N-CHA_13
 70
     0
  0
APPID
  2
ACAD_NAV_VCDISPLAY
 70
     0
  0
APPID
  2
ACAD_PSEXT
 70
     0
  0
APPID
  2
GENIUS_GENOBJ-N-HTC_13
 70
     0
  0
APPID
  2
GENIUS_GENHATCH_13
 70
     0
  0
APPID
  2
ACAD_DSTYLE_DIMJAG
 70
     0
  0
APPID
  2
ACAD_DSTYLE_DIMBREAK
 70
     0
  0
APPID
  2
ACAD_MLEADERVER
 70
     0
  0
ENDTAB
  0
TABLE
  2
DIMSTYLE
 70
    29
  0
DIMSTYLE
  2
BIGT
 70
     0
  3

  4

  5
OPEN
  6

  7

 40
1.0
 41
2.2299999999999991
 42
0.5
 43
7.0
 44
1.0
 45
0.0
 46
0.0
 47
0.0
 48
0.01
140
2.7999999999999989
141
0.0
142
0.0
143
25.399999999999999
144
1.0
145
0.0
146
1.0
147
1.0
 71
     0
 72
     0
 73
     0
 74
     0
 75
     0
 76
     0
 77
     3
 78
     9
170
     0
171
     2
172
     1
173
     0
174
     1
175
     0
176
   256
177
   256
178
    40
  0
DIMSTYLE
  2
AM_ISO
 70
     0
  3

  4
"
  5

  6

  7

 40
1.0
 41
2.5
 42
1.0
 43
10.0
 44
1.0
 45
0.0
 46
0.0
 47
0.1
 48
0.1
140
3.5
141
0.0
142
0.0
143
0.0393701
144
1.0
145
0.0
146
0.71
147
1.5
 71
     0
 72
     0
 73
     0
 74
     0
 75
     0
 76
     0
 77
     1
 78
     8
170
     0
171
     2
172
     1
173
     0
174
     0
175
     0
176
   256
177
   256
178
     2
  0
DIMSTYLE
  2
AM_ISO$3
 70
     0
  3

  4
"
  5

  6

  7

 40
1.0
 41
2.5
 42
1.0
 43
10.0
 44
1.0
 45
0.0
 46
0.0
 47
0.1
 48
0.1
140
3.5
141
0.0
142
0.0
143
0.0393701
144
1.0
145
0.0
146
0.71
147
1.5
 71
     0
 72
     0
 73
     0
 74
     1
 75
     0
 76
     0
 77
     1
 78
     8
170
     0
171
     2
172
     0
173
     0
174
     0
175
     0
176
   256
177
   256
178
     2
  0
DIMSTYLE
  2
AM_ISO$4
 70
     0
  3

  4
"
  5

  6

  7

 40
1.0
 41
2.5
 42
1.0
 43
10.0
 44
1.0
 45
0.0
 46
0.0
 47
0.1
 48
0.1
140
3.5
141
0.0
142
0.0
143
0.0393701
144
1.0
145
0.0
146
0.71
147
1.5
 71
     0
 72
     0
 73
     0
 74
     1
 75
     0
 76
     0
 77
     1
 78
     8
170
     0
171
     2
172
     0
173
     0
174
     0
175
     0
176
   256
177
   256
178
     2
  0
DIMSTYLE
  2
AM_ISO$6
 70
     0
  3

  4
"
  5

  6

  7

 40
1.0
 41
2.5
 42
1.0
 43
10.0
 44
1.0
 45
0.0
 46
0.0
 47
0.1
 48
0.1
140
3.5
141
0.0
142
0.0
143
0.0393701
144
1.0
145
0.0
146
0.71
147
1.5
 71
     0
 72
     0
 73
     0
 74
     0
 75
     0
 76
     0
 77
     0
 78
     8
170
     0
171
     2
172
     1
173
     0
174
     0
175
     0
176
   256
177
   256
178
     2
  0
DIMSTYLE
  2
AM_ISO$7
 70
     0
  3

  4
"
  5

  6

  7

 40
1.0
 41
2.5
 42
1.0
 43
10.0
 44
1.0
 45
0.0
 46
0.0
 47
0.1
 48
0.1
140
5.0
141
0.0
142
0.0
143
0.0393701
144
1.0
145
0.0
146
0.71
147
1.5
 71
     0
 72
     0
 73
     0
 74
     0
 75
     0
 76
     0
 77
     1
 78
     8
170
     0
171
     2
172
     1
173
     0
174
     0
175
     0
176
   256
177
   256
178
     2
  0
DIMSTYLE
  2
AM_ISO$SF
 70
     0
  3

  4
"
  5

  6

  7

 40
1.0
 41
2.5
 42
1.0
 43
10.0
 44
1.0
 45
0.0
 46
0.0
 47
0.1
 48
0.1
140
3.5
141
0.0
142
0.0
143
0.0393701
144
1.0
145
0.0
146
0.71
147
1.5
 71
     0
 72
     0
 73
     0
 74
     0
 75
     1
 76
     1
 77
     1
 78
     8
170
     0
171
     2
172
     1
173
     0
174
     0
175
     0
176
   256
177
   256
178
     2
  0
DIMSTYLE
  2
AM_ISO$SH
 70
     0
  3

  4
"
  5

  6
GENAXEH
  7

 40
1.0
 41
2.5
 42
1.0
 43
10.0
 44
1.0
 45
0.0
 46
0.0
 47
0.1
 48
0.1
140
3.5
141
0.0
142
0.0
143
0.0393701
144
2.0
145
0.0
146
0.71
147
1.5
 71
     0
 72
     0
 73
     0
 74
     0
 75
     1
 76
     1
 77
     1
 78
     8
170
     0
171
     2
172
     1
173
     1
174
     0
175
     0
176
   256
177
   256
178
     2
  0
DIMSTYLE
  2
BIGT$2
 70
     0
  3

  4

  5
OPEN
  6

  7

 40
1.0
 41
2.2299999999999991
 42
0.5
 43
7.0
 44
1.0
 45
0.0
 46
0.0
 47
0.0
 48
0.01
140
2.7999999999999989
141
0.0
142
0.0
143
25.399999999999999
144
1.0
145
0.0
146
1.0
147
1.0
 71
     0
 72
     0
 73
     0
 74
     0
 75
     0
 76
     0
 77
     3
 78
     9
170
     0
171
     2
172
     1
173
     0
174
     0
175
     0
176
   256
177
   256
178
    40
  0
DIMSTYLE
  2
BIGT$3
 70
     0
  3

  4

  5
OPEN
  6

  7

 40
1.0
 41
2.2299999999999991
 42
0.5
 43
2.5
 44
1.0
 45
0.0
 46
0.0
 47
0.0
 48
0.01
140
2.7999999999999989
141
0.0
142
0.0
143
25.399999999999999
144
1.0
145
0.0
146
1.0
147
1.0
 71
     0
 72
     0
 73
     0
 74
     0
 75
     0
 76
     0
 77
     3
 78
     9
170
     0
171
     2
172
     1
173
     0
174
     0
175
     0
176
   256
177
   256
178
    40
  0
DIMSTYLE
  2
BIGT$7
 70
     0
  3

  4

  5
OPEN
  6

  7

 40
0.0
 41
2.2299999999999991
 42
0.5
 43
7.0
 44
1.0
 45
0.0
 46
0.0
 47
0.0
 48
0.01
140
2.7999999999999989
141
0.0
142
0.0
143
25.399999999999999
144
1.0
145
0.0
146
1.0
147
1.0
 71
     0
 72
     0
 73
     0
 74
     0
 75
     0
 76
     0
 77
     3
 78
     9
170
     0
171
     2
172
     0
173
     0
174
     0
175
     0
176
   256
177
   256
178
    40
  0
DIMSTYLE
  2
BIGT$6
 70
     0
  3

  4

  5
OPEN
  6

  7

 40
1.0
 41
2.2299999999999991
 42
0.5
 43
2.5
 44
1.0
 45
0.0
 46
0.0
 47
0.0
 48
0.01
140
2.7999999999999989
141
0.0
142
0.0
143
25.399999999999999
144
1.0
145
0.0
146
1.0
147
1.0
 71
     0
 72
     0
 73
     0
 74
     0
 75
     0
 76
     0
 77
     3
 78
     9
170
     0
171
     2
172
     1
173
     0
174
     0
175
     0
176
   256
177
   256
178
    40
  0
DIMSTYLE
  2
BIGT$0
 70
     0
  3

  4

  5
OPEN
  6

  7

 40
1.0
 41
2.2299999999999991
 42
0.5
 43
7.0
 44
1.0
 45
0.0
 46
0.0
 47
0.0
 48
0.01
140
2.7999999999999989
141
0.0
142
0.0
143
25.399999999999999
144
1.0
145
0.0
146
1.0
147
1.0
 71
     0
 72
     0
 73
     0
 74
     0
 75
     0
 76
     0
 77
     3
 78
     9
170
     0
171
     2
172
     1
173
     0
174
     1
175
     0
176
   256
177
   256
178
    40
  0
DIMSTYLE
  2
BIGT$4
 70
     0
  3

  4

  5
OPEN
  6

  7

 40
1.0
 41
2.2299999999999991
 42
0.5
 43
2.5
 44
1.0
 45
0.0
 46
0.0
 47
0.0
 48
0.01
140
2.7999999999999989
141
0.0
142
0.0
143
25.399999999999999
144
1.0
145
0.0
146
1.0
147
1.0
 71
     0
 72
     0
 73
     0
 74
     0
 75
     0
 76
     0
 77
     3
 78
     9
170
     0
171
     2
172
     1
173
     0
174
     0
175
     0
176
   256
177
   256
178
    40
  0
DIMSTYLE
  2
BIGT$SH
 70
     0
  3

  4

  5
OPEN
  6

  7

 40
1.0
 41
2.2299999999999991
 42
0.5
 43
7.0
 44
1.0
 45
0.0
 46
0.0
 47
0.0
 48
0.0
140
2.7999999999999989
141
0.0
142
0.0
143
25.399999999999999
144
1.0
145
0.0
146
1.0
147
1.0
 71
     0
 72
     0
 73
     0
 74
     0
 75
     0
 76
     0
 77
     3
 78
     9
170
     0
171
     2
172
     1
173
     0
174
     0
175
     0
176
   256
177
   256
178
    40
  0
DIMSTYLE
  2
BIGT$SF
 70
     0
  3

  4

  5
OPEN
  6

  7

 40
1.0
 41
2.2299999999999991
 42
0.5
 43
7.0
 44
1.0
 45
0.0
 46
0.0
 47
0.0
 48
0.0
140
2.7999999999999989
141
0.0
142
0.0
143
25.399999999999999
144
1.0
145
0.0
146
1.0
147
1.0
 71
     0
 72
     0
 73
     0
 74
     0
 75
     0
 76
     0
 77
     3
 78
     9
170
     0
171
     2
172
     1
173
     0
174
     0
175
     0
176
   256
177
   256
178
    40
  0
DIMSTYLE
  2
TECHNICAL_OSAKA
 70
     0
  3

  4
"
  5
OPEN30
  6

  7

 40
1.0
 41
2.5
 42
1.0
 43
10.0
 44
1.0
 45
0.0
 46
0.0
 47
0.1
 48
0.1
140
2.7999999999999989
141
0.0
142
0.0
143
0.0393701
144
1.0
145
0.0
146
0.71
147
1.5
 71
     0
 72
     0
 73
     0
 74
     0
 75
     0
 76
     0
 77
     3
 78
     8
170
     0
171
     2
172
     1
173
     0
174
     0
175
     0
176
   256
177
   256
178
    40
  0
DIMSTYLE
  2
TECHNICAL_OSAKA$3
 70
     0
  3

  4
"
  5
OPEN30
  6

  7

 40
1.0
 41
2.5
 42
1.0
 43
10.0
 44
1.0
 45
0.0
 46
0.0
 47
0.1
 48
0.1
140
2.7999999999999989
141
0.0
142
0.0
143
0.0393701
144
1.0
145
0.0
146
0.71
147
1.5
 71
     0
 72
     0
 73
     0
 74
     1
 75
     0
 76
     0
 77
     3
 78
     8
170
     0
171
     2
172
     0
173
     0
174
     0
175
     0
176
   256
177
   256
178
    40
  0
DIMSTYLE
  2
TECHNICAL_OSAKA$4
 70
     0
  3

  4
"
  5
OPEN30
  6

  7

 40
1.0
 41
2.5
 42
1.0
 43
10.0
 44
1.0
 45
0.0
 46
0.0
 47
0.1
 48
0.1
140
2.7999999999999989
141
0.0
142
0.0
143
0.0393701
144
1.0
145
0.0
146
0.71
147
1.5
 71
     0
 72
     0
 73
     0
 74
     1
 75
     0
 76
     0
 77
     3
 78
     8
170
     0
171
     2
172
     0
173
     0
174
     0
175
     0
176
   256
177
   256
178
    40
  0
DIMSTYLE
  2
TECHNICAL_OSAKA$6
 70
     0
  3

  4
"
  5
OPEN30
  6

  7

 40
1.0
 41
2.5
 42
1.0
 43
10.0
 44
1.0
 45
0.0
 46
0.0
 47
0.1
 48
0.1
140
2.7999999999999989
141
0.0
142
0.0
143
0.0393701
144
1.0
145
0.0
146
0.71
147
1.5
 71
     0
 72
     0
 73
     0
 74
     0
 75
     0
 76
     0
 77
     0
 78
     8
170
     0
171
     2
172
     1
173
     0
174
     0
175
     0
176
   256
177
   256
178
    40
  0
DIMSTYLE
  2
TECHNICAL_OSAKA$7
 70
     0
  3

  4
"
  5
OPEN30
  6

  7

 40
1.0
 41
2.5
 42
1.0
 43
10.0
 44
1.0
 45
0.0
 46
0.0
 47
0.1
 48
0.1
140
2.7999999999999989
141
0.0
142
0.0
143
0.0393701
144
1.0
145
0.0
146
0.71
147
1.5
 71
     0
 72
     0
 73
     0
 74
     0
 75
     0
 76
     0
 77
     3
 78
     8
170
     0
171
     2
172
     1
173
     0
174
     0
175
     0
176
   256
177
   256
178
    40
  0
DIMSTYLE
  2
TECHNICAL_OSAKA$SF
 70
     0
  3

  4
"
  5
OPEN30
  6
OPEN30
  7
OPEN30
 40
1.0
 41
2.5
 42
1.0
 43
10.0
 44
1.0
 45
0.0
 46
0.0
 47
0.1
 48
0.1
140
3.5
141
0.0
142
0.0
143
0.0393701
144
1.0
145
0.0
146
0.71
147
1.5
 71
     0
 72
     0
 73
     0
 74
     0
 75
     1
 76
     1
 77
     3
 78
     8
170
     0
171
     2
172
     1
173
     0
174
     0
175
     0
176
   256
177
   256
178
    40
  0
DIMSTYLE
  2
TECHNICAL_OSAKA$SH
 70
     0
  3

  4
"
  5
OPEN30
  6
GENAXEH
  7
OPEN30
 40
1.0
 41
2.5
 42
1.0
 43
10.0
 44
1.0
 45
0.0
 46
0.0
 47
0.1
 48
0.1
140
3.5
141
0.0
142
0.0
143
0.0393701
144
2.0
145
0.0
146
0.71
147
1.5
 71
     0
 72
     0
 73
     0
 74
     0
 75
     1
 76
     1
 77
     3
 78
     8
170
     0
171
     2
172
     1
173
     1
174
     0
175
     0
176
   256
177
   256
178
    40
  0
ENDTAB
  0
ENDSEC
  0
SECTION
  2
BLOCKS
  0
BLOCK
  8
0
  2
$MODEL_SPACE
 70
     0
 10
0.0
 20
0.0
 30
0.0
  3
$MODEL_SPACE
  1

  0
ENDBLK
  5
1C
  8
0
  0
BLOCK
 67
     1
  8
0
  2
$PAPER_SPACE
 70
     0
 10
0.0
 20
0.0
 30
0.0
  3
$PAPER_SPACE
  1

  0
ENDBLK
  5
19
 67
     1
  8
0
  0
BLOCK
  8
0
  2
_OPEN
 70
     0
 10
0.0
 20
0.0
 30
0.0
  3
_OPEN
  1

  0
LINE
  5
4592
  8
0
  6
BYBLOCK
 62
     0
 10
-1.0
 20
0.1666666666666666
 30
0.0
 11
0.0
 21
0.0
 31
0.0
  0
LINE
  5
4593
  8
0
  6
BYBLOCK
 62
     0
 10
-1.0
 20
-0.1666666666666666
 30
0.0
 11
0.0
 21
0.0
 31
0.0
  0
LINE
  5
4594
  8
0
  6
BYBLOCK
 62
     0
 10
0.0
 20
0.0
 30
0.0
 11
-1.0
 21
0.0
 31
0.0
  0
ENDBLK
  5
4595
  8
0
  0
BLOCK
  8
0
  2
GENAXEH
 70
     0
 10
0.0
 20
0.0
 30
0.0
  3
GENAXEH
  1

  0
LINE
  5
45CD
  8
0
 10
-1.0
 20
0.0
 30
0.0
 11
1.0
 21
0.0
 31
0.0
  0
ENDBLK
  5
45CE
  8
0
  0
BLOCK
  8
0
  2
_OPEN30
 70
     0
 10
0.0
 20
0.0
 30
0.0
  3
_OPEN30
  1

  0
LINE
  5
4609
  8
0
  6
BYBLOCK
 62
     0
 10
-1.0
 20
0.26794919
 30
0.0
 11
0.0
 21
0.0
 31
0.0
  0
LINE
  5
460A
  8
0
  6
BYBLOCK
 62
     0
 10
0.0
 20
0.0
 30
0.0
 11
-1.0
 21
-0.26794919
 31
0.0
  0
LINE
  5
460B
  8
0
  6
BYBLOCK
 62
     0
 10
0.0
 20
0.0
 30
0.0
 11
-1.0
 21
0.0
 31
0.0
  0
ENDBLK
  5
460C
  8
0
  0
ENDSEC
  0
SECTION
  2
ENTITIES
  0
LINE
  5
4228
  8
250
  6
CONTINUOUS
 10
-17.388790265885959
 20
-17.617856090630511
 30
0.0
 11
-16.100115130391899
 21
-16.0524719504686
 31
0.0
  0
LINE
  5
4229
  8
250
  6
CONTINUOUS
 10
-16.81143999688782
 20
-17.95118942429551
 30
0.0
 11
-16.100115130391899
 21
-16.0524719504686
 31
0.0
  0
LINE
  5
422A
  8
250
  6
CONTINUOUS
 10
-16.100115130391899
 20
-16.0524719504686
 30
0.0
 11
-17.10011513138689
 21
-17.784522757463009
 31
0.0
  0
LINE
  5
422B
  8
250
  6
CONTINUOUS
 10
-17.10011513138689
 20
-17.784522757463009
 30
0.0
 11
-21.011317350391899
 21
-24.55892371046858
 31
0.0
  0
TEXT
  5
422C
  8
250
  6
CONTINUOUS
 10
-28.877984010391909
 20
-23.55892371046858
 30
0.0
 40
2.799999999999998
  1
C5
  7
YOKO
  0
LINE
  5
422D
  8
250
  6
CONTINUOUS
 10
-21.011317350391899
 20
-24.55892371046858
 30
0.0
 11
-31.277984010391911
 21
-24.55892371046858
 31
0.0
1001
ITEMNAME
1000
LNSP2
  0
LINE
  5
422E
  8
245
  6
CENTER2
 10
-31.000146370025529
 20
0.0
 30
0.0
 11
101.4237707410734
 21
0.0
 31
0.0
1001
GRPNAME
1000
PASTMD0U
  0
LINE
  5
422F
  8
240
  6
CONTINUOUS
 10
0.0
 20
-25.0
 30
0.0
 11
22.115470053830649
 21
-25.0
 31
0.0
1001
GRPNAME
1000
PASTMD0U
  0
LINE
  5
4230
  8
240
  6
CONTINUOUS
 10
0.0
 20
25.0
 30
0.0
 11
22.115470053830691
 21
25.0
 31
0.0
1001
GRPNAME
1000
PASTMD0U
  0
LINE
  5
4231
  8
243
  6
HIDDEN2
 10
-22.815575710025531
 20
-15.88457066000001
 30
0.0
 11
-24.700146370025511
 21
-14.0
 31
0.0
  0
LINE
  5
4232
  8
243
  6
HIDDEN2
 10
-24.700146370025511
 20
-14.0
 30
0.0
 11
-24.700146370025511
 21
-15.837452239999999
 31
0.0
  0
LINE
  5
4233
  8
240
  6
CONTINUOUS
 10
-30.000146370025529
 20
-15.69248510189405
 30
0.0
 11
-30.000146370025529
 21
17.932546171478119
 31
0.0
  0
LINE
  5
4234
  8
243
  6
HIDDEN2
 10
-30.000146370025529
 20
-14.0
 30
0.0
 11
-24.700146370025511
 21
-14.0
 31
0.0
  0
LINE
  5
4235
  8
241
  6
CONTINUOUS
 10
7.949853629974462
 20
7.1748188999999911
 30
0.0
 11
7.949853629974462
 21
23.937879479999989
 31
0.0
  0
LINE
  5
4236
  8
241
  6
CONTINUOUS
 10
12.04985362997448
 20
7.1748188999999911
 30
0.0
 11
12.04985362997448
 21
23.937879479999989
 31
0.0
  0
LINE
  5
4237
  8
241
  6
CONTINUOUS
 10
7.949853629974462
 20
7.1748188999999911
 30
0.0
 11
12.04985362997448
 21
7.1748188999999911
 31
0.0
  0
LINE
  5
4238
  8
241
  6
CONTINUOUS
 10
7.949853629974462
 20
23.937879479999989
 30
0.0
 11
12.04985362997448
 21
23.937879479999989
 31
0.0
  0
ARC
  5
4239
  8
241
  6
CONTINUOUS
 10
24.51236613052135
 20
15.55634918999999
 30
0.0
 40
18.562512500546848
 50
153.1581137773484
 51
206.84188622265151
  0
ARC
  5
423A
  8
241
  6
CONTINUOUS
 10
-4.5126588705724
 20
15.55634918999999
 30
0.0
 40
18.56251250054688
 50
333.15811377734849
 51
26.8418862226515
  0
LINE
  5
423B
  8
241
  6
CONTINUOUS
 10
7.949853629974462
 20
-7.1748188999999911
 30
0.0
 11
7.949853629974462
 21
-23.937879479999989
 31
0.0
  0
LINE
  5
423C
  8
241
  6
CONTINUOUS
 10
12.04985362997448
 20
-7.1748188999999911
 30
0.0
 11
12.04985362997448
 21
-23.937879479999989
 31
0.0
  0
LINE
  5
423D
  8
241
  6
CONTINUOUS
 10
7.949853629974462
 20
-7.1748188999999911
 30
0.0
 11
12.04985362997448
 21
-7.1748188999999911
 31
0.0
  0
LINE
  5
423E
  8
241
  6
CONTINUOUS
 10
7.949853629974462
 20
-23.937879479999989
 30
0.0
 11
12.04985362997448
 21
-23.937879479999989
 31
0.0
  0
ARC
  5
423F
  8
241
  6
CONTINUOUS
 10
24.51236613052135
 20
-15.55634918999999
 30
0.0
 40
18.562512500546848
 50
153.1581137773484
 51
206.84188622265151
  0
ARC
  5
4240
  8
241
  6
CONTINUOUS
 10
-4.5126588705724
 20
-15.55634918999999
 30
0.0
 40
18.56251250054688
 50
333.15811377734849
 51
26.8418862226515
  0
LINE
  5
4241
  8
247
  6
CONTINUOUS
 10
3.999853629974417
 20
-10.75
 30
0.0
 11
3.999853629974472
 21
-6.1153846156700231
 31
0.0
  0
LINE
  5
4242
  8
247
  6
CONTINUOUS
 10
1.499853629974474
 20
-9.9548934999879464
 30
0.0
 11
3.5998536298904802
 21
-10.557058810057351
 31
0.0
  0
LINE
  5
4243
  8
247
  6
CONTINUOUS
 10
2.4960074760884701
 20
-9.3251514035190421
 30
0.0
 11
2.4960074760884701
 21
-10.240536018867029
 31
0.0
  0
ARC
  5
4244
  8
247
  6
CONTINUOUS
 10
1.884572697268573
 20
-9.0872634019468101
 30
0.0
 40
0.3876715809326743
 50
72.997889675291376
 51
172.92416621851191
  0
ARC
  5
4245
  8
247
  6
CONTINUOUS
 10
1.805076761002488
 20
-9.3824775568041048
 30
0.0
 40
0.693304796535877
 50
4.7429368522022122
 51
73.849226273266297
1001
GENIUS_GENOBJ-N-FIL_13
1002
{
1000
OWNER
1000
GEN
1002
}
1001
GENIUS_GENODEF_13
1002
{
1000
HIER
1070
     0
1002
}
1002
{
1000
MANEDIT
1070
     0
1002
}
1002
{
1000
NOSEL
1070
     0
1002
}
1002
{
1000
BEHIND
1070
     0
1002
}
1002
{
1000
OTHER
1070
     0
1002
}
1002
{
1000
REACTOR
1002
}
  0
LINE
  5
4246
  8
247
  6
CONTINUOUS
 10
3.5998536298904802
 20
-9.6416741947093634
 30
0.0
 11
3.5998536298904802
 21
-10.557058810057351
 31
0.0
  0
LINE
  5
4247
  8
247
  6
CONTINUOUS
 10
1.499853629974474
 20
-9.9548934999879464
 30
0.0
 11
1.499853629974474
 21
-9.0395088846399272
 31
0.0
  0
ARC
  5
4248
  8
247
  6
CONTINUOUS
 10
2.887270592742345
 20
-9.3783064762668271
 30
0.0
 40
0.394857301075386
 50
65.990941652528889
 51
172.26344345906909
  0
ARC
  5
4249
  8
247
  6
CONTINUOUS
 10
2.8910539573070402
 20
-9.7124466104269231
 30
0.0
 40
0.7123241612361686
 50
5.7019851642581241
 51
77.277338436822376
1001
GENIUS_GENOBJ-N-FIL_13
1002
{
1000
OWNER
1000
GEN
1002
}
1001
GENIUS_GENODEF_13
1002
{
1000
HIER
1070
     0
1002
}
1002
{
1000
MANEDIT
1070
     0
1002
}
1002
{
1000
NOSEL
1070
     0
1002
}
1002
{
1000
BEHIND
1070
     0
1002
}
1002
{
1000
OTHER
1070
     0
1002
}
1002
{
1000
REACTOR
1002
}
  0
LINE
  5
424A
  8
247
  6
CONTINUOUS
 10
3.5998536298904802
 20
-8.683981887063366
 30
0.0
 11
1.499853629974474
 21
-8.0818165769939583
 31
0.0
  0
LINE
  5
424B
  8
247
  6
CONTINUOUS
 10
1.499853629974474
 20
-6.5856627309079512
 30
0.0
 11
1.499853629974474
 21
-6.9816783643035762
 31
0.0
  0
LINE
  5
424C
  8
247
  6
CONTINUOUS
 10
3.5998536298904802
 20
-7.608739653943954
 30
0.0
 11
3.5998536298904802
 21
-7.1779704231919652
 31
0.0
  0
ARC
  5
424D
  8
247
  6
CONTINUOUS
 10
2.9581532250578322
 20
-6.3818165770699684
 30
0.0
 40
1.576855057639547
 50
202.35948814152749
 51
254.99324854284609
  0
ARC
  5
424E
  8
247
  6
CONTINUOUS
 10
2.0656724885126101
 20
-6.8475113661332321
 30
0.0
 40
0.6234706797009447
 50
94.994589319075317
 51
155.1663289573041
1001
GENIUS_GENOBJ-N-FIL_13
1002
{
1000
OWNER
1000
GEN
1002
}
1001
GENIUS_GENODEF_13
1002
{
1000
HIER
1070
     0
1002
}
1002
{
1000
MANEDIT
1070
     0
1002
}
1002
{
1000
NOSEL
1070
     0
1002
}
1002
{
1000
BEHIND
1070
     0
1002
}
1002
{
1000
OTHER
1070
     0
1002
}
1002
{
1000
REACTOR
1002
}
  0
ARC
  5
424F
  8
247
  6
CONTINUOUS
 10
2.6619557519439141
 20
-7.4441839510327554
 30
0.0
 40
0.9749472149106983
 50
15.846096555780679
 51
82.325137004169065
  0
ARC
  5
4250
  8
247
  6
CONTINUOUS
 10
2.87132403194554
 20
-7.035211638772207
 30
0.0
 40
0.9271945638692009
 50
249.7136016704969
 51
321.78874565640888
1001
GENIUS_GENOBJ-N-FIL_13
1002
{
1000
OWNER
1000
GEN
1002
}
1001
GENIUS_GENODEF_13
1002
{
1000
HIER
1070
     0
1002
}
1002
{
1000
MANEDIT
1070
     0
1002
}
1002
{
1000
NOSEL
1070
     0
1002
}
1002
{
1000
BEHIND
1070
     0
1002
}
1002
{
1000
OTHER
1070
     0
1002
}
1002
{
1000
REACTOR
1002
}
  0
LINE
  5
4251
  8
247
  6
CONTINUOUS
 10
2.7921613222304482
 20
-6.9625858078159659
 30
0.0
 11
2.7921613222304482
 21
-6.4779704232199711
 31
0.0
  0
ARC
  5
4252
  8
247
  6
CONTINUOUS
 10
2.749853629974472
 20
-10.75
 30
0.0
 40
1.25
 50
180.0
 51
0.0
  0
LINE
  5
4253
  8
247
  6
CONTINUOUS
 10
1.499853629974474
 20
-10.75
 30
0.0
 11
1.499853629974474
 21
-10.30384615391398
 31
0.0
  0
ARC
  5
4254
  8
247
  6
CONTINUOUS
 10
2.749853629974472
 20
-6.115384615669992
 30
0.0
 40
1.25
 50
0.0
 51
180.0
  0
LINE
  5
4255
  8
240
  6
CONTINUOUS
 10
0.0
 20
18.682499437098041
 30
0.0
 11
-30.000146370025529
 21
17.932546171478119
 31
0.0
1001
GRPNAME
1000
PASTMD0F
  0
LINE
  5
4256
  8
240
  6
CONTINUOUS
 10
0.0
 20
-16.442554784446418
 30
0.0
 11
-30.000146370025529
 21
-15.69248510189405
 31
0.0
  0
LINE
  5
4257
  8
240
  6
CONTINUOUS
 10
0.0
 20
-25.0
 30
0.0
 11
0.0
 21
-16.442554784446418
 31
0.0
  0
LINE
  5
4259
  8
240
  6
CONTINUOUS
 10
0.0
 20
18.682499437098041
 30
0.0
 11
0.0
 21
25.0
 31
0.0
  0
LINE
  5
425A
  8
241
  6
CONTINUOUS
 10
0.0
 20
18.682499437098041
 30
0.0
 11
0.0
 21
-16.442554784446418
 31
0.0
  0
LINE
  5
432A
  8
241
  6
CONTINUOUS
 10
79.499999999999091
 20
-26.999999999994809
 30
0.0
 11
79.499999999999091
 21
26.99999999999568
 31
0.0
  0
LINE
  5
43C5
  8
241
  6
CONTINUOUS
 10
64.200000000007094
 20
-27.000000000000028
 30
0.0
 11
64.200000000007094
 21
26.999999999998451
 31
0.0
  0
LINE
  5
43C6
  8
241
  6
CONTINUOUS
 10
65.800000000014734
 20
-26.99999999999639
 30
0.0
 11
65.800000000014748
 21
26.999999999998181
 31
0.0
  0
LINE
  5
43C7
  8
241
  6
CONTINUOUS
 10
67.200000000016175
 20
-26.99999999999639
 30
0.0
 11
67.200000000016175
 21
26.999999999997939
 31
0.0
  0
LINE
  5
43C8
  8
241
  6
CONTINUOUS
 10
68.800000000018372
 20
-27.000000000000028
 30
0.0
 11
68.800000000018372
 21
26.999999999997669
 31
0.0
  0
LINE
  5
43CE
  8
240
  6
CONTINUOUS
 10
22.115470053830691
 20
25.0
 30
0.0
 11
23.270170592211599
 21
27.000000000005411
 31
0.0
  0
LINE
  5
43D0
  8
241
  6
CONTINUOUS
 10
22.115470053830649
 20
-25.0
 30
0.0
 11
22.115470053830709
 21
25.000000000000039
 31
0.0
  0
LINE
  5
43D2
  8
240
  6
CONTINUOUS
 10
22.115470053830649
 20
-25.0
 30
0.0
 11
23.270170592207322
 21
-26.999999999998039
 31
0.0
  0
LINE
  5
43D5
  8
241
  6
CONTINUOUS
 10
23.270170592207322
 20
-26.999999999998039
 30
0.0
 11
23.270170592207268
 21
26.99999999999789
 31
0.0
  0
LINE
  5
4456
  8
240
  6
CONTINUOUS
 10
90.000000000018645
 20
26.999999999993861
 30
0.0
 11
100.0000000000029
 21
24.32050807568347
 31
0.0
  0
LINE
  5
4457
  8
240
  6
CONTINUOUS
 10
100.0000000000029
 20
24.32050807568347
 30
0.0
 11
100.00000000000161
 21
-24.32050807568389
 31
0.0
  0
LINE
  5
4459
  8
240
  6
CONTINUOUS
 10
23.270170592211599
 20
27.000000000005411
 30
0.0
 11
90.000000000018645
 21
26.999999999993861
 31
0.0
  0
LINE
  5
446C
  8
240
  6
CONTINUOUS
 10
23.270170592207322
 20
-26.999999999998039
 30
0.0
 11
90.000000000017792
 21
-26.999999999994198
 31
0.0
  0
LINE
  5
446F
  8
240
  6
CONTINUOUS
 10
90.000000000017792
 20
-26.999999999994198
 30
0.0
 11
100.00000000000161
 21
-24.32050807568389
 31
0.0
  0
LINE
  5
4478
  8
241
  6
CONTINUOUS
 10
90.000000000019526
 20
-26.999999999994198
 30
0.0
 11
90.000000000019597
 21
26.999999999993872
 31
0.0
  0
LINE
  5
44B7
  8
250
  6
CONTINUOUS
 10
102.37154395000221
 20
35.182555209999997
 30
0.0
 11
120.5048772800022
 21
35.182555209999997
 31
0.0
1001
ITEMNAME
1000
LNSP2
  0
LINE
  5
44B8
  8
243
  6
HIDDEN2
 10
30.000000000002249
 20
15.0
 30
0.0
 11
92.500000000002245
 21
15.0
 31
0.0
  0
LINE
  5
44B9
  8
245
  6
CENTER2
 10
54.000000000002252
 20
28.0
 30
0.0
 11
54.000000000002252
 21
14.0
 31
0.0
  0
LINE
  5
44BA
  8
243
  6
HIDDEN2
 10
92.500000000002245
 20
19.699999999999999
 30
0.0
 11
100.0000000000022
 21
19.699999999999999
 31
0.0
  0
TEXT
  5
44BB
  8
250
  6
CONTINUOUS
 10
104.6382106166689
 20
36.182555209999997
 30
0.0
 40
2.799999999999998
  1
MGT20
  7
YOKO
1001
ITEMNAME
1000
LNSP3
1001
ACAD
1000
MTEXTBEGIN
1070
    73
1070
     1
1070
    44
1040
1.0
1070
    74
1070
     0
1000
MTEXTEND
  0
LINE
  5
44BC
  8
250
  6
CONTINUOUS
 10
90.50000000001954
 20
-27.0
 30
0.0
 11
114.0000000000022
 21
-27.0
 31
0.0
  0
LINE
  5
44BD
  8
250
  6
CONTINUOUS
 10
90.500000000019583
 20
27.0
 30
0.0
 11
114.0000000000022
 21
27.0
 31
0.0
  0
LINE
  5
44BE
  8
250
  6
CONTINUOUS
 10
113.0000000000022
 20
-24.77
 30
0.0
 11
113.0000000000022
 21
24.77
 31
0.0
  0
LINE
  5
44BF
  8
250
  6
CONTINUOUS
 10
97.622793739530906
 20
26.957478567841012
 30
0.0
 11
102.37154395000221
 21
35.182555209999997
 31
0.0
1001
ACAD
1000
DSTYLE
1002
{
1070
     6
1000
OPEN
1070
    41
1040
2.0
1070
    42
1040
2.0
1070
    44
1040
2.0
1070
    79
1070
     2
1070
   140
1040
4.0
1070
   179
1070
     3
1070
   371
1070
    -1
1070
   372
1070
    -1
1002
}
  0
LINE
  5
44C0
  8
250
  6
CONTINUOUS
 10
97.911468874171035
 20
26.790811901252901
 30
0.0
 11
96.622793740002265
 21
25.225427759999999
 31
0.0
  0
LINE
  5
44C1
  8
250
  6
CONTINUOUS
 10
97.334118604890719
 20
27.124145234429118
 30
0.0
 11
96.622793740002265
 21
25.225427759999999
 31
0.0
  0
LINE
  5
44C2
  8
250
  6
CONTINUOUS
 10
96.622793740002265
 20
25.225427759999999
 30
0.0
 11
97.622793739530906
 21
26.957478567841012
 31
0.0
  0
LINE
  5
44C3
  8
250
  6
CONTINUOUS
 10
112.6283333333355
 20
24.77
 30
0.0
 11
113.0000000000022
 21
27.0
 31
0.0
  0
LINE
  5
44C4
  8
250
  6
CONTINUOUS
 10
113.3716666666688
 20
24.77
 30
0.0
 11
113.0000000000022
 21
27.0
 31
0.0
  0
LINE
  5
44C5
  8
250
  6
CONTINUOUS
 10
113.0000000000022
 20
27.0
 30
0.0
 11
113.0000000000022
 21
24.77
 31
0.0
  0
TEXT
  5
44C6
  8
250
  6
CONTINUOUS
 10
112.0000000000022
 20
-3.9999999999999991
 30
0.0
 40
2.799999999999998
  1
\U+220554
 50
90.0
1001
ACAD
1000
MTEXTBEGIN
1070
    73
1070
     1
1070
    44
1040
1.0
1070
    74
1070
     0
1000
MTEXTEND
1000
MTEXTBEGIN
1070
    73
1070
     1
1070
    44
1040
1.0
1070
    74
1070
     0
1000
MTEXTEND
  0
LINE
  5
44C7
  8
250
  6
CONTINUOUS
 10
113.3716666666688
 20
-24.77
 30
0.0
 11
113.0000000000022
 21
-27.0
 31
0.0
  0
LINE
  5
44C8
  8
250
  6
CONTINUOUS
 10
112.6283333333355
 20
-24.77
 30
0.0
 11
113.0000000000022
 21
-27.0
 31
0.0
  0
LINE
  5
44C9
  8
250
  6
CONTINUOUS
 10
113.0000000000022
 20
-27.0
 30
0.0
 11
113.0000000000022
 21
-24.77
 31
0.0
  0
LINE
  5
44CA
  8
243
  6
HIDDEN2
 10
30.000000000002249
 20
-15.0
 30
0.0
 11
92.500000000002245
 21
-15.0
 31
0.0
  0
LINE
  5
44CB
  8
243
  6
HIDDEN2
 10
92.500000000002245
 20
-19.699999999999999
 30
0.0
 11
92.500000000002245
 21
19.699999999999999
 31
0.0
  0
LINE
  5
44CC
  8
243
  6
HIDDEN2
 10
92.500000000002245
 20
-19.699999999999999
 30
0.0
 11
100.0000000000022
 21
-19.699999999999999
 31
0.0
  0
LINE
  5
44DF
  8
250
  6
CONTINUOUS
 10
0.0
 20
25.489999999999998
 30
0.0
 11
0.0
 21
43.0
 31
0.0
  0
LINE
  5
44E0
  8
250
  6
CONTINUOUS
 10
100.0
 20
24.838146165889331
 30
0.0
 11
100.0
 21
43.0
 31
0.0
  0
LINE
  5
44E1
  8
250
  6
CONTINUOUS
 10
2.0
 20
42.0
 30
0.0
 11
98.0
 21
42.0
 31
0.0
  0
LINE
  5
44E2
  8
250
  6
CONTINUOUS
 10
2.0
 20
41.666666666666657
 30
0.0
 11
0.0
 21
42.0
 31
0.0
  0
LINE
  5
44E3
  8
250
  6
CONTINUOUS
 10
2.0
 20
42.333333333333329
 30
0.0
 11
0.0
 21
42.0
 31
0.0
  0
LINE
  5
44E4
  8
250
  6
CONTINUOUS
 10
0.0
 20
42.0
 30
0.0
 11
2.0
 21
42.0
 31
0.0
  0
LINE
  5
44E5
  8
250
  6
CONTINUOUS
 10
98.0
 20
42.333333333333329
 30
0.0
 11
100.0
 21
42.0
 31
0.0
  0
LINE
  5
44E6
  8
250
  6
CONTINUOUS
 10
98.0
 20
41.666666666666657
 30
0.0
 11
100.0
 21
42.0
 31
0.0
  0
LINE
  5
44E7
  8
250
  6
CONTINUOUS
 10
100.0
 20
42.0
 30
0.0
 11
98.0
 21
42.0
 31
0.0
  0
TEXT
  5
44E8
  8
250
  6
CONTINUOUS
 10
45.499999999999993
 20
43.0
 30
0.0
 40
3.0
  1
100
1001
ACAD
1000
MTEXTBEGIN
1070
    73
1070
     1
1070
    44
1040
1.0
1070
    74
1070
     0
1000
MTEXTEND
1000
MTEXTBEGIN
1070
    73
1070
     1
1070
    44
1040
1.0
1070
    74
1070
     0
1000
MTEXTEND
1000
MTEXTBEGIN
1070
    73
1070
     1
1070
    44
1040
1.0
1070
    74
1070
     0
1000
MTEXTEND
1000
MTEXTBEGIN
1070
    73
1070
     1
1070
    44
1040
1.0
1070
    74
1070
     0
1000
MTEXTEND
  0
TEXT
  5
44E9
  8
241
  6
CONTINUOUS
 10
-30.0
 20
56.0
 30
0.0
 40
5.0
  1
C5-MGT20-100
  7
YOKO
 11
-30.0
 21
56.0
 31
0.0
 73
     1
  0
VIEWPORT
  5
22
 67
     1
  8
0
 10
261.51769911504419
 20
148.5
 30
0.0
 40
523.0353982300885
 41
297.0
 68
     1
 69
     1
1001
ACAD
1000
MVIEW
1002
{
1070
    16
1010
0.0
1020
0.0
1030
0.0
1010
0.0
1020
0.0
1030
1.0
1040
0.0
1040
297.0
1040
261.51769911504419
1040
148.5
1040
50.0
1040
0.0
1040
0.0
1070
     0
1070
   100
1070
     1
1070
     1
1070
     0
1070
     0
1070
     0
1070
     0
1040
0.0
1040
0.0
1040
0.0
1040
1.0
1040
1.0
1040
10.0
1040
10.0
1070
     0
1002
{
1002
}
1002
}
1001
GENIUS_GENODEF_13
1002
{
1000
HIER
1070
     0
1002
}
1002
{
1000
MANEDIT
1070
     0
1002
}
1002
{
1000
NOSEL
1070
     0
1002
}
1002
{
1000
BEHIND
1070
     0
1002
}
1002
{
1000
OTHER
1070
     0
1002
}
1002
{
1000
REACTOR
1002
}
1001
GENIUS_GENOBJ-N-SDF_13
1002
{
1000
OWNER
1000
GEN
1002
}
1001
GENIUS_GENSCREG_15
1000
PF
1040
1.0
1000
DF
1040
1.0
1000
MIN
1011
0.0
1021
0.0
1031
0.0
1021
0.0
1031
0.0
1000
MAX
1011
523.0353982300885
1021
0.0
1031
0.0
1021
297.0
1031
0.0
1000
FLAGS
1070
     4
  0
ENDSEC
  0
EOF
