  0
SECTION
  2
HEADER
  9
$ACADVER
  1
AC1009
  9
$INSBASE
 10
0.0
 20
0.0
 30
0.0
  9
$EXTMIN
 10
-34.295823552058891
 20
-25.007171083715718
 30
-0.0015258207003583
  9
$EXTMAX
 10
120.00862614076379
 20
68.008880997086976
 30
0.0000000349246037
  9
$LIMMIN
 10
0.0
 20
0.0
  9
$LIMMAX
 10
297.0
 20
210.0
  9
$ORTHOMODE
 70
     1
  9
$REGENMODE
 70
     1
  9
$FILLMODE
 70
     1
  9
$QTEXTMODE
 70
     0
  9
$MIRRTEXT
 70
     1
  9
$DRAGMODE
 70
     2
  9
$LTSCALE
 40
10.0
  9
$OSMODE
 70
    37
  9
$ATTMODE
 70
     1
  9
$TEXTSIZE
 40
3.0
  9
$TRACEWID
 40
1.0
  9
$TEXTSTYLE
  7
YOKO
  9
$CLAYER
  8
DEFPOINTS
  9
$CELTYPE
  6
BYLAYER
  9
$CECOLOR
 62
   256
  9
$DIMSCALE
 40
1.0
  9
$DIMASZ
 40
2.2299999999999991
  9
$DIMEXO
 40
0.5
  9
$DIMDLI
 40
7.0
  9
$DIMRND
 40
0.0
  9
$DIMDLE
 40
0.0
  9
$DIMEXE
 40
1.0
  9
$DIMTP
 40
0.0
  9
$DIMTM
 40
0.01
  9
$DIMTXT
 40
2.799999999999998
  9
$DIMCEN
 40
0.0
  9
$DIMTSZ
 40
0.0
  9
$DIMTOL
 70
     0
  9
$DIMLIM
 70
     0
  9
$DIMTIH
 70
     0
  9
$DIMTOH
 70
     0
  9
$DIMSE1
 70
     0
  9
$DIMSE2
 70
     0
  9
$DIMTAD
 70
     3
  9
$DIMZIN
 70
     9
  9
$DIMBLK
  1
OPEN
  9
$DIMASO
 70
     1
  9
$DIMSHO
 70
     1
  9
$DIMPOST
  1

  9
$DIMAPOST
  1

  9
$DIMALT
 70
     0
  9
$DIMALTD
 70
     2
  9
$DIMALTF
 40
25.399999999999999
  9
$DIMLFAC
 40
1.0
  9
$DIMTOFL
 70
     1
  9
$DIMTVP
 40
0.0
  9
$DIMTIX
 70
     1
  9
$DIMSOXD
 70
     0
  9
$DIMSAH
 70
     0
  9
$DIMBLK1
  1

  9
$DIMBLK2
  1

  9
$DIMSTYLE
  2
BIGT
  9
$DIMCLRD
 70
   256
  9
$DIMCLRE
 70
   256
  9
$DIMCLRT
 70
    40
  9
$DIMTFAC
 40
1.0
  9
$DIMGAP
 40
1.0
  9
$LUNITS
 70
     2
  9
$LUPREC
 70
     6
  9
$SKETCHINC
 40
1.0
  9
$FILLETRAD
 40
4.0
  9
$AUNITS
 70
     0
  9
$AUPREC
 70
     6
  9
$MENU
  1
.
  9
$ELEVATION
 40
0.0
  9
$PELEVATION
 40
0.0
  9
$THICKNESS
 40
0.0
  9
$LIMCHECK
 70
     0
  9
$BLIPMODE
 70
     0
  9
$CHAMFERA
 40
0.2
  9
$CHAMFERB
 40
0.2
  9
$SKPOLY
 70
     0
  9
$TDCREATE
 40
2458143.7417416899
  9
$TDUPDATE
 40
2458151.6279525231
  9
$TDINDWG
 40
0.01405375
  9
$TDUSRTIMER
 40
0.0140537153
  9
$USRTIMER
 70
     1
  9
$ANGBASE
 50
0.0
  9
$ANGDIR
 70
     0
  9
$PDMODE
 70
     1
  9
$PDSIZE
 40
0.0
  9
$PLINEWID
 40
0.0
  9
$COORDS
 70
     1
  9
$SPLFRAME
 70
     0
  9
$SPLINETYPE
 70
     6
  9
$SPLINESEGS
 70
     4
  9
$ATTDIA
 70
     1
  9
$ATTREQ
 70
     1
  9
$HANDLING
 70
     1
  9
$HANDSEED
  5
4694
  9
$SURFTAB1
 70
     6
  9
$SURFTAB2
 70
     6
  9
$SURFTYPE
 70
     6
  9
$SURFU
 70
     6
  9
$SURFV
 70
     6
  9
$UCSNAME
  2

  9
$UCSORG
 10
0.0
 20
0.0
 30
0.0
  9
$UCSXDIR
 10
1.0
 20
0.0
 30
0.0
  9
$UCSYDIR
 10
0.0
 20
1.0
 30
0.0
  9
$PUCSNAME
  2

  9
$PUCSORG
 10
0.0
 20
0.0
 30
0.0
  9
$PUCSXDIR
 10
1.0
 20
0.0
 30
0.0
  9
$PUCSYDIR
 10
0.0
 20
1.0
 30
0.0
  9
$USERI1
 70
     1
  9
$USERI2
 70
     0
  9
$USERI3
 70
     0
  9
$USERI4
 70
     0
  9
$USERI5
 70
     0
  9
$USERR1
 40
0.0
  9
$USERR2
 40
0.0
  9
$USERR3
 40
0.0
  9
$USERR4
 40
0.0
  9
$USERR5
 40
0.0
  9
$WORLDVIEW
 70
     1
  9
$SHADEDGE
 70
     3
  9
$SHADEDIF
 70
    70
  9
$TILEMODE
 70
     1
  9
$MAXACTVP
 70
    16
  9
$PLIMCHECK
 70
     0
  9
$PEXTMIN
 10
1.0000000000000000E+020
 20
1.0000000000000000E+020
 30
1.0000000000000000E+020
  9
$PEXTMAX
 10
-1.0000000000000000E+020
 20
-1.0000000000000000E+020
 30
-1.0000000000000000E+020
  9
$PLIMMIN
 10
0.0
 20
0.0
  9
$PLIMMAX
 10
420.0
 20
297.0
  9
$UNITMODE
 70
     0
  9
$VISRETAIN
 70
     1
  9
$PLINEGEN
 70
     0
  9
$PSLTSCALE
 70
     1
  0
ENDSEC
  0
SECTION
  2
TABLES
  0
TABLE
  2
VPORT
 70
     1
  0
VPORT
  2
*ACTIVE
 70
     0
 10
0.0
 20
0.0
 11
1.0
 21
1.0
 12
42.856401294352452
 22
21.500854956685629
 13
0.0
 23
0.0
 14
7.0
 24
7.0
 15
7.0
 25
7.0
 16
0.0
 26
0.0
 36
1.0
 17
0.0
 27
0.0
 37
0.0
 40
99.751207738829862
 41
1.553472987872105
 42
50.0
 43
0.0
 44
0.0
 50
0.0
 51
0.0
 71
     0
 72
  2000
 73
     1
 74
     0
 75
     1
 76
     1
 77
     0
 78
     0
  0
ENDTAB
  0
TABLE
  2
LTYPE
 70
    19
  0
LTYPE
  2
CONTINUOUS
 70
     0
  3
Solid line
 72
    65
 73
     0
 40
0.0
  0
LTYPE
  2
CENTER2
 70
     0
  3
___ _ ___ _ ___ _ ___ _ ___ _ ___ _ ___ _ ___ _
 72
    65
 73
     4
 40
1.125
 49
0.75
 49
-0.125
 49
0.125
 49
-0.125
  0
LTYPE
  2
HIDDEN2
 70
     0
  3
_ _ _ _ _ _ _ _ _ _ _ _ _ _ _ _ _ _ _ _ _ _ _ _
 72
    65
 73
     2
 40
0.1875
 49
0.125
 49
-0.0625
  0
LTYPE
  2
PHANTOM2
 70
     0
  3
___ _ _ ___ _ _ ___ _ _ ___ _ _ ___ _ _ ___ _ _
 72
    65
 73
     6
 40
1.25
 49
0.625
 49
-0.125
 49
0.125
 49
-0.125
 49
0.125
 49
-0.125
  0
LTYPE
  2
AMCONSTR
 70
     0
  3
_______________________
 72
    65
 73
     2
 40
9999.0
 49
9999.0
 49
0.0
  0
LTYPE
  2
HIDDEN
 70
     0
  3
Hidden __ __ __ __ __ __ __ __ __ __ __ __ __ _
 72
    65
 73
     2
 40
0.375
 49
0.25
 49
-0.125
  0
LTYPE
  2
CENTER
 70
     0
  3
Center ____ _ ____ _ ____ _ ____ _ ____ _ ____
 72
    65
 73
     4
 40
2.0
 49
1.25
 49
-0.25
 49
0.25
 49
-0.25
  0
LTYPE
  2
AMZIGZAG2
 70
     0
  3
/\/-/\/-/\/-/\/-/\/-/\/
 72
    65
 73
     2
 40
0.4401
 49
0.0001
 49
-0.4400000000000001
  0
LTYPE
  2
ACANSTGB
 70
     0
  3
__ . . __ . .
 72
    65
 73
     6
 40
0.35433070866
 49
0.15748031496
 49
-0.03937007874
 49
0.03937007874
 49
-0.03937007874
 49
0.03937007874
 49
-0.03937007874
  0
LTYPE
  2
ACANSTGL
 70
     0
  3
_ _ _ _ _
 72
    65
 73
     2
 40
0.11811023622
 49
0.07874015748
 49
-0.03937007874
  0
ENDTAB
  0
TABLE
  2
LAYER
 70
    10
  0
LAYER
  2
0
 70
     0
 62
     7
  6
CONTINUOUS
  0
LAYER
  2
DEFPOINTS
 70
     0
 62
     7
  6
CONTINUOUS
  0
LAYER
  2
245
 70
     0
 62
     2
  6
CENTER2
  0
LAYER
  2
240
 70
     0
 62
     4
  6
CONTINUOUS
  0
LAYER
  2
241
 70
     0
 62
   211
  6
CONTINUOUS
  0
LAYER
  2
242
 70
     0
 62
     3
  6
CONTINUOUS
  0
LAYER
  2
243
 70
     0
 62
   211
  6
HIDDEN2
  0
LAYER
  2
246
 70
     0
 62
     3
  6
PHANTOM2
  0
LAYER
  2
247
 70
     0
 62
    60
  6
CONTINUOUS
  0
LAYER
  2
250
 70
     0
 62
     3
  6
CONTINUOUS
  0
ENDTAB
  0
TABLE
  2
STYLE
 70
     7
  0
STYLE
  2
STANDARD
 70
     0
 40
0.0
 41
1.0
 50
0.0
 71
     0
 42
3.0
  3
romans.shx
  4
extfont.shx
  0
STYLE
  2
YOKO
 70
     0
 40
0.0
 41
1.0
 50
0.0
 71
     0
 42
3.0
  3
romans.shx
  4
extfont.shx
  0
STYLE
  2

 70
     1
 40
0.0
 41
1.0
 50
0.0
 71
     0
 42
3.0
  3
genltshp.shx
  4

  0
STYLE
  2
ACANSGDT
 70
     0
 40
0.0
 41
1.0
 50
0.0
 71
     0
 42
3.0
  3
amgdt.shx
  4

  0
ENDTAB
  0
TABLE
  2
VIEW
 70
     0
  0
ENDTAB
  0
TABLE
  2
UCS
 70
     0
  0
ENDTAB
  0
TABLE
  2
APPID
 70
    40
  0
APPID
  2
ACAD
 70
     0
  0
APPID
  2
ACADANNOTATIVE
 70
     0
  0
APPID
  2
GLOBAL
 70
     0
  0
APPID
  2
DETAIL
 70
     0
  0
APPID
  2
GRPNAME
 70
     0
  0
APPID
  2
GPARA
 70
     0
  0
APPID
  2
MCAD_NO_VIS
 70
     0
  0
APPID
  2
ACAD_TEMP_GRAPHIC
 70
     0
  0
APPID
  2
ACATTRIBSERVICES
 70
     0
  0
APPID
  2
GENIUS_GENSCREG_15
 70
     0
  0
APPID
  2
GENIUS_GENODEF_13
 70
     0
  0
APPID
  2
GENIUS_GENOBJ-N-SDF_13
 70
     0
  0
APPID
  2
GENIUS_GENREC_14
 70
     0
  0
APPID
  2
GENIUS_GENOBJ-N-REC_13
 70
     0
  0
APPID
  2
GENIUS_GENDIMSH_14
 70
     0
  0
APPID
  2
GENIUS_GENOBJ-N-DIM_13
 70
     0
  0
APPID
  2
GENIUS_GENDIM_13
 70
     0
  0
APPID
  2
GENIUS_GENDTOL_13
 70
     0
  0
APPID
  2
GENIUS_GENOLIS_13
 70
     0
  0
APPID
  2
GENIUS_GENOENT_13
 70
     0
  0
APPID
  2
GENIUS_GENOBJ-F-FEM_13
 70
     0
  0
APPID
  2
GENIUS_GENOREF_13
 70
     0
  0
APPID
  2
GENIUS_GEFFEM_13
 70
     0
  0
APPID
  2
GENIUS_GEFFEMP_13
 70
     0
  0
APPID
  2
AD_DRAW
 70
     0
  0
APPID
  2
DESIGNERASSEMBLIES
 70
     0
  0
APPID
  2
ACADM_DIM_EDIT
 70
     0
  0
APPID
  2
AMDT_DM_ADJ
 70
     0
  0
APPID
  2
ITEMNAME
 70
     0
  0
APPID
  2
GENIUS_GENOBJ-N-FIL_13
 70
     0
  0
APPID
  2
GENIUS_GENFIL_13
 70
     0
  0
APPID
  2
GENIUS_GENOBJ-N-CHA_13
 70
     0
  0
APPID
  2
ACAECLAYERSTANDARD
 70
     0
  0
APPID
  2
ACAD_NAV_VCDISPLAY
 70
     0
  0
APPID
  2
ACAD_EXEMPT_FROM_CAD_STANDARDS
 70
     0
  0
APPID
  2
ACAD_PSEXT
 70
     0
  0
APPID
  2
ACAD_DSTYLE_DIMJAG
 70
     0
  0
APPID
  2
ACAD_DSTYLE_DIMBREAK
 70
     0
  0
APPID
  2
ACAD_DSTYLE_DIMINSPECT
 70
     0
  0
APPID
  2
ACAD_MLEADERVER
 70
     0
  0
ENDTAB
  0
TABLE
  2
DIMSTYLE
 70
    16
  0
DIMSTYLE
  2
STANDARD
 70
     0
  3

  4

  5

  6

  7

 40
1.0
 41
0.18
 42
0.0625
 43
0.38
 44
0.18
 45
0.0
 46
0.0
 47
0.0
 48
0.0
140
0.18
141
0.09
142
0.0
143
25.399999999999999
144
1.0
145
0.0
146
1.0
147
0.09
 71
     0
 72
     0
 73
     1
 74
     1
 75
     0
 76
     0
 77
     0
 78
     0
170
     0
171
     2
172
     0
173
     0
174
     0
175
     0
176
     0
177
     0
178
     0
  0
DIMSTYLE
  2
BIGT
 70
     0
  3

  4

  5

  6

  7

 40
1.0
 41
2.2299999999999991
 42
0.5
 43
7.0
 44
1.0
 45
0.0
 46
0.0
 47
0.0
 48
0.01
140
2.799999999999998
141
0.0
142
0.0
143
25.399999999999999
144
1.0
145
0.0
146
1.0
147
1.0
 71
     0
 72
     0
 73
     0
 74
     0
 75
     0
 76
     0
 77
     3
 78
     9
170
     0
171
     2
172
     1
173
     0
174
     1
175
     0
176
   256
177
   256
178
    40
  0
DIMSTYLE
  2
AM_ANSI
 70
     0
  3

  4
mm
  5

  6

  7

 40
1.0
 41
0.12
 42
0.05
 43
0.5
 44
0.1
 45
0.0
 46
0.0
 47
0.1
 48
0.1
140
0.12
141
0.0
142
0.0
143
25.399999999999999
144
1.0
145
0.0
146
0.71
147
0.06
 71
     0
 72
     0
 73
     1
 74
     1
 75
     0
 76
     0
 77
     0
 78
     7
170
     0
171
     2
172
     0
173
     0
174
     0
175
     0
176
   256
177
   256
178
     2
  0
DIMSTYLE
  2
AM_ANSI$3
 70
     0
  3

  4
mm
  5

  6

  7

 40
1.0
 41
0.12
 42
0.05
 43
0.5
 44
0.1
 45
0.0
 46
0.0
 47
0.1
 48
0.1
140
0.12
141
0.0
142
0.0
143
25.399999999999999
144
1.0
145
0.0
146
0.71
147
0.06
 71
     0
 72
     0
 73
     1
 74
     1
 75
     0
 76
     0
 77
     0
 78
     7
170
     0
171
     2
172
     0
173
     0
174
     0
175
     0
176
   256
177
   256
178
     2
  0
DIMSTYLE
  2
AM_ANSI$4
 70
     0
  3

  4
mm
  5

  6

  7

 40
1.0
 41
0.12
 42
0.05
 43
0.5
 44
0.1
 45
0.0
 46
0.0
 47
0.1
 48
0.1
140
0.12
141
0.0
142
0.0
143
25.399999999999999
144
1.0
145
0.0
146
0.71
147
0.06
 71
     0
 72
     0
 73
     1
 74
     1
 75
     0
 76
     0
 77
     0
 78
     7
170
     0
171
     2
172
     0
173
     0
174
     0
175
     0
176
   256
177
   256
178
     2
  0
DIMSTYLE
  2
AM_ANSI$7
 70
     0
  3

  4
mm
  5

  6

  7

 40
1.0
 41
0.12
 42
0.05
 43
0.5
 44
0.1
 45
0.0
 46
0.0
 47
0.1
 48
0.1
140
0.12
141
0.0
142
0.0
143
25.399999999999999
144
1.0
145
0.0
146
0.71
147
0.06
 71
     0
 72
     0
 73
     1
 74
     1
 75
     0
 76
     0
 77
     0
 78
     7
170
     0
171
     2
172
     0
173
     0
174
     0
175
     0
176
   256
177
   256
178
     2
  0
DIMSTYLE
  2
AM_ANSI$SF
 70
     0
  3

  4
mm
  5

  6

  7

 40
1.0
 41
0.12
 42
0.05
 43
0.5
 44
0.1
 45
0.0
 46
0.0
 47
0.1
 48
0.1
140
0.12
141
0.0
142
0.0
143
25.399999999999999
144
1.0
145
0.0
146
0.71
147
0.06
 71
     0
 72
     0
 73
     1
 74
     1
 75
     1
 76
     1
 77
     0
 78
     7
170
     0
171
     2
172
     0
173
     0
174
     0
175
     0
176
   256
177
   256
178
     2
  0
DIMSTYLE
  2
AM_ANSI$SH
 70
     0
  3

  4
mm
  5

  6
GENAXEH
  7

 40
1.0
 41
0.12
 42
0.05
 43
0.5
 44
0.1
 45
0.0
 46
0.0
 47
0.1
 48
0.1
140
0.12
141
0.0
142
0.0
143
25.399999999999999
144
1.0
145
0.0
146
0.71
147
0.06
 71
     0
 72
     0
 73
     1
 74
     1
 75
     1
 76
     1
 77
     0
 78
     7
170
     0
171
     2
172
     0
173
     1
174
     0
175
     0
176
   256
177
   256
178
     2
  0
ENDTAB
  0
ENDSEC
  0
SECTION
  2
BLOCKS
  0
BLOCK
  8
0
  2
$MODEL_SPACE
 70
     0
 10
0.0
 20
0.0
 30
0.0
  3
$MODEL_SPACE
  1

  0
ENDBLK
  5
4566
  8
0
  0
BLOCK
 67
     1
  8
0
  2
$PAPER_SPACE
 70
     0
 10
0.0
 20
0.0
 30
0.0
  3
$PAPER_SPACE
  1

  0
ENDBLK
  5
4562
 67
     1
  8
0
  0
BLOCK
  8
0
  2
_OPEN
 70
     0
 10
0.0
 20
0.0
 30
0.0
  3
_OPEN
  1

  0
LINE
  5
3E1A
  8
0
  6
BYBLOCK
 62
     0
 10
-1.0
 20
0.1666666666666666
 30
0.0
 11
0.0
 21
0.0
 31
0.0
  0
LINE
  5
3E1B
  8
0
  6
BYBLOCK
 62
     0
 10
-1.0
 20
-0.1666666666666666
 30
0.0
 11
0.0
 21
0.0
 31
0.0
  0
LINE
  5
3E1C
  8
0
  6
BYBLOCK
 62
     0
 10
0.0
 20
0.0
 30
0.0
 11
-1.0
 21
0.0
 31
0.0
  0
ENDBLK
  5
3E1D
  8
0
  0
BLOCK
  8
0
  2
GENAXEH
 70
     0
 10
0.0
 20
0.0
 30
0.0
  3
GENAXEH
  1

  0
LINE
  5
3E45
  8
0
 10
-1.0
 20
0.0
 30
0.0
 11
1.0
 21
0.0
 31
0.0
  0
ENDBLK
  5
3E46
  8
0
  0
BLOCK
  8
0
  2
_ACMFILLEDHALF
 70
     0
 10
0.0
 20
0.0
 30
0.0
  3
_ACMFILLEDHALF
  1

  0
TRACE
  5
4614
  8
DEFPOINTS
 62
     0
 10
-0.8
 20
0.0
 30
0.0
 11
-1.0
 21
0.166666666
 31
0.0
 12
0.0
 22
0.0
 32
0.0
 13
0.0
 23
0.0
 33
0.0
  0
LINE
  5
4615
  8
DEFPOINTS
 62
     0
 10
-1.0
 20
0.0
 30
0.0
 11
-0.8
 21
0.0
 31
0.0
  0
ENDBLK
  5
4613
  8
0
  0
ENDSEC
  0
SECTION
  2
ENTITIES
  0
LINE
  5
429D
  8
250
  6
CONTINUOUS
 10
-17.388790265885959
 20
-17.617856090630511
 30
0.0
 11
-16.100115130391899
 21
-16.0524719504686
 31
0.0
  0
LINE
  5
429E
  8
250
  6
CONTINUOUS
 10
-16.81143999688782
 20
-17.95118942429551
 30
0.0
 11
-16.100115130391899
 21
-16.0524719504686
 31
0.0
  0
LINE
  5
429F
  8
250
  6
CONTINUOUS
 10
-16.100115130391899
 20
-16.0524719504686
 30
0.0
 11
-17.10011513138689
 21
-17.784522757463009
 31
0.0
  0
LINE
  5
42A0
  8
250
  6
CONTINUOUS
 10
-17.10011513138689
 20
-17.784522757463009
 30
0.0
 11
-21.011317350391899
 21
-24.55892371046858
 31
0.0
  0
TEXT
  5
42A1
  8
250
  6
CONTINUOUS
 10
-28.877984010391909
 20
-23.55892371046858
 30
0.0
 40
2.799999999999998
  1
C5
  7
YOKO
  0
LINE
  5
42A2
  8
250
  6
CONTINUOUS
 10
-21.011317350391899
 20
-24.55892371046858
 30
0.0
 11
-31.277984010391911
 21
-24.55892371046858
 31
0.0
1001
ITEMNAME
1000
LNSP2
  0
LINE
  5
42A3
  8
245
  6
CENTER2
 10
-31.000146370025529
 20
0.0
 30
0.0
 11
107.6794107608841
 21
0.0
 31
0.0
1001
GRPNAME
1000
PASTMD0U
  0
LINE
  5
42A4
  8
240
  6
CONTINUOUS
 10
0.0
 20
-25.0
 30
0.0
 11
20.002327371789502
 21
-25.0
 31
0.0
1001
GRPNAME
1000
PASTMD0U
  0
LINE
  5
42A5
  8
240
  6
CONTINUOUS
 10
0.0
 20
25.0
 30
0.0
 11
19.999853654451581
 21
25.0
 31
0.0
1001
GRPNAME
1000
PASTMD0U
  0
LINE
  5
42A6
  8
243
  6
HIDDEN2
 10
-22.815575710025531
 20
-15.88457066000001
 30
0.0
 11
-24.700146370025511
 21
-14.0
 31
0.0
  0
LINE
  5
42A7
  8
243
  6
HIDDEN2
 10
-24.700146370025511
 20
-14.0
 30
0.0
 11
-24.700146370025511
 21
-15.837452239999999
 31
0.0
  0
LINE
  5
42A8
  8
240
  6
CONTINUOUS
 10
-30.000146370025529
 20
-15.69248510189405
 30
0.0
 11
-30.000146370025529
 21
17.932546171478119
 31
0.0
  0
LINE
  5
42A9
  8
243
  6
HIDDEN2
 10
-30.000146370025529
 20
-14.0
 30
0.0
 11
-24.700146370025511
 21
-14.0
 31
0.0
  0
LINE
  5
42AA
  8
241
  6
CONTINUOUS
 10
7.949853629974462
 20
7.1748188999999911
 30
0.0
 11
7.949853629974462
 21
23.937879479999989
 31
0.0
  0
LINE
  5
42AB
  8
241
  6
CONTINUOUS
 10
12.04985362997448
 20
7.1748188999999911
 30
0.0
 11
12.04985362997448
 21
23.937879479999989
 31
0.0
  0
LINE
  5
42AC
  8
241
  6
CONTINUOUS
 10
7.949853629974462
 20
7.1748188999999911
 30
0.0
 11
12.04985362997448
 21
7.1748188999999911
 31
0.0
  0
LINE
  5
42AD
  8
241
  6
CONTINUOUS
 10
7.949853629974462
 20
23.937879479999989
 30
0.0
 11
12.04985362997448
 21
23.937879479999989
 31
0.0
  0
ARC
  5
42AE
  8
241
  6
CONTINUOUS
 10
24.51236613052135
 20
15.55634918999999
 30
0.0
 40
18.562512500546848
 50
153.1581137773484
 51
206.84188622265151
  0
ARC
  5
42AF
  8
241
  6
CONTINUOUS
 10
-4.5126588705724
 20
15.55634918999999
 30
0.0
 40
18.56251250054688
 50
333.15811377734849
 51
26.8418862226515
  0
LINE
  5
42B0
  8
241
  6
CONTINUOUS
 10
7.949853629974462
 20
-7.1748188999999911
 30
0.0
 11
7.949853629974462
 21
-23.937879479999989
 31
0.0
  0
LINE
  5
42B1
  8
241
  6
CONTINUOUS
 10
12.04985362997448
 20
-7.1748188999999911
 30
0.0
 11
12.04985362997448
 21
-23.937879479999989
 31
0.0
  0
LINE
  5
42B2
  8
241
  6
CONTINUOUS
 10
7.949853629974462
 20
-7.1748188999999911
 30
0.0
 11
12.04985362997448
 21
-7.1748188999999911
 31
0.0
  0
LINE
  5
42B3
  8
241
  6
CONTINUOUS
 10
7.949853629974462
 20
-23.937879479999989
 30
0.0
 11
12.04985362997448
 21
-23.937879479999989
 31
0.0
  0
ARC
  5
42B4
  8
241
  6
CONTINUOUS
 10
24.51236613052135
 20
-15.55634918999999
 30
0.0
 40
18.562512500546848
 50
153.1581137773484
 51
206.84188622265151
  0
ARC
  5
42B5
  8
241
  6
CONTINUOUS
 10
-4.5126588705724
 20
-15.55634918999999
 30
0.0
 40
18.56251250054688
 50
333.15811377734849
 51
26.8418862226515
  0
LINE
  5
42B6
  8
247
  6
CONTINUOUS
 10
3.999853629974417
 20
-10.75
 30
0.0
 11
3.999853629974472
 21
-6.1153846156700231
 31
0.0
  0
LINE
  5
42B7
  8
247
  6
CONTINUOUS
 10
1.499853629974474
 20
-9.9548934999879464
 30
0.0
 11
3.5998536298904802
 21
-10.557058810057351
 31
0.0
  0
LINE
  5
42B8
  8
247
  6
CONTINUOUS
 10
2.4960074760884701
 20
-9.3251514035190421
 30
0.0
 11
2.4960074760884701
 21
-10.240536018867029
 31
0.0
  0
ARC
  5
42B9
  8
247
  6
CONTINUOUS
 10
1.884572697268573
 20
-9.0872634019468101
 30
0.0
 40
0.3876715809326743
 50
72.997889675291376
 51
172.92416621851191
  0
ARC
  5
42BA
  8
247
  6
CONTINUOUS
 10
1.805076761002488
 20
-9.3824775568041048
 30
0.0
 40
0.6933047965358772
 50
4.7429368522022122
 51
73.849226273266297
1001
GENIUS_GENOBJ-N-FIL_13
1002
{
1000
OWNER
1000
GEN
1002
}
1001
GENIUS_GENODEF_13
1002
{
1000
HIER
1070
     0
1002
}
1002
{
1000
MANEDIT
1070
     0
1002
}
1002
{
1000
NOSEL
1070
     0
1002
}
1002
{
1000
BEHIND
1070
     0
1002
}
1002
{
1000
OTHER
1070
     0
1002
}
1002
{
1000
REACTOR
1002
}
  0
LINE
  5
42BB
  8
247
  6
CONTINUOUS
 10
3.5998536298904802
 20
-9.6416741947093634
 30
0.0
 11
3.5998536298904802
 21
-10.557058810057351
 31
0.0
  0
LINE
  5
42BC
  8
247
  6
CONTINUOUS
 10
1.499853629974474
 20
-9.9548934999879464
 30
0.0
 11
1.499853629974474
 21
-9.0395088846399272
 31
0.0
  0
ARC
  5
42BD
  8
247
  6
CONTINUOUS
 10
2.887270592742345
 20
-9.3783064762668271
 30
0.0
 40
0.394857301075386
 50
65.990941652528889
 51
172.26344345906909
  0
ARC
  5
42BE
  8
247
  6
CONTINUOUS
 10
2.8910539573070402
 20
-9.7124466104269231
 30
0.0
 40
0.7123241612361686
 50
5.7019851642581241
 51
77.277338436822376
1001
GENIUS_GENOBJ-N-FIL_13
1002
{
1000
OWNER
1000
GEN
1002
}
1001
GENIUS_GENODEF_13
1002
{
1000
HIER
1070
     0
1002
}
1002
{
1000
MANEDIT
1070
     0
1002
}
1002
{
1000
NOSEL
1070
     0
1002
}
1002
{
1000
BEHIND
1070
     0
1002
}
1002
{
1000
OTHER
1070
     0
1002
}
1002
{
1000
REACTOR
1002
}
  0
LINE
  5
42BF
  8
247
  6
CONTINUOUS
 10
3.5998536298904802
 20
-8.683981887063366
 30
0.0
 11
1.499853629974474
 21
-8.0818165769939583
 31
0.0
  0
LINE
  5
42C0
  8
247
  6
CONTINUOUS
 10
1.499853629974474
 20
-6.5856627309079512
 30
0.0
 11
1.499853629974474
 21
-6.9816783643035762
 31
0.0
  0
LINE
  5
42C1
  8
247
  6
CONTINUOUS
 10
3.5998536298904802
 20
-7.6087396539439531
 30
0.0
 11
3.5998536298904802
 21
-7.1779704231919652
 31
0.0
  0
ARC
  5
42C2
  8
247
  6
CONTINUOUS
 10
2.9581532250578322
 20
-6.3818165770699684
 30
0.0
 40
1.576855057639547
 50
202.35948814152749
 51
254.99324854284609
  0
ARC
  5
42C3
  8
247
  6
CONTINUOUS
 10
2.0656724885126101
 20
-6.8475113661332321
 30
0.0
 40
0.6234706797009447
 50
94.994589319075317
 51
155.1663289573041
1001
GENIUS_GENOBJ-N-FIL_13
1002
{
1000
OWNER
1000
GEN
1002
}
1001
GENIUS_GENODEF_13
1002
{
1000
HIER
1070
     0
1002
}
1002
{
1000
MANEDIT
1070
     0
1002
}
1002
{
1000
NOSEL
1070
     0
1002
}
1002
{
1000
BEHIND
1070
     0
1002
}
1002
{
1000
OTHER
1070
     0
1002
}
1002
{
1000
REACTOR
1002
}
  0
ARC
  5
42C4
  8
247
  6
CONTINUOUS
 10
2.6619557519439141
 20
-7.4441839510327554
 30
0.0
 40
0.9749472149106983
 50
15.846096555780679
 51
82.325137004169065
  0
ARC
  5
42C5
  8
247
  6
CONTINUOUS
 10
2.87132403194554
 20
-7.035211638772207
 30
0.0
 40
0.9271945638692009
 50
249.7136016704969
 51
321.78874565640888
1001
GENIUS_GENOBJ-N-FIL_13
1002
{
1000
OWNER
1000
GEN
1002
}
1001
GENIUS_GENODEF_13
1002
{
1000
HIER
1070
     0
1002
}
1002
{
1000
MANEDIT
1070
     0
1002
}
1002
{
1000
NOSEL
1070
     0
1002
}
1002
{
1000
BEHIND
1070
     0
1002
}
1002
{
1000
OTHER
1070
     0
1002
}
1002
{
1000
REACTOR
1002
}
  0
LINE
  5
42C6
  8
247
  6
CONTINUOUS
 10
2.7921613222304482
 20
-6.962585807815965
 30
0.0
 11
2.7921613222304482
 21
-6.4779704232199711
 31
0.0
  0
ARC
  5
42C7
  8
247
  6
CONTINUOUS
 10
2.749853629974472
 20
-10.75
 30
0.0
 40
1.25
 50
180.0
 51
0.0
  0
LINE
  5
42C8
  8
247
  6
CONTINUOUS
 10
1.499853629974474
 20
-10.75
 30
0.0
 11
1.499853629974474
 21
-10.30384615391398
 31
0.0
  0
ARC
  5
42C9
  8
247
  6
CONTINUOUS
 10
2.749853629974472
 20
-6.115384615669992
 30
0.0
 40
1.25
 50
0.0
 51
180.0
  0
LINE
  5
42CA
  8
240
  6
CONTINUOUS
 10
0.0
 20
18.682499437098041
 30
0.0
 11
-30.000146370025529
 21
17.932546171478119
 31
0.0
1001
GRPNAME
1000
PASTMD0F
  0
LINE
  5
42CB
  8
240
  6
CONTINUOUS
 10
0.0
 20
-16.442554784446418
 30
0.0
 11
-30.000146370025529
 21
-15.69248510189405
 31
0.0
  0
LINE
  5
42CC
  8
240
  6
CONTINUOUS
 10
0.0
 20
-25.0
 30
0.0
 11
0.0
 21
-16.442554784446418
 31
0.0
  0
LINE
  5
42CD
  8
240
  6
CONTINUOUS
 10
20.0
 20
-25.0
 30
0.0
 11
20.0
 21
-21.49999999999989
 31
0.0
  0
LINE
  5
42CE
  8
240
  6
CONTINUOUS
 10
0.0
 20
18.682499437098041
 30
0.0
 11
0.0
 21
25.0
 31
0.0
  0
LINE
  5
42CF
  8
241
  6
CONTINUOUS
 10
0.0
 20
18.682499437098041
 30
0.0
 11
0.0
 21
-16.442554784446418
 31
0.0
  0
LINE
  5
42FB
  8
240
  6
CONTINUOUS
 10
75.499999999999815
 20
17.499999999999691
 30
0.0
 11
24.0
 21
17.499999999999691
 31
0.0
  0
LINE
  5
42FC
  8
240
  6
CONTINUOUS
 10
75.499999999999815
 20
-17.499999999999879
 30
0.0
 11
23.999999999999989
 21
-17.499999999999879
 31
0.0
  0
ARC
  5
42FF
  8
240
  6
CONTINUOUS
 10
24.0
 20
21.49999999999968
 30
0.0
 40
4.0
 50
180.0
 51
270.0
1001
GENIUS_GENODEF_13
1002
{
1000
HIER
1070
     0
1002
}
1002
{
1000
MANEDIT
1070
     0
1002
}
1002
{
1000
NOSEL
1070
     0
1002
}
1002
{
1000
BEHIND
1070
     0
1002
}
1002
{
1000
OTHER
1070
     0
1002
}
1002
{
1000
REACTOR
1002
}
1001
GENIUS_GENOBJ-N-FIL_13
1002
{
1000
OWNER
1000
GEN
1002
}
  0
ARC
  5
4300
  8
240
  6
CONTINUOUS
 10
24.0
 20
-21.49999999999989
 30
0.0
 40
4.0
 50
90.0
 51
180.0
1001
GENIUS_GENODEF_13
1002
{
1000
HIER
1070
     0
1002
}
1002
{
1000
MANEDIT
1070
     0
1002
}
1002
{
1000
NOSEL
1070
     0
1002
}
1002
{
1000
BEHIND
1070
     0
1002
}
1002
{
1000
OTHER
1070
     0
1002
}
1002
{
1000
REACTOR
1002
}
1001
GENIUS_GENOBJ-N-FIL_13
1002
{
1000
OWNER
1000
GEN
1002
}
  0
LINE
  5
4301
  8
240
  6
CONTINUOUS
 10
20.0
 20
21.49999999999968
 30
0.0
 11
20.0
 21
25.0
 31
0.0
  0
LINE
  5
4302
  8
241
  6
CONTINUOUS
 10
20.0
 20
21.49999999999968
 30
0.0
 11
20.0
 21
-21.49999999999989
 31
0.0
  0
TEXT
  5
432F
  8
241
  6
CONTINUOUS
 10
-35.0
 20
63.0
 30
0.0
 40
5.0
  1
C5-MEGAER20-105NL
  7
YOKO
 11
-35.0
 21
63.0
 31
0.0
 73
     1
  0
LINE
  5
4330
  8
240
  6
CONTINUOUS
 10
75.499999999999815
 20
17.499999999999691
 30
0.0
 11
75.499999999999815
 21
13.499999999990809
 31
0.0
  0
LINE
  5
4331
  8
240
  6
CONTINUOUS
 10
75.499999999999815
 20
-17.499999999999879
 30
0.0
 11
75.499999999999815
 21
-13.49999999999082
 31
0.0
  0
LINE
  5
4332
  8
240
  6
CONTINUOUS
 10
95.200000000000287
 20
11.39999999999776
 30
0.0
 11
95.199999999999903
 21
-11.399999999997959
 31
0.0
  0
LINE
  5
4334
  8
240
  6
CONTINUOUS
 10
93.294744111674575
 20
-12.49999999999979
 30
0.0
 11
82.130615242272938
 21
-12.499999999999901
 31
0.0
  0
LINE
  5
4335
  8
241
  6
CONTINUOUS
 10
79.600000000000804
 20
-13.49999999999797
 30
0.0
 11
79.600000000000094
 21
13.499999999997611
 31
0.0
1001
GRPNAME
1000
PASTMD0T
  0
LINE
  5
4336
  8
241
  6
CONTINUOUS
 10
80.700000000000486
 20
-13.499999999999821
 30
0.0
 11
80.699999999995342
 21
13.49999999999944
 31
0.0
1001
GRPNAME
1000
PASTMD0T
  0
LINE
  5
4337
  8
242
  6
CONTINUOUS
 10
83.700000000000244
 20
-12.499999999999851
 30
0.0
 11
83.700000000017795
 21
12.499999999999901
 31
0.0
  0
ARC
  5
4338
  8
240
  6
CONTINUOUS
 10
82.130615242272938
 20
-12.899999999999849
 30
0.0
 40
0.4
 50
90.0
 51
149.9999999999994
  0
LINE
  5
4339
  8
240
  6
CONTINUOUS
 10
75.499999999999815
 20
-13.49999999999082
 30
0.0
 11
81.322324865405207
 21
-13.500000000000471
 31
0.0
  0
LINE
  5
433A
  8
240
  6
CONTINUOUS
 10
81.784205080759179
 20
-12.699999999999831
 30
0.0
 11
81.322324865405207
 21
-13.500000000000471
 31
0.0
  0
LINE
  5
433B
  8
241
  6
CONTINUOUS
 10
81.899675134597501
 20
-12.499999999999909
 30
0.0
 11
81.899675134597501
 21
12.573401367628881
 31
0.0
  0
LINE
  5
433C
  8
241
  6
CONTINUOUS
 10
81.322324865407253
 20
-13.499999999998341
 30
0.0
 11
81.322324865416164
 21
13.50000000000048
 31
0.0
  0
LINE
  5
433E
  8
242
  6
CONTINUOUS
 10
83.700000000000784
 20
-11.74999999999987
 30
0.0
 11
94.593782217352356
 21
-11.749999999999851
 31
0.0
  0
LINE
  5
433F
  8
241
  6
CONTINUOUS
 10
93.29474411167412
 20
-12.499999999998879
 30
0.0
 11
93.294744111674476
 21
12.499999999999799
 31
0.0
  0
LINE
  5
4340
  8
240
  6
CONTINUOUS
 10
95.199999999999903
 20
-11.399999999997959
 30
0.0
 11
93.29474411167412
 21
-12.499999999998879
 31
0.0
  0
LINE
  5
4341
  8
241
  6
CONTINUOUS
 10
75.499999999999631
 20
13.499999999990809
 30
0.0
 11
75.499999999999631
 21
-13.49999999999082
 31
0.0
  0
LINE
  5
4342
  8
240
  6
CONTINUOUS
 10
93.294744111674575
 20
12.499999999999799
 30
0.0
 11
82.130615242272938
 21
12.499999999999909
 31
0.0
  0
ARC
  5
4343
  8
240
  6
CONTINUOUS
 10
82.130615242272938
 20
12.89999999999986
 30
0.0
 40
0.4
 50
210.0000000000004
 51
270.0
  0
LINE
  5
4344
  8
240
  6
CONTINUOUS
 10
75.499999999999815
 20
13.499999999990809
 30
0.0
 11
81.322324865405207
 21
13.50000000000048
 31
0.0
  0
LINE
  5
4345
  8
240
  6
CONTINUOUS
 10
81.784205080759179
 20
12.699999999999831
 30
0.0
 11
81.322324865405207
 21
13.50000000000048
 31
0.0
  0
LINE
  5
4346
  8
242
  6
CONTINUOUS
 10
83.700000000000784
 20
11.749999999999879
 30
0.0
 11
94.593782217352356
 21
11.749999999999851
 31
0.0
  0
LINE
  5
4347
  8
240
  6
CONTINUOUS
 10
95.200000000000287
 20
11.39999999999776
 30
0.0
 11
93.29474411167412
 21
12.499999999998879
 31
0.0
  0
LINE
  5
4348
  8
246
  6
PHANTOM2
 10
105.0
 20
-17.499999999999929
 30
0.0
 11
104.9999999999999
 21
17.500000000000011
 31
0.0
1001
GRPNAME
1000
PASTMD01
  0
LINE
  5
4349
  8
246
  6
PHANTOM2
 10
104.9999999999999
 20
17.500000000000011
 30
0.0
 11
78.500015258789091
 21
17.500000000000011
 31
0.0
  0
LINE
  5
434A
  8
250
  6
CONTINUOUS
 10
105.5000000000001
 20
-17.499999999999929
 30
0.0
 11
120.0
 21
-17.499999999999929
 31
0.0
  0
LINE
  5
434B
  8
250
  6
CONTINUOUS
 10
105.4999999999999
 20
17.500000000000011
 30
0.0
 11
120.0
 21
17.500000000000011
 31
0.0
  0
LINE
  5
434C
  8
250
  6
CONTINUOUS
 10
119.0
 20
-15.49999999999992
 30
0.0
 11
119.0
 21
15.5
 31
0.0
  0
INSERT
  5
434D
  8
250
  6
CONTINUOUS
  2
_OPEN
 10
119.0
 20
-17.499999999999929
 30
0.0
 41
2.0
 42
2.0
 43
2.0
 50
270.0
  0
INSERT
  5
434E
  8
250
  6
CONTINUOUS
  2
_OPEN
 10
119.0
 20
17.500000000000011
 30
0.0
 41
2.0
 42
2.0
 43
2.0
 50
90.0
  0
LINE
  5
434F
  8
243
  6
HIDDEN2
 10
73.200000000001523
 20
7.158123781483086
 30
0.0
 11
95.200000000000074
 21
10.2500221449357
 31
0.0
  0
LINE
  5
4350
  8
246
  6
PHANTOM2
 10
104.9999999999999
 20
-17.500000000000011
 30
0.0
 11
78.500015258789091
 21
-17.500000000000011
 31
0.0
  0
LINE
  5
4351
  8
243
  6
HIDDEN2
 10
73.200000000001523
 20
-7.1581237814830772
 30
0.0
 11
95.200000000000074
 21
-10.2500221449357
 31
0.0
  0
TEXT
  5
4352
  8
250
  6
CONTINUOUS
 10
117.9999999999999
 20
-7.5360717098401748
 30
0.0
 40
2.799999999999998
  1
\U+2205
 50
90.0
  0
TEXT
  5
4353
  8
250
  6
CONTINUOUS
 10
117.9999999999999
 20
-5.0027383765068452
 30
0.0
 40
2.799999999999998
  1
1.378
 50
90.0
  0
LINE
  5
43D5
  8
250
  6
CONTINUOUS
 10
104.9999999999999
 20
18.000000000000011
 30
0.0
 11
104.9999999999999
 21
42.999999999999979
 31
0.0
  0
LINE
  5
43D6
  8
250
  6
CONTINUOUS
 10
7.0
 20
8.5
 30
0.0
 11
7.0
 21
42.999999999999979
 31
0.0
  0
LINE
  5
43D7
  8
250
  6
CONTINUOUS
 10
102.7699999999999
 20
41.999999999999979
 30
0.0
 11
9.2300000000000022
 21
41.999999999999979
 31
0.0
  0
LINE
  5
43DB
  8
250
  6
CONTINUOUS
 10
0.0
 20
25.5
 30
0.0
 11
0.0000000000000015
 21
50.0
 31
0.0
  0
LINE
  5
43DC
  8
250
  6
CONTINUOUS
 10
104.9999999999999
 20
18.000000000000011
 30
0.0
 11
104.9999999999999
 21
50.0
 31
0.0
  0
LINE
  5
43DD
  8
250
  6
CONTINUOUS
 10
2.23
 20
49.0
 30
0.0
 11
102.7699999999999
 21
49.0
 31
0.0
  0
TEXT
  5
43E1
  8
250
  6
CONTINUOUS
 10
49.999999999999972
 20
42.999999999999972
 30
0.0
 40
2.799999999999998
  1
(max.3.85)
  0
LINE
  5
43E2
  8
250
  6
CONTINUOUS
 10
9.2300000000000022
 20
41.628333333333288
 30
0.0
 11
7.0
 21
41.999999999999979
 31
0.0
  0
LINE
  5
43E3
  8
250
  6
CONTINUOUS
 10
9.2300000000000022
 20
42.371666666666648
 30
0.0
 11
7.0
 21
41.999999999999979
 31
0.0
  0
LINE
  5
43E4
  8
250
  6
CONTINUOUS
 10
7.0
 20
41.999999999999979
 30
0.0
 11
9.2300000000000022
 21
41.999999999999979
 31
0.0
  0
LINE
  5
43E5
  8
250
  6
CONTINUOUS
 10
102.7699999999999
 20
42.371666666666648
 30
0.0
 11
104.9999999999999
 21
41.999999999999979
 31
0.0
  0
LINE
  5
43E6
  8
250
  6
CONTINUOUS
 10
102.7699999999999
 20
41.628333333333288
 30
0.0
 11
104.9999999999999
 21
41.999999999999979
 31
0.0
  0
LINE
  5
43E7
  8
250
  6
CONTINUOUS
 10
104.9999999999999
 20
41.999999999999979
 30
0.0
 11
102.7699999999999
 21
41.999999999999979
 31
0.0
  0
TEXT
  5
43E8
  8
250
  6
CONTINUOUS
 10
46.433333333333287
 20
50.0
 30
0.0
 40
2.799999999999998
  1
4.133
  0
LINE
  5
43E9
  8
250
  6
CONTINUOUS
 10
102.7699999999999
 20
49.37166666666667
 30
0.0
 11
104.9999999999999
 21
49.0
 31
0.0
  0
LINE
  5
43EA
  8
250
  6
CONTINUOUS
 10
102.7699999999999
 20
48.62833333333333
 30
0.0
 11
104.9999999999999
 21
49.0
 31
0.0
  0
LINE
  5
43EB
  8
250
  6
CONTINUOUS
 10
104.9999999999999
 20
49.0
 30
0.0
 11
102.7699999999999
 21
49.0
 31
0.0
  0
LINE
  5
43EC
  8
250
  6
CONTINUOUS
 10
2.23
 20
48.62833333333333
 30
0.0
 11
0.0000000000000015
 21
49.0
 31
0.0
  0
LINE
  5
43ED
  8
250
  6
CONTINUOUS
 10
2.23
 20
49.37166666666667
 30
0.0
 11
0.0000000000000015
 21
49.0
 31
0.0
  0
LINE
  5
43EE
  8
250
  6
CONTINUOUS
 10
0.0000000000000015
 20
49.0
 30
0.0
 11
2.23
 21
49.0
 31
0.0
  0
VIEWPORT
  5
22
 67
     1
  8
0
 10
261.51769911504419
 20
148.5
 30
0.0
 40
523.0353982300885
 41
297.0
 68
     1
 69
     1
1001
ACAD
1000
MVIEW
1002
{
1070
    16
1010
0.0
1020
0.0
1030
0.0
1010
0.0
1020
0.0
1030
1.0
1040
0.0
1040
297.0
1040
261.51769911504419
1040
148.5
1040
50.0
1040
0.0
1040
0.0
1070
     0
1070
   100
1070
     1
1070
     1
1070
     0
1070
     0
1070
     0
1070
     0
1040
0.0
1040
0.0
1040
0.0
1040
1.0
1040
1.0
1040
10.0
1040
10.0
1070
     0
1002
{
1002
}
1002
}
1001
GENIUS_GENODEF_13
1002
{
1000
HIER
1070
     0
1002
}
1002
{
1000
MANEDIT
1070
     0
1002
}
1002
{
1000
NOSEL
1070
     0
1002
}
1002
{
1000
BEHIND
1070
     0
1002
}
1002
{
1000
OTHER
1070
     0
1002
}
1002
{
1000
REACTOR
1002
}
1001
GENIUS_GENOBJ-N-SDF_13
1002
{
1000
OWNER
1000
GEN
1002
}
1001
GENIUS_GENSCREG_15
1000
PF
1040
1.0
1000
DF
1040
1.0
1000
MIN
1011
0.0
1021
0.0
1031
0.0
1021
0.0
1031
0.0
1000
MAX
1011
523.0353982300885
1021
0.0
1031
0.0
1021
297.0
1031
0.0
1000
FLAGS
1070
     4
  0
ENDSEC
  0
EOF
