ISO-10303-21;
HEADER;
FILE_DESCRIPTION (( 'STEP AP203' ),
    '1' );
FILE_NAME ('C5-F50-25.stp',
    '2022-03-11T15:26:27',
    ( '' ),
    ( '' ),
    'SwSTEP 2.0',
    'SolidWorks 2021',
    '' );
FILE_SCHEMA (( 'CONFIG_CONTROL_DESIGN' ));
ENDSEC;

DATA;
#1 = MANIFOLD_SOLID_BREP ( 'Scale1', #200 ) ;
#2 = CALENDAR_DATE ( 2022, 11, 3 ) ;
#3 = LOCAL_TIME ( 9, 26, 27.00000000000000000, #221 ) ;
#4 = ADVANCED_FACE ( 'NONE', ( #140 ), #119, .T. ) ;
#5 = EDGE_LOOP ( 'NONE', ( #125, #108 ) ) ;
#6 = DATE_TIME_ROLE ( 'classification_date' ) ;
#7 = DIRECTION ( 'NONE',  ( 0.000000000000000000, 0.000000000000000000, 1.000000000000000000 ) ) ;
#8 = ORIENTED_EDGE ( 'NONE', *, *, #130, .T. ) ;
#9 = VERTEX_POINT ( 'NONE', #210 ) ;
#10 = ORIENTED_EDGE ( 'NONE', *, *, #192, .T. ) ;
#11 = AXIS2_PLACEMENT_3D ( 'NONE', #12, #78, #204 ) ;
#12 = CARTESIAN_POINT ( 'NONE',  ( -29.99999996940000102, 0.000000000000000000, 0.000000000000000000 ) ) ;
#13 = EDGE_CURVE ( 'NONE', #244, #40, #102, .T. ) ;
#14 = CARTESIAN_POINT ( 'NONE',  ( 24.99999997449999967, 3.061616994745535943E-15, -24.99999997449999967 ) ) ;
#15 = CARTESIAN_POINT ( 'NONE',  ( -29.99999996940000102, 3.061616994745535943E-15, -24.99999997449999967 ) ) ;
#16 = AXIS2_PLACEMENT_3D ( 'NONE', #67, #49, #34 ) ;
#17 = FACE_OUTER_BOUND ( 'NONE', #144, .T. ) ;
#18 =( NAMED_UNIT ( * ) SI_UNIT ( $, .STERADIAN. ) SOLID_ANGLE_UNIT ( ) );
#19 = AXIS2_PLACEMENT_3D ( 'NONE', #191, #217, #151 ) ;
#20 = APPROVAL_ROLE ( '' ) ;
#21 = AXIS2_PLACEMENT_3D ( 'NONE', #81, #207, #183 ) ;
#22 = ORIENTED_EDGE ( 'NONE', *, *, #192, .F. ) ;
#23 = PERSON_AND_ORGANIZATION ( #245, #248 ) ;
#24 = DIRECTION ( 'NONE',  ( -1.000000000000000000, 0.000000000000000000, 0.000000000000000000 ) ) ;
#25 = MECHANICAL_CONTEXT ( 'NONE', #72, 'mechanical' ) ;
#26 = FACE_OUTER_BOUND ( 'NONE', #5, .T. ) ;
#27 = DATE_AND_TIME ( #79, #3 ) ;
#28 = EDGE_LOOP ( 'NONE', ( #231, #186 ) ) ;
#29 = ORIENTED_EDGE ( 'NONE', *, *, #130, .F. ) ;
#30 = CARTESIAN_POINT ( 'NONE',  ( 0.000000000000000000, 0.000000000000000000, 0.000000000000000000 ) ) ;
#31 = ADVANCED_FACE ( 'NONE', ( #225 ), #166, .T. ) ;
#32 = LINE ( 'NONE', #46, #52 ) ;
#33 = DIRECTION ( 'NONE',  ( -1.000000000000000000, 0.000000000000000000, 0.000000000000000000 ) ) ;
#34 = DIRECTION ( 'NONE',  ( 0.000000000000000000, 0.000000000000000000, -1.000000000000000000 ) ) ;
#35 = CC_DESIGN_APPROVAL ( #187, ( #146 ) ) ;
#36 = CIRCLE ( 'NONE', #206, 16.45500658257258664 ) ;
#37 = DIRECTION ( 'NONE',  ( 1.000000000000000000, 0.000000000000000000, 0.000000000000000000 ) ) ;
#38 = DATE_AND_TIME ( #239, #236 ) ;
#39 = VERTEX_POINT ( 'NONE', #165 ) ;
#40 = VERTEX_POINT ( 'NONE', #247 ) ;
#41 = AXIS2_PLACEMENT_3D ( 'NONE', #129, #111, #132 ) ;
#42 = LOCAL_TIME ( 9, 26, 27.00000000000000000, #57 ) ;
#43 = ORIENTED_EDGE ( 'NONE', *, *, #167, .T. ) ;
#44 = EDGE_CURVE ( 'NONE', #40, #82, #98, .T. ) ;
#45 = FACE_OUTER_BOUND ( 'NONE', #241, .T. ) ;
#46 = CARTESIAN_POINT ( 'NONE',  ( 0.000000000000000000, 2.015157114129614578E-15, 16.45500658257258664 ) ) ;
#47 = CARTESIAN_POINT ( 'NONE',  ( 0.000000000000000000, 0.000000000000000000, -16.45500658257258664 ) ) ;
#48 = CC_DESIGN_APPROVAL ( #162, ( #123 ) ) ;
#49 = DIRECTION ( 'NONE',  ( 1.000000000000000000, 0.000000000000000000, 0.000000000000000000 ) ) ;
#50 = DIRECTION ( 'NONE',  ( 0.9996875914402667540, 3.060929943787468651E-18, 0.02499438977767799372 ) ) ;
#51 = DIRECTION ( 'NONE',  ( 0.000000000000000000, 0.000000000000000000, 1.000000000000000000 ) ) ;
#52 = VECTOR ( 'NONE', #50, 999.9999999999998863 ) ;
#53 = PRODUCT_RELATED_PRODUCT_CATEGORY ( 'detail', '', ( #177 ) ) ;
#54 = PERSON_AND_ORGANIZATION ( #245, #248 ) ;
#55 = ADVANCED_FACE ( 'NONE', ( #45 ), #211, .T. ) ;
#56 = AXIS2_PLACEMENT_3D ( 'NONE', #128, #69, #252 ) ;
#57 = COORDINATED_UNIVERSAL_TIME_OFFSET ( 6, 0, .BEHIND. ) ;
#58 = SHAPE_DEFINITION_REPRESENTATION ( #133, #208 ) ;
#59 = ORIENTED_EDGE ( 'NONE', *, *, #175, .T. ) ;
#60 = CIRCLE ( 'NONE', #19, 24.99999997449999967 ) ;
#61 = ORIENTED_EDGE ( 'NONE', *, *, #83, .F. ) ;
#62 = EDGE_LOOP ( 'NONE', ( #29, #106, #84, #227 ) ) ;
#63 = ORIENTED_EDGE ( 'NONE', *, *, #218, .T. ) ;
#64 = VECTOR ( 'NONE', #232, 999.9999999999998863 ) ;
#65 = CC_DESIGN_APPROVAL ( #184, ( #198 ) ) ;
#66 = CARTESIAN_POINT ( 'NONE',  ( 0.000000000000000000, 0.000000000000000000, 0.000000000000000000 ) ) ;
#67 = CARTESIAN_POINT ( 'NONE',  ( 0.000000000000000000, 0.000000000000000000, 0.000000000000000000 ) ) ;
#68 = DIRECTION ( 'NONE',  ( 1.000000000000000000, 0.000000000000000000, 0.000000000000000000 ) ) ;
#69 = DIRECTION ( 'NONE',  ( -1.000000000000000000, 0.000000000000000000, 0.000000000000000000 ) ) ;
#70 = DIRECTION ( 'NONE',  ( 0.000000000000000000, 1.000000000000000000, 0.000000000000000000 ) ) ;
#71 = CC_DESIGN_DATE_AND_TIME_ASSIGNMENT ( #27, #6, ( #123 ) ) ;
#72 = APPLICATION_CONTEXT ( 'configuration controlled 3d designs of mechanical parts and assemblies' ) ;
#73 = VERTEX_POINT ( 'NONE', #85 ) ;
#74 = CIRCLE ( 'NONE', #228, 16.45500658257258664 ) ;
#75 = CALENDAR_DATE ( 2022, 11, 3 ) ;
#76 = DATE_TIME_ROLE ( 'creation_date' ) ;
#77 = PERSON_AND_ORGANIZATION_ROLE ( 'design_supplier' ) ;
#78 = DIRECTION ( 'NONE',  ( -1.000000000000000000, 0.000000000000000000, 0.000000000000000000 ) ) ;
#79 = CALENDAR_DATE ( 2022, 11, 3 ) ;
#80 = CC_DESIGN_SECURITY_CLASSIFICATION ( #123, ( #146 ) ) ;
#81 = CARTESIAN_POINT ( 'NONE',  ( -29.99999996940000102, 0.000000000000000000, 0.000000000000000000 ) ) ;
#82 = VERTEX_POINT ( 'NONE', #138 ) ;
#83 = EDGE_CURVE ( 'NONE', #9, #73, #171, .T. ) ;
#84 = ORIENTED_EDGE ( 'NONE', *, *, #253, .T. ) ;
#85 = CARTESIAN_POINT ( 'NONE',  ( -29.99999996940000102, 1.969228816626358703E-15, 15.70494056296217700 ) ) ;
#86 = CARTESIAN_POINT ( 'NONE',  ( 24.99999997449999967, 0.000000000000000000, 0.000000000000000000 ) ) ;
#87 = APPLICATION_PROTOCOL_DEFINITION ( 'international standard', 'config_control_design', 1994, #72 ) ;
#88 = VECTOR ( 'NONE', #33, 1000.000000000000000 ) ;
#89 = DIRECTION ( 'NONE',  ( 0.000000000000000000, 1.000000000000000000, 0.000000000000000000 ) ) ;
#90 = ADVANCED_FACE ( 'NONE', ( #26 ), #104, .F. ) ;
#91 = CARTESIAN_POINT ( 'NONE',  ( -29.99999996940000102, 0.000000000000000000, 0.000000000000000000 ) ) ;
#92 = ADVANCED_FACE ( 'NONE', ( #233 ), #149, .F. ) ;
#93 = CARTESIAN_POINT ( 'NONE',  ( 0.000000000000000000, 0.000000000000000000, 0.000000000000000000 ) ) ;
#94 = DESIGN_CONTEXT ( 'detailed design', #143, 'design' ) ;
#95 = CONICAL_SURFACE ( 'NONE', #16, 16.45500658257258664, 0.02499699292341668252 ) ;
#96 =( GEOMETRIC_REPRESENTATION_CONTEXT ( 3 ) GLOBAL_UNCERTAINTY_ASSIGNED_CONTEXT ( ( #197 ) ) GLOBAL_UNIT_ASSIGNED_CONTEXT ( ( #170, #250, #18 ) ) REPRESENTATION_CONTEXT ( 'NONE', 'WORKASPACE' ) );
#97 = APPROVAL_DATE_TIME ( #38, #184 ) ;
#98 = CIRCLE ( 'NONE', #222, 24.99999997449999967 ) ;
#99 = CC_DESIGN_PERSON_AND_ORGANIZATION_ASSIGNMENT ( #205, #115, ( #123 ) ) ;
#100 = ADVANCED_FACE ( 'NONE', ( #17 ), #95, .T. ) ;
#101 = PERSON_AND_ORGANIZATION ( #245, #248 ) ;
#102 = LINE ( 'NONE', #223, #126 ) ;
#103 = PERSON_AND_ORGANIZATION ( #245, #248 ) ;
#104 = PLANE ( 'NONE',  #153 ) ;
#105 = APPROVAL_PERSON_ORGANIZATION ( #103, #187, #20 ) ;
#106 = ORIENTED_EDGE ( 'NONE', *, *, #148, .T. ) ;
#107 = DIRECTION ( 'NONE',  ( 0.000000000000000000, 0.000000000000000000, -1.000000000000000000 ) ) ;
#108 = ORIENTED_EDGE ( 'NONE', *, *, #136, .F. ) ;
#109 = CARTESIAN_POINT ( 'NONE',  ( 0.000000000000000000, 0.000000000000000000, 0.000000000000000000 ) ) ;
#110 = PLANE ( 'NONE',  #122 ) ;
#111 = DIRECTION ( 'NONE',  ( -1.000000000000000000, 0.000000000000000000, 0.000000000000000000 ) ) ;
#112 = AXIS2_PLACEMENT_3D ( 'NONE', #30, #37, #107 ) ;
#113 = CARTESIAN_POINT ( 'NONE',  ( 0.000000000000000000, 0.000000000000000000, -16.45500658257258664 ) ) ;
#114 = AXIS2_PLACEMENT_3D ( 'NONE', #224, #203, #174 ) ;
#115 = PERSON_AND_ORGANIZATION_ROLE ( 'classification_officer' ) ;
#116 = CC_DESIGN_DATE_AND_TIME_ASSIGNMENT ( #237, #76, ( #198 ) ) ;
#117 = ORIENTED_EDGE ( 'NONE', *, *, #155, .T. ) ;
#118 = COORDINATED_UNIVERSAL_TIME_OFFSET ( 6, 0, .BEHIND. ) ;
#119 = CYLINDRICAL_SURFACE ( 'NONE', #21, 24.99999997449999967 ) ;
#120 = APPROVAL_DATE_TIME ( #201, #187 ) ;
#121 = ORIENTED_EDGE ( 'NONE', *, *, #218, .F. ) ;
#122 = AXIS2_PLACEMENT_3D ( 'NONE', #216, #68, #70 ) ;
#123 = SECURITY_CLASSIFICATION ( '', '', #226 ) ;
#124 = ORIENTED_EDGE ( 'NONE', *, *, #44, .F. ) ;
#125 = ORIENTED_EDGE ( 'NONE', *, *, #167, .F. ) ;
#126 = VECTOR ( 'NONE', #164, 1000.000000000000000 ) ;
#127 = APPROVAL_PERSON_ORGANIZATION ( #54, #162, #242 ) ;
#128 = CARTESIAN_POINT ( 'NONE',  ( 24.99999997449999967, 0.000000000000000000, 0.000000000000000000 ) ) ;
#129 = CARTESIAN_POINT ( 'NONE',  ( 0.000000000000000000, 0.000000000000000000, 0.000000000000000000 ) ) ;
#130 = EDGE_CURVE ( 'NONE', #73, #9, #213, .T. ) ;
#131 = LINE ( 'NONE', #47, #64 ) ;
#132 = DIRECTION ( 'NONE',  ( 0.000000000000000000, 0.000000000000000000, 1.000000000000000000 ) ) ;
#133 = PRODUCT_DEFINITION_SHAPE ( 'NONE', 'NONE',  #198 ) ;
#134 = COORDINATED_UNIVERSAL_TIME_OFFSET ( 6, 0, .BEHIND. ) ;
#135 = PERSON_AND_ORGANIZATION_ROLE ( 'creator' ) ;
#136 = EDGE_CURVE ( 'NONE', #246, #244, #181, .T. ) ;
#137 = ORIENTED_EDGE ( 'NONE', *, *, #13, .F. ) ;
#138 = CARTESIAN_POINT ( 'NONE',  ( 0.000000000000000000, 3.061616994745535943E-15, -24.99999997449999967 ) ) ;
#139 = PERSON_AND_ORGANIZATION_ROLE ( 'creator' ) ;
#140 = FACE_OUTER_BOUND ( 'NONE', #159, .T. ) ;
#141 = PERSON_AND_ORGANIZATION_ROLE ( 'design_owner' ) ;
#142 = ORIENTED_EDGE ( 'NONE', *, *, #136, .T. ) ;
#143 = APPLICATION_CONTEXT ( 'configuration controlled 3d designs of mechanical parts and assemblies' ) ;
#144 = EDGE_LOOP ( 'NONE', ( #188, #61, #117, #59 ) ) ;
#145 = AXIS2_PLACEMENT_3D ( 'NONE', #169, #193, #89 ) ;
#146 = PRODUCT_DEFINITION_FORMATION_WITH_SPECIFIED_SOURCE ( 'ANY', '', #177, .NOT_KNOWN. ) ;
#147 = DIRECTION ( 'NONE',  ( 0.000000000000000000, 0.000000000000000000, 1.000000000000000000 ) ) ;
#148 = EDGE_CURVE ( 'NONE', #73, #39, #32, .T. ) ;
#149 = PLANE ( 'NONE',  #145 ) ;
#150 = FACE_BOUND ( 'NONE', #28, .T. ) ;
#151 = DIRECTION ( 'NONE',  ( 0.000000000000000000, 0.000000000000000000, 1.000000000000000000 ) ) ;
#152 = DIRECTION ( 'NONE',  ( -1.000000000000000000, 0.000000000000000000, 0.000000000000000000 ) ) ;
#153 = AXIS2_PLACEMENT_3D ( 'NONE', #86, #152, #212 ) ;
#154 = PERSON_AND_ORGANIZATION ( #245, #248 ) ;
#155 = EDGE_CURVE ( 'NONE', #9, #168, #131, .T. ) ;
#156 = CIRCLE ( 'NONE', #41, 24.99999997449999967 ) ;
#157 = PERSON_AND_ORGANIZATION ( #245, #248 ) ;
#158 = COORDINATED_UNIVERSAL_TIME_OFFSET ( 6, 0, .BEHIND. ) ;
#159 = EDGE_LOOP ( 'NONE', ( #22, #142, #161, #121 ) ) ;
#160 = APPROVAL_DATE_TIME ( #238, #162 ) ;
#161 = ORIENTED_EDGE ( 'NONE', *, *, #13, .T. ) ;
#162 = APPROVAL ( #255, 'UNSPECIFIED' ) ;
#163 = EDGE_LOOP ( 'NONE', ( #189, #8 ) ) ;
#164 = DIRECTION ( 'NONE',  ( -1.000000000000000000, 0.000000000000000000, 0.000000000000000000 ) ) ;
#165 = CARTESIAN_POINT ( 'NONE',  ( 0.000000000000000000, 2.015157114129614578E-15, 16.45500658257258664 ) ) ;
#166 = CONICAL_SURFACE ( 'NONE', #112, 16.45500658257258664, 0.02499699292341668252 ) ;
#167 = EDGE_CURVE ( 'NONE', #244, #246, #60, .T. ) ;
#168 = VERTEX_POINT ( 'NONE', #113 ) ;
#169 = CARTESIAN_POINT ( 'NONE',  ( -29.99999996940000102, 15.70494056296217700, 0.000000000000000000 ) ) ;
#170 =( LENGTH_UNIT ( ) NAMED_UNIT ( * ) SI_UNIT ( .MILLI., .METRE. ) );
#171 = CIRCLE ( 'NONE', #194, 15.70494056296217700 ) ;
#172 = FACE_OUTER_BOUND ( 'NONE', #229, .T. ) ;
#173 = DIRECTION ( 'NONE',  ( 0.000000000000000000, 0.000000000000000000, 1.000000000000000000 ) ) ;
#174 = DIRECTION ( 'NONE',  ( 1.000000000000000000, 0.000000000000000000, 0.000000000000000000 ) ) ;
#175 = EDGE_CURVE ( 'NONE', #168, #39, #36, .T. ) ;
#176 = AXIS2_PLACEMENT_3D ( 'NONE', #91, #251, #51 ) ;
#177 = PRODUCT ( 'C5-F50-25', 'C5-F50-25', '', ( #25 ) ) ;
#178 = ORIENTED_EDGE ( 'NONE', *, *, #44, .T. ) ;
#179 = CC_DESIGN_PERSON_AND_ORGANIZATION_ASSIGNMENT ( #101, #77, ( #146 ) ) ;
#180 = APPROVAL_STATUS ( 'not_yet_approved' ) ;
#181 = CIRCLE ( 'NONE', #56, 24.99999997449999967 ) ;
#182 = PERSON_AND_ORGANIZATION ( #245, #248 ) ;
#183 = DIRECTION ( 'NONE',  ( 0.000000000000000000, 0.000000000000000000, 1.000000000000000000 ) ) ;
#184 = APPROVAL ( #199, 'UNSPECIFIED' ) ;
#185 = DIRECTION ( 'NONE',  ( -1.000000000000000000, 0.000000000000000000, 0.000000000000000000 ) ) ;
#186 = ORIENTED_EDGE ( 'NONE', *, *, #253, .F. ) ;
#187 = APPROVAL ( #180, 'UNSPECIFIED' ) ;
#188 = ORIENTED_EDGE ( 'NONE', *, *, #148, .F. ) ;
#189 = ORIENTED_EDGE ( 'NONE', *, *, #83, .T. ) ;
#190 = DIRECTION ( 'NONE',  ( -1.000000000000000000, 0.000000000000000000, 0.000000000000000000 ) ) ;
#191 = CARTESIAN_POINT ( 'NONE',  ( 24.99999997449999967, 0.000000000000000000, 0.000000000000000000 ) ) ;
#192 = EDGE_CURVE ( 'NONE', #246, #82, #196, .T. ) ;
#193 = DIRECTION ( 'NONE',  ( 1.000000000000000000, 0.000000000000000000, 0.000000000000000000 ) ) ;
#194 = AXIS2_PLACEMENT_3D ( 'NONE', #202, #24, #7 ) ;
#195 = DIRECTION ( 'NONE',  ( -1.000000000000000000, 0.000000000000000000, 0.000000000000000000 ) ) ;
#196 = LINE ( 'NONE', #15, #88 ) ;
#197 = UNCERTAINTY_MEASURE_WITH_UNIT (LENGTH_MEASURE( 1.000000000000000082E-05 ), #170, 'distance_accuracy_value', 'NONE');
#198 = PRODUCT_DEFINITION ( 'UNKNOWN', '', #146, #94 ) ;
#199 = APPROVAL_STATUS ( 'not_yet_approved' ) ;
#200 = CLOSED_SHELL ( 'NONE', ( #92, #100, #209, #4, #90, #55, #31 ) ) ;
#201 = DATE_AND_TIME ( #2, #230 ) ;
#202 = CARTESIAN_POINT ( 'NONE',  ( -29.99999996940000102, 0.000000000000000000, 0.000000000000000000 ) ) ;
#203 = DIRECTION ( 'NONE',  ( 0.000000000000000000, 0.000000000000000000, 1.000000000000000000 ) ) ;
#204 = DIRECTION ( 'NONE',  ( 0.000000000000000000, 0.000000000000000000, 1.000000000000000000 ) ) ;
#205 = PERSON_AND_ORGANIZATION ( #245, #248 ) ;
#206 = AXIS2_PLACEMENT_3D ( 'NONE', #109, #190, #173 ) ;
#207 = DIRECTION ( 'NONE',  ( -1.000000000000000000, 0.000000000000000000, 0.000000000000000000 ) ) ;
#208 = ADVANCED_BREP_SHAPE_REPRESENTATION ( 'C5-F50-25', ( #1, #114 ), #96 ) ;
#209 = ADVANCED_FACE ( 'NONE', ( #150, #172 ), #110, .F. ) ;
#210 = CARTESIAN_POINT ( 'NONE',  ( -29.99999996940000102, 0.000000000000000000, -15.70494056296217700 ) ) ;
#211 = CYLINDRICAL_SURFACE ( 'NONE', #11, 24.99999997449999967 ) ;
#212 = DIRECTION ( 'NONE',  ( 0.000000000000000000, 0.000000000000000000, 1.000000000000000000 ) ) ;
#213 = CIRCLE ( 'NONE', #176, 15.70494056296217700 ) ;
#214 = LOCAL_TIME ( 9, 26, 27.00000000000000000, #134 ) ;
#215 = CC_DESIGN_PERSON_AND_ORGANIZATION_ASSIGNMENT ( #182, #139, ( #198 ) ) ;
#216 = CARTESIAN_POINT ( 'NONE',  ( 0.000000000000000000, 24.99999997449999967, 0.000000000000000000 ) ) ;
#217 = DIRECTION ( 'NONE',  ( -1.000000000000000000, 0.000000000000000000, 0.000000000000000000 ) ) ;
#218 = EDGE_CURVE ( 'NONE', #82, #40, #156, .T. ) ;
#219 = APPROVAL_ROLE ( '' ) ;
#220 = CALENDAR_DATE ( 2022, 11, 3 ) ;
#221 = COORDINATED_UNIVERSAL_TIME_OFFSET ( 6, 0, .BEHIND. ) ;
#222 = AXIS2_PLACEMENT_3D ( 'NONE', #66, #185, #147 ) ;
#223 = CARTESIAN_POINT ( 'NONE',  ( -29.99999996940000102, 0.000000000000000000, 24.99999997449999967 ) ) ;
#224 = CARTESIAN_POINT ( 'NONE',  ( 0.000000000000000000, 0.000000000000000000, 0.000000000000000000 ) ) ;
#225 = FACE_OUTER_BOUND ( 'NONE', #62, .T. ) ;
#226 = SECURITY_CLASSIFICATION_LEVEL ( 'unclassified' ) ;
#227 = ORIENTED_EDGE ( 'NONE', *, *, #155, .F. ) ;
#228 = AXIS2_PLACEMENT_3D ( 'NONE', #93, #195, #249 ) ;
#229 = EDGE_LOOP ( 'NONE', ( #178, #63 ) ) ;
#230 = LOCAL_TIME ( 9, 26, 27.00000000000000000, #118 ) ;
#231 = ORIENTED_EDGE ( 'NONE', *, *, #175, .F. ) ;
#232 = DIRECTION ( 'NONE',  ( 0.9996875914402667540, 0.000000000000000000, -0.02499438977767799372 ) ) ;
#233 = FACE_OUTER_BOUND ( 'NONE', #163, .T. ) ;
#234 = CC_DESIGN_PERSON_AND_ORGANIZATION_ASSIGNMENT ( #157, #141, ( #177 ) ) ;
#235 = APPLICATION_PROTOCOL_DEFINITION ( 'international standard', 'config_control_design', 1994, #143 ) ;
#236 = LOCAL_TIME ( 9, 26, 27.00000000000000000, #158 ) ;
#237 = DATE_AND_TIME ( #220, #42 ) ;
#238 = DATE_AND_TIME ( #75, #214 ) ;
#239 = CALENDAR_DATE ( 2022, 11, 3 ) ;
#240 = APPROVAL_PERSON_ORGANIZATION ( #23, #184, #219 ) ;
#241 = EDGE_LOOP ( 'NONE', ( #43, #10, #124, #137 ) ) ;
#242 = APPROVAL_ROLE ( '' ) ;
#243 = CC_DESIGN_PERSON_AND_ORGANIZATION_ASSIGNMENT ( #154, #135, ( #146 ) ) ;
#244 = VERTEX_POINT ( 'NONE', #254 ) ;
#245 = PERSON ( 'UNSPECIFIED', 'UNSPECIFIED', 'UNSPECIFIED', ('UNSPECIFIED'), ('UNSPECIFIED'), ('UNSPECIFIED') ) ;
#246 = VERTEX_POINT ( 'NONE', #14 ) ;
#247 = CARTESIAN_POINT ( 'NONE',  ( 0.000000000000000000, 0.000000000000000000, 24.99999997449999967 ) ) ;
#248 = ORGANIZATION ( 'UNSPECIFIED', 'UNSPECIFIED', '' ) ;
#249 = DIRECTION ( 'NONE',  ( 0.000000000000000000, 0.000000000000000000, 1.000000000000000000 ) ) ;
#250 =( NAMED_UNIT ( * ) PLANE_ANGLE_UNIT ( ) SI_UNIT ( $, .RADIAN. ) );
#251 = DIRECTION ( 'NONE',  ( -1.000000000000000000, 0.000000000000000000, 0.000000000000000000 ) ) ;
#252 = DIRECTION ( 'NONE',  ( 0.000000000000000000, 0.000000000000000000, 1.000000000000000000 ) ) ;
#253 = EDGE_CURVE ( 'NONE', #39, #168, #74, .T. ) ;
#254 = CARTESIAN_POINT ( 'NONE',  ( 24.99999997449999967, 0.000000000000000000, 24.99999997449999967 ) ) ;
#255 = APPROVAL_STATUS ( 'not_yet_approved' ) ;
ENDSEC;
END-ISO-10303-21;
