  0
SECTION
  2
HEADER
  9
$ACADVER
  1
AC1009
  9
$INSBASE
 10
0.0
 20
0.0
 30
0.0
  9
$EXTMIN
 10
-102.7999999999999
 20
-50.0
 30
0.0
  9
$EXTMAX
 10
141.0
 20
89.0
 30
0.0
  9
$LIMMIN
 10
0.0
 20
0.0
  9
$LIMMAX
 10
297.0
 20
210.0
  9
$ORTHOMODE
 70
     0
  9
$REGENMODE
 70
     1
  9
$FILLMODE
 70
     1
  9
$QTEXTMODE
 70
     0
  9
$MIRRTEXT
 70
     1
  9
$DRAGMODE
 70
     2
  9
$LTSCALE
 40
10.0
  9
$OSMODE
 70
    35
  9
$ATTMODE
 70
     1
  9
$TEXTSIZE
 40
3.0
  9
$TRACEWID
 40
1.0
  9
$TEXTSTYLE
  7
YOKO
  9
$CLAYER
  8
240
  9
$CELTYPE
  6
BYLAYER
  9
$CECOLOR
 62
   256
  9
$DIMSCALE
 40
1.0
  9
$DIMASZ
 40
2.2299999999999991
  9
$DIMEXO
 40
0.5
  9
$DIMDLI
 40
7.0
  9
$DIMRND
 40
0.0
  9
$DIMDLE
 40
0.0
  9
$DIMEXE
 40
1.0
  9
$DIMTP
 40
0.0
  9
$DIMTM
 40
0.01
  9
$DIMTXT
 40
2.799999999999998
  9
$DIMCEN
 40
0.0
  9
$DIMTSZ
 40
0.0
  9
$DIMTOL
 70
     0
  9
$DIMLIM
 70
     0
  9
$DIMTIH
 70
     0
  9
$DIMTOH
 70
     0
  9
$DIMSE1
 70
     0
  9
$DIMSE2
 70
     0
  9
$DIMTAD
 70
     3
  9
$DIMZIN
 70
     9
  9
$DIMBLK
  1
OPEN
  9
$DIMASO
 70
     1
  9
$DIMSHO
 70
     1
  9
$DIMPOST
  1

  9
$DIMAPOST
  1

  9
$DIMALT
 70
     0
  9
$DIMALTD
 70
     2
  9
$DIMALTF
 40
25.399999999999999
  9
$DIMLFAC
 40
1.0
  9
$DIMTOFL
 70
     1
  9
$DIMTVP
 40
0.0
  9
$DIMTIX
 70
     1
  9
$DIMSOXD
 70
     0
  9
$DIMSAH
 70
     0
  9
$DIMBLK1
  1

  9
$DIMBLK2
  1

  9
$DIMSTYLE
  2
BIGT
  9
$DIMCLRD
 70
   256
  9
$DIMCLRE
 70
   256
  9
$DIMCLRT
 70
    40
  9
$DIMTFAC
 40
1.0
  9
$DIMGAP
 40
1.0
  9
$LUNITS
 70
     2
  9
$LUPREC
 70
     6
  9
$SKETCHINC
 40
1.0
  9
$FILLETRAD
 40
0.0
  9
$AUNITS
 70
     0
  9
$AUPREC
 70
     6
  9
$MENU
  1
.
  9
$ELEVATION
 40
0.0
  9
$PELEVATION
 40
0.0
  9
$THICKNESS
 40
0.0
  9
$LIMCHECK
 70
     0
  9
$BLIPMODE
 70
     0
  9
$CHAMFERA
 40
0.2
  9
$CHAMFERB
 40
0.2
  9
$SKPOLY
 70
     0
  9
$TDCREATE
 40
2457759.6746194679
  9
$TDUPDATE
 40
2457760.7055780091
  9
$TDINDWG
 40
0.0754631597
  9
$TDUSRTIMER
 40
0.0754630671
  9
$USRTIMER
 70
     1
  9
$ANGBASE
 50
0.0
  9
$ANGDIR
 70
     0
  9
$PDMODE
 70
     1
  9
$PDSIZE
 40
0.0
  9
$PLINEWID
 40
0.0
  9
$COORDS
 70
     1
  9
$SPLFRAME
 70
     0
  9
$SPLINETYPE
 70
     6
  9
$SPLINESEGS
 70
     4
  9
$ATTDIA
 70
     1
  9
$ATTREQ
 70
     1
  9
$HANDLING
 70
     1
  9
$HANDSEED
  5
4D87
  9
$SURFTAB1
 70
     6
  9
$SURFTAB2
 70
     6
  9
$SURFTYPE
 70
     6
  9
$SURFU
 70
     6
  9
$SURFV
 70
     6
  9
$UCSNAME
  2

  9
$UCSORG
 10
0.0
 20
0.0
 30
0.0
  9
$UCSXDIR
 10
1.0
 20
0.0
 30
0.0
  9
$UCSYDIR
 10
0.0
 20
1.0
 30
0.0
  9
$PUCSNAME
  2

  9
$PUCSORG
 10
0.0
 20
0.0
 30
0.0
  9
$PUCSXDIR
 10
1.0
 20
0.0
 30
0.0
  9
$PUCSYDIR
 10
0.0
 20
1.0
 30
0.0
  9
$USERI1
 70
     1
  9
$USERI2
 70
     0
  9
$USERI3
 70
     0
  9
$USERI4
 70
     0
  9
$USERI5
 70
     0
  9
$USERR1
 40
0.0
  9
$USERR2
 40
0.0
  9
$USERR3
 40
0.0
  9
$USERR4
 40
0.0
  9
$USERR5
 40
0.0
  9
$WORLDVIEW
 70
     1
  9
$SHADEDGE
 70
     3
  9
$SHADEDIF
 70
    70
  9
$TILEMODE
 70
     1
  9
$MAXACTVP
 70
    16
  9
$PLIMCHECK
 70
     0
  9
$PEXTMIN
 10
1.0000000000000000E+020
 20
1.0000000000000000E+020
 30
1.0000000000000000E+020
  9
$PEXTMAX
 10
-1.0000000000000000E+020
 20
-1.0000000000000000E+020
 30
-1.0000000000000000E+020
  9
$PLIMMIN
 10
0.0
 20
0.0
  9
$PLIMMAX
 10
420.0
 20
297.0
  9
$UNITMODE
 70
     0
  9
$VISRETAIN
 70
     1
  9
$PLINEGEN
 70
     0
  9
$PSLTSCALE
 70
     1
  0
ENDSEC
  0
SECTION
  2
TABLES
  0
TABLE
  2
VPORT
 70
     1
  0
VPORT
  2
*ACTIVE
 70
     0
 10
0.0
 20
0.0
 11
1.0
 21
1.0
 12
-13.253614468915879
 22
42.826653057049022
 13
0.0
 23
0.0
 14
7.0
 24
7.0
 15
7.0
 25
7.0
 16
0.0
 26
0.0
 36
1.0
 17
0.0
 27
0.0
 37
0.0
 40
262.72157120589981
 41
1.499452354874041
 42
50.0
 43
0.0
 44
0.0
 50
0.0
 51
0.0
 71
     0
 72
  2000
 73
     1
 74
     0
 75
     0
 76
     1
 77
     0
 78
     0
  0
ENDTAB
  0
TABLE
  2
LTYPE
 70
    21
  0
LTYPE
  2
CONTINUOUS
 70
     0
  3
Solid line
 72
    65
 73
     0
 40
0.0
  0
LTYPE
  2
CENTER2
 70
     0
  3
___ _ ___ _ ___ _ ___ _ ___ _ ___ _ ___ _ ___ _
 72
    65
 73
     4
 40
1.125
 49
0.75
 49
-0.125
 49
0.125
 49
-0.125
  0
LTYPE
  2
HIDDEN2
 70
     0
  3
_ _ _ _ _ _ _ _ _ _ _ _ _ _ _ _ _ _ _ _ _ _ _ _
 72
    65
 73
     2
 40
0.1875
 49
0.125
 49
-0.0625
  0
LTYPE
  2
PHANTOM2
 70
     0
  3
___ _ _ ___ _ _ ___ _ _ ___ _ _ ___ _ _ ___ _ _
 72
    65
 73
     6
 40
1.25
 49
0.625
 49
-0.125
 49
0.125
 49
-0.125
 49
0.125
 49
-0.125
  0
LTYPE
  2
AMCONSTR
 70
     0
  3
_______________________
 72
    65
 73
     2
 40
9999.0
 49
9999.0
 49
0.0
  0
LTYPE
  2
HIDDEN
 70
     0
  3
Hidden __ __ __ __ __ __ __ __ __ __ __ __ __ _
 72
    65
 73
     2
 40
0.375
 49
0.25
 49
-0.125
  0
LTYPE
  2
CENTER
 70
     0
  3
Center ____ _ ____ _ ____ _ ____ _ ____ _ ____
 72
    65
 73
     4
 40
2.0
 49
1.25
 49
-0.25
 49
0.25
 49
-0.25
  0
LTYPE
  2
AMZIGZAG2
 70
     0
  3
/\/-/\/-/\/-/\/-/\/-/\/
 72
    65
 73
     2
 40
0.4401
 49
0.0001
 49
-0.4400000000000001
  0
LTYPE
  2
ACANSTGB
 70
     0
  3
__ . . __ . .
 72
    65
 73
     6
 40
0.35433070866
 49
0.15748031496
 49
-0.03937007874
 49
0.03937007874
 49
-0.03937007874
 49
0.03937007874
 49
-0.03937007874
  0
LTYPE
  2
ACANSTGL
 70
     0
  3
_ _ _ _ _
 72
    65
 73
     2
 40
0.11811023622
 49
0.07874015748
 49
-0.03937007874
  0
ENDTAB
  0
TABLE
  2
LAYER
 70
     9
  0
LAYER
  2
0
 70
     0
 62
     7
  6
CONTINUOUS
  0
LAYER
  2
240
 70
     0
 62
     4
  6
CONTINUOUS
  0
LAYER
  2
DEFPOINTS
 70
     0
 62
     7
  6
CONTINUOUS
  0
LAYER
  2
245
 70
     0
 62
     2
  6
CENTER2
  0
LAYER
  2
241
 70
     0
 62
   211
  6
CONTINUOUS
  0
LAYER
  2
242
 70
     0
 62
     3
  6
CONTINUOUS
  0
LAYER
  2
243
 70
     0
 62
   211
  6
HIDDEN2
  0
LAYER
  2
247
 70
     0
 62
    60
  6
CONTINUOUS
  0
LAYER
  2
250
 70
     0
 62
     3
  6
CONTINUOUS
  0
ENDTAB
  0
TABLE
  2
STYLE
 70
    10
  0
STYLE
  2
STANDARD
 70
     0
 40
0.0
 41
1.0
 50
0.0
 71
     0
 42
3.0
  3
romans.shx
  4
extfont.shx
  0
STYLE
  2
YOKO
 70
     0
 40
0.0
 41
1.0
 50
0.0
 71
     0
 42
3.0
  3
romans.shx
  4
extfont.shx
  0
STYLE
  2

 70
     1
 40
0.0
 41
1.0
 50
0.0
 71
     0
 42
3.0
  3
genltshp.shx
  4

  0
STYLE
  2
ACANSGDT
 70
     0
 40
0.0
 41
1.0
 50
0.0
 71
     0
 42
3.0
  3
amgdt.shx
  4

  0
ENDTAB
  0
TABLE
  2
VIEW
 70
     0
  0
ENDTAB
  0
TABLE
  2
UCS
 70
     0
  0
ENDTAB
  0
TABLE
  2
APPID
 70
    39
  0
APPID
  2
ACAD
 70
     0
  0
APPID
  2
ACADANNOTATIVE
 70
     0
  0
APPID
  2
GLOBAL
 70
     0
  0
APPID
  2
DETAIL
 70
     0
  0
APPID
  2
GRPNAME
 70
     0
  0
APPID
  2
GPARA
 70
     0
  0
APPID
  2
MCAD_NO_VIS
 70
     0
  0
APPID
  2
ACAD_TEMP_GRAPHIC
 70
     0
  0
APPID
  2
ACATTRIBSERVICES
 70
     0
  0
APPID
  2
GENIUS_GENSCREG_15
 70
     0
  0
APPID
  2
GENIUS_GENODEF_13
 70
     0
  0
APPID
  2
GENIUS_GENOBJ-N-SDF_13
 70
     0
  0
APPID
  2
GENIUS_GENREC_14
 70
     0
  0
APPID
  2
GENIUS_GENOBJ-N-REC_13
 70
     0
  0
APPID
  2
GENIUS_GENDIMSH_14
 70
     0
  0
APPID
  2
GENIUS_GENOBJ-N-DIM_13
 70
     0
  0
APPID
  2
GENIUS_GENDIM_13
 70
     0
  0
APPID
  2
GENIUS_GENDTOL_13
 70
     0
  0
APPID
  2
GENIUS_GENOLIS_13
 70
     0
  0
APPID
  2
GENIUS_GENOENT_13
 70
     0
  0
APPID
  2
GENIUS_GENOBJ-F-FEM_13
 70
     0
  0
APPID
  2
GENIUS_GENOREF_13
 70
     0
  0
APPID
  2
GENIUS_GEFFEM_13
 70
     0
  0
APPID
  2
GENIUS_GEFFEMP_13
 70
     0
  0
APPID
  2
AD_DRAW
 70
     0
  0
APPID
  2
DESIGNERASSEMBLIES
 70
     0
  0
APPID
  2
ACADM_DIM_EDIT
 70
     0
  0
APPID
  2
AMDT_DM_ADJ
 70
     0
  0
APPID
  2
ITEMNAME
 70
     0
  0
APPID
  2
GENIUS_GENOBJ-N-FIL_13
 70
     0
  0
APPID
  2
GENIUS_GENFIL_13
 70
     0
  0
APPID
  2
GENIUS_GENOBJ-N-CHA_13
 70
     0
  0
APPID
  2
ACAD_NAV_VCDISPLAY
 70
     0
  0
APPID
  2
ACAD_PSEXT
 70
     0
  0
APPID
  2
ACAD_EXEMPT_FROM_CAD_STANDARDS
 70
     0
  0
APPID
  2
ACAECLAYERSTANDARD
 70
     0
  0
APPID
  2
ACAD_DSTYLE_DIMJAG
 70
     0
  0
APPID
  2
ACAD_DSTYLE_DIMBREAK
 70
     0
  0
APPID
  2
ACAD_MLEADERVER
 70
     0
  0
ENDTAB
  0
TABLE
  2
DIMSTYLE
 70
    31
  0
DIMSTYLE
  2
STANDARD
 70
     0
  3

  4

  5

  6

  7

 40
1.0
 41
0.18
 42
0.0625
 43
0.38
 44
0.18
 45
0.0
 46
0.0
 47
0.0
 48
0.0
140
0.18
141
0.09
142
0.0
143
25.399999999999999
144
1.0
145
0.0
146
1.0
147
0.09
 71
     0
 72
     0
 73
     1
 74
     1
 75
     0
 76
     0
 77
     0
 78
     0
170
     0
171
     2
172
     0
173
     0
174
     0
175
     0
176
     0
177
     0
178
     0
  0
DIMSTYLE
  2
BIGT
 70
     0
  3

  4

  5

  6

  7

 40
1.0
 41
2.2299999999999991
 42
0.5
 43
7.0
 44
1.0
 45
0.0
 46
0.0
 47
0.0
 48
0.01
140
2.799999999999998
141
0.0
142
0.0
143
25.399999999999999
144
1.0
145
0.0
146
1.0
147
1.0
 71
     0
 72
     0
 73
     0
 74
     0
 75
     0
 76
     0
 77
     3
 78
     9
170
     0
171
     2
172
     1
173
     0
174
     1
175
     0
176
   256
177
   256
178
    40
  0
DIMSTYLE
  2
AM_ANSI
 70
     0
  3

  4
mm
  5

  6

  7

 40
1.0
 41
0.12
 42
0.05
 43
0.5
 44
0.1
 45
0.0
 46
0.0
 47
0.1
 48
0.1
140
0.12
141
0.0
142
0.0
143
25.399999999999999
144
1.0
145
0.0
146
0.71
147
0.06
 71
     0
 72
     0
 73
     1
 74
     1
 75
     0
 76
     0
 77
     0
 78
     7
170
     0
171
     2
172
     0
173
     0
174
     0
175
     0
176
   256
177
   256
178
     2
  0
DIMSTYLE
  2
AM_ANSI$3
 70
     0
  3

  4
mm
  5

  6

  7

 40
1.0
 41
0.12
 42
0.05
 43
0.5
 44
0.1
 45
0.0
 46
0.0
 47
0.1
 48
0.1
140
0.12
141
0.0
142
0.0
143
25.399999999999999
144
1.0
145
0.0
146
0.71
147
0.06
 71
     0
 72
     0
 73
     1
 74
     1
 75
     0
 76
     0
 77
     0
 78
     7
170
     0
171
     2
172
     0
173
     0
174
     0
175
     0
176
   256
177
   256
178
     2
  0
DIMSTYLE
  2
AM_ANSI$4
 70
     0
  3

  4
mm
  5

  6

  7

 40
1.0
 41
0.12
 42
0.05
 43
0.5
 44
0.1
 45
0.0
 46
0.0
 47
0.1
 48
0.1
140
0.12
141
0.0
142
0.0
143
25.399999999999999
144
1.0
145
0.0
146
0.71
147
0.06
 71
     0
 72
     0
 73
     1
 74
     1
 75
     0
 76
     0
 77
     0
 78
     7
170
     0
171
     2
172
     0
173
     0
174
     0
175
     0
176
   256
177
   256
178
     2
  0
DIMSTYLE
  2
AM_ANSI$7
 70
     0
  3

  4
mm
  5

  6

  7

 40
1.0
 41
0.12
 42
0.05
 43
0.5
 44
0.1
 45
0.0
 46
0.0
 47
0.1
 48
0.1
140
0.12
141
0.0
142
0.0
143
25.399999999999999
144
1.0
145
0.0
146
0.71
147
0.06
 71
     0
 72
     0
 73
     1
 74
     1
 75
     0
 76
     0
 77
     0
 78
     7
170
     0
171
     2
172
     0
173
     0
174
     0
175
     0
176
   256
177
   256
178
     2
  0
DIMSTYLE
  2
AM_ANSI$SF
 70
     0
  3

  4
mm
  5

  6

  7

 40
1.0
 41
0.12
 42
0.05
 43
0.5
 44
0.1
 45
0.0
 46
0.0
 47
0.1
 48
0.1
140
0.12
141
0.0
142
0.0
143
25.399999999999999
144
1.0
145
0.0
146
0.71
147
0.06
 71
     0
 72
     0
 73
     1
 74
     1
 75
     1
 76
     1
 77
     0
 78
     7
170
     0
171
     2
172
     0
173
     0
174
     0
175
     0
176
   256
177
   256
178
     2
  0
DIMSTYLE
  2
AM_ANSI$SH
 70
     0
  3

  4
mm
  5

  6
GENAXEH
  7

 40
1.0
 41
0.12
 42
0.05
 43
0.5
 44
0.1
 45
0.0
 46
0.0
 47
0.1
 48
0.1
140
0.12
141
0.0
142
0.0
143
25.399999999999999
144
1.0
145
0.0
146
0.71
147
0.06
 71
     0
 72
     0
 73
     1
 74
     1
 75
     1
 76
     1
 77
     0
 78
     7
170
     0
171
     2
172
     0
173
     1
174
     0
175
     0
176
   256
177
   256
178
     2
  0
ENDTAB
  0
ENDSEC
  0
SECTION
  2
BLOCKS
  0
BLOCK
  8
0
  2
$MODEL_SPACE
 70
     0
 10
0.0
 20
0.0
 30
0.0
  3
$MODEL_SPACE
  1

  0
ENDBLK
  5
4828
  8
0
  0
BLOCK
 67
     1
  8
0
  2
$PAPER_SPACE
 70
     0
 10
0.0
 20
0.0
 30
0.0
  3
$PAPER_SPACE
  1

  0
ENDBLK
  5
4824
 67
     1
  8
0
  0
BLOCK
  8
0
  2
_OPEN
 70
     0
 10
0.0
 20
0.0
 30
0.0
  3
_OPEN
  1

  0
LINE
  5
45BB
  8
0
  6
BYBLOCK
 62
     0
 10
-1.0
 20
0.1666666666666666
 30
0.0
 11
0.0
 21
0.0
 31
0.0
  0
LINE
  5
45BC
  8
0
  6
BYBLOCK
 62
     0
 10
-1.0
 20
-0.1666666666666666
 30
0.0
 11
0.0
 21
0.0
 31
0.0
  0
LINE
  5
45BD
  8
0
  6
BYBLOCK
 62
     0
 10
0.0
 20
0.0
 30
0.0
 11
-1.0
 21
0.0
 31
0.0
  0
ENDBLK
  5
45BE
  8
0
  0
BLOCK
  8
0
  2
GENAXEH
 70
     0
 10
0.0
 20
0.0
 30
0.0
  3
GENAXEH
  1

  0
LINE
  5
45F6
  8
0
 10
-1.0
 20
0.0
 30
0.0
 11
1.0
 21
0.0
 31
0.0
  0
ENDBLK
  5
45F7
  8
0
  0
BLOCK
  8
0
  2
_ACMFILLEDHALF
 70
     0
 10
0.0
 20
0.0
 30
0.0
  3
_ACMFILLEDHALF
  1

  0
TRACE
  5
48EA
  8
240
 62
     0
 10
-0.8
 20
0.0
 30
0.0
 11
-1.0
 21
0.166666666
 31
0.0
 12
0.0
 22
0.0
 32
0.0
 13
0.0
 23
0.0
 33
0.0
  0
LINE
  5
48EB
  8
240
 62
     0
 10
-1.0
 20
0.0
 30
0.0
 11
-0.8
 21
0.0
 31
0.0
  0
ENDBLK
  5
48E9
  8
0
  0
ENDSEC
  0
SECTION
  2
ENTITIES
  0
LINE
  5
424B
  8
245
  6
CENTER2
 10
-102.7999999999999
 20
0.0
 30
0.0
 11
123.03658530352899
 21
0.0
 31
0.0
  0
LINE
  5
42A8
  8
240
  6
CONTINUOUS
 10
120.9999999999999
 20
-34.99999999999995
 30
0.0
 11
120.9999999999999
 21
34.99999999999995
 31
0.0
1001
GRPNAME
1000
PASTMD07
  0
LINE
  5
42AA
  8
240
  6
CONTINUOUS
 10
99.499999999999943
 20
-47.499999999999929
 30
0.0
 11
106.4999999999999
 21
-47.499999999999929
 31
0.0
1001
GRPNAME
1000
PASTMD09
  0
LINE
  5
42AB
  8
241
  6
CONTINUOUS
 10
98.999999999999986
 20
-46.999999999999929
 30
0.0
 11
98.999999999999986
 21
0.0000000000000568
 31
0.0
1001
GRPNAME
1000
PASTMD0B
  0
LINE
  5
42AC
  8
240
  6
CONTINUOUS
 10
99.499999999999943
 20
-47.499999999999929
 30
0.0
 11
98.999999999999986
 21
-46.999999999999929
 31
0.0
1001
GRPNAME
1000
PASTMD0A
  0
LINE
  5
42AD
  8
240
  6
CONTINUOUS
 10
120.9999999999999
 20
-34.99999999999995
 30
0.0
 11
108.9999999999999
 21
-46.999999999999929
 31
0.0
1001
GRPNAME
1000
PASTMD07
  0
LINE
  5
42AE
  8
241
  6
CONTINUOUS
 10
107.0
 20
-46.999999999999929
 30
0.0
 11
107.0
 21
0.0000000000000568
 31
0.0
  0
LINE
  5
42AF
  8
240
  6
CONTINUOUS
 10
107.0
 20
-46.999999999999929
 30
0.0
 11
108.9999999999999
 21
-46.999999999999929
 31
0.0
1001
GRPNAME
1000
PASTMD07
  0
LINE
  5
42B0
  8
240
  6
CONTINUOUS
 10
106.4999999999999
 20
-47.499999999999929
 30
0.0
 11
107.0
 21
-46.999999999999929
 31
0.0
1001
GRPNAME
1000
PASTMD08
  0
LINE
  5
42B7
  8
241
  6
CONTINUOUS
 10
67.999999999999972
 20
-46.999999999999929
 30
0.0
 11
67.999999999999972
 21
0.0000000000000568
 31
0.0
1001
GRPNAME
1000
PASTMD07
  0
LINE
  5
42B9
  8
241
  6
CONTINUOUS
 10
75.999999999999972
 20
-46.999999999999929
 30
0.0
 11
75.999999999999972
 21
0.0000000000000568
 31
0.0
  0
LINE
  5
42BA
  8
240
  6
CONTINUOUS
 10
68.499999999999972
 20
-47.499999999999929
 30
0.0
 11
75.499999999999972
 21
-47.499999999999929
 31
0.0
1001
GRPNAME
1000
PASTMD07
  0
LINE
  5
42BB
  8
240
  6
CONTINUOUS
 10
67.999999999999972
 20
-46.999999999999929
 30
0.0
 11
39.499999999999972
 21
-46.999999999999929
 31
0.0
1001
GRPNAME
1000
PASTMD07
  0
LINE
  5
42BC
  8
240
  6
CONTINUOUS
 10
68.499999999999972
 20
-47.499999999999929
 30
0.0
 11
67.999999999999972
 21
-46.999999999999929
 31
0.0
1001
GRPNAME
1000
PASTMD07
  0
LINE
  5
42BD
  8
240
  6
CONTINUOUS
 10
75.999999999999972
 20
-46.999999999999929
 30
0.0
 11
98.999999999999986
 21
-46.999999999999929
 31
0.0
1001
GRPNAME
1000
PASTMD07
  0
LINE
  5
42BE
  8
240
  6
CONTINUOUS
 10
75.499999999999972
 20
-47.499999999999929
 30
0.0
 11
75.999999999999972
 21
-46.999999999999929
 31
0.0
1001
GRPNAME
1000
PASTMD07
  0
ARC
  5
42BF
  8
240
  6
CONTINUOUS
 10
39.499999999999972
 20
-48.499999999999901
 30
0.0
 40
1.5
 50
90.0
 51
180.0
  0
LINE
  5
42C8
  8
240
  6
CONTINUOUS
 10
99.499999999999943
 20
47.499999999999929
 30
0.0
 11
106.4999999999999
 21
47.499999999999929
 31
0.0
1001
GRPNAME
1000
PASTMD09
  0
LINE
  5
42C9
  8
241
  6
CONTINUOUS
 10
98.999999999999986
 20
46.999999999999929
 30
0.0
 11
98.999999999999986
 21
-0.0000000000000568
 31
0.0
1001
GRPNAME
1000
PASTMD0B
  0
LINE
  5
42CA
  8
240
  6
CONTINUOUS
 10
99.499999999999943
 20
47.499999999999929
 30
0.0
 11
98.999999999999986
 21
46.999999999999929
 31
0.0
1001
GRPNAME
1000
PASTMD0A
  0
LINE
  5
42CB
  8
240
  6
CONTINUOUS
 10
120.9999999999999
 20
34.99999999999995
 30
0.0
 11
108.9999999999999
 21
46.999999999999929
 31
0.0
1001
GRPNAME
1000
PASTMD07
  0
LINE
  5
42CC
  8
241
  6
CONTINUOUS
 10
107.0
 20
46.999999999999929
 30
0.0
 11
107.0
 21
-0.0000000000000568
 31
0.0
  0
LINE
  5
42CD
  8
240
  6
CONTINUOUS
 10
107.0
 20
46.999999999999929
 30
0.0
 11
108.9999999999999
 21
46.999999999999929
 31
0.0
1001
GRPNAME
1000
PASTMD07
  0
LINE
  5
42CE
  8
240
  6
CONTINUOUS
 10
106.4999999999999
 20
47.499999999999929
 30
0.0
 11
107.0
 21
46.999999999999929
 31
0.0
1001
GRPNAME
1000
PASTMD08
  0
LINE
  5
42CF
  8
241
  6
CONTINUOUS
 10
67.999999999999972
 20
46.999999999999929
 30
0.0
 11
67.999999999999972
 21
-0.0000000000000568
 31
0.0
1001
GRPNAME
1000
PASTMD07
  0
LINE
  5
42D0
  8
241
  6
CONTINUOUS
 10
75.999999999999972
 20
46.999999999999929
 30
0.0
 11
75.999999999999972
 21
-0.0000000000000568
 31
0.0
  0
LINE
  5
42D1
  8
240
  6
CONTINUOUS
 10
68.499999999999972
 20
47.499999999999929
 30
0.0
 11
75.499999999999972
 21
47.499999999999929
 31
0.0
1001
GRPNAME
1000
PASTMD07
  0
LINE
  5
42D2
  8
240
  6
CONTINUOUS
 10
67.999999999999972
 20
46.999999999999929
 30
0.0
 11
39.499999999999972
 21
46.999999999999929
 31
0.0
1001
GRPNAME
1000
PASTMD07
  0
LINE
  5
42D3
  8
240
  6
CONTINUOUS
 10
68.499999999999972
 20
47.499999999999929
 30
0.0
 11
67.999999999999972
 21
46.999999999999929
 31
0.0
1001
GRPNAME
1000
PASTMD07
  0
LINE
  5
42D4
  8
240
  6
CONTINUOUS
 10
75.999999999999972
 20
46.999999999999929
 30
0.0
 11
98.999999999999986
 21
46.999999999999929
 31
0.0
1001
GRPNAME
1000
PASTMD07
  0
LINE
  5
42D5
  8
240
  6
CONTINUOUS
 10
75.499999999999972
 20
47.499999999999929
 30
0.0
 11
75.999999999999972
 21
46.999999999999929
 31
0.0
1001
GRPNAME
1000
PASTMD07
  0
ARC
  5
42D6
  8
240
  6
CONTINUOUS
 10
39.499999999999972
 20
48.499999999999901
 30
0.0
 40
1.5
 50
180.0
 51
270.0
  0
LINE
  5
430C
  8
250
  6
CONTINUOUS
 10
41.0
 20
25.899999999999999
 30
0.0
 11
41.0
 21
64.0
 31
0.0
  0
LINE
  5
430D
  8
250
  6
CONTINUOUS
 10
121.0
 20
35.08578644
 30
0.0
 11
121.0
 21
64.0
 31
0.0
  0
LINE
  5
430E
  8
250
  6
CONTINUOUS
 10
43.22999999999999
 20
63.0
 30
0.0
 11
118.77
 21
63.0
 31
0.0
  0
LINE
  5
430F
  8
250
  6
CONTINUOUS
 10
43.22999999999999
 20
62.62833333333333
 30
0.0
 11
41.0
 21
63.0
 31
0.0
  0
LINE
  5
4310
  8
250
  6
CONTINUOUS
 10
43.22999999999999
 20
63.37166666666667
 30
0.0
 11
41.0
 21
63.0
 31
0.0
  0
LINE
  5
4311
  8
250
  6
CONTINUOUS
 10
41.0
 20
63.0
 30
0.0
 11
43.22999999999999
 21
63.0
 31
0.0
  0
LINE
  5
4312
  8
250
  6
CONTINUOUS
 10
118.77
 20
63.37166666666667
 30
0.0
 11
121.0
 21
63.0
 31
0.0
  0
LINE
  5
4313
  8
250
  6
CONTINUOUS
 10
118.77
 20
62.62833333333333
 30
0.0
 11
121.0
 21
63.0
 31
0.0
  0
LINE
  5
4314
  8
250
  6
CONTINUOUS
 10
121.0
 20
63.0
 30
0.0
 11
118.77
 21
63.0
 31
0.0
  0
TEXT
  5
4315
  8
250
  6
CONTINUOUS
 10
70.209752943333314
 20
64.0
 30
0.0
 40
2.799999999999998
  1
üimax.80üj
1001
ACAD
1000
MTEXTBEGIN
1070
    73
1070
     1
1070
    44
1040
1.0
1070
    74
1070
     0
1000
MTEXTEND
1000
MTEXTBEGIN
1070
    73
1070
     1
1070
    44
1040
1.0
1070
    74
1070
     0
1000
MTEXTEND
  0
LINE
  5
4316
  8
250
  6
CONTINUOUS
 10
0.0
 20
35.424999999999997
 30
0.0
 11
0.0
 21
71.0
 31
0.0
  0
LINE
  5
4317
  8
250
  6
CONTINUOUS
 10
121.0
 20
35.08578644
 30
0.0
 11
121.0
 21
71.0
 31
0.0
  0
LINE
  5
4318
  8
250
  6
CONTINUOUS
 10
2.2299999999999991
 20
70.0
 30
0.0
 11
118.77
 21
70.0
 31
0.0
  0
LINE
  5
4319
  8
250
  6
CONTINUOUS
 10
2.2299999999999991
 20
69.62833333333333
 30
0.0
 11
0.0
 21
70.0
 31
0.0
  0
LINE
  5
431A
  8
250
  6
CONTINUOUS
 10
2.2299999999999991
 20
70.37166666666667
 30
0.0
 11
0.0
 21
70.0
 31
0.0
  0
LINE
  5
431B
  8
250
  6
CONTINUOUS
 10
0.0
 20
70.0
 30
0.0
 11
2.2299999999999991
 21
70.0
 31
0.0
  0
LINE
  5
431C
  8
250
  6
CONTINUOUS
 10
118.77
 20
70.37166666666667
 30
0.0
 11
121.0
 21
70.0
 31
0.0
  0
LINE
  5
431D
  8
250
  6
CONTINUOUS
 10
118.77
 20
69.62833333333333
 30
0.0
 11
121.0
 21
70.0
 31
0.0
  0
LINE
  5
431E
  8
250
  6
CONTINUOUS
 10
121.0
 20
70.0
 30
0.0
 11
118.77
 21
70.0
 31
0.0
  0
TEXT
  5
431F
  8
250
  6
CONTINUOUS
 10
60.997178210000001
 20
71.000000000000014
 30
0.0
 40
2.799999999999998
  1
121
1001
ACAD
1000
MTEXTBEGIN
1070
    73
1070
     1
1070
    44
1040
1.0
1070
    74
1070
     0
1000
MTEXTEND
1000
MTEXTBEGIN
1070
    73
1070
     1
1070
    44
1040
1.0
1070
    74
1070
     0
1000
MTEXTEND
  0
TEXT
  5
4320
  8
241
  6
CONTINUOUS
 10
-101.8
 20
84.0
 30
0.0
 40
5.0
  1
BT50-SL50.8-121
  7
YOKO
 11
-101.8
 21
84.0
 31
0.0
 73
     1
  0
LINE
  5
4321
  8
250
  6
CONTINUOUS
 10
121.5
 20
25.399999999999999
 30
0.0
 11
134.0
 21
25.399999999999999
 31
0.0
  0
LINE
  5
4322
  8
250
  6
CONTINUOUS
 10
133.0
 20
-23.170000000000002
 30
0.0
 11
133.0
 21
23.170000000000002
 31
0.0
  0
LINE
  5
4323
  8
250
  6
CONTINUOUS
 10
132.6283333333333
 20
23.170000000000002
 30
0.0
 11
133.0
 21
25.399999999999999
 31
0.0
  0
LINE
  5
4324
  8
250
  6
CONTINUOUS
 10
133.37166666666661
 20
23.170000000000002
 30
0.0
 11
133.0
 21
25.399999999999999
 31
0.0
  0
LINE
  5
4325
  8
250
  6
CONTINUOUS
 10
133.0
 20
25.399999999999999
 30
0.0
 11
133.0
 21
23.170000000000002
 31
0.0
  0
TEXT
  5
4326
  8
250
  6
CONTINUOUS
 10
132.0
 20
-5.93333333333333
 30
0.0
 40
2.799999999999998
  1
\U+220550.8
 50
90.0
1001
ACAD
1000
MTEXTBEGIN
1070
    73
1070
     1
1070
    44
1040
1.0
1070
    74
1070
     0
1000
MTEXTEND
  0
LINE
  5
4327
  8
250
  6
CONTINUOUS
 10
107.0
 20
-47.5
 30
0.0
 11
141.0
 21
-47.5
 31
0.0
  0
LINE
  5
4328
  8
250
  6
CONTINUOUS
 10
107.0
 20
47.5
 30
0.0
 11
141.0
 21
47.5
 31
0.0
  0
LINE
  5
4329
  8
250
  6
CONTINUOUS
 10
140.0
 20
-45.270000000000003
 30
0.0
 11
140.0
 21
45.270000000000003
 31
0.0
  0
LINE
  5
432A
  8
250
  6
CONTINUOUS
 10
140.37166666666661
 20
-45.270000000000003
 30
0.0
 11
140.0
 21
-47.5
 31
0.0
  0
LINE
  5
432B
  8
250
  6
CONTINUOUS
 10
139.6283333333333
 20
-45.270000000000003
 30
0.0
 11
140.0
 21
-47.5
 31
0.0
  0
LINE
  5
432C
  8
250
  6
CONTINUOUS
 10
140.0
 20
-47.5
 30
0.0
 11
140.0
 21
-45.270000000000003
 31
0.0
  0
LINE
  5
432D
  8
250
  6
CONTINUOUS
 10
139.6283333333333
 20
45.270000000000003
 30
0.0
 11
140.0
 21
47.5
 31
0.0
  0
LINE
  5
432E
  8
250
  6
CONTINUOUS
 10
140.37166666666661
 20
45.270000000000003
 30
0.0
 11
140.0
 21
47.5
 31
0.0
  0
LINE
  5
432F
  8
250
  6
CONTINUOUS
 10
140.0
 20
47.5
 30
0.0
 11
140.0
 21
45.270000000000003
 31
0.0
  0
TEXT
  5
4330
  8
250
  6
CONTINUOUS
 10
139.0
 20
-3.9333333333333318
 30
0.0
 40
2.799999999999998
  1
\U+220595
 50
90.0
1001
ACAD
1000
MTEXTBEGIN
1070
    73
1070
     1
1070
    44
1040
1.0
1070
    74
1070
     0
1000
MTEXTEND
1000
MTEXTBEGIN
1070
    73
1070
     1
1070
    44
1040
1.0
1070
    74
1070
     0
1000
MTEXTEND
  0
CIRCLE
  5
4331
  8
241
  6
CONTINUOUS
 10
87.900000000000006
 20
0.0
 30
0.0
 40
10.0
  0
CIRCLE
  5
4332
  8
242
  6
CONTINUOUS
 10
87.900000000000006
 20
0.0
 30
0.0
 40
9.25
  0
LINE
  5
4333
  8
241
  6
CONTINUOUS
 10
82.900000000000006
 20
-2.8867513499999991
 30
0.0
 11
87.900000000000006
 21
-5.773502689999999
 31
0.0
  0
LINE
  5
4334
  8
241
  6
CONTINUOUS
 10
87.900000000000006
 20
-5.773502689999999
 30
0.0
 11
92.900000000000006
 21
-2.8867513499999991
 31
0.0
  0
LINE
  5
4335
  8
241
  6
CONTINUOUS
 10
92.900000000000006
 20
-2.8867513499999991
 30
0.0
 11
92.900000000000006
 21
2.8867513499999991
 31
0.0
  0
LINE
  5
4336
  8
241
  6
CONTINUOUS
 10
92.900000000000006
 20
2.8867513499999991
 30
0.0
 11
87.900000000000006
 21
5.773502689999999
 31
0.0
  0
LINE
  5
4337
  8
241
  6
CONTINUOUS
 10
87.900000000000006
 20
5.773502689999999
 30
0.0
 11
82.900000000000006
 21
2.8867513499999991
 31
0.0
  0
LINE
  5
4338
  8
241
  6
CONTINUOUS
 10
82.900000000000006
 20
2.8867513499999991
 30
0.0
 11
82.900000000000006
 21
-2.8867513499999991
 31
0.0
  0
LINE
  5
4339
  8
250
  6
CONTINUOUS
 10
121.5
 20
-25.399999999999999
 30
0.0
 11
134.0
 21
-25.399999999999999
 31
0.0
  0
LINE
  5
433A
  8
250
  6
CONTINUOUS
 10
132.6283333333333
 20
-23.170000000000002
 30
0.0
 11
133.0
 21
-25.399999999999999
 31
0.0
  0
LINE
  5
433B
  8
250
  6
CONTINUOUS
 10
133.37166666666661
 20
-23.170000000000002
 30
0.0
 11
133.0
 21
-25.399999999999999
 31
0.0
  0
LINE
  5
433C
  8
250
  6
CONTINUOUS
 10
133.0
 20
-25.399999999999999
 30
0.0
 11
133.0
 21
-23.170000000000002
 31
0.0
  0
LINE
  5
4358
  8
243
  6
HIDDEN2
 10
40.999999999999957
 20
25.400000000000041
 30
0.0
 11
120.9999999999999
 21
25.400000000000041
 31
0.0
1001
GRPNAME
1000
PASTMD07
  0
LINE
  5
4359
  8
243
  6
HIDDEN2
 10
40.999999999999957
 20
-25.400000000000041
 30
0.0
 11
120.9999999999999
 21
-25.400000000000041
 31
0.0
1001
GRPNAME
1000
PASTMD07
  0
LINE
  5
435A
  8
241
  6
CONTINUOUS
 10
38.0
 20
-48.499999999999901
 30
0.0
 11
37.999999999999972
 21
48.499999999999901
 31
0.0
  0
LINE
  5
4465
  8
240
  6
CONTINUOUS
 10
0.0
 20
-34.925000000000011
 30
0.0
 11
-101.7999999999999
 21
-20.079166665188438
 31
0.0
  0
LINE
  5
4466
  8
240
  6
CONTINUOUS
 10
0.0
 20
34.925000000000011
 30
0.0
 11
-101.7999999999999
 21
20.079166665188438
 31
0.0
  0
LINE
  5
4467
  8
240
  6
CONTINUOUS
 10
-101.7999999999999
 20
20.079166665188438
 30
0.0
 11
-101.7999999999999
 21
-20.079166665188438
 31
0.0
  0
LINE
  5
4468
  8
241
  6
CONTINUOUS
 10
30.70000000000006
 20
50.0
 30
0.0
 11
30.70000000000006
 21
8.5976741040817046
 31
0.0
  0
LINE
  5
4469
  8
241
  6
CONTINUOUS
 10
26.369872979999968
 20
42.5
 30
0.0
 11
26.369872979999968
 21
11.74203670887902
 31
0.0
  0
LINE
  5
446A
  8
241
  6
CONTINUOUS
 10
20.030127020000009
 20
42.5
 30
0.0
 11
20.030127020000009
 21
12.850000000000019
 31
0.0
  0
LINE
  5
446B
  8
241
  6
CONTINUOUS
 10
15.70000000000004
 20
50.0
 30
0.0
 11
15.70000000000004
 21
12.850000000000019
 31
0.0
  0
LINE
  5
446C
  8
241
  6
CONTINUOUS
 10
15.70000000000004
 20
-50.0
 30
0.0
 11
15.70000000000004
 21
-12.850000000000019
 31
0.0
  0
LINE
  5
446D
  8
241
  6
CONTINUOUS
 10
20.030127020000009
 20
-42.5
 30
0.0
 11
20.030127020000009
 21
-12.850000000000019
 31
0.0
  0
LINE
  5
446E
  8
241
  6
CONTINUOUS
 10
30.70000000000006
 20
-50.0
 30
0.0
 11
30.70000000000006
 21
-8.5976741040817046
 31
0.0
  0
LINE
  5
446F
  8
241
  6
CONTINUOUS
 10
26.369872979999968
 20
-42.5
 30
0.0
 11
26.369872979999968
 21
-11.74203670887902
 31
0.0
  0
LINE
  5
4470
  8
240
  6
CONTINUOUS
 10
38.0
 20
-50.0
 30
0.0
 11
38.0
 21
-48.499999999999901
 31
0.0
  0
LINE
  5
4471
  8
240
  6
CONTINUOUS
 10
38.0
 20
-50.0
 30
0.0
 11
30.70000000000006
 21
-50.0
 31
0.0
  0
LINE
  5
4472
  8
240
  6
CONTINUOUS
 10
2.9999999999996581
 20
-50.0
 30
0.0
 11
15.70000000000004
 21
-50.0
 31
0.0
  0
LINE
  5
4473
  8
240
  6
CONTINUOUS
 10
26.369872979999968
 20
-42.5
 30
0.0
 11
20.030127020000009
 21
-42.5
 31
0.0
  0
LINE
  5
4474
  8
240
  6
CONTINUOUS
 10
20.030127020000009
 20
-42.5
 30
0.0
 11
15.70000000000004
 21
-50.0
 31
0.0
  0
LINE
  5
4475
  8
240
  6
CONTINUOUS
 10
26.369872979999968
 20
-42.5
 30
0.0
 11
30.70000000000006
 21
-50.0
 31
0.0
  0
LINE
  5
4476
  8
241
  6
CONTINUOUS
 10
0.0
 20
-34.925000000000011
 30
0.0
 11
0.0
 21
34.925000000000011
 31
0.0
  0
ARC
  5
4477
  8
241
  6
CONTINUOUS
 10
21.149999999999981
 20
0.0
 30
0.0
 40
12.849999999999881
 50
270.0
 51
90.0
  0
LINE
  5
4478
  8
241
  6
CONTINUOUS
 10
21.150001910000011
 20
-12.850000000000019
 30
0.0
 11
2.999999999999714
 21
-12.85000000000003
 31
0.0
  0
LINE
  5
4479
  8
240
  6
CONTINUOUS
 10
0.0
 20
-34.925000000000011
 30
0.0
 11
2.999999999999714
 21
-34.925000000000011
 31
0.0
  0
LINE
  5
447A
  8
241
  6
CONTINUOUS
 10
21.150001910000011
 20
12.850000000000019
 30
0.0
 11
2.9999999999996581
 21
12.850000000000019
 31
0.0
  0
LINE
  5
447B
  8
240
  6
CONTINUOUS
 10
30.70000000000006
 20
50.0
 30
0.0
 11
38.0
 21
50.0
 31
0.0
  0
LINE
  5
447C
  8
240
  6
CONTINUOUS
 10
0.0
 20
34.925000000000011
 30
0.0
 11
2.9999999999997722
 21
34.925000000000011
 31
0.0
  0
LINE
  5
447D
  8
240
  6
CONTINUOUS
 10
15.70000000000004
 20
50.0
 30
0.0
 11
2.9999999999997722
 21
50.0
 31
0.0
  0
LINE
  5
447E
  8
240
  6
CONTINUOUS
 10
26.369872979999968
 20
42.5
 30
0.0
 11
20.030127020000009
 21
42.5
 31
0.0
  0
LINE
  5
447F
  8
240
  6
CONTINUOUS
 10
20.030127020000009
 20
42.5
 30
0.0
 11
15.70000000000004
 21
50.0
 31
0.0
  0
LINE
  5
4480
  8
240
  6
CONTINUOUS
 10
26.369872979999968
 20
42.5
 30
0.0
 11
30.70000000000006
 21
50.0
 31
0.0
  0
LINE
  5
4481
  8
247
  6
CONTINUOUS
 10
11.0
 20
-26.250000000070042
 30
0.0
 11
11.0
 21
-19.557692308030031
 31
0.0
  0
ARC
  5
4482
  8
247
  6
CONTINUOUS
 10
9.2500000000700329
 20
-26.250000000070042
 30
0.0
 40
1.7499999999299991
 50
180.0
 51
0.0
  0
ARC
  5
4483
  8
247
  6
CONTINUOUS
 10
9.2500000000700329
 20
-19.557692308030031
 30
0.0
 40
1.7499999999299991
 50
0.0
 51
180.0
  0
LINE
  5
4484
  8
247
  6
CONTINUOUS
 10
7.5000000001400622
 20
-25.384615384720011
 30
0.0
 11
10.500000000020011
 21
-26.244851541962021
 31
0.0
  0
LINE
  5
4485
  8
247
  6
CONTINUOUS
 10
8.9230769231600071
 20
-24.48498381833582
 30
0.0
 11
8.9230769231600071
 21
-25.792676125975849
 31
0.0
  0
ARC
  5
4486
  8
247
  6
CONTINUOUS
 10
8.0495986677029752
 20
-24.145143816089789
 30
0.0
 40
0.5538165441895349
 50
72.99788967529534
 51
172.92416621851359
  0
ARC
  5
4487
  8
247
  6
CONTINUOUS
 10
7.9360330444658302
 20
-24.566878323028789
 30
0.0
 40
0.9904354236226808
 50
4.7429368522022122
 51
73.849226273266538
1001
GENIUS_GENOBJ-N-FIL_13
1002
{
1000
OWNER
1000
GEN
1002
}
1001
GENIUS_GENODEF_13
1002
{
1000
HIER
1070
     0
1002
}
1002
{
1000
MANEDIT
1070
     0
1002
}
1002
{
1000
NOSEL
1070
     0
1002
}
1002
{
1000
BEHIND
1070
     0
1002
}
1002
{
1000
OTHER
1070
     0
1002
}
1002
{
1000
REACTOR
1002
}
  0
LINE
  5
4488
  8
247
  6
CONTINUOUS
 10
10.500000000020011
 20
-24.937159234321999
 30
0.0
 11
10.500000000020011
 21
-26.244851541962021
 31
0.0
  0
LINE
  5
4489
  8
247
  6
CONTINUOUS
 10
7.5000000001400622
 20
-25.384615384720011
 30
0.0
 11
7.5000000001400622
 21
-24.076923077079989
 31
0.0
  0
ARC
  5
448A
  8
247
  6
CONTINUOUS
 10
9.4820242326655944
 20
-24.560919636546942
 30
0.0
 40
0.5640818586791229
 50
65.990941652528889
 51
172.26344345906909
  0
ARC
  5
448B
  8
247
  6
CONTINUOUS
 10
9.4874290391866225
 20
-25.038262685347089
 30
0.0
 40
1.0176059446230981
 50
5.7019851642564632
 51
77.277338436822191
1001
GENIUS_GENOBJ-N-FIL_13
1002
{
1000
OWNER
1000
GEN
1002
}
1001
GENIUS_GENODEF_13
1002
{
1000
HIER
1070
     0
1002
}
1002
{
1000
MANEDIT
1070
     0
1002
}
1002
{
1000
NOSEL
1070
     0
1002
}
1002
{
1000
BEHIND
1070
     0
1002
}
1002
{
1000
OTHER
1070
     0
1002
}
1002
{
1000
REACTOR
1002
}
  0
LINE
  5
448C
  8
247
  6
CONTINUOUS
 10
10.500000000020011
 20
-23.28331308054203
 30
0.0
 11
7.5000000001400622
 21
-22.42307692330002
 31
0.0
  0
LINE
  5
448D
  8
247
  6
CONTINUOUS
 10
7.5000000001400622
 20
-20.000000000319972
 30
0.0
 11
7.5000000001400622
 21
-20.565736619456569
 31
0.0
  0
LINE
  5
448E
  8
247
  6
CONTINUOUS
 10
10.500000000020011
 20
-21.461538461799989
 30
0.0
 11
10.500000000020011
 21
-20.846153846440021
 31
0.0
  0
ARC
  5
448F
  8
247
  6
CONTINUOUS
 10
9.5832851359733677
 20
-19.708791209122861
 30
0.0
 40
2.2526500823422122
 50
202.35948814152621
 51
254.99324854284609
  0
ARC
  5
4490
  8
247
  6
CONTINUOUS
 10
8.3083126551945252
 20
-20.37406947921323
 30
0.0
 40
0.8906723995727782
 50
94.994589319075374
 51
155.1663289573039
1001
GENIUS_GENOBJ-N-FIL_13
1002
{
1000
OWNER
1000
GEN
1002
}
1001
GENIUS_GENODEF_13
1002
{
1000
HIER
1070
     0
1002
}
1002
{
1000
MANEDIT
1070
     0
1002
}
1002
{
1000
NOSEL
1070
     0
1002
}
1002
{
1000
BEHIND
1070
     0
1002
}
1002
{
1000
OTHER
1070
     0
1002
}
1002
{
1000
REACTOR
1002
}
  0
ARC
  5
4491
  8
247
  6
CONTINUOUS
 10
9.1601458886677847
 20
-21.22645888621258
 30
0.0
 40
1.392781735586712
 50
15.8460965557808
 51
82.325137004169065
  0
ARC
  5
4492
  8
247
  6
CONTINUOUS
 10
9.4592434315272822
 20
-20.642212725840348
 30
0.0
 40
1.324563662670287
 50
249.7136016704969
 51
321.78874565640598
1001
GENIUS_GENOBJ-N-FIL_13
1002
{
1000
OWNER
1000
GEN
1002
}
1001
GENIUS_GENODEF_13
1002
{
1000
HIER
1070
     0
1002
}
1002
{
1000
MANEDIT
1070
     0
1002
}
1002
{
1000
NOSEL
1070
     0
1002
}
1002
{
1000
BEHIND
1070
     0
1002
}
1002
{
1000
OTHER
1070
     0
1002
}
1002
{
1000
REACTOR
1002
}
  0
LINE
  5
4493
  8
247
  6
CONTINUOUS
 10
9.3461538462199751
 20
-20.538461538759979
 30
0.0
 11
9.3461538462199751
 21
-19.846153846479961
 31
0.0
  0
LINE
  5
4494
  8
247
  6
CONTINUOUS
 10
7.5000000001400622
 20
-26.250000000070042
 30
0.0
 11
7.5000000001400622
 21
-25.576923077020069
 31
0.0
  0
LINE
  5
4495
  8
250
  6
CONTINUOUS
 10
-53.781569849999933
 20
-37.791071780000038
 30
0.0
 11
-66.604581165362276
 21
-37.791071780000038
 31
0.0
1001
ITEMNAME
1000
LNSP2
  0
TEXT
  5
4496
  8
250
  6
CONTINUOUS
 10
-65.120536567420686
 20
-36.791071780000038
 30
0.0
 40
2.799999999999998
  1
BT50
  7
YOKO
1001
ITEMNAME
1000
LNSP3
  0
LINE
  5
4497
  8
250
  6
CONTINUOUS
 10
-49.367434494225321
 20
-29.478898401206319
 30
0.0
 11
-48.078759359999943
 21
-27.913514259999999
 31
0.0
  0
LINE
  5
4498
  8
250
  6
CONTINUOUS
 10
-48.790084224957013
 20
-29.812231734403451
 30
0.0
 11
-48.078759359999943
 21
-27.913514259999999
 31
0.0
  0
LINE
  5
4499
  8
250
  6
CONTINUOUS
 10
-48.078759359999943
 20
-27.913514259999999
 30
0.0
 11
-49.078759359591167
 21
-29.64556506780491
 31
0.0
  0
LINE
  5
449A
  8
250
  6
CONTINUOUS
 10
-49.078759359591167
 20
-29.64556506780491
 30
0.0
 11
-53.781569849999933
 21
-37.791071780000038
 31
0.0
1001
ACAD
1000
DSTYLE
1002
{
1070
     6
1000
OPEN
1070
    41
1040
2.0
1070
   343
1005
0
1002
}
  0
LINE
  5
449B
  8
240
  6
CONTINUOUS
 10
2.9999999999997722
 20
50.0
 30
0.0
 11
2.9999999999997722
 21
34.925000000000011
 31
0.0
  0
LINE
  5
449C
  8
240
  6
CONTINUOUS
 10
2.999999999999714
 20
-34.925000000000011
 30
0.0
 11
2.9999999999996581
 21
-50.0
 31
0.0
  0
LINE
  5
449D
  8
241
  6
CONTINUOUS
 10
2.999999999999714
 20
-34.925000000000011
 30
0.0
 11
2.9999999999996021
 21
34.925000000000011
 31
0.0
  0
LINE
  5
449E
  8
240
  6
CONTINUOUS
 10
38.0
 20
48.499999999999901
 30
0.0
 11
38.0
 21
50.0
 31
0.0
  0
LINE
  5
4512
  8
245
  6
CENTER2
 10
51.32
 20
41.0
 30
0.0
 11
51.32
 21
53.0
 31
0.0
  0
LINE
  5
4513
  8
245
  6
CENTER2
 10
87.099999999999994
 20
41.0
 30
0.0
 11
87.099999999999994
 21
53.0
 31
0.0
  0
LINE
  5
4B1A
  8
245
  6
CENTER2
 10
59.32
 20
43.145405340000003
 30
0.0
 11
59.32
 21
-43.971042845984059
 31
0.0
1001
GRPNAME
1000
PASTMD01
  0
POLYLINE
  5
4B1B
  8
241
  6
CONTINUOUS
 66
     1
 10
0.0
 20
0.0
 30
0.0
 70
     8
  0
VERTEX
  5
4B1C
  8
241
 10
53.57
 20
-39.414299999999997
 30
0.0
 70
    32
  0
VERTEX
  5
4B1D
  8
241
 10
53.571699999999993
 20
-39.4925
 30
0.0
 70
    32
  0
VERTEX
  5
4B1E
  8
241
 10
53.576900000000002
 20
-39.570700000000002
 30
0.0
 70
    32
  0
VERTEX
  5
4B1F
  8
241
 10
53.585599999999999
 20
-39.648699999999998
 30
0.0
 70
    32
  0
VERTEX
  5
4B20
  8
241
 10
53.59770000000001
 20
-39.726700000000001
 30
0.0
 70
    32
  0
VERTEX
  5
4B21
  8
241
 10
53.613199999999999
 20
-39.804400000000001
 30
0.0
 70
    32
  0
VERTEX
  5
4B22
  8
241
 10
53.632199999999997
 20
-39.881900000000002
 30
0.0
 70
    32
  0
VERTEX
  5
4B23
  8
241
 10
53.654699999999998
 20
-39.959099999999999
 30
0.0
 70
    32
  0
VERTEX
  5
4B24
  8
241
 10
53.680500000000002
 20
-40.036000000000001
 30
0.0
 70
    32
  0
VERTEX
  5
4B25
  8
241
 10
53.709699999999991
 20
-40.11249999999999
 30
0.0
 70
    32
  0
VERTEX
  5
4B26
  8
241
 10
53.7423
 20
-40.188600000000001
 30
0.0
 70
    32
  0
VERTEX
  5
4B27
  8
241
 10
53.778300000000002
 20
-40.264299999999999
 30
0.0
 70
    32
  0
VERTEX
  5
4B28
  8
241
 10
53.817599999999992
 20
-40.339399999999998
 30
0.0
 70
    32
  0
VERTEX
  5
4B29
  8
241
 10
53.860199999999999
 20
-40.414000000000001
 30
0.0
 70
    32
  0
VERTEX
  5
4B2A
  8
241
 10
53.906100000000002
 20
-40.487900000000003
 30
0.0
 70
    32
  0
VERTEX
  5
4B2B
  8
241
 10
53.955300000000001
 20
-40.561199999999992
 30
0.0
 70
    32
  0
VERTEX
  5
4B2C
  8
241
 10
54.0077
 20
-40.633899999999997
 30
0.0
 70
    32
  0
VERTEX
  5
4B2D
  8
241
 10
54.063299999999998
 20
-40.7057
 30
0.0
 70
    32
  0
VERTEX
  5
4B2E
  8
241
 10
54.122100000000003
 20
-40.776899999999991
 30
0.0
 70
    32
  0
VERTEX
  5
4B2F
  8
241
 10
54.183999999999997
 20
-40.847099999999998
 30
0.0
 70
    32
  0
VERTEX
  5
4B30
  8
241
 10
54.249000000000002
 20
-40.916600000000003
 30
0.0
 70
    32
  0
VERTEX
  5
4B31
  8
241
 10
54.317
 20
-40.985100000000003
 30
0.0
 70
    32
  0
VERTEX
  5
4B32
  8
241
 10
54.388100000000001
 20
-41.052699999999987
 30
0.0
 70
    32
  0
VERTEX
  5
4B33
  8
241
 10
54.4621
 20
-41.119300000000003
 30
0.0
 70
    32
  0
VERTEX
  5
4B34
  8
241
 10
54.539000000000001
 20
-41.184800000000003
 30
0.0
 70
    32
  0
VERTEX
  5
4B35
  8
241
 10
54.618899999999996
 20
-41.249299999999991
 30
0.0
 70
    32
  0
VERTEX
  5
4B36
  8
241
 10
54.701599999999992
 20
-41.312699999999992
 30
0.0
 70
    32
  0
VERTEX
  5
4B37
  8
241
 10
54.786999999999992
 20
-41.375
 30
0.0
 70
    32
  0
VERTEX
  5
4B38
  8
241
 10
54.875199999999992
 20
-41.436
 30
0.0
 70
    32
  0
VERTEX
  5
4B39
  8
241
 10
54.966000000000001
 20
-41.495899999999992
 30
0.0
 70
    32
  0
VERTEX
  5
4B3A
  8
241
 10
55.0595
 20
-41.554499999999997
 30
0.0
 70
    32
  0
VERTEX
  5
4B3B
  8
241
 10
55.1556
 20
-41.611800000000002
 30
0.0
 70
    32
  0
VERTEX
  5
4B3C
  8
241
 10
55.254100000000001
 20
-41.667700000000004
 30
0.0
 70
    32
  0
VERTEX
  5
4B3D
  8
241
 10
55.3551
 20
-41.7224
 30
0.0
 70
    32
  0
VERTEX
  5
4B3E
  8
241
 10
55.458500000000001
 20
-41.77559999999999
 30
0.0
 70
    32
  0
VERTEX
  5
4B3F
  8
241
 10
55.564300000000003
 20
-41.82739999999999
 30
0.0
 70
    32
  0
VERTEX
  5
4B40
  8
241
 10
55.672199999999989
 20
-41.877800000000001
 30
0.0
 70
    32
  0
VERTEX
  5
4B41
  8
241
 10
55.782400000000003
 20
-41.926600000000001
 30
0.0
 70
    32
  0
VERTEX
  5
4B42
  8
241
 10
55.8947
 20
-41.973999999999997
 30
0.0
 70
    32
  0
VERTEX
  5
4B43
  8
241
 10
56.009099999999989
 20
-42.019799999999989
 30
0.0
 70
    32
  0
VERTEX
  5
4B44
  8
241
 10
56.125500000000002
 20
-42.064100000000003
 30
0.0
 70
    32
  0
VERTEX
  5
4B45
  8
241
 10
56.2438
 20
-42.106699999999989
 30
0.0
 70
    32
  0
VERTEX
  5
4B46
  8
241
 10
56.363900000000001
 20
-42.147799999999997
 30
0.0
 70
    32
  0
VERTEX
  5
4B47
  8
241
 10
56.48579999999999
 20
-42.187100000000001
 30
0.0
 70
    32
  0
VERTEX
  5
4B48
  8
241
 10
56.60949999999999
 20
-42.224899999999991
 30
0.0
 70
    32
  0
VERTEX
  5
4B49
  8
241
 10
56.734699999999997
 20
-42.260899999999999
 30
0.0
 70
    32
  0
VERTEX
  5
4B4A
  8
241
 10
56.861600000000003
 20
-42.295199999999987
 30
0.0
 70
    32
  0
VERTEX
  5
4B4B
  8
241
 10
56.989899999999999
 20
-42.327800000000003
 30
0.0
 70
    32
  0
VERTEX
  5
4B4C
  8
241
 10
57.119599999999998
 20
-42.358600000000003
 30
0.0
 70
    32
  0
VERTEX
  5
4B4D
  8
241
 10
57.250599999999999
 20
-42.387599999999999
 30
0.0
 70
    32
  0
VERTEX
  5
4B4E
  8
241
 10
57.382899999999999
 20
-42.414900000000003
 30
0.0
 70
    32
  0
VERTEX
  5
4B4F
  8
241
 10
57.516300000000001
 20
-42.440300000000001
 30
0.0
 70
    32
  0
VERTEX
  5
4B50
  8
241
 10
57.6509
 20
-42.463900000000002
 30
0.0
 70
    32
  0
VERTEX
  5
4B51
  8
241
 10
57.7864
 20
-42.485699999999987
 30
0.0
 70
    32
  0
VERTEX
  5
4B52
  8
241
 10
57.922899999999998
 20
-42.505600000000001
 30
0.0
 70
    32
  0
VERTEX
  5
4B53
  8
241
 10
58.060200000000002
 20
-42.523699999999991
 30
0.0
 70
    32
  0
VERTEX
  5
4B54
  8
241
 10
58.198199999999993
 20
-42.539900000000003
 30
0.0
 70
    32
  0
VERTEX
  5
4B55
  8
241
 10
58.337000000000003
 20
-42.554199999999987
 30
0.0
 70
    32
  0
VERTEX
  5
4B56
  8
241
 10
58.476300000000002
 20
-42.56669999999999
 30
0.0
 70
    32
  0
VERTEX
  5
4B57
  8
241
 10
58.616100000000003
 20
-42.577199999999991
 30
0.0
 70
    32
  0
VERTEX
  5
4B58
  8
241
 10
58.756399999999999
 20
-42.585799999999999
 30
0.0
 70
    32
  0
VERTEX
  5
4B59
  8
241
 10
58.896999999999998
 20
-42.592500000000001
 30
0.0
 70
    32
  0
VERTEX
  5
4B5A
  8
241
 10
59.0379
 20
-42.597299999999997
 30
0.0
 70
    32
  0
VERTEX
  5
4B5B
  8
241
 10
59.178899999999992
 20
-42.600199999999987
 30
0.0
 70
    32
  0
VERTEX
  5
4B5C
  8
241
 10
59.32
 20
-42.601199999999992
 30
0.0
 70
    32
  0
VERTEX
  5
4B5D
  8
241
 10
59.461100000000002
 20
-42.600199999999987
 30
0.0
 70
    32
  0
VERTEX
  5
4B5E
  8
241
 10
59.6021
 20
-42.597299999999997
 30
0.0
 70
    32
  0
VERTEX
  5
4B5F
  8
241
 10
59.743000000000002
 20
-42.592500000000001
 30
0.0
 70
    32
  0
VERTEX
  5
4B60
  8
241
 10
59.883600000000001
 20
-42.585799999999999
 30
0.0
 70
    32
  0
VERTEX
  5
4B61
  8
241
 10
60.023899999999998
 20
-42.577199999999991
 30
0.0
 70
    32
  0
VERTEX
  5
4B62
  8
241
 10
60.163699999999999
 20
-42.56669999999999
 30
0.0
 70
    32
  0
VERTEX
  5
4B63
  8
241
 10
60.302999999999997
 20
-42.554199999999987
 30
0.0
 70
    32
  0
VERTEX
  5
4B64
  8
241
 10
60.441800000000001
 20
-42.539900000000003
 30
0.0
 70
    32
  0
VERTEX
  5
4B65
  8
241
 10
60.579799999999999
 20
-42.523699999999991
 30
0.0
 70
    32
  0
VERTEX
  5
4B66
  8
241
 10
60.717100000000002
 20
-42.505600000000001
 30
0.0
 70
    32
  0
VERTEX
  5
4B67
  8
241
 10
60.8536
 20
-42.485699999999987
 30
0.0
 70
    32
  0
VERTEX
  5
4B68
  8
241
 10
60.989100000000001
 20
-42.463900000000002
 30
0.0
 70
    32
  0
VERTEX
  5
4B69
  8
241
 10
61.123699999999999
 20
-42.440300000000001
 30
0.0
 70
    32
  0
VERTEX
  5
4B6A
  8
241
 10
61.257100000000001
 20
-42.414900000000003
 30
0.0
 70
    32
  0
VERTEX
  5
4B6B
  8
241
 10
61.389400000000002
 20
-42.387599999999999
 30
0.0
 70
    32
  0
VERTEX
  5
4B6C
  8
241
 10
61.520400000000002
 20
-42.358600000000003
 30
0.0
 70
    32
  0
VERTEX
  5
4B6D
  8
241
 10
61.650100000000002
 20
-42.327800000000003
 30
0.0
 70
    32
  0
VERTEX
  5
4B6E
  8
241
 10
61.778399999999991
 20
-42.295199999999987
 30
0.0
 70
    32
  0
VERTEX
  5
4B6F
  8
241
 10
61.90529999999999
 20
-42.260899999999999
 30
0.0
 70
    32
  0
VERTEX
  5
4B70
  8
241
 10
62.030500000000011
 20
-42.224899999999991
 30
0.0
 70
    32
  0
VERTEX
  5
4B71
  8
241
 10
62.154200000000003
 20
-42.187100000000001
 30
0.0
 70
    32
  0
VERTEX
  5
4B72
  8
241
 10
62.2761
 20
-42.147799999999997
 30
0.0
 70
    32
  0
VERTEX
  5
4B73
  8
241
 10
62.3962
 20
-42.106699999999989
 30
0.0
 70
    32
  0
VERTEX
  5
4B74
  8
241
 10
62.514499999999998
 20
-42.064100000000003
 30
0.0
 70
    32
  0
VERTEX
  5
4B75
  8
241
 10
62.630899999999997
 20
-42.019799999999989
 30
0.0
 70
    32
  0
VERTEX
  5
4B76
  8
241
 10
62.7453
 20
-41.973999999999997
 30
0.0
 70
    32
  0
VERTEX
  5
4B77
  8
241
 10
62.857599999999991
 20
-41.926600000000001
 30
0.0
 70
    32
  0
VERTEX
  5
4B78
  8
241
 10
62.967799999999997
 20
-41.877800000000001
 30
0.0
 70
    32
  0
VERTEX
  5
4B79
  8
241
 10
63.075699999999998
 20
-41.82739999999999
 30
0.0
 70
    32
  0
VERTEX
  5
4B7A
  8
241
 10
63.1815
 20
-41.77559999999999
 30
0.0
 70
    32
  0
VERTEX
  5
4B7B
  8
241
 10
63.2849
 20
-41.7224
 30
0.0
 70
    32
  0
VERTEX
  5
4B7C
  8
241
 10
63.385899999999992
 20
-41.667700000000004
 30
0.0
 70
    32
  0
VERTEX
  5
4B7D
  8
241
 10
63.484400000000001
 20
-41.611800000000002
 30
0.0
 70
    32
  0
VERTEX
  5
4B7E
  8
241
 10
63.580500000000001
 20
-41.554499999999997
 30
0.0
 70
    32
  0
VERTEX
  5
4B7F
  8
241
 10
63.673999999999992
 20
-41.495899999999992
 30
0.0
 70
    32
  0
VERTEX
  5
4B80
  8
241
 10
63.764800000000001
 20
-41.436
 30
0.0
 70
    32
  0
VERTEX
  5
4B81
  8
241
 10
63.853000000000002
 20
-41.375
 30
0.0
 70
    32
  0
VERTEX
  5
4B82
  8
241
 10
63.938400000000001
 20
-41.312699999999992
 30
0.0
 70
    32
  0
VERTEX
  5
4B83
  8
241
 10
64.021100000000004
 20
-41.249299999999991
 30
0.0
 70
    32
  0
VERTEX
  5
4B84
  8
241
 10
64.100999999999985
 20
-41.184800000000003
 30
0.0
 70
    32
  0
VERTEX
  5
4B85
  8
241
 10
64.177899999999994
 20
-41.119300000000003
 30
0.0
 70
    32
  0
VERTEX
  5
4B86
  8
241
 10
64.251900000000006
 20
-41.052699999999987
 30
0.0
 70
    32
  0
VERTEX
  5
4B87
  8
241
 10
64.322999999999993
 20
-40.985100000000003
 30
0.0
 70
    32
  0
VERTEX
  5
4B88
  8
241
 10
64.391000000000005
 20
-40.916600000000003
 30
0.0
 70
    32
  0
VERTEX
  5
4B89
  8
241
 10
64.456000000000003
 20
-40.847099999999998
 30
0.0
 70
    32
  0
VERTEX
  5
4B8A
  8
241
 10
64.517899999999983
 20
-40.776899999999991
 30
0.0
 70
    32
  0
VERTEX
  5
4B8B
  8
241
 10
64.576700000000002
 20
-40.7057
 30
0.0
 70
    32
  0
VERTEX
  5
4B8C
  8
241
 10
64.632300000000001
 20
-40.633899999999997
 30
0.0
 70
    32
  0
VERTEX
  5
4B8D
  8
241
 10
64.684700000000007
 20
-40.561199999999992
 30
0.0
 70
    32
  0
VERTEX
  5
4B8E
  8
241
 10
64.733900000000006
 20
-40.487900000000003
 30
0.0
 70
    32
  0
VERTEX
  5
4B8F
  8
241
 10
64.779799999999994
 20
-40.414000000000001
 30
0.0
 70
    32
  0
VERTEX
  5
4B90
  8
241
 10
64.822400000000002
 20
-40.339399999999998
 30
0.0
 70
    32
  0
VERTEX
  5
4B91
  8
241
 10
64.861699999999999
 20
-40.264299999999999
 30
0.0
 70
    32
  0
VERTEX
  5
4B92
  8
241
 10
64.8977
 20
-40.188600000000001
 30
0.0
 70
    32
  0
VERTEX
  5
4B93
  8
241
 10
64.930300000000003
 20
-40.11249999999999
 30
0.0
 70
    32
  0
VERTEX
  5
4B94
  8
241
 10
64.959500000000006
 20
-40.036000000000001
 30
0.0
 70
    32
  0
VERTEX
  5
4B95
  8
241
 10
64.985299999999995
 20
-39.959099999999999
 30
0.0
 70
    32
  0
VERTEX
  5
4B96
  8
241
 10
65.007800000000003
 20
-39.881900000000002
 30
0.0
 70
    32
  0
VERTEX
  5
4B97
  8
241
 10
65.026799999999994
 20
-39.804400000000001
 30
0.0
 70
    32
  0
VERTEX
  5
4B98
  8
241
 10
65.042299999999983
 20
-39.726700000000001
 30
0.0
 70
    32
  0
VERTEX
  5
4B99
  8
241
 10
65.054400000000001
 20
-39.648699999999998
 30
0.0
 70
    32
  0
VERTEX
  5
4B9A
  8
241
 10
65.063100000000006
 20
-39.570700000000002
 30
0.0
 70
    32
  0
VERTEX
  5
4B9B
  8
241
 10
65.068299999999994
 20
-39.4925
 30
0.0
 70
    32
  0
VERTEX
  5
4B9C
  8
241
 10
65.069999999999993
 20
-39.414299999999997
 30
0.0
 70
    32
  0
SEQEND
  5
4B9D
  8
241
  0
POLYLINE
  5
4B9E
  8
241
  6
CONTINUOUS
 66
     1
 10
0.0
 20
0.0
 30
0.0
 70
     8
  0
VERTEX
  5
4B9F
  8
241
 10
65.069999999999993
 20
-39.414299999999997
 30
0.0
 70
    32
  0
VERTEX
  5
4BA0
  8
241
 10
65.066299999999998
 20
-39.308799999999998
 30
0.0
 70
    32
  0
VERTEX
  5
4BA1
  8
241
 10
65.059200000000004
 20
-39.203499999999998
 30
0.0
 70
    32
  0
VERTEX
  5
4BA2
  8
241
 10
65.048699999999997
 20
-39.098300000000002
 30
0.0
 70
    32
  0
VERTEX
  5
4BA3
  8
241
 10
65.034800000000004
 20
-38.993299999999998
 30
0.0
 70
    32
  0
VERTEX
  5
4BA4
  8
241
 10
65.017499999999998
 20
-38.8887
 30
0.0
 70
    32
  0
VERTEX
  5
4BA5
  8
241
 10
64.996899999999997
 20
-38.784300000000002
 30
0.0
 70
    32
  0
VERTEX
  5
4BA6
  8
241
 10
64.972899999999996
 20
-38.680399999999999
 30
0.0
 70
    32
  0
VERTEX
  5
4BA7
  8
241
 10
64.945499999999996
 20
-38.576999999999998
 30
0.0
 70
    32
  0
VERTEX
  5
4BA8
  8
241
 10
64.9148
 20
-38.4741
 30
0.0
 70
    32
  0
VERTEX
  5
4BA9
  8
241
 10
64.880899999999997
 20
-38.371699999999997
 30
0.0
 70
    32
  0
VERTEX
  5
4BAA
  8
241
 10
64.843599999999995
 20
-38.270099999999999
 30
0.0
 70
    32
  0
VERTEX
  5
4BAB
  8
241
 10
64.803100000000001
 20
-38.1691
 30
0.0
 70
    32
  0
VERTEX
  5
4BAC
  8
241
 10
64.759299999999996
 20
-38.068899999999999
 30
0.0
 70
    32
  0
VERTEX
  5
4BAD
  8
241
 10
64.712299999999999
 20
-37.9696
 30
0.0
 70
    32
  0
VERTEX
  5
4BAE
  8
241
 10
64.662099999999995
 20
-37.871099999999998
 30
0.0
 70
    32
  0
VERTEX
  5
4BAF
  8
241
 10
64.608800000000002
 20
-37.773600000000002
 30
0.0
 70
    32
  0
VERTEX
  5
4BB0
  8
241
 10
64.552300000000002
 20
-37.67710000000001
 30
0.0
 70
    32
  0
VERTEX
  5
4BB1
  8
241
 10
64.492699999999999
 20
-37.581699999999998
 30
0.0
 70
    32
  0
VERTEX
  5
4BB2
  8
241
 10
64.430099999999996
 20
-37.487400000000001
 30
0.0
 70
    32
  0
VERTEX
  5
4BB3
  8
241
 10
64.364500000000007
 20
-37.394199999999998
 30
0.0
 70
    32
  0
VERTEX
  5
4BB4
  8
241
 10
64.295900000000003
 20
-37.30230000000001
 30
0.0
 70
    32
  0
VERTEX
  5
4BB5
  8
241
 10
64.224299999999999
 20
-37.2117
 30
0.0
 70
    32
  0
VERTEX
  5
4BB6
  8
241
 10
64.149799999999985
 20
-37.122399999999999
 30
0.0
 70
    32
  0
VERTEX
  5
4BB7
  8
241
 10
64.072500000000005
 20
-37.034500000000001
 30
0.0
 70
    32
  0
VERTEX
  5
4BB8
  8
241
 10
63.992400000000004
 20
-36.948099999999997
 30
0.0
 70
    32
  0
VERTEX
  5
4BB9
  8
241
 10
63.909500000000001
 20
-36.86310000000001
 30
0.0
 70
    32
  0
VERTEX
  5
4BBA
  8
241
 10
63.823799999999999
 20
-36.779699999999998
 30
0.0
 70
    32
  0
VERTEX
  5
4BBB
  8
241
 10
63.735599999999998
 20
-36.697899999999997
 30
0.0
 70
    32
  0
VERTEX
  5
4BBC
  8
241
 10
63.6447
 20
-36.617699999999999
 30
0.0
 70
    32
  0
VERTEX
  5
4BBD
  8
241
 10
63.551200000000001
 20
-36.539299999999997
 30
0.0
 70
    32
  0
VERTEX
  5
4BBE
  8
241
 10
63.455300000000001
 20
-36.462499999999999
 30
0.0
 70
    32
  0
VERTEX
  5
4BBF
  8
241
 10
63.356900000000003
 20
-36.387599999999999
 30
0.0
 70
    32
  0
VERTEX
  5
4BC0
  8
241
 10
63.256100000000011
 20
-36.314399999999999
 30
0.0
 70
    32
  0
VERTEX
  5
4BC1
  8
241
 10
63.152999999999999
 20
-36.243200000000002
 30
0.0
 70
    32
  0
VERTEX
  5
4BC2
  8
241
 10
63.047600000000003
 20
-36.1738
 30
0.0
 70
    32
  0
VERTEX
  5
4BC3
  8
241
 10
62.940100000000001
 20
-36.106400000000001
 30
0.0
 70
    32
  0
VERTEX
  5
4BC4
  8
241
 10
62.830300000000001
 20
-36.040999999999997
 30
0.0
 70
    32
  0
VERTEX
  5
4BC5
  8
241
 10
62.718499999999999
 20
-35.977600000000002
 30
0.0
 70
    32
  0
VERTEX
  5
4BC6
  8
241
 10
62.604700000000001
 20
-35.9163
 30
0.0
 70
    32
  0
VERTEX
  5
4BC7
  8
241
 10
62.48899999999999
 20
-35.857199999999999
 30
0.0
 70
    32
  0
VERTEX
  5
4BC8
  8
241
 10
62.371400000000001
 20
-35.8001
 30
0.0
 70
    32
  0
VERTEX
  5
4BC9
  8
241
 10
62.251899999999999
 20
-35.745199999999997
 30
0.0
 70
    32
  0
VERTEX
  5
4BCA
  8
241
 10
62.130800000000001
 20
-35.692500000000003
 30
0.0
 70
    32
  0
VERTEX
  5
4BCB
  8
241
 10
62.008000000000003
 20
-35.642099999999999
 30
0.0
 70
    32
  0
VERTEX
  5
4BCC
  8
241
 10
61.883499999999991
 20
-35.593899999999998
 30
0.0
 70
    32
  0
VERTEX
  5
4BCD
  8
241
 10
61.757599999999996
 20
-35.548099999999998
 30
0.0
 70
    32
  0
VERTEX
  5
4BCE
  8
241
 10
61.630200000000002
 20
-35.5045
 30
0.0
 70
    32
  0
VERTEX
  5
4BCF
  8
241
 10
61.5015
 20
-35.463299999999997
 30
0.0
 70
    32
  0
VERTEX
  5
4BD0
  8
241
 10
61.371499999999997
 20
-35.424500000000002
 30
0.0
 70
    32
  0
VERTEX
  5
4BD1
  8
241
 10
61.240200000000002
 20
-35.388100000000001
 30
0.0
 70
    32
  0
VERTEX
  5
4BD2
  8
241
 10
61.107900000000001
 20
-35.35410000000001
 30
0.0
 70
    32
  0
VERTEX
  5
4BD3
  8
241
 10
60.974400000000003
 20
-35.322499999999998
 30
0.0
 70
    32
  0
VERTEX
  5
4BD4
  8
241
 10
60.840000000000003
 20
-35.293399999999998
 30
0.0
 70
    32
  0
VERTEX
  5
4BD5
  8
241
 10
60.704700000000003
 20
-35.2667
 30
0.0
 70
    32
  0
VERTEX
  5
4BD6
  8
241
 10
60.568600000000004
 20
-35.242600000000003
 30
0.0
 70
    32
  0
VERTEX
  5
4BD7
  8
241
 10
60.431699999999992
 20
-35.2209
 30
0.0
 70
    32
  0
VERTEX
  5
4BD8
  8
241
 10
60.294199999999996
 20
-35.201799999999999
 30
0.0
 70
    32
  0
VERTEX
  5
4BD9
  8
241
 10
60.156100000000002
 20
-35.185200000000002
 30
0.0
 70
    32
  0
VERTEX
  5
4BDA
  8
241
 10
60.017499999999998
 20
-35.17110000000001
 30
0.0
 70
    32
  0
VERTEX
  5
4BDB
  8
241
 10
59.878500000000003
 20
-35.159599999999998
 30
0.0
 70
    32
  0
VERTEX
  5
4BDC
  8
241
 10
59.73919999999999
 20
-35.150599999999997
 30
0.0
 70
    32
  0
VERTEX
  5
4BDD
  8
241
 10
59.599600000000002
 20
-35.144199999999998
 30
0.0
 70
    32
  0
VERTEX
  5
4BDE
  8
241
 10
59.459800000000001
 20
-35.1404
 30
0.0
 70
    32
  0
VERTEX
  5
4BDF
  8
241
 10
59.32
 20
-35.139099999999999
 30
0.0
 70
    32
  0
VERTEX
  5
4BE0
  8
241
 10
59.180199999999999
 20
-35.1404
 30
0.0
 70
    32
  0
VERTEX
  5
4BE1
  8
241
 10
59.040399999999998
 20
-35.144199999999998
 30
0.0
 70
    32
  0
VERTEX
  5
4BE2
  8
241
 10
58.900799999999997
 20
-35.150599999999997
 30
0.0
 70
    32
  0
VERTEX
  5
4BE3
  8
241
 10
58.761499999999991
 20
-35.159599999999998
 30
0.0
 70
    32
  0
VERTEX
  5
4BE4
  8
241
 10
58.622500000000002
 20
-35.17110000000001
 30
0.0
 70
    32
  0
VERTEX
  5
4BE5
  8
241
 10
58.483899999999998
 20
-35.185200000000002
 30
0.0
 70
    32
  0
VERTEX
  5
4BE6
  8
241
 10
58.34579999999999
 20
-35.201799999999999
 30
0.0
 70
    32
  0
VERTEX
  5
4BE7
  8
241
 10
58.208300000000001
 20
-35.2209
 30
0.0
 70
    32
  0
VERTEX
  5
4BE8
  8
241
 10
58.071399999999997
 20
-35.242600000000003
 30
0.0
 70
    32
  0
VERTEX
  5
4BE9
  8
241
 10
57.935299999999998
 20
-35.2667
 30
0.0
 70
    32
  0
VERTEX
  5
4BEA
  8
241
 10
57.799999999999997
 20
-35.293399999999998
 30
0.0
 70
    32
  0
VERTEX
  5
4BEB
  8
241
 10
57.665599999999998
 20
-35.322499999999998
 30
0.0
 70
    32
  0
VERTEX
  5
4BEC
  8
241
 10
57.5321
 20
-35.35410000000001
 30
0.0
 70
    32
  0
VERTEX
  5
4BED
  8
241
 10
57.399799999999999
 20
-35.388100000000001
 30
0.0
 70
    32
  0
VERTEX
  5
4BEE
  8
241
 10
57.268500000000003
 20
-35.424500000000002
 30
0.0
 70
    32
  0
VERTEX
  5
4BEF
  8
241
 10
57.138500000000001
 20
-35.463299999999997
 30
0.0
 70
    32
  0
VERTEX
  5
4BF0
  8
241
 10
57.009799999999998
 20
-35.5045
 30
0.0
 70
    32
  0
VERTEX
  5
4BF1
  8
241
 10
56.882399999999997
 20
-35.548099999999998
 30
0.0
 70
    32
  0
VERTEX
  5
4BF2
  8
241
 10
56.756500000000003
 20
-35.593899999999998
 30
0.0
 70
    32
  0
VERTEX
  5
4BF3
  8
241
 10
56.631999999999991
 20
-35.642099999999999
 30
0.0
 70
    32
  0
VERTEX
  5
4BF4
  8
241
 10
56.5092
 20
-35.692500000000003
 30
0.0
 70
    32
  0
VERTEX
  5
4BF5
  8
241
 10
56.388100000000001
 20
-35.745199999999997
 30
0.0
 70
    32
  0
VERTEX
  5
4BF6
  8
241
 10
56.268599999999999
 20
-35.8001
 30
0.0
 70
    32
  0
VERTEX
  5
4BF7
  8
241
 10
56.151000000000003
 20
-35.857199999999999
 30
0.0
 70
    32
  0
VERTEX
  5
4BF8
  8
241
 10
56.035299999999999
 20
-35.9163
 30
0.0
 70
    32
  0
VERTEX
  5
4BF9
  8
241
 10
55.921500000000002
 20
-35.977600000000002
 30
0.0
 70
    32
  0
VERTEX
  5
4BFA
  8
241
 10
55.809699999999999
 20
-36.040999999999997
 30
0.0
 70
    32
  0
VERTEX
  5
4BFB
  8
241
 10
55.6999
 20
-36.106400000000001
 30
0.0
 70
    32
  0
VERTEX
  5
4BFC
  8
241
 10
55.592399999999991
 20
-36.1738
 30
0.0
 70
    32
  0
VERTEX
  5
4BFD
  8
241
 10
55.487000000000002
 20
-36.243200000000002
 30
0.0
 70
    32
  0
VERTEX
  5
4BFE
  8
241
 10
55.38389999999999
 20
-36.314399999999999
 30
0.0
 70
    32
  0
VERTEX
  5
4BFF
  8
241
 10
55.283099999999997
 20
-36.387599999999999
 30
0.0
 70
    32
  0
VERTEX
  5
4C00
  8
241
 10
55.184699999999999
 20
-36.462499999999999
 30
0.0
 70
    32
  0
VERTEX
  5
4C01
  8
241
 10
55.088799999999999
 20
-36.539299999999997
 30
0.0
 70
    32
  0
VERTEX
  5
4C02
  8
241
 10
54.9953
 20
-36.617699999999999
 30
0.0
 70
    32
  0
VERTEX
  5
4C03
  8
241
 10
54.904400000000003
 20
-36.697899999999997
 30
0.0
 70
    32
  0
VERTEX
  5
4C04
  8
241
 10
54.816200000000002
 20
-36.779699999999998
 30
0.0
 70
    32
  0
VERTEX
  5
4C05
  8
241
 10
54.730499999999999
 20
-36.86310000000001
 30
0.0
 70
    32
  0
VERTEX
  5
4C06
  8
241
 10
54.647599999999997
 20
-36.948099999999997
 30
0.0
 70
    32
  0
VERTEX
  5
4C07
  8
241
 10
54.567500000000003
 20
-37.034500000000001
 30
0.0
 70
    32
  0
VERTEX
  5
4C08
  8
241
 10
54.490200000000002
 20
-37.122399999999999
 30
0.0
 70
    32
  0
VERTEX
  5
4C09
  8
241
 10
54.415700000000001
 20
-37.2117
 30
0.0
 70
    32
  0
VERTEX
  5
4C0A
  8
241
 10
54.34409999999999
 20
-37.30230000000001
 30
0.0
 70
    32
  0
VERTEX
  5
4C0B
  8
241
 10
54.275500000000001
 20
-37.394199999999998
 30
0.0
 70
    32
  0
VERTEX
  5
4C0C
  8
241
 10
54.20989999999999
 20
-37.487400000000001
 30
0.0
 70
    32
  0
VERTEX
  5
4C0D
  8
241
 10
54.147300000000001
 20
-37.581699999999998
 30
0.0
 70
    32
  0
VERTEX
  5
4C0E
  8
241
 10
54.087699999999998
 20
-37.67710000000001
 30
0.0
 70
    32
  0
VERTEX
  5
4C0F
  8
241
 10
54.031199999999998
 20
-37.773600000000002
 30
0.0
 70
    32
  0
VERTEX
  5
4C10
  8
241
 10
53.977899999999998
 20
-37.871099999999998
 30
0.0
 70
    32
  0
VERTEX
  5
4C11
  8
241
 10
53.927700000000002
 20
-37.9696
 30
0.0
 70
    32
  0
VERTEX
  5
4C12
  8
241
 10
53.88069999999999
 20
-38.068899999999999
 30
0.0
 70
    32
  0
VERTEX
  5
4C13
  8
241
 10
53.8369
 20
-38.1691
 30
0.0
 70
    32
  0
VERTEX
  5
4C14
  8
241
 10
53.796399999999998
 20
-38.270099999999999
 30
0.0
 70
    32
  0
VERTEX
  5
4C15
  8
241
 10
53.759099999999997
 20
-38.371699999999997
 30
0.0
 70
    32
  0
VERTEX
  5
4C16
  8
241
 10
53.725200000000001
 20
-38.4741
 30
0.0
 70
    32
  0
VERTEX
  5
4C17
  8
241
 10
53.694499999999998
 20
-38.576999999999998
 30
0.0
 70
    32
  0
VERTEX
  5
4C18
  8
241
 10
53.667099999999998
 20
-38.680399999999999
 30
0.0
 70
    32
  0
VERTEX
  5
4C19
  8
241
 10
53.64309999999999
 20
-38.784300000000002
 30
0.0
 70
    32
  0
VERTEX
  5
4C1A
  8
241
 10
53.622500000000002
 20
-38.8887
 30
0.0
 70
    32
  0
VERTEX
  5
4C1B
  8
241
 10
53.605200000000011
 20
-38.993299999999998
 30
0.0
 70
    32
  0
VERTEX
  5
4C1C
  8
241
 10
53.591299999999997
 20
-39.098300000000002
 30
0.0
 70
    32
  0
VERTEX
  5
4C1D
  8
241
 10
53.580800000000011
 20
-39.203499999999998
 30
0.0
 70
    32
  0
VERTEX
  5
4C1E
  8
241
 10
53.573700000000002
 20
-39.308799999999998
 30
0.0
 70
    32
  0
VERTEX
  5
4C1F
  8
241
 10
53.57
 20
-39.414299999999997
 30
0.0
 70
    32
  0
SEQEND
  5
4C20
  8
241
  0
POLYLINE
  5
4C21
  8
241
  6
CONTINUOUS
 66
     1
 10
0.0
 20
0.0
 30
0.0
 70
     8
  0
VERTEX
  5
4C22
  8
241
 10
53.57
 20
39.414299999999997
 30
0.0
 70
    32
  0
VERTEX
  5
4C23
  8
241
 10
53.571699999999993
 20
39.4925
 30
0.0
 70
    32
  0
VERTEX
  5
4C24
  8
241
 10
53.576900000000002
 20
39.570700000000002
 30
0.0
 70
    32
  0
VERTEX
  5
4C25
  8
241
 10
53.585599999999999
 20
39.648699999999998
 30
0.0
 70
    32
  0
VERTEX
  5
4C26
  8
241
 10
53.59770000000001
 20
39.726700000000001
 30
0.0
 70
    32
  0
VERTEX
  5
4C27
  8
241
 10
53.613199999999999
 20
39.804400000000001
 30
0.0
 70
    32
  0
VERTEX
  5
4C28
  8
241
 10
53.632199999999997
 20
39.881900000000002
 30
0.0
 70
    32
  0
VERTEX
  5
4C29
  8
241
 10
53.654699999999998
 20
39.959099999999999
 30
0.0
 70
    32
  0
VERTEX
  5
4C2A
  8
241
 10
53.680500000000002
 20
40.036000000000001
 30
0.0
 70
    32
  0
VERTEX
  5
4C2B
  8
241
 10
53.709699999999991
 20
40.11249999999999
 30
0.0
 70
    32
  0
VERTEX
  5
4C2C
  8
241
 10
53.7423
 20
40.188600000000001
 30
0.0
 70
    32
  0
VERTEX
  5
4C2D
  8
241
 10
53.778300000000002
 20
40.264299999999999
 30
0.0
 70
    32
  0
VERTEX
  5
4C2E
  8
241
 10
53.817599999999992
 20
40.339399999999998
 30
0.0
 70
    32
  0
VERTEX
  5
4C2F
  8
241
 10
53.860199999999999
 20
40.414000000000001
 30
0.0
 70
    32
  0
VERTEX
  5
4C30
  8
241
 10
53.906100000000002
 20
40.487900000000003
 30
0.0
 70
    32
  0
VERTEX
  5
4C31
  8
241
 10
53.955300000000001
 20
40.561199999999992
 30
0.0
 70
    32
  0
VERTEX
  5
4C32
  8
241
 10
54.0077
 20
40.633899999999997
 30
0.0
 70
    32
  0
VERTEX
  5
4C33
  8
241
 10
54.063299999999998
 20
40.7057
 30
0.0
 70
    32
  0
VERTEX
  5
4C34
  8
241
 10
54.122100000000003
 20
40.776899999999991
 30
0.0
 70
    32
  0
VERTEX
  5
4C35
  8
241
 10
54.183999999999997
 20
40.847099999999998
 30
0.0
 70
    32
  0
VERTEX
  5
4C36
  8
241
 10
54.249000000000002
 20
40.916600000000003
 30
0.0
 70
    32
  0
VERTEX
  5
4C37
  8
241
 10
54.317
 20
40.985100000000003
 30
0.0
 70
    32
  0
VERTEX
  5
4C38
  8
241
 10
54.388100000000001
 20
41.052699999999987
 30
0.0
 70
    32
  0
VERTEX
  5
4C39
  8
241
 10
54.4621
 20
41.119300000000003
 30
0.0
 70
    32
  0
VERTEX
  5
4C3A
  8
241
 10
54.539000000000001
 20
41.184800000000003
 30
0.0
 70
    32
  0
VERTEX
  5
4C3B
  8
241
 10
54.618899999999996
 20
41.249299999999991
 30
0.0
 70
    32
  0
VERTEX
  5
4C3C
  8
241
 10
54.701599999999992
 20
41.312699999999992
 30
0.0
 70
    32
  0
VERTEX
  5
4C3D
  8
241
 10
54.786999999999992
 20
41.375
 30
0.0
 70
    32
  0
VERTEX
  5
4C3E
  8
241
 10
54.875199999999992
 20
41.436
 30
0.0
 70
    32
  0
VERTEX
  5
4C3F
  8
241
 10
54.966000000000001
 20
41.495899999999992
 30
0.0
 70
    32
  0
VERTEX
  5
4C40
  8
241
 10
55.0595
 20
41.554499999999997
 30
0.0
 70
    32
  0
VERTEX
  5
4C41
  8
241
 10
55.1556
 20
41.611800000000002
 30
0.0
 70
    32
  0
VERTEX
  5
4C42
  8
241
 10
55.254100000000001
 20
41.667700000000004
 30
0.0
 70
    32
  0
VERTEX
  5
4C43
  8
241
 10
55.3551
 20
41.7224
 30
0.0
 70
    32
  0
VERTEX
  5
4C44
  8
241
 10
55.458500000000001
 20
41.77559999999999
 30
0.0
 70
    32
  0
VERTEX
  5
4C45
  8
241
 10
55.564300000000003
 20
41.82739999999999
 30
0.0
 70
    32
  0
VERTEX
  5
4C46
  8
241
 10
55.672199999999989
 20
41.877800000000001
 30
0.0
 70
    32
  0
VERTEX
  5
4C47
  8
241
 10
55.782400000000003
 20
41.926600000000001
 30
0.0
 70
    32
  0
VERTEX
  5
4C48
  8
241
 10
55.8947
 20
41.973999999999997
 30
0.0
 70
    32
  0
VERTEX
  5
4C49
  8
241
 10
56.009099999999989
 20
42.019799999999989
 30
0.0
 70
    32
  0
VERTEX
  5
4C4A
  8
241
 10
56.125500000000002
 20
42.064100000000003
 30
0.0
 70
    32
  0
VERTEX
  5
4C4B
  8
241
 10
56.2438
 20
42.106699999999989
 30
0.0
 70
    32
  0
VERTEX
  5
4C4C
  8
241
 10
56.363900000000001
 20
42.147799999999997
 30
0.0
 70
    32
  0
VERTEX
  5
4C4D
  8
241
 10
56.48579999999999
 20
42.187100000000001
 30
0.0
 70
    32
  0
VERTEX
  5
4C4E
  8
241
 10
56.60949999999999
 20
42.224899999999991
 30
0.0
 70
    32
  0
VERTEX
  5
4C4F
  8
241
 10
56.734699999999997
 20
42.260899999999999
 30
0.0
 70
    32
  0
VERTEX
  5
4C50
  8
241
 10
56.861600000000003
 20
42.295199999999987
 30
0.0
 70
    32
  0
VERTEX
  5
4C51
  8
241
 10
56.989899999999999
 20
42.327800000000003
 30
0.0
 70
    32
  0
VERTEX
  5
4C52
  8
241
 10
57.119599999999998
 20
42.358600000000003
 30
0.0
 70
    32
  0
VERTEX
  5
4C53
  8
241
 10
57.250599999999999
 20
42.387599999999999
 30
0.0
 70
    32
  0
VERTEX
  5
4C54
  8
241
 10
57.382899999999999
 20
42.414900000000003
 30
0.0
 70
    32
  0
VERTEX
  5
4C55
  8
241
 10
57.516300000000001
 20
42.440300000000001
 30
0.0
 70
    32
  0
VERTEX
  5
4C56
  8
241
 10
57.6509
 20
42.463900000000002
 30
0.0
 70
    32
  0
VERTEX
  5
4C57
  8
241
 10
57.7864
 20
42.485699999999987
 30
0.0
 70
    32
  0
VERTEX
  5
4C58
  8
241
 10
57.922899999999998
 20
42.505600000000001
 30
0.0
 70
    32
  0
VERTEX
  5
4C59
  8
241
 10
58.060200000000002
 20
42.523699999999991
 30
0.0
 70
    32
  0
VERTEX
  5
4C5A
  8
241
 10
58.198199999999993
 20
42.539900000000003
 30
0.0
 70
    32
  0
VERTEX
  5
4C5B
  8
241
 10
58.337000000000003
 20
42.554199999999987
 30
0.0
 70
    32
  0
VERTEX
  5
4C5C
  8
241
 10
58.476300000000002
 20
42.56669999999999
 30
0.0
 70
    32
  0
VERTEX
  5
4C5D
  8
241
 10
58.616100000000003
 20
42.577199999999991
 30
0.0
 70
    32
  0
VERTEX
  5
4C5E
  8
241
 10
58.756399999999999
 20
42.585799999999999
 30
0.0
 70
    32
  0
VERTEX
  5
4C5F
  8
241
 10
58.896999999999998
 20
42.592500000000001
 30
0.0
 70
    32
  0
VERTEX
  5
4C60
  8
241
 10
59.0379
 20
42.597299999999997
 30
0.0
 70
    32
  0
VERTEX
  5
4C61
  8
241
 10
59.178899999999992
 20
42.600199999999987
 30
0.0
 70
    32
  0
VERTEX
  5
4C62
  8
241
 10
59.32
 20
42.601199999999992
 30
0.0
 70
    32
  0
VERTEX
  5
4C63
  8
241
 10
59.461100000000002
 20
42.600199999999987
 30
0.0
 70
    32
  0
VERTEX
  5
4C64
  8
241
 10
59.6021
 20
42.597299999999997
 30
0.0
 70
    32
  0
VERTEX
  5
4C65
  8
241
 10
59.743000000000002
 20
42.592500000000001
 30
0.0
 70
    32
  0
VERTEX
  5
4C66
  8
241
 10
59.883600000000001
 20
42.585799999999999
 30
0.0
 70
    32
  0
VERTEX
  5
4C67
  8
241
 10
60.023899999999998
 20
42.577199999999991
 30
0.0
 70
    32
  0
VERTEX
  5
4C68
  8
241
 10
60.163699999999999
 20
42.56669999999999
 30
0.0
 70
    32
  0
VERTEX
  5
4C69
  8
241
 10
60.302999999999997
 20
42.554199999999987
 30
0.0
 70
    32
  0
VERTEX
  5
4C6A
  8
241
 10
60.441800000000001
 20
42.539900000000003
 30
0.0
 70
    32
  0
VERTEX
  5
4C6B
  8
241
 10
60.579799999999999
 20
42.523699999999991
 30
0.0
 70
    32
  0
VERTEX
  5
4C6C
  8
241
 10
60.717100000000002
 20
42.505600000000001
 30
0.0
 70
    32
  0
VERTEX
  5
4C6D
  8
241
 10
60.8536
 20
42.485699999999987
 30
0.0
 70
    32
  0
VERTEX
  5
4C6E
  8
241
 10
60.989100000000001
 20
42.463900000000002
 30
0.0
 70
    32
  0
VERTEX
  5
4C6F
  8
241
 10
61.123699999999999
 20
42.440300000000001
 30
0.0
 70
    32
  0
VERTEX
  5
4C70
  8
241
 10
61.257100000000001
 20
42.414900000000003
 30
0.0
 70
    32
  0
VERTEX
  5
4C71
  8
241
 10
61.389400000000002
 20
42.387599999999999
 30
0.0
 70
    32
  0
VERTEX
  5
4C72
  8
241
 10
61.520400000000002
 20
42.358600000000003
 30
0.0
 70
    32
  0
VERTEX
  5
4C73
  8
241
 10
61.650100000000002
 20
42.327800000000003
 30
0.0
 70
    32
  0
VERTEX
  5
4C74
  8
241
 10
61.778399999999991
 20
42.295199999999987
 30
0.0
 70
    32
  0
VERTEX
  5
4C75
  8
241
 10
61.90529999999999
 20
42.260899999999999
 30
0.0
 70
    32
  0
VERTEX
  5
4C76
  8
241
 10
62.030500000000011
 20
42.224899999999991
 30
0.0
 70
    32
  0
VERTEX
  5
4C77
  8
241
 10
62.154200000000003
 20
42.187100000000001
 30
0.0
 70
    32
  0
VERTEX
  5
4C78
  8
241
 10
62.2761
 20
42.147799999999997
 30
0.0
 70
    32
  0
VERTEX
  5
4C79
  8
241
 10
62.3962
 20
42.106699999999989
 30
0.0
 70
    32
  0
VERTEX
  5
4C7A
  8
241
 10
62.514499999999998
 20
42.064100000000003
 30
0.0
 70
    32
  0
VERTEX
  5
4C7B
  8
241
 10
62.630899999999997
 20
42.019799999999989
 30
0.0
 70
    32
  0
VERTEX
  5
4C7C
  8
241
 10
62.7453
 20
41.973999999999997
 30
0.0
 70
    32
  0
VERTEX
  5
4C7D
  8
241
 10
62.857599999999991
 20
41.926600000000001
 30
0.0
 70
    32
  0
VERTEX
  5
4C7E
  8
241
 10
62.967799999999997
 20
41.877800000000001
 30
0.0
 70
    32
  0
VERTEX
  5
4C7F
  8
241
 10
63.075699999999998
 20
41.82739999999999
 30
0.0
 70
    32
  0
VERTEX
  5
4C80
  8
241
 10
63.1815
 20
41.77559999999999
 30
0.0
 70
    32
  0
VERTEX
  5
4C81
  8
241
 10
63.2849
 20
41.7224
 30
0.0
 70
    32
  0
VERTEX
  5
4C82
  8
241
 10
63.385899999999992
 20
41.667700000000004
 30
0.0
 70
    32
  0
VERTEX
  5
4C83
  8
241
 10
63.484400000000001
 20
41.611800000000002
 30
0.0
 70
    32
  0
VERTEX
  5
4C84
  8
241
 10
63.580500000000001
 20
41.554499999999997
 30
0.0
 70
    32
  0
VERTEX
  5
4C85
  8
241
 10
63.673999999999992
 20
41.495899999999992
 30
0.0
 70
    32
  0
VERTEX
  5
4C86
  8
241
 10
63.764800000000001
 20
41.436
 30
0.0
 70
    32
  0
VERTEX
  5
4C87
  8
241
 10
63.853000000000002
 20
41.375
 30
0.0
 70
    32
  0
VERTEX
  5
4C88
  8
241
 10
63.938400000000001
 20
41.312699999999992
 30
0.0
 70
    32
  0
VERTEX
  5
4C89
  8
241
 10
64.021100000000004
 20
41.249299999999991
 30
0.0
 70
    32
  0
VERTEX
  5
4C8A
  8
241
 10
64.100999999999985
 20
41.184800000000003
 30
0.0
 70
    32
  0
VERTEX
  5
4C8B
  8
241
 10
64.177899999999994
 20
41.119300000000003
 30
0.0
 70
    32
  0
VERTEX
  5
4C8C
  8
241
 10
64.251900000000006
 20
41.052699999999987
 30
0.0
 70
    32
  0
VERTEX
  5
4C8D
  8
241
 10
64.322999999999993
 20
40.985100000000003
 30
0.0
 70
    32
  0
VERTEX
  5
4C8E
  8
241
 10
64.391000000000005
 20
40.916600000000003
 30
0.0
 70
    32
  0
VERTEX
  5
4C8F
  8
241
 10
64.456000000000003
 20
40.847099999999998
 30
0.0
 70
    32
  0
VERTEX
  5
4C90
  8
241
 10
64.517899999999983
 20
40.776899999999991
 30
0.0
 70
    32
  0
VERTEX
  5
4C91
  8
241
 10
64.576700000000002
 20
40.7057
 30
0.0
 70
    32
  0
VERTEX
  5
4C92
  8
241
 10
64.632300000000001
 20
40.633899999999997
 30
0.0
 70
    32
  0
VERTEX
  5
4C93
  8
241
 10
64.684700000000007
 20
40.561199999999992
 30
0.0
 70
    32
  0
VERTEX
  5
4C94
  8
241
 10
64.733900000000006
 20
40.487900000000003
 30
0.0
 70
    32
  0
VERTEX
  5
4C95
  8
241
 10
64.779799999999994
 20
40.414000000000001
 30
0.0
 70
    32
  0
VERTEX
  5
4C96
  8
241
 10
64.822400000000002
 20
40.339399999999998
 30
0.0
 70
    32
  0
VERTEX
  5
4C97
  8
241
 10
64.861699999999999
 20
40.264299999999999
 30
0.0
 70
    32
  0
VERTEX
  5
4C98
  8
241
 10
64.8977
 20
40.188600000000001
 30
0.0
 70
    32
  0
VERTEX
  5
4C99
  8
241
 10
64.930300000000003
 20
40.11249999999999
 30
0.0
 70
    32
  0
VERTEX
  5
4C9A
  8
241
 10
64.959500000000006
 20
40.036000000000001
 30
0.0
 70
    32
  0
VERTEX
  5
4C9B
  8
241
 10
64.985299999999995
 20
39.959099999999999
 30
0.0
 70
    32
  0
VERTEX
  5
4C9C
  8
241
 10
65.007800000000003
 20
39.881900000000002
 30
0.0
 70
    32
  0
VERTEX
  5
4C9D
  8
241
 10
65.026799999999994
 20
39.804400000000001
 30
0.0
 70
    32
  0
VERTEX
  5
4C9E
  8
241
 10
65.042299999999983
 20
39.726700000000001
 30
0.0
 70
    32
  0
VERTEX
  5
4C9F
  8
241
 10
65.054400000000001
 20
39.648699999999998
 30
0.0
 70
    32
  0
VERTEX
  5
4CA0
  8
241
 10
65.063100000000006
 20
39.570700000000002
 30
0.0
 70
    32
  0
VERTEX
  5
4CA1
  8
241
 10
65.068299999999994
 20
39.4925
 30
0.0
 70
    32
  0
VERTEX
  5
4CA2
  8
241
 10
65.069999999999993
 20
39.414299999999997
 30
0.0
 70
    32
  0
SEQEND
  5
4CA3
  8
241
  0
POLYLINE
  5
4CA4
  8
241
  6
CONTINUOUS
 66
     1
 10
0.0
 20
0.0
 30
0.0
 70
     8
  0
VERTEX
  5
4CA5
  8
241
 10
65.069999999999993
 20
39.414299999999997
 30
0.0
 70
    32
  0
VERTEX
  5
4CA6
  8
241
 10
65.066299999999998
 20
39.308799999999998
 30
0.0
 70
    32
  0
VERTEX
  5
4CA7
  8
241
 10
65.059200000000004
 20
39.203499999999998
 30
0.0
 70
    32
  0
VERTEX
  5
4CA8
  8
241
 10
65.048699999999997
 20
39.098300000000002
 30
0.0
 70
    32
  0
VERTEX
  5
4CA9
  8
241
 10
65.034800000000004
 20
38.993299999999998
 30
0.0
 70
    32
  0
VERTEX
  5
4CAA
  8
241
 10
65.017499999999998
 20
38.8887
 30
0.0
 70
    32
  0
VERTEX
  5
4CAB
  8
241
 10
64.996899999999997
 20
38.784300000000002
 30
0.0
 70
    32
  0
VERTEX
  5
4CAC
  8
241
 10
64.972899999999996
 20
38.680399999999999
 30
0.0
 70
    32
  0
VERTEX
  5
4CAD
  8
241
 10
64.945499999999996
 20
38.576999999999998
 30
0.0
 70
    32
  0
VERTEX
  5
4CAE
  8
241
 10
64.9148
 20
38.4741
 30
0.0
 70
    32
  0
VERTEX
  5
4CAF
  8
241
 10
64.880899999999997
 20
38.371699999999997
 30
0.0
 70
    32
  0
VERTEX
  5
4CB0
  8
241
 10
64.843599999999995
 20
38.270099999999999
 30
0.0
 70
    32
  0
VERTEX
  5
4CB1
  8
241
 10
64.803100000000001
 20
38.1691
 30
0.0
 70
    32
  0
VERTEX
  5
4CB2
  8
241
 10
64.759299999999996
 20
38.068899999999999
 30
0.0
 70
    32
  0
VERTEX
  5
4CB3
  8
241
 10
64.712299999999999
 20
37.9696
 30
0.0
 70
    32
  0
VERTEX
  5
4CB4
  8
241
 10
64.662099999999995
 20
37.871099999999998
 30
0.0
 70
    32
  0
VERTEX
  5
4CB5
  8
241
 10
64.608800000000002
 20
37.773600000000002
 30
0.0
 70
    32
  0
VERTEX
  5
4CB6
  8
241
 10
64.552300000000002
 20
37.67710000000001
 30
0.0
 70
    32
  0
VERTEX
  5
4CB7
  8
241
 10
64.492699999999999
 20
37.581699999999998
 30
0.0
 70
    32
  0
VERTEX
  5
4CB8
  8
241
 10
64.430099999999996
 20
37.487400000000001
 30
0.0
 70
    32
  0
VERTEX
  5
4CB9
  8
241
 10
64.364500000000007
 20
37.394199999999998
 30
0.0
 70
    32
  0
VERTEX
  5
4CBA
  8
241
 10
64.295900000000003
 20
37.30230000000001
 30
0.0
 70
    32
  0
VERTEX
  5
4CBB
  8
241
 10
64.224299999999999
 20
37.2117
 30
0.0
 70
    32
  0
VERTEX
  5
4CBC
  8
241
 10
64.149799999999985
 20
37.122399999999999
 30
0.0
 70
    32
  0
VERTEX
  5
4CBD
  8
241
 10
64.072500000000005
 20
37.034500000000001
 30
0.0
 70
    32
  0
VERTEX
  5
4CBE
  8
241
 10
63.992400000000004
 20
36.948099999999997
 30
0.0
 70
    32
  0
VERTEX
  5
4CBF
  8
241
 10
63.909500000000001
 20
36.86310000000001
 30
0.0
 70
    32
  0
VERTEX
  5
4CC0
  8
241
 10
63.823799999999999
 20
36.779699999999998
 30
0.0
 70
    32
  0
VERTEX
  5
4CC1
  8
241
 10
63.735599999999998
 20
36.697899999999997
 30
0.0
 70
    32
  0
VERTEX
  5
4CC2
  8
241
 10
63.6447
 20
36.617699999999999
 30
0.0
 70
    32
  0
VERTEX
  5
4CC3
  8
241
 10
63.551200000000001
 20
36.539299999999997
 30
0.0
 70
    32
  0
VERTEX
  5
4CC4
  8
241
 10
63.455300000000001
 20
36.462499999999999
 30
0.0
 70
    32
  0
VERTEX
  5
4CC5
  8
241
 10
63.356900000000003
 20
36.387599999999999
 30
0.0
 70
    32
  0
VERTEX
  5
4CC6
  8
241
 10
63.256100000000011
 20
36.314399999999999
 30
0.0
 70
    32
  0
VERTEX
  5
4CC7
  8
241
 10
63.152999999999999
 20
36.243200000000002
 30
0.0
 70
    32
  0
VERTEX
  5
4CC8
  8
241
 10
63.047600000000003
 20
36.1738
 30
0.0
 70
    32
  0
VERTEX
  5
4CC9
  8
241
 10
62.940100000000001
 20
36.106400000000001
 30
0.0
 70
    32
  0
VERTEX
  5
4CCA
  8
241
 10
62.830300000000001
 20
36.040999999999997
 30
0.0
 70
    32
  0
VERTEX
  5
4CCB
  8
241
 10
62.718499999999999
 20
35.977600000000002
 30
0.0
 70
    32
  0
VERTEX
  5
4CCC
  8
241
 10
62.604700000000001
 20
35.9163
 30
0.0
 70
    32
  0
VERTEX
  5
4CCD
  8
241
 10
62.48899999999999
 20
35.857199999999999
 30
0.0
 70
    32
  0
VERTEX
  5
4CCE
  8
241
 10
62.371400000000001
 20
35.8001
 30
0.0
 70
    32
  0
VERTEX
  5
4CCF
  8
241
 10
62.251899999999999
 20
35.745199999999997
 30
0.0
 70
    32
  0
VERTEX
  5
4CD0
  8
241
 10
62.130800000000001
 20
35.692500000000003
 30
0.0
 70
    32
  0
VERTEX
  5
4CD1
  8
241
 10
62.008000000000003
 20
35.642099999999999
 30
0.0
 70
    32
  0
VERTEX
  5
4CD2
  8
241
 10
61.883499999999991
 20
35.593899999999998
 30
0.0
 70
    32
  0
VERTEX
  5
4CD3
  8
241
 10
61.757599999999996
 20
35.548099999999998
 30
0.0
 70
    32
  0
VERTEX
  5
4CD4
  8
241
 10
61.630200000000002
 20
35.5045
 30
0.0
 70
    32
  0
VERTEX
  5
4CD5
  8
241
 10
61.5015
 20
35.463299999999997
 30
0.0
 70
    32
  0
VERTEX
  5
4CD6
  8
241
 10
61.371499999999997
 20
35.424500000000002
 30
0.0
 70
    32
  0
VERTEX
  5
4CD7
  8
241
 10
61.240200000000002
 20
35.388100000000001
 30
0.0
 70
    32
  0
VERTEX
  5
4CD8
  8
241
 10
61.107900000000001
 20
35.35410000000001
 30
0.0
 70
    32
  0
VERTEX
  5
4CD9
  8
241
 10
60.974400000000003
 20
35.322499999999998
 30
0.0
 70
    32
  0
VERTEX
  5
4CDA
  8
241
 10
60.840000000000003
 20
35.293399999999998
 30
0.0
 70
    32
  0
VERTEX
  5
4CDB
  8
241
 10
60.704700000000003
 20
35.2667
 30
0.0
 70
    32
  0
VERTEX
  5
4CDC
  8
241
 10
60.568600000000004
 20
35.242600000000003
 30
0.0
 70
    32
  0
VERTEX
  5
4CDD
  8
241
 10
60.431699999999992
 20
35.2209
 30
0.0
 70
    32
  0
VERTEX
  5
4CDE
  8
241
 10
60.294199999999996
 20
35.201799999999999
 30
0.0
 70
    32
  0
VERTEX
  5
4CDF
  8
241
 10
60.156100000000002
 20
35.185200000000002
 30
0.0
 70
    32
  0
VERTEX
  5
4CE0
  8
241
 10
60.017499999999998
 20
35.17110000000001
 30
0.0
 70
    32
  0
VERTEX
  5
4CE1
  8
241
 10
59.878500000000003
 20
35.159599999999998
 30
0.0
 70
    32
  0
VERTEX
  5
4CE2
  8
241
 10
59.73919999999999
 20
35.150599999999997
 30
0.0
 70
    32
  0
VERTEX
  5
4CE3
  8
241
 10
59.599600000000002
 20
35.144199999999998
 30
0.0
 70
    32
  0
VERTEX
  5
4CE4
  8
241
 10
59.459800000000001
 20
35.1404
 30
0.0
 70
    32
  0
VERTEX
  5
4CE5
  8
241
 10
59.32
 20
35.139099999999999
 30
0.0
 70
    32
  0
VERTEX
  5
4CE6
  8
241
 10
59.180199999999999
 20
35.1404
 30
0.0
 70
    32
  0
VERTEX
  5
4CE7
  8
241
 10
59.040399999999998
 20
35.144199999999998
 30
0.0
 70
    32
  0
VERTEX
  5
4CE8
  8
241
 10
58.900799999999997
 20
35.150599999999997
 30
0.0
 70
    32
  0
VERTEX
  5
4CE9
  8
241
 10
58.761499999999991
 20
35.159599999999998
 30
0.0
 70
    32
  0
VERTEX
  5
4CEA
  8
241
 10
58.622500000000002
 20
35.17110000000001
 30
0.0
 70
    32
  0
VERTEX
  5
4CEB
  8
241
 10
58.483899999999998
 20
35.185200000000002
 30
0.0
 70
    32
  0
VERTEX
  5
4CEC
  8
241
 10
58.34579999999999
 20
35.201799999999999
 30
0.0
 70
    32
  0
VERTEX
  5
4CED
  8
241
 10
58.208300000000001
 20
35.2209
 30
0.0
 70
    32
  0
VERTEX
  5
4CEE
  8
241
 10
58.071399999999997
 20
35.242600000000003
 30
0.0
 70
    32
  0
VERTEX
  5
4CEF
  8
241
 10
57.935299999999998
 20
35.2667
 30
0.0
 70
    32
  0
VERTEX
  5
4CF0
  8
241
 10
57.799999999999997
 20
35.293399999999998
 30
0.0
 70
    32
  0
VERTEX
  5
4CF1
  8
241
 10
57.665599999999998
 20
35.322499999999998
 30
0.0
 70
    32
  0
VERTEX
  5
4CF2
  8
241
 10
57.5321
 20
35.35410000000001
 30
0.0
 70
    32
  0
VERTEX
  5
4CF3
  8
241
 10
57.399799999999999
 20
35.388100000000001
 30
0.0
 70
    32
  0
VERTEX
  5
4CF4
  8
241
 10
57.268500000000003
 20
35.424500000000002
 30
0.0
 70
    32
  0
VERTEX
  5
4CF5
  8
241
 10
57.138500000000001
 20
35.463299999999997
 30
0.0
 70
    32
  0
VERTEX
  5
4CF6
  8
241
 10
57.009799999999998
 20
35.5045
 30
0.0
 70
    32
  0
VERTEX
  5
4CF7
  8
241
 10
56.882399999999997
 20
35.548099999999998
 30
0.0
 70
    32
  0
VERTEX
  5
4CF8
  8
241
 10
56.756500000000003
 20
35.593899999999998
 30
0.0
 70
    32
  0
VERTEX
  5
4CF9
  8
241
 10
56.631999999999991
 20
35.642099999999999
 30
0.0
 70
    32
  0
VERTEX
  5
4CFA
  8
241
 10
56.5092
 20
35.692500000000003
 30
0.0
 70
    32
  0
VERTEX
  5
4CFB
  8
241
 10
56.388100000000001
 20
35.745199999999997
 30
0.0
 70
    32
  0
VERTEX
  5
4CFC
  8
241
 10
56.268599999999999
 20
35.8001
 30
0.0
 70
    32
  0
VERTEX
  5
4CFD
  8
241
 10
56.151000000000003
 20
35.857199999999999
 30
0.0
 70
    32
  0
VERTEX
  5
4CFE
  8
241
 10
56.035299999999999
 20
35.9163
 30
0.0
 70
    32
  0
VERTEX
  5
4CFF
  8
241
 10
55.921500000000002
 20
35.977600000000002
 30
0.0
 70
    32
  0
VERTEX
  5
4D00
  8
241
 10
55.809699999999999
 20
36.040999999999997
 30
0.0
 70
    32
  0
VERTEX
  5
4D01
  8
241
 10
55.6999
 20
36.106400000000001
 30
0.0
 70
    32
  0
VERTEX
  5
4D02
  8
241
 10
55.592399999999991
 20
36.1738
 30
0.0
 70
    32
  0
VERTEX
  5
4D03
  8
241
 10
55.487000000000002
 20
36.243200000000002
 30
0.0
 70
    32
  0
VERTEX
  5
4D04
  8
241
 10
55.38389999999999
 20
36.314399999999999
 30
0.0
 70
    32
  0
VERTEX
  5
4D05
  8
241
 10
55.283099999999997
 20
36.387599999999999
 30
0.0
 70
    32
  0
VERTEX
  5
4D06
  8
241
 10
55.184699999999999
 20
36.462499999999999
 30
0.0
 70
    32
  0
VERTEX
  5
4D07
  8
241
 10
55.088799999999999
 20
36.539299999999997
 30
0.0
 70
    32
  0
VERTEX
  5
4D08
  8
241
 10
54.9953
 20
36.617699999999999
 30
0.0
 70
    32
  0
VERTEX
  5
4D09
  8
241
 10
54.904400000000003
 20
36.697899999999997
 30
0.0
 70
    32
  0
VERTEX
  5
4D0A
  8
241
 10
54.816200000000002
 20
36.779699999999998
 30
0.0
 70
    32
  0
VERTEX
  5
4D0B
  8
241
 10
54.730499999999999
 20
36.86310000000001
 30
0.0
 70
    32
  0
VERTEX
  5
4D0C
  8
241
 10
54.647599999999997
 20
36.948099999999997
 30
0.0
 70
    32
  0
VERTEX
  5
4D0D
  8
241
 10
54.567500000000003
 20
37.034500000000001
 30
0.0
 70
    32
  0
VERTEX
  5
4D0E
  8
241
 10
54.490200000000002
 20
37.122399999999999
 30
0.0
 70
    32
  0
VERTEX
  5
4D0F
  8
241
 10
54.415700000000001
 20
37.2117
 30
0.0
 70
    32
  0
VERTEX
  5
4D10
  8
241
 10
54.34409999999999
 20
37.30230000000001
 30
0.0
 70
    32
  0
VERTEX
  5
4D11
  8
241
 10
54.275500000000001
 20
37.394199999999998
 30
0.0
 70
    32
  0
VERTEX
  5
4D12
  8
241
 10
54.20989999999999
 20
37.487400000000001
 30
0.0
 70
    32
  0
VERTEX
  5
4D13
  8
241
 10
54.147300000000001
 20
37.581699999999998
 30
0.0
 70
    32
  0
VERTEX
  5
4D14
  8
241
 10
54.087699999999998
 20
37.67710000000001
 30
0.0
 70
    32
  0
VERTEX
  5
4D15
  8
241
 10
54.031199999999998
 20
37.773600000000002
 30
0.0
 70
    32
  0
VERTEX
  5
4D16
  8
241
 10
53.977899999999998
 20
37.871099999999998
 30
0.0
 70
    32
  0
VERTEX
  5
4D17
  8
241
 10
53.927700000000002
 20
37.9696
 30
0.0
 70
    32
  0
VERTEX
  5
4D18
  8
241
 10
53.88069999999999
 20
38.068899999999999
 30
0.0
 70
    32
  0
VERTEX
  5
4D19
  8
241
 10
53.8369
 20
38.1691
 30
0.0
 70
    32
  0
VERTEX
  5
4D1A
  8
241
 10
53.796399999999998
 20
38.270099999999999
 30
0.0
 70
    32
  0
VERTEX
  5
4D1B
  8
241
 10
53.759099999999997
 20
38.371699999999997
 30
0.0
 70
    32
  0
VERTEX
  5
4D1C
  8
241
 10
53.725200000000001
 20
38.4741
 30
0.0
 70
    32
  0
VERTEX
  5
4D1D
  8
241
 10
53.694499999999998
 20
38.576999999999998
 30
0.0
 70
    32
  0
VERTEX
  5
4D1E
  8
241
 10
53.667099999999998
 20
38.680399999999999
 30
0.0
 70
    32
  0
VERTEX
  5
4D1F
  8
241
 10
53.64309999999999
 20
38.784300000000002
 30
0.0
 70
    32
  0
VERTEX
  5
4D20
  8
241
 10
53.622500000000002
 20
38.8887
 30
0.0
 70
    32
  0
VERTEX
  5
4D21
  8
241
 10
53.605200000000011
 20
38.993299999999998
 30
0.0
 70
    32
  0
VERTEX
  5
4D22
  8
241
 10
53.591299999999997
 20
39.098300000000002
 30
0.0
 70
    32
  0
VERTEX
  5
4D23
  8
241
 10
53.580800000000011
 20
39.203499999999998
 30
0.0
 70
    32
  0
VERTEX
  5
4D24
  8
241
 10
53.573700000000002
 20
39.308799999999998
 30
0.0
 70
    32
  0
VERTEX
  5
4D25
  8
241
 10
53.57
 20
39.414299999999997
 30
0.0
 70
    32
  0
SEQEND
  5
4D26
  8
241
  0
VIEWPORT
  5
22
 67
     1
  8
0
 10
261.51769911504419
 20
148.5
 30
0.0
 40
523.0353982300885
 41
297.0
 68
     1
 69
     1
1001
ACAD
1000
MVIEW
1002
{
1070
    16
1010
0.0
1020
0.0
1030
0.0
1010
0.0
1020
0.0
1030
1.0
1040
0.0
1040
297.0
1040
261.51769911504419
1040
148.5
1040
50.0
1040
0.0
1040
0.0
1070
     0
1070
   100
1070
     1
1070
     1
1070
     0
1070
     0
1070
     0
1070
     0
1040
0.0
1040
0.0
1040
0.0
1040
1.0
1040
1.0
1040
10.0
1040
10.0
1070
     0
1002
{
1002
}
1002
}
1001
GENIUS_GENODEF_13
1002
{
1000
HIER
1070
     0
1002
}
1002
{
1000
MANEDIT
1070
     0
1002
}
1002
{
1000
NOSEL
1070
     0
1002
}
1002
{
1000
BEHIND
1070
     0
1002
}
1002
{
1000
OTHER
1070
     0
1002
}
1002
{
1000
REACTOR
1002
}
1001
GENIUS_GENOBJ-N-SDF_13
1002
{
1000
OWNER
1000
GEN
1002
}
1001
GENIUS_GENSCREG_15
1000
PF
1040
1.0
1000
DF
1040
1.0
1000
MIN
1011
0.0
1021
0.0
1031
0.0
1021
0.0
1031
0.0
1000
MAX
1011
523.0353982300885
1021
0.0
1031
0.0
1021
297.0
1031
0.0
1000
FLAGS
1070
     4
  0
ENDSEC
  0
EOF
