ISO-10303-21;
HEADER;
FILE_DESCRIPTION((''),'1');
FILE_NAME('//Big_tech03/bigt/Translate/21_\X2\8F2A90ED7DDA\X0\-DXF/21_CK\X2\30DC30FC30EA30F330B030B730B930C630E0\X0\/01_CK\X2\30D930FC30B930DB30EB30C0\X0\ CK/BT/BT40/BT40-CK6-135.stp','2012-05-17T04:55:01',(''),(''),'Spatial Interop R18','Kubotek KeyCreator V8.5.1 (14335)',' ');
FILE_SCHEMA(('CONFIG_CONTROL_DESIGN'));
ENDSEC;
DATA;
#1=DESIGN_CONTEXT('',#27,'design');
#2=APPLICATION_PROTOCOL_DEFINITION('INTERNATIONAL STANDARD','config_control_design',1994,#27);
#3=PRODUCT_CATEGORY_RELATIONSHIP('NONE','NONE',#28,#29);
#4=DATE_AND_TIME(#30,#31);
#5=DATE_TIME_ROLE('creation_date');
#6=DATE_TIME_ROLE('classification_date');
#7=PERSON_AND_ORGANIZATION_ROLE('creator');
#8=PERSON_AND_ORGANIZATION_ROLE('design_supplier');
#9=PERSON_AND_ORGANIZATION_ROLE('classification_officer');
#10=PERSON_AND_ORGANIZATION_ROLE('design_owner');
#11=APPROVAL_PERSON_ORGANIZATION(#32,#33,#34);
#12=APPROVAL_DATE_TIME(#4,#33);
#13=CC_DESIGN_APPROVAL(#33,(#35,#36,#37));
#14=CC_DESIGN_DATE_AND_TIME_ASSIGNMENT(#4,#5,(#37));
#15=CC_DESIGN_DATE_AND_TIME_ASSIGNMENT(#4,#6,(#35));
#16=CC_DESIGN_PERSON_AND_ORGANIZATION_ASSIGNMENT(#32,#10,(#38));
#17=CC_DESIGN_PERSON_AND_ORGANIZATION_ASSIGNMENT(#32,#7,(#37));
#18=CC_DESIGN_PERSON_AND_ORGANIZATION_ASSIGNMENT(#32,#7,(#36));
#19=CC_DESIGN_PERSON_AND_ORGANIZATION_ASSIGNMENT(#32,#8,(#36));
#20=CC_DESIGN_SECURITY_CLASSIFICATION(#35,(#36));
#21=CC_DESIGN_PERSON_AND_ORGANIZATION_ASSIGNMENT(#32,#9,(#35));
#22=SHAPE_DEFINITION_REPRESENTATION(#39,#40);
#23= (GEOMETRIC_REPRESENTATION_CONTEXT(3)GLOBAL_UNCERTAINTY_ASSIGNED_CONTEXT((#43))GLOBAL_UNIT_ASSIGNED_CONTEXT((#45,#46,#47))REPRESENTATION_CONTEXT('NONE','WORKSPACE'));
#27=APPLICATION_CONTEXT('CONFIGURATION CONTROLLED 3D DESIGNS OF MECHANICAL PARTS AND ASSEMBLIES');
#28=PRODUCT_CATEGORY('part','NONE');
#29=PRODUCT_RELATED_PRODUCT_CATEGORY('detail',' ',(#38));
#30=CALENDAR_DATE(2012,17,4);
#31=LOCAL_TIME(13,55,1.0,#49);
#32=PERSON_AND_ORGANIZATION(#50,#51);
#33=APPROVAL(#52,'SOLID MODEL');
#34=APPROVAL_ROLE('APPROVED');
#35=SECURITY_CLASSIFICATION('','',#53);
#36=PRODUCT_DEFINITION_FORMATION_WITH_SPECIFIED_SOURCE(' ','NONE',#38,.NOT_KNOWN.);
#37=PRODUCT_DEFINITION('NONE','NONE',#36,#1);
#38=PRODUCT('1','1','PART-1-DESC',(#54));
#39=PRODUCT_DEFINITION_SHAPE('NONE','NONE',#37);
#40=ADVANCED_BREP_SHAPE_REPRESENTATION('1',(#55,#56),#23);
#43=UNCERTAINTY_MEASURE_WITH_UNIT(LENGTH_MEASURE(1.0E-006),#45,'','');
#45= (CONVERSION_BASED_UNIT('MILLIMETRE',#59)LENGTH_UNIT()NAMED_UNIT(#62));
#46= (NAMED_UNIT(#64)PLANE_ANGLE_UNIT()SI_UNIT($,.RADIAN.));
#47= (NAMED_UNIT(#64)SOLID_ANGLE_UNIT()SI_UNIT($,.STERADIAN.));
#49=COORDINATED_UNIVERSAL_TIME_OFFSET(9,0,.AHEAD.);
#50=PERSON('','UNSPECIFIED',$,$,$,$);
#51=ORGANIZATION('UNSPECIFIED','UNSPECIFIED','UNSPECIFIED');
#52=APPROVAL_STATUS('approved');
#53=SECURITY_CLASSIFICATION_LEVEL('unclassified');
#54=MECHANICAL_CONTEXT('',#27,'mechanical');
#55=MANIFOLD_SOLID_BREP('1',#70);
#56=AXIS2_PLACEMENT_3D('',#71,#72,#73);
#59=LENGTH_MEASURE_WITH_UNIT(LENGTH_MEASURE(1.0),#74);
#62=DIMENSIONAL_EXPONENTS(1.0,0.0,0.0,0.0,0.0,0.0,0.0);
#64=DIMENSIONAL_EXPONENTS(0.0,0.0,0.0,0.0,0.0,0.0,0.0);
#70=CLOSED_SHELL('',(#75,#76,#77,#78,#79,#80,#81,#82,#83,#84,#85,#86,#87,#88,#89));
#71=CARTESIAN_POINT('',(0.0,0.0,0.0));
#72=DIRECTION('',(0.0,0.0,1.0));
#73=DIRECTION('',(1.0,0.0,0.0));
#74= (NAMED_UNIT(#62)LENGTH_UNIT()SI_UNIT(.MILLI.,.METRE.));
#75=ADVANCED_FACE('',(#91),#92,.T.);
#76=ADVANCED_FACE('',(#93,#94),#95,.T.);
#77=ADVANCED_FACE('',(#96,#97),#98,.T.);
#78=ADVANCED_FACE('',(#99),#100,.T.);
#79=ADVANCED_FACE('',(#101,#102),#103,.T.);
#80=ADVANCED_FACE('',(#104,#105),#106,.T.);
#81=ADVANCED_FACE('',(#107,#108),#109,.T.);
#82=ADVANCED_FACE('',(#110,#111),#112,.T.);
#83=ADVANCED_FACE('',(#113,#114),#115,.T.);
#84=ADVANCED_FACE('',(#116,#117),#118,.T.);
#85=ADVANCED_FACE('',(#119,#120),#121,.T.);
#86=ADVANCED_FACE('',(#122,#123),#124,.T.);
#87=ADVANCED_FACE('',(#125,#126),#127,.T.);
#88=ADVANCED_FACE('',(#128,#129),#130,.T.);
#89=ADVANCED_FACE('',(#131,#132),#133,.T.);
#91=FACE_OUTER_BOUND('',#134,.T.);
#92=PLANE('',#135);
#93=FACE_BOUND('',#136,.T.);
#94=FACE_BOUND('',#137,.T.);
#95=CONICAL_SURFACE('',#138,31.5,0.785398163397448);
#96=FACE_BOUND('',#139,.T.);
#97=FACE_BOUND('',#140,.T.);
#98=CYLINDRICAL_SURFACE('',#141,32.0);
#99=FACE_OUTER_BOUND('',#142,.T.);
#100=PLANE('',#143);
#101=FACE_BOUND('',#144,.T.);
#102=FACE_BOUND('',#145,.T.);
#103=CONICAL_SURFACE('',#146,31.5,0.785398163397448);
#104=FACE_BOUND('',#147,.T.);
#105=FACE_BOUND('',#148,.T.);
#106=CYLINDRICAL_SURFACE('',#149,31.0);
#107=FACE_BOUND('',#150,.T.);
#108=FACE_BOUND('',#151,.T.);
#109=CONICAL_SURFACE('',#152,31.25,0.785398163397448);
#110=FACE_BOUND('',#153,.T.);
#111=FACE_BOUND('',#154,.T.);
#112=CYLINDRICAL_SURFACE('',#155,31.5);
#113=FACE_BOUND('',#156,.T.);
#114=FACE_BOUND('',#157,.T.);
#115=CONICAL_SURFACE('',#158,29.0,1.04719757802264);
#116=FACE_BOUND('',#159,.T.);
#117=FACE_BOUND('',#160,.T.);
#118=CYLINDRICAL_SURFACE('',#161,26.5);
#119=FACE_BOUND('',#162,.T.);
#120=FACE_BOUND('',#163,.T.);
#121=CONICAL_SURFACE('',#164,29.0,1.04719757802265);
#122=FACE_BOUND('',#165,.T.);
#123=FACE_BOUND('',#166,.T.);
#124=CYLINDRICAL_SURFACE('',#167,31.5);
#125=FACE_BOUND('',#168,.T.);
#126=FACE_OUTER_BOUND('',#169,.T.);
#127=PLANE('',#170);
#128=FACE_BOUND('',#171,.T.);
#129=FACE_BOUND('',#172,.T.);
#130=CYLINDRICAL_SURFACE('',#173,22.225);
#131=FACE_BOUND('',#174,.T.);
#132=FACE_BOUND('',#175,.T.);
#133=CONICAL_SURFACE('',#176,17.4562504492561,0.144812484786321);
#134=EDGE_LOOP('',(#177));
#135=AXIS2_PLACEMENT_3D('',#178,#179,#180);
#136=EDGE_LOOP('',(#181));
#137=EDGE_LOOP('',(#182));
#138=AXIS2_PLACEMENT_3D('',#183,#184,#185);
#139=EDGE_LOOP('',(#186));
#140=EDGE_LOOP('',(#187));
#141=AXIS2_PLACEMENT_3D('',#188,#189,#190);
#142=EDGE_LOOP('',(#191));
#143=AXIS2_PLACEMENT_3D('',#192,#193,#194);
#144=EDGE_LOOP('',(#195));
#145=EDGE_LOOP('',(#196));
#146=AXIS2_PLACEMENT_3D('',#197,#198,#199);
#147=EDGE_LOOP('',(#200));
#148=EDGE_LOOP('',(#201));
#149=AXIS2_PLACEMENT_3D('',#202,#203,#204);
#150=EDGE_LOOP('',(#205));
#151=EDGE_LOOP('',(#206));
#152=AXIS2_PLACEMENT_3D('',#207,#208,#209);
#153=EDGE_LOOP('',(#210));
#154=EDGE_LOOP('',(#211));
#155=AXIS2_PLACEMENT_3D('',#212,#213,#214);
#156=EDGE_LOOP('',(#215));
#157=EDGE_LOOP('',(#216));
#158=AXIS2_PLACEMENT_3D('',#217,#218,#219);
#159=EDGE_LOOP('',(#220));
#160=EDGE_LOOP('',(#221));
#161=AXIS2_PLACEMENT_3D('',#222,#223,#224);
#162=EDGE_LOOP('',(#225));
#163=EDGE_LOOP('',(#226));
#164=AXIS2_PLACEMENT_3D('',#227,#228,#229);
#165=EDGE_LOOP('',(#230));
#166=EDGE_LOOP('',(#231));
#167=AXIS2_PLACEMENT_3D('',#232,#233,#234);
#168=EDGE_LOOP('',(#235));
#169=EDGE_LOOP('',(#236));
#170=AXIS2_PLACEMENT_3D('',#237,#238,#239);
#171=EDGE_LOOP('',(#240));
#172=EDGE_LOOP('',(#241));
#173=AXIS2_PLACEMENT_3D('',#242,#243,#244);
#174=EDGE_LOOP('',(#245));
#175=EDGE_LOOP('',(#246));
#176=AXIS2_PLACEMENT_3D('',#247,#248,#249);
#177=ORIENTED_EDGE('',*,*,#250,.F.);
#178=CARTESIAN_POINT('',(3.91886975727153E-015,15.5,-64.0));
#179=DIRECTION('',(6.12323399573677E-017,1.22464679914735E-016,-1.0));
#180=DIRECTION('',(1.23259516440783E-032,-1.0,-1.22464679914735E-016));
#181=ORIENTED_EDGE('',*,*,#251,.F.);
#182=ORIENTED_EDGE('',*,*,#250,.T.);
#183=CARTESIAN_POINT('',(3.88825358729285E-015,7.77650717458569E-015,-63.5));
#184=DIRECTION('',(-6.12323399573677E-017,-1.22464679914735E-016,1.0));
#185=DIRECTION('',(-1.23259516440783E-032,1.0,1.22464679914735E-016));
#186=ORIENTED_EDGE('',*,*,#252,.F.);
#187=ORIENTED_EDGE('',*,*,#251,.T.);
#188=CARTESIAN_POINT('',(3.18408167778312E-015,6.36816335556624E-015,-52.0));
#189=DIRECTION('',(6.12323399573677E-017,1.22464679914735E-016,-1.0));
#190=DIRECTION('',(-1.23259516440783E-032,1.0,1.22464679914735E-016));
#191=ORIENTED_EDGE('',*,*,#253,.T.);
#192=CARTESIAN_POINT('',(-4.00459503321185E-015,6.34375044925611,65.4));
#193=DIRECTION('',(-6.12323399573677E-017,-1.22464679914735E-016,1.0));
#194=DIRECTION('',(-1.23259516440783E-032,1.0,1.22464679914735E-016));
#195=ORIENTED_EDGE('',*,*,#254,.F.);
#196=ORIENTED_EDGE('',*,*,#252,.T.);
#197=CARTESIAN_POINT('',(2.47990976827339E-015,4.95981953654678E-015,-40.5));
#198=DIRECTION('',(6.12323399573677E-017,1.22464679914735E-016,-1.0));
#199=DIRECTION('',(-1.23259516440783E-032,1.0,1.22464679914735E-016));
#200=ORIENTED_EDGE('',*,*,#255,.F.);
#201=ORIENTED_EDGE('',*,*,#254,.T.);
#202=CARTESIAN_POINT('',(2.05128338857182E-015,4.10256677714363E-015,-33.5));
#203=DIRECTION('',(6.12323399573677E-017,1.22464679914735E-016,-1.0));
#204=DIRECTION('',(-1.23259516440783E-032,1.0,1.22464679914735E-016));
#205=ORIENTED_EDGE('',*,*,#256,.F.);
#206=ORIENTED_EDGE('',*,*,#255,.T.);
#207=CARTESIAN_POINT('',(1.63796509385959E-015,3.27593018771917E-015,-26.75));
#208=DIRECTION('',(-6.12323399573677E-017,-1.22464679914735E-016,1.0));
#209=DIRECTION('',(-1.23259516440783E-032,1.0,1.22464679914735E-016));
#210=ORIENTED_EDGE('',*,*,#257,.F.);
#211=ORIENTED_EDGE('',*,*,#256,.T.);
#212=CARTESIAN_POINT('',(1.47263776471084E-015,2.94527552942167E-015,-24.0499998160473));
#213=DIRECTION('',(6.12323399573677E-017,1.22464679914735E-016,-1.0));
#214=DIRECTION('',(-1.23259516440783E-032,1.0,1.22464679914735E-016));
#215=ORIENTED_EDGE('',*,*,#258,.F.);
#216=ORIENTED_EDGE('',*,*,#257,.T.);
#217=CARTESIAN_POINT('',(1.23423725613309E-015,2.46847451226619E-015,-20.1566240485407));
#218=DIRECTION('',(6.12323399573677E-017,1.22464679914735E-016,-1.0));
#219=DIRECTION('',(-1.23259516440783E-032,1.0,1.22464679914735E-016));
#220=ORIENTED_EDGE('',*,*,#259,.F.);
#221=ORIENTED_EDGE('',*,*,#258,.T.);
#222=CARTESIAN_POINT('',(1.0164568432923E-015,2.0329136865846E-015,-16.6));
#223=DIRECTION('',(6.12323399573677E-017,1.22464679914735E-016,-1.0));
#224=DIRECTION('',(-1.23259516440783E-032,1.0,1.22464679914735E-016));
#225=ORIENTED_EDGE('',*,*,#260,.F.);
#226=ORIENTED_EDGE('',*,*,#259,.T.);
#227=CARTESIAN_POINT('',(7.98676430451512E-016,1.59735286090302E-015,-13.0433759514593));
#228=DIRECTION('',(-6.12323399573677E-017,-1.22464679914735E-016,1.0));
#229=DIRECTION('',(-1.23259516440783E-032,1.0,1.22464679914735E-016));
#230=ORIENTED_EDGE('',*,*,#261,.F.);
#231=ORIENTED_EDGE('',*,*,#260,.T.);
#232=CARTESIAN_POINT('',(4.16379922973956E-016,8.32759845947911E-016,-6.80000018395272));
#233=DIRECTION('',(6.12323399573677E-017,1.22464679914735E-016,-1.0));
#234=DIRECTION('',(-1.23259516440783E-032,1.0,1.22464679914735E-016));
#235=ORIENTED_EDGE('',*,*,#262,.F.);
#236=ORIENTED_EDGE('',*,*,#261,.T.);
#237=CARTESIAN_POINT('',(1.22464679914735E-016,26.8625,-2.0));
#238=DIRECTION('',(-6.12323399573677E-017,-1.22464679914735E-016,1.0));
#239=DIRECTION('',(-1.23259516440783E-032,1.0,1.22464679914735E-016));
#240=ORIENTED_EDGE('',*,*,#263,.F.);
#241=ORIENTED_EDGE('',*,*,#262,.T.);
#242=CARTESIAN_POINT('',(6.12323399573677E-017,1.22464679914735E-016,-1.0));
#243=DIRECTION('',(6.12323399573677E-017,1.22464679914735E-016,-1.0));
#244=DIRECTION('',(-1.23259516440783E-032,1.0,1.22464679914735E-016));
#245=ORIENTED_EDGE('',*,*,#253,.F.);
#246=ORIENTED_EDGE('',*,*,#263,.T.);
#247=CARTESIAN_POINT('',(-2.00229751660592E-015,-4.00459503321185E-015,32.7));
#248=DIRECTION('',(6.12323399573677E-017,1.22464679914735E-016,-1.0));
#249=DIRECTION('',(-1.23259516440783E-032,1.0,1.22464679914735E-016));
#250=EDGE_CURVE('',#264,#264,#265,.T.);
#251=EDGE_CURVE('',#266,#266,#267,.T.);
#252=EDGE_CURVE('',#268,#268,#269,.T.);
#253=EDGE_CURVE('',#270,#270,#271,.T.);
#254=EDGE_CURVE('',#272,#272,#273,.T.);
#255=EDGE_CURVE('',#274,#274,#275,.T.);
#256=EDGE_CURVE('',#276,#276,#277,.T.);
#257=EDGE_CURVE('',#278,#278,#279,.T.);
#258=EDGE_CURVE('',#280,#280,#281,.T.);
#259=EDGE_CURVE('',#282,#282,#283,.T.);
#260=EDGE_CURVE('',#284,#284,#285,.T.);
#261=EDGE_CURVE('',#286,#286,#287,.T.);
#262=EDGE_CURVE('',#288,#288,#289,.T.);
#263=EDGE_CURVE('',#290,#290,#291,.T.);
#264=VERTEX_POINT('',#292);
#265=CIRCLE('',#293,31.0);
#266=VERTEX_POINT('',#294);
#267=CIRCLE('',#295,32.0);
#268=VERTEX_POINT('',#296);
#269=CIRCLE('',#297,32.0);
#270=VERTEX_POINT('',#298);
#271=CIRCLE('',#299,12.6875008985122);
#272=VERTEX_POINT('',#300);
#273=CIRCLE('',#301,31.0);
#274=VERTEX_POINT('',#302);
#275=CIRCLE('',#303,31.0);
#276=VERTEX_POINT('',#304);
#277=CIRCLE('',#305,31.5);
#278=VERTEX_POINT('',#306);
#279=CIRCLE('',#307,31.5);
#280=VERTEX_POINT('',#308);
#281=CIRCLE('',#309,26.5);
#282=VERTEX_POINT('',#310);
#283=CIRCLE('',#311,26.5);
#284=VERTEX_POINT('',#312);
#285=CIRCLE('',#313,31.5);
#286=VERTEX_POINT('',#314);
#287=CIRCLE('',#315,31.5);
#288=VERTEX_POINT('',#316);
#289=CIRCLE('',#317,22.225);
#290=VERTEX_POINT('',#318);
#291=CIRCLE('',#319,22.225);
#292=CARTESIAN_POINT('',(3.91886975727153E-015,31.0,-64.0));
#293=AXIS2_PLACEMENT_3D('',#320,#321,#322);
#294=CARTESIAN_POINT('',(3.85763741731416E-015,32.0,-63.0));
#295=AXIS2_PLACEMENT_3D('',#323,#324,#325);
#296=CARTESIAN_POINT('',(2.51052593825207E-015,32.0,-41.0));
#297=AXIS2_PLACEMENT_3D('',#326,#327,#328);
#298=CARTESIAN_POINT('',(-4.00459503321185E-015,12.6875008985122,65.4));
#299=AXIS2_PLACEMENT_3D('',#329,#330,#331);
#300=CARTESIAN_POINT('',(2.44929359829471E-015,31.0,-40.0));
#301=AXIS2_PLACEMENT_3D('',#332,#333,#334);
#302=CARTESIAN_POINT('',(1.65327317884893E-015,31.0,-27.0));
#303=AXIS2_PLACEMENT_3D('',#335,#336,#337);
#304=CARTESIAN_POINT('',(1.62265700887024E-015,31.5,-26.5));
#305=AXIS2_PLACEMENT_3D('',#338,#339,#340);
#306=CARTESIAN_POINT('',(1.32261852055143E-015,31.5,-21.5999996320946));
#307=AXIS2_PLACEMENT_3D('',#341,#342,#343);
#308=CARTESIAN_POINT('',(1.14585599171476E-015,26.5,-18.7132484649867));
#309=AXIS2_PLACEMENT_3D('',#344,#345,#346);
#310=CARTESIAN_POINT('',(8.87057694869848E-016,26.5,-14.4867515350132));
#311=AXIS2_PLACEMENT_3D('',#347,#348,#349);
#312=CARTESIAN_POINT('',(7.10295166033175E-016,31.5,-11.6000003679054));
#313=AXIS2_PLACEMENT_3D('',#350,#351,#352);
#314=CARTESIAN_POINT('',(1.22464679914735E-016,31.5,-2.0));
#315=AXIS2_PLACEMENT_3D('',#353,#354,#355);
#316=CARTESIAN_POINT('',(1.22464679914735E-016,22.225,-2.0));
#317=AXIS2_PLACEMENT_3D('',#356,#357,#358);
#318=CARTESIAN_POINT('',(-2.73944275289641E-031,22.225,2.72177751110499E-015));
#319=AXIS2_PLACEMENT_3D('',#359,#360,#361);
#320=CARTESIAN_POINT('',(3.91886975727153E-015,7.83773951454306E-015,-64.0));
#321=DIRECTION('',(-6.12323399573677E-017,-1.22464679914735E-016,1.0));
#322=DIRECTION('',(-1.23259516440783E-032,1.0,1.22464679914735E-016));
#323=CARTESIAN_POINT('',(3.85763741731416E-015,7.71527483462832E-015,-63.0));
#324=DIRECTION('',(-6.12323399573677E-017,-1.22464679914735E-016,1.0));
#325=DIRECTION('',(-1.23259516440783E-032,1.0,1.22464679914735E-016));
#326=CARTESIAN_POINT('',(2.51052593825207E-015,5.02105187650415E-015,-41.0));
#327=DIRECTION('',(-6.12323399573677E-017,-1.22464679914735E-016,1.0));
#328=DIRECTION('',(-1.23259516440783E-032,1.0,1.22464679914735E-016));
#329=CARTESIAN_POINT('',(-4.00459503321185E-015,-8.00919006642369E-015,65.4));
#330=DIRECTION('',(-6.12323399573677E-017,-1.22464679914735E-016,1.0));
#331=DIRECTION('',(-1.23259516440783E-032,1.0,1.22464679914735E-016));
#332=CARTESIAN_POINT('',(2.44929359829471E-015,4.89858719658941E-015,-40.0));
#333=DIRECTION('',(-6.12323399573677E-017,-1.22464679914735E-016,1.0));
#334=DIRECTION('',(-1.23259516440783E-032,1.0,1.22464679914735E-016));
#335=CARTESIAN_POINT('',(1.65327317884893E-015,3.30654635769785E-015,-27.0));
#336=DIRECTION('',(-6.12323399573677E-017,-1.22464679914735E-016,1.0));
#337=DIRECTION('',(-1.23259516440783E-032,1.0,1.22464679914735E-016));
#338=CARTESIAN_POINT('',(1.62265700887024E-015,3.24531401774049E-015,-26.5));
#339=DIRECTION('',(-6.12323399573677E-017,-1.22464679914735E-016,1.0));
#340=DIRECTION('',(-1.23259516440783E-032,1.0,1.22464679914735E-016));
#341=CARTESIAN_POINT('',(1.32261852055143E-015,2.64523704110286E-015,-21.5999996320946));
#342=DIRECTION('',(-6.12323399573677E-017,-1.22464679914735E-016,1.0));
#343=DIRECTION('',(-1.23259516440783E-032,1.0,1.22464679914735E-016));
#344=CARTESIAN_POINT('',(1.14585599171476E-015,2.29171198342951E-015,-18.7132484649867));
#345=DIRECTION('',(-6.12323399573677E-017,-1.22464679914735E-016,1.0));
#346=DIRECTION('',(-1.23259516440783E-032,1.0,1.22464679914735E-016));
#347=CARTESIAN_POINT('',(8.87057694869849E-016,1.7741153897397E-015,-14.4867515350132));
#348=DIRECTION('',(-6.12323399573677E-017,-1.22464679914735E-016,1.0));
#349=DIRECTION('',(-1.23259516440783E-032,1.0,1.22464679914735E-016));
#350=CARTESIAN_POINT('',(7.10295166033175E-016,1.42059033206635E-015,-11.6000003679054));
#351=DIRECTION('',(-6.12323399573677E-017,-1.22464679914735E-016,1.0));
#352=DIRECTION('',(-1.23259516440783E-032,1.0,1.22464679914735E-016));
#353=CARTESIAN_POINT('',(1.22464679914735E-016,2.44929359829471E-016,-2.0));
#354=DIRECTION('',(-6.12323399573677E-017,-1.22464679914735E-016,1.0));
#355=DIRECTION('',(-1.23259516440783E-032,1.0,1.22464679914735E-016));
#356=CARTESIAN_POINT('',(1.22464679914735E-016,2.44929359829471E-016,-2.0));
#357=DIRECTION('',(-6.12323399573677E-017,-1.22464679914735E-016,1.0));
#358=DIRECTION('',(-1.23259516440783E-032,1.0,1.22464679914735E-016));
#359=CARTESIAN_POINT('',(0.0,0.0,0.0));
#360=DIRECTION('',(-6.12323399573677E-017,-1.22464679914735E-016,1.0));
#361=DIRECTION('',(-1.23259516440783E-032,1.0,1.22464679914735E-016));
ENDSEC;
END-ISO-10303-21;
