  0
SECTION
  2
HEADER
  9
$ACADVER
  1
AC1024
  9
$ACADMAINTVER
 70
     6
  9
$DWGCODEPAGE
  3
ANSI_1252
  9
$INSBASE
 10
0.0
 20
0.0
 30
0.0
  9
$EXTMIN
 10
-66.41108924179719
 20
-31.50736943284045
 30
-0.0015258207003583
  9
$EXTMAX
 10
62.12302913712676
 20
61.00449410221085
 30
0.0000000349246037
  9
$LIMMIN
 10
0.0
 20
0.0
  9
$LIMMAX
 10
297.0
 20
210.0
  9
$ORTHOMODE
 70
     0
  9
$REGENMODE
 70
     1
  9
$FILLMODE
 70
     1
  9
$QTEXTMODE
 70
     0
  9
$MIRRTEXT
 70
     1
  9
$LTSCALE
 40
10.0
  9
$ATTMODE
 70
     1
  9
$TEXTSIZE
 40
3.0
  9
$TRACEWID
 40
1.0
  9
$TEXTSTYLE
  7
YOKO
  9
$CLAYER
  8
240
  9
$CELTYPE
  6
ByLayer
  9
$CECOLOR
 62
   256
  9
$CELTSCALE
 40
1.0
  9
$DISPSILH
 70
     0
  9
$DIMSCALE
 40
1.0
  9
$DIMASZ
 40
2.229999999999999
  9
$DIMEXO
 40
0.5
  9
$DIMDLI
 40
7.0
  9
$DIMRND
 40
0.0
  9
$DIMDLE
 40
0.0
  9
$DIMEXE
 40
1.0
  9
$DIMTP
 40
0.0
  9
$DIMTM
 40
0.01
  9
$DIMTXT
 40
2.799999999999998
  9
$DIMCEN
 40
0.0
  9
$DIMTSZ
 40
0.0
  9
$DIMTOL
 70
     0
  9
$DIMLIM
 70
     0
  9
$DIMTIH
 70
     0
  9
$DIMTOH
 70
     0
  9
$DIMSE1
 70
     0
  9
$DIMSE2
 70
     0
  9
$DIMTAD
 70
     3
  9
$DIMZIN
 70
     9
  9
$DIMBLK
  1
OPEN
  9
$DIMASO
 70
     1
  9
$DIMSHO
 70
     1
  9
$DIMPOST
  1

  9
$DIMAPOST
  1

  9
$DIMALT
 70
     0
  9
$DIMALTD
 70
     2
  9
$DIMALTF
 40
25.4
  9
$DIMLFAC
 40
1.0
  9
$DIMTOFL
 70
     1
  9
$DIMTVP
 40
0.0
  9
$DIMTIX
 70
     1
  9
$DIMSOXD
 70
     0
  9
$DIMSAH
 70
     0
  9
$DIMBLK1
  1

  9
$DIMBLK2
  1

  9
$DIMSTYLE
  2
BIGT
  9
$DIMCLRD
 70
   256
  9
$DIMCLRE
 70
   256
  9
$DIMCLRT
 70
    40
  9
$DIMTFAC
 40
1.0
  9
$DIMGAP
 40
1.0
  9
$DIMJUST
 70
     0
  9
$DIMSD1
 70
     0
  9
$DIMSD2
 70
     0
  9
$DIMTOLJ
 70
     1
  9
$DIMTZIN
 70
     0
  9
$DIMALTZ
 70
     0
  9
$DIMALTTZ
 70
     0
  9
$DIMUPT
 70
     0
  9
$DIMDEC
 70
     6
  9
$DIMTDEC
 70
     6
  9
$DIMALTU
 70
     2
  9
$DIMALTTD
 70
     2
  9
$DIMTXSTY
  7
STANDARD
  9
$DIMAUNIT
 70
     0
  9
$DIMADEC
 70
     0
  9
$DIMALTRND
 40
0.0
  9
$DIMAZIN
 70
     0
  9
$DIMDSEP
 70
    46
  9
$DIMATFIT
 70
     3
  9
$DIMFRAC
 70
     0
  9
$DIMLDRBLK
  1

  9
$DIMLUNIT
 70
     2
  9
$DIMLWD
 70
    -2
  9
$DIMLWE
 70
    -2
  9
$DIMTMOVE
 70
     2
  9
$DIMFXL
 40
1.0
  9
$DIMFXLON
 70
     0
  9
$DIMJOGANG
 40
0.7853981633974483
  9
$DIMTFILL
 70
     0
  9
$DIMTFILLCLR
 70
     0
  9
$DIMARCSYM
 70
     0
  9
$DIMLTYPE
  6

  9
$DIMLTEX1
  6

  9
$DIMLTEX2
  6

  9
$DIMTXTDIRECTION
 70
     0
  9
$LUNITS
 70
     2
  9
$LUPREC
 70
     6
  9
$SKETCHINC
 40
1.0
  9
$FILLETRAD
 40
4.0
  9
$AUNITS
 70
     0
  9
$AUPREC
 70
     6
  9
$MENU
  1
.
  9
$ELEVATION
 40
0.0
  9
$PELEVATION
 40
0.0
  9
$THICKNESS
 40
0.0
  9
$LIMCHECK
 70
     0
  9
$CHAMFERA
 40
0.2
  9
$CHAMFERB
 40
0.2
  9
$CHAMFERC
 40
1.0
  9
$CHAMFERD
 40
0.0
  9
$SKPOLY
 70
     0
  9
$TDCREATE
 40
2457729.754440474
  9
$TDUCREATE
 40
2457729.962773808
  9
$TDUPDATE
 40
2457732.378165637
  9
$TDUUPDATE
 40
2457732.58649897
  9
$TDINDWG
 40
0.0030910301
  9
$TDUSRTIMER
 40
2458323.776232894
  9
$USRTIMER
 70
     1
  9
$ANGBASE
 50
0.0
  9
$ANGDIR
 70
     0
  9
$PDMODE
 70
     1
  9
$PDSIZE
 40
0.0
  9
$PLINEWID
 40
0.0
  9
$SPLFRAME
 70
     0
  9
$SPLINETYPE
 70
     6
  9
$SPLINESEGS
 70
     4
  9
$HANDSEED
  5
4737
  9
$SURFTAB1
 70
     6
  9
$SURFTAB2
 70
     6
  9
$SURFTYPE
 70
     6
  9
$SURFU
 70
     6
  9
$SURFV
 70
     6
  9
$UCSBASE
  2

  9
$UCSNAME
  2

  9
$UCSORG
 10
0.0
 20
0.0
 30
0.0
  9
$UCSXDIR
 10
1.0
 20
0.0
 30
0.0
  9
$UCSYDIR
 10
0.0
 20
1.0
 30
0.0
  9
$UCSORTHOREF
  2

  9
$UCSORTHOVIEW
 70
     0
  9
$UCSORGTOP
 10
0.0
 20
0.0
 30
0.0
  9
$UCSORGBOTTOM
 10
0.0
 20
0.0
 30
0.0
  9
$UCSORGLEFT
 10
0.0
 20
0.0
 30
0.0
  9
$UCSORGRIGHT
 10
0.0
 20
0.0
 30
0.0
  9
$UCSORGFRONT
 10
0.0
 20
0.0
 30
0.0
  9
$UCSORGBACK
 10
0.0
 20
0.0
 30
0.0
  9
$PUCSBASE
  2

  9
$PUCSNAME
  2

  9
$PUCSORG
 10
0.0
 20
0.0
 30
0.0
  9
$PUCSXDIR
 10
1.0
 20
0.0
 30
0.0
  9
$PUCSYDIR
 10
0.0
 20
1.0
 30
0.0
  9
$PUCSORTHOREF
  2

  9
$PUCSORTHOVIEW
 70
     0
  9
$PUCSORGTOP
 10
0.0
 20
0.0
 30
0.0
  9
$PUCSORGBOTTOM
 10
0.0
 20
0.0
 30
0.0
  9
$PUCSORGLEFT
 10
0.0
 20
0.0
 30
0.0
  9
$PUCSORGRIGHT
 10
0.0
 20
0.0
 30
0.0
  9
$PUCSORGFRONT
 10
0.0
 20
0.0
 30
0.0
  9
$PUCSORGBACK
 10
0.0
 20
0.0
 30
0.0
  9
$USERI1
 70
     1
  9
$USERI2
 70
     0
  9
$USERI3
 70
     0
  9
$USERI4
 70
     0
  9
$USERI5
 70
     0
  9
$USERR1
 40
0.0
  9
$USERR2
 40
0.0
  9
$USERR3
 40
0.0
  9
$USERR4
 40
0.0
  9
$USERR5
 40
0.0
  9
$WORLDVIEW
 70
     1
  9
$SHADEDGE
 70
     3
  9
$SHADEDIF
 70
    70
  9
$TILEMODE
 70
     1
  9
$MAXACTVP
 70
    16
  9
$PINSBASE
 10
0.0
 20
0.0
 30
0.0
  9
$PLIMCHECK
 70
     0
  9
$PEXTMIN
 10
1.000000000000000E+20
 20
1.000000000000000E+20
 30
1.000000000000000E+20
  9
$PEXTMAX
 10
-1.000000000000000E+20
 20
-1.000000000000000E+20
 30
-1.000000000000000E+20
  9
$PLIMMIN
 10
0.0
 20
0.0
  9
$PLIMMAX
 10
420.0
 20
297.0
  9
$UNITMODE
 70
     0
  9
$VISRETAIN
 70
     1
  9
$PLINEGEN
 70
     0
  9
$PSLTSCALE
 70
     1
  9
$TREEDEPTH
 70
  3020
  9
$CMLSTYLE
  2
Standard
  9
$CMLJUST
 70
     0
  9
$CMLSCALE
 40
1.0
  9
$PROXYGRAPHICS
 70
     1
  9
$MEASUREMENT
 70
     0
  9
$CELWEIGHT
370
    -1
  9
$ENDCAPS
280
     0
  9
$JOINSTYLE
280
     0
  9
$LWDISPLAY
290
     0
  9
$INSUNITS
 70
     0
  9
$HYPERLINKBASE
  1

  9
$STYLESHEET
  1

  9
$XEDIT
290
     1
  9
$CEPSNTYPE
380
     0
  9
$PSTYLEMODE
290
     1
  9
$FINGERPRINTGUID
  2
{DC42DD3D-420F-42DB-9678-06F40738BD32}
  9
$VERSIONGUID
  2
{FAEB1C32-E019-11D5-929B-00C0DF256EC4}
  9
$EXTNAMES
290
     1
  9
$PSVPSCALE
 40
0.0
  9
$OLESTARTUP
290
     0
  9
$SORTENTS
280
   127
  9
$INDEXCTL
280
     0
  9
$HIDETEXT
280
     1
  9
$XCLIPFRAME
280
     2
  9
$HALOGAP
280
     0
  9
$OBSCOLOR
 70
   257
  9
$OBSLTYPE
280
     0
  9
$INTERSECTIONDISPLAY
280
     0
  9
$INTERSECTIONCOLOR
 70
   257
  9
$DIMASSOC
280
     2
  9
$PROJECTNAME
  1

  9
$CAMERADISPLAY
290
     0
  9
$LENSLENGTH
 40
50.0
  9
$CAMERAHEIGHT
 40
0.0
  9
$STEPSPERSEC
 40
2.0
  9
$STEPSIZE
 40
6.0
  9
$3DDWFPREC
 40
2.0
  9
$PSOLWIDTH
 40
0.25
  9
$PSOLHEIGHT
 40
4.0
  9
$LOFTANG1
 40
1.570796326794897
  9
$LOFTANG2
 40
1.570796326794897
  9
$LOFTMAG1
 40
0.0
  9
$LOFTMAG2
 40
0.0
  9
$LOFTPARAM
 70
     7
  9
$LOFTNORMALS
280
     1
  9
$LATITUDE
 40
37.795
  9
$LONGITUDE
 40
-122.394
  9
$NORTHDIRECTION
 40
0.0
  9
$TIMEZONE
 70
 -8000
  9
$LIGHTGLYPHDISPLAY
280
     1
  9
$TILEMODELIGHTSYNCH
280
     1
  9
$SOLIDHIST
280
     1
  9
$SHOWHIST
280
     1
  9
$DWFFRAME
280
     2
  9
$DGNFRAME
280
     2
  9
$REALWORLDSCALE
290
     1
  9
$INTERFERECOLOR
 62
   256
  9
$CSHADOW
280
     0
  9
$SHADOWPLANELOCATION
 40
0.0
  0
ENDSEC
  0
SECTION
  2
CLASSES
  0
CLASS
  1
ACDBDICTIONARYWDFLT
  2
AcDbDictionaryWithDefault
  3
ObjectDBX Classes
 90
        0
 91
        9
280
     0
281
     0
  0
CLASS
  1
SCALE
  2
AcDbScale
  3
ObjectDBX Classes
 90
     1153
 91
        9
280
     0
281
     0
  0
CLASS
  1
TABLESTYLE
  2
AcDbTableStyle
  3
ObjectDBX Classes
 90
     4095
 91
        9
280
     0
281
     0
  0
CLASS
  1
RASTERVARIABLES
  2
AcDbRasterVariables
  3
ISM
 90
        0
 91
        9
280
     0
281
     0
  0
CLASS
  1
DICTIONARYVAR
  2
AcDbDictionaryVar
  3
ObjectDBX Classes
 90
        0
 91
        4
280
     0
281
     0
  0
CLASS
  1
CELLSTYLEMAP
  2
AcDbCellStyleMap
  3
ObjectDBX Classes
 90
     1152
 91
        4
280
     0
281
     0
  0
ENDSEC
  0
SECTION
  2
TABLES
  0
TABLE
  2
VPORT
  5
46A2
330
0
100
AcDbSymbolTable
 70
     1
  0
VPORT
  5
46B9
330
46A2
100
AcDbSymbolTableRecord
100
AcDbViewportTableRecord
  2
*ACTIVE
 70
     0
 10
0.0
 20
0.0
 11
1.0
 21
1.0
 12
-2.144030052335211
 22
14.7485623346852
 13
0.0
 23
0.0
 14
7.0
 24
7.0
 15
7.0
 25
7.0
 16
0.0
 26
0.0
 36
1.0
 17
0.0
 27
0.0
 37
0.0
 40
93.10425540400574
 41
1.4508547008547
 42
50.0
 43
0.0
 44
0.0
 50
0.0
 51
0.0
 71
     0
 72
  2000
 73
     1
 74
     0
 75
     0
 76
     1
 77
     0
 78
     0
281
     0
 65
     0
110
0.0
120
0.0
130
0.0
111
1.0
121
0.0
131
0.0
112
0.0
122
1.0
132
0.0
 79
     0
146
0.0
 60
     3
 61
     5
292
     1
282
     1
141
0.0
142
0.0
 63
   256
  0
ENDTAB
  0
TABLE
  2
LTYPE
  5
469F
330
0
100
AcDbSymbolTable
 70
    10
  0
LTYPE
  5
46AD
330
469F
100
AcDbSymbolTableRecord
100
AcDbLinetypeTableRecord
  2
ByBlock
 70
     0
  3

 72
    65
 73
     0
 40
0.0
  0
LTYPE
  5
46AE
330
469F
100
AcDbSymbolTableRecord
100
AcDbLinetypeTableRecord
  2
ByLayer
 70
     0
  3

 72
    65
 73
     0
 40
0.0
  0
LTYPE
  5
46AF
330
469F
100
AcDbSymbolTableRecord
100
AcDbLinetypeTableRecord
  2
CONTINUOUS
 70
     0
  3
Solid line
 72
    65
 73
     0
 40
0.0
  0
LTYPE
  5
46BB
330
469F
100
AcDbSymbolTableRecord
100
AcDbLinetypeTableRecord
  2
CENTER2
 70
     0
  3
___ _ ___ _ ___ _ ___ _ ___ _ ___ _ ___ _ ___ _
 72
    65
 73
     4
 40
1.125
 49
0.75
 74
     0
 49
-0.125
 74
     0
 49
0.125
 74
     0
 49
-0.125
 74
     0
  0
LTYPE
  5
46BC
330
469F
100
AcDbSymbolTableRecord
100
AcDbLinetypeTableRecord
  2
HIDDEN2
 70
     0
  3
_ _ _ _ _ _ _ _ _ _ _ _ _ _ _ _ _ _ _ _ _ _ _ _
 72
    65
 73
     2
 40
0.1875
 49
0.125
 74
     0
 49
-0.0625
 74
     0
  0
LTYPE
  5
46BD
330
469F
100
AcDbSymbolTableRecord
100
AcDbLinetypeTableRecord
  2
PHANTOM2
 70
     0
  3
___ _ _ ___ _ _ ___ _ _ ___ _ _ ___ _ _ ___ _ _
 72
    65
 73
     6
 40
1.25
 49
0.625
 74
     0
 49
-0.125
 74
     0
 49
0.125
 74
     0
 49
-0.125
 74
     0
 49
0.125
 74
     0
 49
-0.125
 74
     0
  0
LTYPE
  5
46BE
330
469F
100
AcDbSymbolTableRecord
100
AcDbLinetypeTableRecord
  2
AMCONSTR
 70
     0
  3
_______________________
 72
    65
 73
     2
 40
9999.0
 49
9999.0
 74
     0
 49
0.0
 74
     0
  0
LTYPE
  5
46BF
330
469F
100
AcDbSymbolTableRecord
100
AcDbLinetypeTableRecord
  2
HIDDEN
 70
     0
  3
Hidden __ __ __ __ __ __ __ __ __ __ __ __ __ _
 72
    65
 73
     2
 40
0.375
 49
0.25
 74
     0
 49
-0.125
 74
     0
  0
LTYPE
  5
46C0
330
469F
100
AcDbSymbolTableRecord
100
AcDbLinetypeTableRecord
  2
CENTER
 70
     0
  3
Center ____ _ ____ _ ____ _ ____ _ ____ _ ____
 72
    65
 73
     4
 40
2.0
 49
1.25
 74
     0
 49
-0.25
 74
     0
 49
0.25
 74
     0
 49
-0.25
 74
     0
  0
LTYPE
  5
46C1
330
469F
100
AcDbSymbolTableRecord
100
AcDbLinetypeTableRecord
  2
AMZIGZAG2
 70
     0
  3
/\/-/\/-/\/-/\/-/\/-/\/
 72
    65
 73
     2
 40
0.4401000000000001
 49
0.0001
 74
     0
 49
-0.4400000000000001
 74
     0
  0
LTYPE
  5
46C2
330
469F
100
AcDbSymbolTableRecord
100
AcDbLinetypeTableRecord
  2
ACANSTGB
 70
     0
  3
__ . . __ . .
 72
    65
 73
     6
 40
0.35433070866
 49
0.15748031496
 74
     0
 49
-0.03937007874
 74
     0
 49
0.03937007874
 74
     0
 49
-0.03937007874
 74
     0
 49
0.03937007874
 74
     0
 49
-0.03937007874
 74
     0
  0
LTYPE
  5
46C3
330
469F
100
AcDbSymbolTableRecord
100
AcDbLinetypeTableRecord
  2
ACANSTGL
 70
     0
  3
_ _ _ _ _
 72
    65
 73
     2
 40
0.11811023622
 49
0.07874015748
 74
     0
 49
-0.03937007874
 74
     0
  0
ENDTAB
  0
TABLE
  2
LAYER
  5
469C
330
0
100
AcDbSymbolTable
 70
     9
  0
LAYER
  5
46AA
330
469C
100
AcDbSymbolTableRecord
100
AcDbLayerTableRecord
  2
0
 70
     0
 62
     7
  6
CONTINUOUS
370
    -3
390
46A9
347
0
  0
LAYER
  5
46C5
330
469C
100
AcDbSymbolTableRecord
100
AcDbLayerTableRecord
  2
240
 70
     0
 62
     4
  6
CONTINUOUS
370
    -3
390
46A9
347
0
  0
LAYER
  5
46C6
330
469C
100
AcDbSymbolTableRecord
100
AcDbLayerTableRecord
  2
DEFPOINTS
 70
     0
 62
     7
  6
CONTINUOUS
290
     0
370
    -3
390
46A9
347
0
  0
LAYER
  5
46C7
330
469C
100
AcDbSymbolTableRecord
100
AcDbLayerTableRecord
  2
245
 70
     0
 62
     2
  6
CENTER2
370
    -3
390
46A9
347
0
  0
LAYER
  5
46C8
330
469C
100
AcDbSymbolTableRecord
100
AcDbLayerTableRecord
  2
241
 70
     0
 62
   211
  6
CONTINUOUS
370
    -3
390
46A9
347
0
  0
LAYER
  5
46C9
330
469C
100
AcDbSymbolTableRecord
100
AcDbLayerTableRecord
  2
242
 70
     0
 62
     3
  6
CONTINUOUS
370
    -3
390
46A9
347
0
  0
LAYER
  5
46CA
330
469C
100
AcDbSymbolTableRecord
100
AcDbLayerTableRecord
  2
243
 70
     0
 62
   211
  6
HIDDEN2
370
    -3
390
46A9
347
0
  0
LAYER
  5
46CB
330
469C
100
AcDbSymbolTableRecord
100
AcDbLayerTableRecord
  2
247
 70
     0
 62
    60
  6
CONTINUOUS
370
    -3
390
46A9
347
0
  0
LAYER
  5
46CC
330
469C
100
AcDbSymbolTableRecord
100
AcDbLayerTableRecord
  2
250
 70
     0
 62
     3
  6
CONTINUOUS
370
    -3
390
46A9
347
0
  0
ENDTAB
  0
TABLE
  2
STYLE
  5
469D
330
0
100
AcDbSymbolTable
 70
     4
  0
STYLE
  5
46AB
330
469D
100
AcDbSymbolTableRecord
100
AcDbTextStyleTableRecord
  2
STANDARD
 70
     0
 40
0.0
 41
1.0
 50
0.0
 71
     0
 42
3.0
  3
romans.shx
  4
extfont.shx
  0
STYLE
  5
46CE
330
469D
100
AcDbSymbolTableRecord
100
AcDbTextStyleTableRecord
  2
YOKO
 70
     0
 40
0.0
 41
1.0
 50
0.0
 71
     0
 42
3.0
  3
romans.shx
  4
extfont.shx
  0
STYLE
  5
46CF
330
469D
100
AcDbSymbolTableRecord
100
AcDbTextStyleTableRecord
  2

 70
     1
 40
0.0
 41
1.0
 50
0.0
 71
     0
 42
3.0
  3
genltshp.shx
  4

  0
STYLE
  5
46D0
330
469D
100
AcDbSymbolTableRecord
100
AcDbTextStyleTableRecord
  2
ACANSGDT
 70
     0
 40
0.0
 41
1.0
 50
0.0
 71
     0
 42
3.0
  3
amgdt.shx
  4

  0
ENDTAB
  0
TABLE
  2
VIEW
  5
46A0
330
0
100
AcDbSymbolTable
 70
     0
  0
ENDTAB
  0
TABLE
  2
UCS
  5
46A1
330
0
100
AcDbSymbolTable
 70
     0
  0
ENDTAB
  0
TABLE
  2
APPID
  5
46A3
330
0
100
AcDbSymbolTable
 70
    41
  0
APPID
  5
46AC
330
46A3
100
AcDbSymbolTableRecord
100
AcDbRegAppTableRecord
  2
ACAD
 70
     0
  0
APPID
  5
46D2
330
46A3
100
AcDbSymbolTableRecord
100
AcDbRegAppTableRecord
  2
ACADANNOTATIVE
 70
     0
  0
APPID
  5
46D3
330
46A3
100
AcDbSymbolTableRecord
100
AcDbRegAppTableRecord
  2
GLOBAL
 70
     0
  0
APPID
  5
46D4
330
46A3
100
AcDbSymbolTableRecord
100
AcDbRegAppTableRecord
  2
DETAIL
 70
     0
  0
APPID
  5
46D5
330
46A3
100
AcDbSymbolTableRecord
100
AcDbRegAppTableRecord
  2
GRPNAME
 70
     0
  0
APPID
  5
46D6
330
46A3
100
AcDbSymbolTableRecord
100
AcDbRegAppTableRecord
  2
GPARA
 70
     0
  0
APPID
  5
46D7
330
46A3
100
AcDbSymbolTableRecord
100
AcDbRegAppTableRecord
  2
MCAD_NO_VIS
 70
     0
  0
APPID
  5
46D8
330
46A3
100
AcDbSymbolTableRecord
100
AcDbRegAppTableRecord
  2
ACAD_TEMP_GRAPHIC
 70
     0
  0
APPID
  5
46D9
330
46A3
100
AcDbSymbolTableRecord
100
AcDbRegAppTableRecord
  2
ACATTRIBSERVICES
 70
     0
  0
APPID
  5
46DA
330
46A3
100
AcDbSymbolTableRecord
100
AcDbRegAppTableRecord
  2
GENIUS_GENSCREG_15
 70
     0
  0
APPID
  5
46DB
330
46A3
100
AcDbSymbolTableRecord
100
AcDbRegAppTableRecord
  2
GENIUS_GENODEF_13
 70
     0
  0
APPID
  5
46DC
330
46A3
100
AcDbSymbolTableRecord
100
AcDbRegAppTableRecord
  2
GENIUS_GENOBJ-N-SDF_13
 70
     0
  0
APPID
  5
46DD
330
46A3
100
AcDbSymbolTableRecord
100
AcDbRegAppTableRecord
  2
GENIUS_GENREC_14
 70
     0
  0
APPID
  5
46DE
330
46A3
100
AcDbSymbolTableRecord
100
AcDbRegAppTableRecord
  2
GENIUS_GENOBJ-N-REC_13
 70
     0
  0
APPID
  5
46DF
330
46A3
100
AcDbSymbolTableRecord
100
AcDbRegAppTableRecord
  2
GENIUS_GENDIMSH_14
 70
     0
  0
APPID
  5
46E0
330
46A3
100
AcDbSymbolTableRecord
100
AcDbRegAppTableRecord
  2
GENIUS_GENOBJ-N-DIM_13
 70
     0
  0
APPID
  5
46E1
330
46A3
100
AcDbSymbolTableRecord
100
AcDbRegAppTableRecord
  2
GENIUS_GENDIM_13
 70
     0
  0
APPID
  5
46E2
330
46A3
100
AcDbSymbolTableRecord
100
AcDbRegAppTableRecord
  2
GENIUS_GENDTOL_13
 70
     0
  0
APPID
  5
46E3
330
46A3
100
AcDbSymbolTableRecord
100
AcDbRegAppTableRecord
  2
GENIUS_GENOLIS_13
 70
     0
  0
APPID
  5
46E4
330
46A3
100
AcDbSymbolTableRecord
100
AcDbRegAppTableRecord
  2
GENIUS_GENOENT_13
 70
     0
  0
APPID
  5
46E5
330
46A3
100
AcDbSymbolTableRecord
100
AcDbRegAppTableRecord
  2
GENIUS_GENOBJ-F-FEM_13
 70
     0
  0
APPID
  5
46E6
330
46A3
100
AcDbSymbolTableRecord
100
AcDbRegAppTableRecord
  2
GENIUS_GENOREF_13
 70
     0
  0
APPID
  5
46E7
330
46A3
100
AcDbSymbolTableRecord
100
AcDbRegAppTableRecord
  2
GENIUS_GEFFEM_13
 70
     0
  0
APPID
  5
46E8
330
46A3
100
AcDbSymbolTableRecord
100
AcDbRegAppTableRecord
  2
GENIUS_GEFFEMP_13
 70
     0
  0
APPID
  5
46E9
330
46A3
100
AcDbSymbolTableRecord
100
AcDbRegAppTableRecord
  2
AD_DRAW
 70
     0
  0
APPID
  5
46EA
330
46A3
100
AcDbSymbolTableRecord
100
AcDbRegAppTableRecord
  2
DESIGNERASSEMBLIES
 70
     0
  0
APPID
  5
46EB
330
46A3
100
AcDbSymbolTableRecord
100
AcDbRegAppTableRecord
  2
ACADM_DIM_EDIT
 70
     0
  0
APPID
  5
46EC
330
46A3
100
AcDbSymbolTableRecord
100
AcDbRegAppTableRecord
  2
AMDT_DM_ADJ
 70
     0
  0
APPID
  5
46ED
330
46A3
100
AcDbSymbolTableRecord
100
AcDbRegAppTableRecord
  2
ITEMNAME
 70
     0
  0
APPID
  5
46EE
330
46A3
100
AcDbSymbolTableRecord
100
AcDbRegAppTableRecord
  2
GENIUS_GENOBJ-N-FIL_13
 70
     0
  0
APPID
  5
46EF
330
46A3
100
AcDbSymbolTableRecord
100
AcDbRegAppTableRecord
  2
GENIUS_GENFIL_13
 70
     0
  0
APPID
  5
46F0
330
46A3
100
AcDbSymbolTableRecord
100
AcDbRegAppTableRecord
  2
GENIUS_GENOBJ-N-CHA_13
 70
     0
  0
APPID
  5
46F1
330
46A3
100
AcDbSymbolTableRecord
100
AcDbRegAppTableRecord
  2
ACAD_NAV_VCDISPLAY
 70
     0
  0
APPID
  5
46F2
330
46A3
100
AcDbSymbolTableRecord
100
AcDbRegAppTableRecord
  2
ACAD_DSTYLE_DIMJAG
 70
     0
  0
APPID
  5
46F3
330
46A3
100
AcDbSymbolTableRecord
100
AcDbRegAppTableRecord
  2
ACAD_DSTYLE_DIMBREAK
 70
     0
  0
APPID
  5
46F4
330
46A3
100
AcDbSymbolTableRecord
100
AcDbRegAppTableRecord
  2
ACAD_EXEMPT_FROM_CAD_STANDARDS
 70
     0
  0
APPID
  5
46F5
330
46A3
100
AcDbSymbolTableRecord
100
AcDbRegAppTableRecord
  2
ACAD_MLEADERVER
 70
     0
  0
APPID
  5
46F6
330
46A3
100
AcDbSymbolTableRecord
100
AcDbRegAppTableRecord
  2
ACAD_DSTYLE_DIMARC_LENGTH_
 70
     0
  0
APPID
  5
46F7
330
46A3
100
AcDbSymbolTableRecord
100
AcDbRegAppTableRecord
  2
ACAD_DSTYLE_DIM_LINETYPE
 70
     0
  0
APPID
  5
46F8
330
46A3
100
AcDbSymbolTableRecord
100
AcDbRegAppTableRecord
  2
ACAD_DSTYLE_DIM_EXT1_LINETYPE
 70
     0
  0
APPID
  5
46F9
330
46A3
100
AcDbSymbolTableRecord
100
AcDbRegAppTableRecord
  2
ACAD_DSTYLE_DIM_EXT2_LINETYPE
 70
     0
  0
ENDTAB
  0
TABLE
  2
DIMSTYLE
  5
46A4
330
0
100
AcDbSymbolTable
 70
     8
100
AcDbDimStyleTable
  0
DIMSTYLE
105
46FA
330
46A4
100
AcDbSymbolTableRecord
100
AcDbDimStyleTableRecord
  2
STANDARD
 70
     0
340
46CE
  0
DIMSTYLE
105
46FB
330
46A4
100
AcDbSymbolTableRecord
100
AcDbDimStyleTableRecord
  2
BIGT
 70
     0
 41
2.229999999999999
 42
0.5
 43
7.0
 44
1.0
 48
0.01
 73
     0
 74
     0
 77
     3
 78
     9
140
2.799999999999998
141
0.0
147
1.0
172
     1
174
     1
176
   256
177
   256
178
    40
340
46CE
  0
DIMSTYLE
105
46FC
330
46A4
100
AcDbSymbolTableRecord
100
AcDbDimStyleTableRecord
  2
AM_ANSI
 70
     0
  4
mm
 41
0.12
 42
0.05
 43
0.5
 44
0.1
 47
0.1
 48
0.1
 78
     7
140
0.12
141
0.0
146
0.71
147
0.06
176
   256
177
   256
178
     2
340
46CE
  0
DIMSTYLE
105
46FD
330
46A4
100
AcDbSymbolTableRecord
100
AcDbDimStyleTableRecord
  2
AM_ANSI$3
 70
     0
  4
mm
 41
0.12
 42
0.05
 43
0.5
 44
0.1
 47
0.1
 48
0.1
 78
     7
140
0.12
141
0.0
146
0.71
147
0.06
176
   256
177
   256
178
     2
340
46CE
  0
DIMSTYLE
105
46FE
330
46A4
100
AcDbSymbolTableRecord
100
AcDbDimStyleTableRecord
  2
AM_ANSI$4
 70
     0
  4
mm
 41
0.12
 42
0.05
 43
0.5
 44
0.1
 47
0.1
 48
0.1
 78
     7
140
0.12
141
0.0
146
0.71
147
0.06
176
   256
177
   256
178
     2
340
46CE
  0
DIMSTYLE
105
46FF
330
46A4
100
AcDbSymbolTableRecord
100
AcDbDimStyleTableRecord
  2
AM_ANSI$7
 70
     0
  4
mm
 41
0.12
 42
0.05
 43
0.5
 44
0.1
 47
0.1
 48
0.1
 78
     7
140
0.12
141
0.0
146
0.71
147
0.06
176
   256
177
   256
178
     2
340
46CE
  0
DIMSTYLE
105
4700
330
46A4
100
AcDbSymbolTableRecord
100
AcDbDimStyleTableRecord
  2
AM_ANSI$SF
 70
     0
  4
mm
 41
0.12
 42
0.05
 43
0.5
 44
0.1
 47
0.1
 48
0.1
 75
     1
 76
     1
 78
     7
140
0.12
141
0.0
146
0.71
147
0.06
176
   256
177
   256
178
     2
340
46CE
  0
DIMSTYLE
105
4701
330
46A4
100
AcDbSymbolTableRecord
100
AcDbDimStyleTableRecord
  2
AM_ANSI$SH
 70
     0
  4
mm
 41
0.12
 42
0.05
 43
0.5
 44
0.1
 47
0.1
 48
0.1
 75
     1
 76
     1
 78
     7
140
0.12
141
0.0
146
0.71
147
0.06
173
     1
176
   256
177
   256
178
     2
340
46CE
341
4707
343
4707
  0
ENDTAB
  0
TABLE
  2
BLOCK_RECORD
  5
469B
330
0
100
AcDbSymbolTable
 70
     3
  0
BLOCK_RECORD
  5
46B6
330
469B
100
AcDbSymbolTableRecord
100
AcDbBlockTableRecord
  2
*Model_Space
340
46B7
 70
     0
280
     1
281
     0
  0
BLOCK_RECORD
  5
46B4
330
469B
100
AcDbSymbolTableRecord
100
AcDbBlockTableRecord
  2
*Paper_Space
340
46B5
 70
     0
280
     1
281
     0
  0
BLOCK_RECORD
  5
4705
330
469B
100
AcDbSymbolTableRecord
100
AcDbBlockTableRecord
  2
_OPEN
340
0
 70
     0
280
     1
281
     0
  0
BLOCK_RECORD
  5
4707
330
469B
100
AcDbSymbolTableRecord
100
AcDbBlockTableRecord
  2
GENAXEH
340
0
 70
     0
280
     1
281
     0
  0
BLOCK_RECORD
  5
4709
330
469B
100
AcDbSymbolTableRecord
100
AcDbBlockTableRecord
  2
_ACMFILLEDHALF
340
0
 70
     0
280
     1
281
     0
  0
ENDTAB
  0
ENDSEC
  0
SECTION
  2
BLOCKS
  0
BLOCK
  5
4702
330
46B6
100
AcDbEntity
  8
0
100
AcDbBlockBegin
  2
*Model_Space
 70
     0
 10
0.0
 20
0.0
 30
0.0
  3
*Model_Space
  1

  0
ENDBLK
  5
454D
330
46B6
100
AcDbEntity
  8
0
100
AcDbBlockEnd
  0
BLOCK
  5
4703
330
46B4
100
AcDbEntity
 67
     1
  8
0
100
AcDbBlockBegin
  2
*Paper_Space
 70
     0
 10
0.0
 20
0.0
 30
0.0
  3
*Paper_Space
  1

  0
ENDBLK
  5
4549
330
46B4
100
AcDbEntity
 67
     1
  8
0
100
AcDbBlockEnd
  0
BLOCK
  5
4704
330
4705
100
AcDbEntity
  8
0
100
AcDbBlockBegin
  2
_OPEN
 70
     0
 10
0.0
 20
0.0
 30
0.0
  3
_OPEN
  1

  0
LINE
  5
43DA
330
4705
100
AcDbEntity
  8
0
  6
ByBlock
 62
     0
100
AcDbLine
 10
-1.0
 20
0.1666666666666666
 30
0.0
 11
0.0
 21
0.0
 31
0.0
  0
LINE
  5
43DB
330
4705
100
AcDbEntity
  8
0
  6
ByBlock
 62
     0
100
AcDbLine
 10
-1.0
 20
-0.1666666666666666
 30
0.0
 11
0.0
 21
0.0
 31
0.0
  0
LINE
  5
43DC
330
4705
100
AcDbEntity
  8
0
  6
ByBlock
 62
     0
100
AcDbLine
 10
0.0
 20
0.0
 30
0.0
 11
-1.0
 21
0.0
 31
0.0
  0
ENDBLK
  5
43DD
330
4705
100
AcDbEntity
  8
0
100
AcDbBlockEnd
  0
BLOCK
  5
4706
330
4707
100
AcDbEntity
  8
0
100
AcDbBlockBegin
  2
GENAXEH
 70
     0
 10
0.0
 20
0.0
 30
0.0
  3
GENAXEH
  1

  0
LINE
  5
4415
330
4707
100
AcDbEntity
  8
0
100
AcDbLine
 10
-1.0
 20
0.0
 30
0.0
 11
1.0
 21
0.0
 31
0.0
  0
ENDBLK
  5
4416
330
4707
100
AcDbEntity
  8
0
100
AcDbBlockEnd
  0
BLOCK
  5
4708
330
4709
100
AcDbEntity
  8
0
100
AcDbBlockBegin
  2
_ACMFILLEDHALF
 70
     0
 10
0.0
 20
0.0
 30
0.0
  3
_ACMFILLEDHALF
  1

  0
TRACE
  5
4611
330
4709
100
AcDbEntity
  8
240
 62
     0
100
AcDbTrace
 10
-0.8
 20
0.0
 30
0.0
 11
-1.0
 21
0.166666666
 31
0.0
 12
0.0
 22
0.0
 32
0.0
 13
0.0
 23
0.0
 33
0.0
  0
LINE
  5
4612
330
4709
100
AcDbEntity
  8
240
 62
     0
100
AcDbLine
 10
-1.0
 20
0.0
 30
0.0
 11
-0.8
 21
0.0
 31
0.0
  0
ENDBLK
  5
4610
330
4709
100
AcDbEntity
  8
0
100
AcDbBlockEnd
  0
ENDSEC
  0
SECTION
  2
ENTITIES
  0
LINE
  5
4227
330
46B6
100
AcDbEntity
  8
245
  6
CENTER2
100
AcDbLine
 10
-66.40000000000018
 20
0.0000000000000853
 30
0.0
 11
45.28982253466621
 21
-0.0000000000000284
 31
0.0
  0
LINE
  5
4255
330
46B6
100
AcDbEntity
  8
240
  6
Continuous
100
AcDbLine
 10
42.99999999999903
 20
-19.5
 30
0.0
 11
42.99999999999903
 21
19.5
 31
0.0
1001
GRPNAME
1000
PASTMD03
  0
LINE
  5
4256
330
46B6
100
AcDbEntity
  8
240
  6
Continuous
100
AcDbLine
 10
42.99999999999903
 20
-19.5
 30
0.0
 11
30.99999999999988
 21
-19.5
 31
0.0
1001
GRPNAME
1000
PASTMD03
  0
LINE
  5
4257
330
46B6
100
AcDbEntity
  8
243
  6
HIDDEN2
100
AcDbLine
 10
16.94999999999902
 20
11.0
 30
0.0
 11
42.99999999999903
 21
11.0
 31
0.0
1001
GRPNAME
1000
PASTMD03
  0
LINE
  5
4258
330
46B6
100
AcDbEntity
  8
240
  6
Continuous
100
AcDbLine
 10
42.99999999999903
 20
19.5
 30
0.0
 11
30.99999999999975
 21
19.50000000000014
 31
0.0
1001
GRPNAME
1000
PASTMD03
  0
LINE
  5
425A
330
46B6
100
AcDbEntity
  8
243
  6
HIDDEN2
100
AcDbLine
 10
16.94999999999902
 20
-11.00000000000006
 30
0.0
 11
42.99999999999903
 21
-11.00000000000006
 31
0.0
1001
GRPNAME
1000
PASTMD03
  0
LINE
  5
425B
330
46B6
100
AcDbEntity
  8
241
  6
Continuous
100
AcDbLine
 10
26.9999999999998
 20
23.50000000000013
 30
0.0
 11
26.99999999999988
 21
-23.50000000000001
 31
0.0
  0
TEXT
  5
425C
330
46B6
100
AcDbEntity
  8
241
  6
Continuous
100
AcDbText
 10
-65.4
 20
57.66666666666666
 30
0.0
 40
5.0
  1
BT40-CKB4-43
  7
YOKO
 11
-65.4
 21
56.0
 31
0.0
100
AcDbText
 73
     1
  0
LINE
  5
425D
330
46B6
100
AcDbEntity
  8
250
  6
Continuous
100
AcDbLine
 10
43.5
 20
-19.49999999999997
 30
0.0
 11
57.0
 21
-19.49999999999997
 31
0.0
  0
LINE
  5
425E
330
46B6
100
AcDbEntity
  8
250
  6
Continuous
100
AcDbLine
 10
43.5
 20
19.50000000000002
 30
0.0
 11
57.0
 21
19.50000000000002
 31
0.0
  0
LINE
  5
425F
330
46B6
100
AcDbEntity
  8
250
  6
Continuous
100
AcDbLine
 10
56.0
 20
-17.26999999999997
 30
0.0
 11
56.0
 21
17.27000000000002
 31
0.0
  0
LINE
  5
4260
330
46B6
100
AcDbEntity
  8
250
  6
Continuous
100
AcDbLine
 10
56.37166666666667
 20
-17.26999999999997
 30
0.0
 11
56.0
 21
-19.49999999999997
 31
0.0
  0
LINE
  5
4261
330
46B6
100
AcDbEntity
  8
250
  6
Continuous
100
AcDbLine
 10
55.62833333333333
 20
-17.26999999999997
 30
0.0
 11
56.0
 21
-19.49999999999997
 31
0.0
  0
LINE
  5
4262
330
46B6
100
AcDbEntity
  8
250
  6
Continuous
100
AcDbLine
 10
56.0
 20
-19.49999999999997
 30
0.0
 11
56.0
 21
-17.26999999999997
 31
0.0
  0
LINE
  5
4263
330
46B6
100
AcDbEntity
  8
250
  6
Continuous
100
AcDbLine
 10
55.62833333333333
 20
17.27000000000002
 30
0.0
 11
56.0
 21
19.50000000000002
 31
0.0
  0
LINE
  5
4264
330
46B6
100
AcDbEntity
  8
250
  6
Continuous
100
AcDbLine
 10
56.37166666666667
 20
17.27000000000002
 30
0.0
 11
56.0
 21
19.50000000000002
 31
0.0
  0
LINE
  5
4265
330
46B6
100
AcDbEntity
  8
250
  6
Continuous
100
AcDbLine
 10
56.0
 20
19.50000000000002
 30
0.0
 11
56.0
 21
17.27000000000002
 31
0.0
  0
TEXT
  5
4266
330
46B6
100
AcDbEntity
  8
250
  6
Continuous
100
AcDbText
 10
55.0
 20
-3.866666666666647
 30
0.0
 40
2.799999999999998
  1
∅39
 50
90.0
100
AcDbText
1001
ACAD
1000
MTEXTBEGIN
1070
    73
1070
     1
1070
    44
1040
1.0
1070
    74
1070
     0
1000
MTEXTEND
  0
LINE
  5
4267
330
46B6
100
AcDbEntity
  8
250
  6
Continuous
100
AcDbLine
 10
40.34176270432385
 20
21.06538414112532
 30
0.0
 11
39.05308757
 21
19.50000000000004
 31
0.0
  0
LINE
  5
4268
330
46B6
100
AcDbEntity
  8
250
  6
Continuous
100
AcDbLine
 10
39.76441243507652
 20
21.39871747435872
 30
0.0
 11
39.05308757
 21
19.50000000000004
 31
0.0
  0
LINE
  5
4269
330
46B6
100
AcDbEntity
  8
250
  6
Continuous
100
AcDbLine
 10
39.05308757
 20
19.50000000000004
 30
0.0
 11
40.05308756970016
 21
21.23205080774202
 31
0.0
  0
LWPOLYLINE
  5
426A
330
46B6
100
AcDbEntity
  8
250
  6
Continuous
100
AcDbPolyline
 90
        2
 70
     0
 43
0.0
 10
40.05308756970016
 20
21.23205080774202
 10
48.90368641999999
 20
36.56173770000004
1001
ACAD
1000
DSTYLE
1002
{
1070
     6
1000
OPEN
1070
    41
1040
2.0
1070
    42
1040
2.0
1070
    44
1040
2.0
1070
    79
1070
     2
1070
   140
1040
4.0
1070
   179
1070
     3
1070
   343
1005
594
1070
   371
1070
    -1
1070
   372
1070
    -1
1002
}
  0
TEXT
  5
426B
330
46B6
100
AcDbEntity
  8
250
  6
Continuous
100
AcDbText
 10
51.30368641999999
 20
37.56173770000004
 30
0.0
 40
2.799999999999998
  1
CK4
  7
YOKO
100
AcDbText
1001
ITEMNAME
1000
LNSP3
1001
ACAD
1000
MTEXTBEGIN
1070
    73
1070
     1
1070
    44
1040
1.0
1070
    74
1070
     0
1000
MTEXTEND
1000
MTEXTBEGIN
1070
    73
1070
     1
1070
    44
1040
1.0
1070
    74
1070
     0
1000
MTEXTEND
  0
LINE
  5
426C
330
46B6
100
AcDbEntity
  8
250
  6
Continuous
100
AcDbLine
 10
48.90368641999999
 20
36.56173770000004
 30
0.0
 11
62.10368641999998
 21
36.56173770000004
 31
0.0
1001
ITEMNAME
1000
LNSP2
  0
LINE
  5
426D
330
46B6
100
AcDbEntity
  8
250
  6
Continuous
100
AcDbLine
 10
0.0
 20
22.72500000000002
 30
0.0
 11
0.0
 21
43.0
 31
0.0
  0
LINE
  5
426E
330
46B6
100
AcDbEntity
  8
250
  6
Continuous
100
AcDbLine
 10
43.0
 20
20.00000000000002
 30
0.0
 11
43.0
 21
43.0
 31
0.0
  0
LINE
  5
426F
330
46B6
100
AcDbEntity
  8
250
  6
Continuous
100
AcDbLine
 10
2.229999999999999
 20
42.00000000000001
 30
0.0
 11
40.77
 21
42.00000000000001
 31
0.0
  0
LINE
  5
4270
330
46B6
100
AcDbEntity
  8
250
  6
Continuous
100
AcDbLine
 10
2.229999999999999
 20
41.62833333333334
 30
0.0
 11
0.0
 21
42.00000000000001
 31
0.0
  0
LINE
  5
4271
330
46B6
100
AcDbEntity
  8
250
  6
Continuous
100
AcDbLine
 10
2.229999999999999
 20
42.37166666666667
 30
0.0
 11
0.0
 21
42.00000000000001
 31
0.0
  0
LINE
  5
4272
330
46B6
100
AcDbEntity
  8
250
  6
Continuous
100
AcDbLine
 10
0.0
 20
42.00000000000001
 30
0.0
 11
2.229999999999999
 21
42.00000000000001
 31
0.0
  0
LINE
  5
4273
330
46B6
100
AcDbEntity
  8
250
  6
Continuous
100
AcDbLine
 10
40.77
 20
42.37166666666667
 30
0.0
 11
43.0
 21
42.00000000000001
 31
0.0
  0
LINE
  5
4274
330
46B6
100
AcDbEntity
  8
250
  6
Continuous
100
AcDbLine
 10
40.77
 20
41.62833333333334
 30
0.0
 11
43.0
 21
42.00000000000001
 31
0.0
  0
LINE
  5
4275
330
46B6
100
AcDbEntity
  8
250
  6
Continuous
100
AcDbLine
 10
43.0
 20
42.00000000000001
 30
0.0
 11
40.77
 21
42.00000000000001
 31
0.0
  0
TEXT
  5
4276
330
46B6
100
AcDbEntity
  8
250
  6
Continuous
100
AcDbText
 10
18.83333333333333
 20
43.0
 30
0.0
 40
2.799999999999998
  1
43
100
AcDbText
1001
ACAD
1000
MTEXTBEGIN
1070
    73
1070
     1
1070
    44
1040
1.0
1070
    74
1070
     0
1000
MTEXTEND
  0
LINE
  5
4277
330
46B6
100
AcDbEntity
  8
245
  6
CENTER2
100
AcDbLine
 10
33.0
 20
5.000000000000016
 30
0.0
 11
33.0
 21
-4.999999999999982
 31
0.0
  0
CIRCLE
  5
4278
330
46B6
100
AcDbEntity
  8
242
  6
Continuous
100
AcDbCircle
 10
33.0
 20
0.0000000000000177
 30
0.0
 40
3.5
  0
LWPOLYLINE
  5
4279
330
46B6
100
AcDbEntity
  8
241
  6
Continuous
100
AcDbPolyline
 90
        6
 70
     1
 43
0.0
 10
31.0
 20
-1.154700539999981
 10
33.0
 20
-2.309401079999982
 10
35.0
 20
-1.154700539999981
 10
35.0
 20
1.154700540000017
 10
33.0
 20
2.309401080000016
 10
31.0
 20
1.154700540000017
  0
CIRCLE
  5
427A
330
46B6
100
AcDbEntity
  8
241
  6
Continuous
100
AcDbCircle
 10
33.0
 20
0.0000000000000177
 30
0.0
 40
4.0
  0
LINE
  5
42F4
330
46B6
100
AcDbEntity
  8
240
  6
Continuous
100
AcDbLine
 10
26.99999999999989
 20
-31.50000000000043
 30
0.0
 11
26.99999999999988
 21
-23.50000000000001
 31
0.0
  0
LINE
  5
42F5
330
46B6
100
AcDbEntity
  8
240
  6
Continuous
100
AcDbLine
 10
-65.40000000000012
 20
-12.68750000000003
 30
0.0
 11
-65.40000000000009
 21
12.6875000000002
 31
0.0
  0
LINE
  5
42F6
330
46B6
100
AcDbEntity
  8
241
  6
Continuous
100
AcDbLine
 10
-0.0000000000000853
 20
-22.225
 30
0.0
 11
0.0000000000000853
 21
22.22500000000012
 31
0.0
  0
LINE
  5
42F7
330
46B6
100
AcDbEntity
  8
240
  6
Continuous
100
AcDbLine
 10
-0.0000000000001137
 20
-22.225
 30
0.0
 11
-65.40000000000012
 21
-12.68750000000003
 31
0.0
  0
LINE
  5
42F8
330
46B6
100
AcDbEntity
  8
240
  6
Continuous
100
AcDbLine
 10
26.99999999999989
 20
-31.50000000000043
 30
0.0
 11
21.63449434733331
 21
-31.50000000000071
 31
0.0
  0
LINE
  5
42F9
330
46B6
100
AcDbEntity
  8
243
  6
HIDDEN2
100
AcDbLine
 10
22.99999999999989
 20
-22.49999999999997
 30
0.0
 11
22.99999999999989
 21
-31.49999999999997
 31
0.0
  0
LINE
  5
42FA
330
46B6
100
AcDbEntity
  8
240
  6
Continuous
100
AcDbLine
 10
2.0
 20
-31.49999999999969
 30
0.0
 11
11.5655056526661
 21
-31.50000000000031
 31
0.0
  0
LINE
  5
42FB
330
46B6
100
AcDbEntity
  8
243
  6
HIDDEN2
100
AcDbLine
 10
22.99999999999989
 20
-22.49999999999997
 30
0.0
 11
2.000000000000027
 21
-22.49999999999997
 31
0.0
  0
LINE
  5
42FC
330
46B6
100
AcDbEntity
  8
240
  6
Continuous
100
AcDbLine
 10
14.45225699861486
 20
-26.4999999999998
 30
0.0
 11
11.56550565266624
 21
-31.50000000000043
 31
0.0
  0
LINE
  5
42FD
330
46B6
100
AcDbEntity
  8
240
  6
Continuous
100
AcDbLine
 10
18.7477430013854
 20
-26.50000000000003
 30
0.0
 11
21.63449434733434
 21
-31.50000000000043
 31
0.0
  0
LINE
  5
42FE
330
46B6
100
AcDbEntity
  8
240
  6
Continuous
100
AcDbLine
 10
14.45225699861453
 20
-26.49999999999952
 30
0.0
 11
18.7477430013854
 21
-26.50000000000003
 31
0.0
  0
LINE
  5
42FF
330
46B6
100
AcDbEntity
  8
241
  6
Continuous
100
AcDbLine
 10
11.5655056526661
 20
31.50000000000043
 30
0.0
 11
11.56550565266624
 21
-31.50000000000043
 31
0.0
  0
LINE
  5
4300
330
46B6
100
AcDbEntity
  8
241
  6
Continuous
100
AcDbLine
 10
14.45225699861453
 20
-26.49999999999952
 30
0.0
 11
14.45225699861441
 21
26.4999999999994
 31
0.0
  0
LINE
  5
4301
330
46B6
100
AcDbEntity
  8
241
  6
Continuous
100
AcDbLine
 10
18.74774300138529
 20
-26.49999999999986
 30
0.0
 11
18.7477430013854
 21
26.49999999999997
 31
0.0
  0
LINE
  5
4302
330
46B6
100
AcDbEntity
  8
241
  6
Continuous
100
AcDbLine
 10
21.63449434733331
 20
-31.50000000000071
 30
0.0
 11
21.63449434733337
 21
31.50000000000066
 31
0.0
  0
LINE
  5
4303
330
46B6
100
AcDbEntity
  8
240
  6
Continuous
100
AcDbLine
 10
-0.0000000000000853
 20
-22.225
 30
0.0
 11
2.000000000000027
 21
-22.22500000000012
 31
0.0
  0
LINE
  5
4304
330
46B6
100
AcDbEntity
  8
240
  6
Continuous
100
AcDbLine
 10
-0.0000000000000568
 20
22.225
 30
0.0
 11
-65.40000000000009
 21
12.6875000000002
 31
0.0
  0
LINE
  5
4305
330
46B6
100
AcDbEntity
  8
240
  6
Continuous
100
AcDbLine
 10
26.99999999999994
 20
31.50000000000038
 30
0.0
 11
21.63449434733337
 21
31.50000000000071
 31
0.0
  0
LINE
  5
4306
330
46B6
100
AcDbEntity
  8
243
  6
HIDDEN2
100
AcDbLine
 10
22.99999999999994
 20
22.49999999999992
 30
0.0
 11
23.0
 21
31.49999999999991
 31
0.0
  0
LINE
  5
4307
330
46B6
100
AcDbEntity
  8
240
  6
Continuous
100
AcDbLine
 10
2.0
 20
31.49999999999975
 30
0.0
 11
11.56550565266619
 21
31.50000000000038
 31
0.0
  0
LINE
  5
4308
330
46B6
100
AcDbEntity
  8
243
  6
HIDDEN2
100
AcDbLine
 10
22.99999999999994
 20
22.49999999999992
 30
0.0
 11
2.000000000000027
 21
22.50000000000006
 31
0.0
  0
LINE
  5
4309
330
46B6
100
AcDbEntity
  8
240
  6
Continuous
100
AcDbLine
 10
14.45225699861498
 20
26.4999999999998
 30
0.0
 11
11.56550565266633
 21
31.50000000000043
 31
0.0
  0
LINE
  5
430A
330
46B6
100
AcDbEntity
  8
240
  6
Continuous
100
AcDbLine
 10
18.74774300138551
 20
26.50000000000003
 30
0.0
 11
21.63449434733445
 21
31.50000000000038
 31
0.0
  0
LINE
  5
430B
330
46B6
100
AcDbEntity
  8
240
  6
Continuous
100
AcDbLine
 10
14.45225699861459
 20
26.49999999999946
 30
0.0
 11
18.74774300138551
 21
26.50000000000003
 31
0.0
  0
LINE
  5
430C
330
46B6
100
AcDbEntity
  8
240
  6
Continuous
100
AcDbLine
 10
-0.0000000000000284
 20
22.22500000000005
 30
0.0
 11
2.000000000000027
 21
22.22500000000005
 31
0.0
  0
LINE
  5
430D
330
46B6
100
AcDbEntity
  8
247
  6
Continuous
100
AcDbLine
 10
7.999999999999857
 20
-18.25000000007
 30
0.0
 11
7.999999999999857
 21
-11.55769230803
 31
0.0
  0
ARC
  5
430E
330
46B6
100
AcDbEntity
  8
247
  6
Continuous
100
AcDbCircle
 10
6.250000000069832
 20
-18.25000000007
 30
0.0
 40
1.749999999929999
100
AcDbArc
 50
180.0
 51
0.0
  0
ARC
  5
430F
330
46B6
100
AcDbEntity
  8
247
  6
Continuous
100
AcDbCircle
 10
6.250000000069832
 20
-11.55769230803
 30
0.0
 40
1.749999999929999
100
AcDbArc
 50
0.0
 51
180.0
  0
LINE
  5
4310
330
46B6
100
AcDbEntity
  8
247
  6
Continuous
100
AcDbLine
 10
4.500000000139863
 20
-17.38461538471998
 30
0.0
 11
7.500000000019866
 21
-18.24485154196199
 31
0.0
  0
LINE
  5
4311
330
46B6
100
AcDbEntity
  8
247
  6
Continuous
100
AcDbLine
 10
5.923076923159866
 20
-16.48498381833579
 30
0.0
 11
5.923076923159866
 21
-17.79267612597581
 31
0.0
  0
ARC
  5
4312
330
46B6
100
AcDbEntity
  8
247
  6
Continuous
100
AcDbCircle
 10
5.049598667702838
 20
-16.14514381608976
 30
0.0
 40
0.5538165441895349
100
AcDbArc
 50
72.99788967529177
 51
172.9241662185136
  0
ARC
  5
4313
330
46B6
100
AcDbEntity
  8
247
  6
Continuous
100
AcDbCircle
 10
4.936033044465631
 20
-16.56687832302876
 30
0.0
 40
0.9904354236226808
100
AcDbArc
 50
4.742936852202212
 51
73.8492262732663
1001
GENIUS_GENOBJ-N-FIL_13
1002
{
1000
OWNER
1000
GEN
1002
}
1001
GENIUS_GENODEF_13
1002
{
1000
HIER
1070
     0
1002
}
1002
{
1000
MANEDIT
1070
     0
1002
}
1002
{
1000
NOSEL
1070
     0
1002
}
1002
{
1000
BEHIND
1070
     0
1002
}
1002
{
1000
OTHER
1070
     0
1002
}
1002
{
1000
REACTOR
1002
}
  0
LINE
  5
4314
330
46B6
100
AcDbEntity
  8
247
  6
Continuous
100
AcDbLine
 10
7.500000000019866
 20
-16.93715923432202
 30
0.0
 11
7.500000000019866
 21
-18.24485154196199
 31
0.0
  0
LINE
  5
4315
330
46B6
100
AcDbEntity
  8
247
  6
Continuous
100
AcDbLine
 10
4.500000000139863
 20
-17.38461538471998
 30
0.0
 11
4.500000000139863
 21
-16.07692307707995
 31
0.0
  0
ARC
  5
4316
330
46B6
100
AcDbEntity
  8
247
  6
Continuous
100
AcDbCircle
 10
6.482024232665395
 20
-16.56091963654697
 30
0.0
 40
0.5640818586791229
100
AcDbArc
 50
65.99094165252889
 51
172.2634434590691
  0
ARC
  5
4317
330
46B6
100
AcDbEntity
  8
247
  6
Continuous
100
AcDbCircle
 10
6.487429039186423
 20
-17.03826268534706
 30
0.0
 40
1.017605944623098
100
AcDbArc
 50
5.701985164259785
 51
77.27733843682238
1001
GENIUS_GENOBJ-N-FIL_13
1002
{
1000
OWNER
1000
GEN
1002
}
1001
GENIUS_GENODEF_13
1002
{
1000
HIER
1070
     0
1002
}
1002
{
1000
MANEDIT
1070
     0
1002
}
1002
{
1000
NOSEL
1070
     0
1002
}
1002
{
1000
BEHIND
1070
     0
1002
}
1002
{
1000
OTHER
1070
     0
1002
}
1002
{
1000
REACTOR
1002
}
  0
LINE
  5
4318
330
46B6
100
AcDbEntity
  8
247
  6
Continuous
100
AcDbLine
 10
7.500000000019866
 20
-15.283313080542
 30
0.0
 11
4.500000000139863
 21
-14.42307692329999
 31
0.0
  0
LINE
  5
4319
330
46B6
100
AcDbEntity
  8
247
  6
Continuous
100
AcDbLine
 10
4.500000000139863
 20
-12.00000000032
 30
0.0
 11
4.500000000139863
 21
-12.5657366194566
 31
0.0
  0
LINE
  5
431A
330
46B6
100
AcDbEntity
  8
247
  6
Continuous
100
AcDbLine
 10
7.500000000019866
 20
-13.46153846179996
 30
0.0
 11
7.500000000019866
 21
-12.84615384643999
 31
0.0
  0
ARC
  5
431B
330
46B6
100
AcDbEntity
  8
247
  6
Continuous
100
AcDbCircle
 10
6.583285135973227
 20
-11.70879120912283
 30
0.0
 40
2.252650082342212
100
AcDbArc
 50
202.3594881415291
 51
254.9932485428461
  0
ARC
  5
431C
330
46B6
100
AcDbEntity
  8
247
  6
Continuous
100
AcDbCircle
 10
5.308312655194383
 20
-12.3740694792132
 30
0.0
 40
0.8906723995727782
100
AcDbArc
 50
94.99458931907532
 51
155.1663289573039
1001
GENIUS_GENOBJ-N-FIL_13
1002
{
1000
OWNER
1000
GEN
1002
}
1001
GENIUS_GENODEF_13
1002
{
1000
HIER
1070
     0
1002
}
1002
{
1000
MANEDIT
1070
     0
1002
}
1002
{
1000
NOSEL
1070
     0
1002
}
1002
{
1000
BEHIND
1070
     0
1002
}
1002
{
1000
OTHER
1070
     0
1002
}
1002
{
1000
REACTOR
1002
}
  0
ARC
  5
431D
330
46B6
100
AcDbEntity
  8
247
  6
Continuous
100
AcDbCircle
 10
6.16014588866764
 20
-13.22645888621255
 30
0.0
 40
1.392781735586712
100
AcDbArc
 50
15.8460965557808
 51
82.32513700416906
  0
ARC
  5
431E
330
46B6
100
AcDbEntity
  8
247
  6
Continuous
100
AcDbCircle
 10
6.45924343152714
 20
-12.64221272584038
 30
0.0
 40
1.324563662670287
100
AcDbArc
 50
249.7136016704969
 51
321.7887456564093
1001
GENIUS_GENOBJ-N-FIL_13
1002
{
1000
OWNER
1000
GEN
1002
}
1001
GENIUS_GENODEF_13
1002
{
1000
HIER
1070
     0
1002
}
1002
{
1000
MANEDIT
1070
     0
1002
}
1002
{
1000
NOSEL
1070
     0
1002
}
1002
{
1000
BEHIND
1070
     0
1002
}
1002
{
1000
OTHER
1070
     0
1002
}
1002
{
1000
REACTOR
1002
}
  0
LINE
  5
431F
330
46B6
100
AcDbEntity
  8
247
  6
Continuous
100
AcDbLine
 10
6.346153846219832
 20
-12.53846153876
 30
0.0
 11
6.346153846219832
 21
-11.84615384648
 31
0.0
  0
LINE
  5
4320
330
46B6
100
AcDbEntity
  8
250
  6
Continuous
100
AcDbLine
 10
-34.1368727750733
 20
-19.20165331710595
 30
0.0
 11
-32.7000000000001
 21
-17.45624999999998
 31
0.0
  0
LINE
  5
4321
330
46B6
100
AcDbEntity
  8
250
  6
Continuous
100
AcDbLine
 10
-33.49312722492688
 20
-19.57331998377262
 30
0.0
 11
-32.7000000000001
 21
-17.45624999999998
 31
0.0
  0
LINE
  5
4322
330
46B6
100
AcDbEntity
  8
250
  6
Continuous
100
AcDbLine
 10
-32.7000000000001
 20
-17.45624999999998
 30
0.0
 11
-33.81500000000011
 21
-19.38748665043928
 31
0.0
  0
LINE
  5
4323
330
46B6
100
AcDbEntity
  8
250
  6
Continuous
100
AcDbLine
 10
-33.81500000000011
 20
-19.38748665043928
 30
0.0
 11
-38.36313006819131
 21
-27.26507900797819
 31
0.0
1001
ACAD
1000
DSTYLE
1002
{
1070
   140
1040
4.0
1070
   178
1070
   256
1002
}
  0
TEXT
  5
4324
330
46B6
100
AcDbEntity
  8
250
  6
Continuous
100
AcDbText
 10
-49.35812525004791
 20
-26.26507900797819
 30
0.0
 40
2.799999999999998
  1
BT40
  7
YOKO
100
AcDbText
1001
ITEMNAME
1000
LNSP3
  0
LINE
  5
4325
330
46B6
100
AcDbEntity
  8
250
  6
Continuous
100
AcDbLine
 10
-38.36313006819131
 20
-27.26507900797819
 30
0.0
 11
-51.19648408592889
 21
-27.26507900797819
 31
0.0
1001
ITEMNAME
1000
LNSP2
  0
LINE
  5
4326
330
46B6
100
AcDbEntity
  8
247
  6
Continuous
100
AcDbLine
 10
4.500000000139833
 20
-18.25000000007
 30
0.0
 11
4.500000000139833
 21
-17.57692307702004
 31
0.0
  0
LINE
  5
4327
330
46B6
100
AcDbEntity
  8
241
  6
Continuous
100
AcDbLine
 10
2.000000000000027
 20
22.22500000000005
 30
0.0
 11
2.000000000000027
 21
-22.22500000000012
 31
0.0
  0
LINE
  5
4328
330
46B6
100
AcDbEntity
  8
240
  6
Continuous
100
AcDbLine
 10
2.000000000000027
 20
-22.22500000000012
 30
0.0
 11
2.0
 21
-31.49999999999969
 31
0.0
  0
LINE
  5
4329
330
46B6
100
AcDbEntity
  8
240
  6
Continuous
100
AcDbLine
 10
2.000000000000027
 20
22.22500000000005
 30
0.0
 11
2.0
 21
31.49999999999975
 31
0.0
  0
LINE
  5
432A
330
46B6
100
AcDbEntity
  8
240
  6
Continuous
100
AcDbLine
 10
26.9999999999998
 20
23.50000000000013
 30
0.0
 11
26.99999999999977
 21
31.50000000000038
 31
0.0
  0
ARC
  5
462F
330
46B6
100
AcDbEntity
  8
240
  6
Continuous
100
AcDbCircle
 10
30.9999999999998
 20
23.50000000000014
 30
0.0
 40
4.0
100
AcDbArc
 50
180.0000000000001
 51
269.9999999999993
1001
GENIUS_GENOBJ-N-FIL_13
1002
{
1000
OWNER
1000
GEN
1002
}
1001
GENIUS_GENODEF_13
1002
{
1000
HIER
1070
     0
1002
}
1002
{
1000
MANEDIT
1070
     0
1002
}
1002
{
1000
NOSEL
1070
     0
1002
}
1002
{
1000
BEHIND
1070
     0
1002
}
1002
{
1000
OTHER
1070
     0
1002
}
1002
{
1000
REACTOR
1002
}
  0
ARC
  5
4632
330
46B6
100
AcDbEntity
  8
240
  6
Continuous
100
AcDbCircle
 10
30.99999999999988
 20
-23.5
 30
0.0
 40
4.0
100
AcDbArc
 50
90.0
 51
180.0000000000001
1001
GENIUS_GENOBJ-N-FIL_13
1002
{
1000
OWNER
1000
GEN
1002
}
1001
GENIUS_GENODEF_13
1002
{
1000
HIER
1070
     0
1002
}
1002
{
1000
MANEDIT
1070
     0
1002
}
1002
{
1000
NOSEL
1070
     0
1002
}
1002
{
1000
BEHIND
1070
     0
1002
}
1002
{
1000
OTHER
1070
     0
1002
}
1002
{
1000
REACTOR
1002
}
  0
VIEWPORT
  5
22
330
46B4
100
AcDbEntity
 67
     1
  8
0
100
AcDbViewport
 10
261.5176991150442
 20
148.5
 30
0.0
 40
523.0353982300885
 41
297.0
 68
     1
 69
    -1
 12
261.5176991150442
 22
148.5
 13
0.0
 23
0.0
 14
1.0
 24
1.0
 15
10.0
 25
10.0
 16
0.0
 26
0.0
 36
1.0
 17
0.0
 27
0.0
 37
0.0
 42
50.0
 43
0.0
 44
0.0
 45
297.0
 50
0.0
 51
0.0
 72
   100
 90
   557216
  1

281
     0
 71
     0
 74
     0
110
0.0
120
0.0
130
0.0
111
1.0
121
0.0
131
0.0
112
0.0
122
1.0
132
0.0
 79
     0
146
0.0
170
     0
 61
     5
292
     1
282
     1
141
0.0
142
0.0
 63
   256
1001
GENIUS_GENODEF_13
1002
{
1000
HIER
1070
     0
1002
}
1002
{
1000
MANEDIT
1070
     0
1002
}
1002
{
1000
NOSEL
1070
     0
1002
}
1002
{
1000
BEHIND
1070
     0
1002
}
1002
{
1000
OTHER
1070
     0
1002
}
1002
{
1000
REACTOR
1002
}
1001
GENIUS_GENOBJ-N-SDF_13
1002
{
1000
OWNER
1000
GEN
1002
}
1001
GENIUS_GENSCREG_15
1000
PF
1040
1.0
1000
DF
1040
1.0
1000
MIN
1011
0.0
1021
0.0
1031
0.0
1000
MAX
1011
523.0353982300885
1021
297.0
1031
0.0
1000
FLAGS
1070
     4
  0
ENDSEC
  0
SECTION
  2
OBJECTS
  0
DICTIONARY
  5
46A6
330
0
100
AcDbDictionary
281
     1
  3
ACAD_GROUP
350
46A7
  3
ACAD_IMAGE_VARS
350
472F
  3
ACAD_LAYOUT
350
46B3
  3
ACAD_MLEADERSTYLE
350
4736
  3
ACAD_MLINESTYLE
350
46B0
  3
ACAD_PLOTSETTINGS
350
46B2
  3
ACAD_PLOTSTYLENAME
350
46A8
  3
ACAD_SCALELIST
350
470A
  3
ACAD_TABLESTYLE
350
472C
  3
ACDB_RECOMPOSE_DATA
350
4734
  3
AcDbVariableDictionary
350
4730
  3
APPDATA
350
472E
  0
DICTIONARY
  5
46A7
102
{ACAD_REACTORS
330
46A6
102
}
330
46A6
100
AcDbDictionary
281
     1
  0
RASTERVARIABLES
  5
472F
102
{ACAD_REACTORS
330
46A6
102
}
330
46A6
100
AcDbRasterVariables
 90
        0
 70
     1
 71
     1
 72
     0
  0
DICTIONARY
  5
46B3
102
{ACAD_REACTORS
330
46A6
102
}
330
46A6
100
AcDbDictionary
281
     1
  3
Model
350
46B7
  3
Sheet1
350
46B5
  0
DICTIONARY
  5
4736
102
{ACAD_REACTORS
330
46A6
102
}
330
46A6
100
AcDbDictionary
281
     1
  0
DICTIONARY
  5
46B0
102
{ACAD_REACTORS
330
46A6
102
}
330
46A6
100
AcDbDictionary
281
     1
  3
Standard
350
46B1
  0
DICTIONARY
  5
46B2
102
{ACAD_REACTORS
330
46A6
102
}
330
46A6
100
AcDbDictionary
281
     1
  0
ACDBDICTIONARYWDFLT
  5
46A8
102
{ACAD_REACTORS
330
46A6
102
}
330
46A6
100
AcDbDictionary
281
     1
  3
Normal
350
46A9
100
AcDbDictionaryWithDefault
340
46A9
  0
DICTIONARY
  5
470A
102
{ACAD_REACTORS
330
46A6
102
}
330
46A6
100
AcDbDictionary
281
     1
  3
A0
350
470B
  3
A1
350
470C
  3
A2
350
470D
  3
A3
350
470E
  3
A4
350
470F
  3
A5
350
4710
  3
A6
350
4711
  3
A7
350
4712
  3
A8
350
4713
  3
A9
350
4714
  3
B0
350
4715
  3
B1
350
4716
  3
B2
350
4717
  3
B3
350
4718
  3
B4
350
4719
  3
B5
350
471A
  3
B6
350
471B
  3
B7
350
471C
  3
B8
350
471D
  3
B9
350
471E
  3
C0
350
471F
  3
C1
350
4720
  3
C2
350
4721
  3
C3
350
4722
  3
C4
350
4723
  3
C5
350
4724
  3
C6
350
4725
  3
C7
350
4726
  3
C8
350
4727
  3
C9
350
4728
  3
D0
350
4729
  3
D1
350
472A
  3
D2
350
472B
  0
DICTIONARY
  5
472C
102
{ACAD_REACTORS
330
46A6
102
}
330
46A6
100
AcDbDictionary
281
     1
  3
Standard
350
472D
  0
XRECORD
  5
4734
102
{ACAD_REACTORS
330
46A6
102
}
330
46A6
100
AcDbXrecord
280
     1
 90
        1
330
472D
  0
DICTIONARY
  5
4730
102
{ACAD_REACTORS
330
46A6
102
}
330
46A6
100
AcDbDictionary
281
     1
  3
CANNOSCALE
350
4731
  3
CTABLESTYLE
350
4735
  0
DICTIONARY
  5
472E
102
{ACAD_REACTORS
330
46A6
102
}
330
46A6
100
AcDbDictionary
281
     1
  0
LAYOUT
  5
46B7
102
{ACAD_REACTORS
330
46B3
102
}
330
46B3
100
AcDbPlotSettings
  1

  2
none_device
  4

  6

 40
0.0
 41
0.0
 42
0.0
 43
0.0
 44
0.0
 45
0.0
 46
0.0
 47
0.0
 48
0.0
 49
0.0
140
0.0
141
0.0
142
1.0
143
1.0
 70
  1712
 72
     0
 73
     0
 74
     0
  7

 75
     0
 76
     0
 77
     2
 78
   300
147
1.0
148
0.0
149
0.0
100
AcDbLayout
  1
Model
 70
     1
 71
     0
 10
0.0
 20
0.0
 11
12.0
 21
9.0
 12
0.0
 22
0.0
 32
0.0
 14
-66.41108924179719
 24
-31.50736943284045
 34
-0.0015258207003583
 15
62.12302913712676
 25
61.00449410221085
 35
0.0000000349246037
146
0.0
 13
0.0
 23
0.0
 33
0.0
 16
1.0
 26
0.0
 36
0.0
 17
0.0
 27
1.0
 37
0.0
 76
     0
330
46B6
331
46B9
  0
LAYOUT
  5
46B5
102
{ACAD_REACTORS
330
46B3
102
}
330
46B3
100
AcDbPlotSettings
  1

  2
none_device
  4

  6

 40
0.0
 41
0.0
 42
0.0
 43
0.0
 44
0.0
 45
0.0
 46
0.0
 47
0.0
 48
0.0
 49
0.0
140
0.0
141
0.0
142
1.0
143
1.0
 70
   688
 72
     0
 73
     0
 74
     5
  7

 75
    16
 76
     0
 77
     2
 78
   300
147
1.0
148
0.0
149
0.0
100
AcDbLayout
  1
Sheet1
 70
     1
 71
     1
 10
0.0
 20
0.0
 11
420.0
 21
297.0
 12
0.0
 22
0.0
 32
0.0
 14
1.000000000000000E+20
 24
1.000000000000000E+20
 34
1.000000000000000E+20
 15
-1.000000000000000E+20
 25
-1.000000000000000E+20
 35
-1.000000000000000E+20
146
0.0
 13
0.0
 23
0.0
 33
0.0
 16
1.0
 26
0.0
 36
0.0
 17
0.0
 27
1.0
 37
0.0
 76
     0
330
46B4
331
22
  0
MLINESTYLE
  5
46B1
102
{ACAD_REACTORS
330
46B0
102
}
330
46B0
100
AcDbMlineStyle
  2
Standard
 70
     0
  3

 62
   256
 51
90.0
 52
90.0
 71
     2
 49
0.5
 62
   256
  6
BYLAYER
 49
-0.5
 62
   256
  6
BYLAYER
  0
ACDBPLACEHOLDER
  5
46A9
102
{ACAD_REACTORS
330
46A8
102
}
330
46A8
  0
SCALE
  5
470B
102
{ACAD_REACTORS
330
470A
102
}
330
470A
100
AcDbScale
 70
     0
300
1:1
140
1.0
141
1.0
290
     1
  0
SCALE
  5
470C
102
{ACAD_REACTORS
330
470A
102
}
330
470A
100
AcDbScale
 70
     0
300
1:2
140
1.0
141
2.0
290
     0
  0
SCALE
  5
470D
102
{ACAD_REACTORS
330
470A
102
}
330
470A
100
AcDbScale
 70
     0
300
1:4
140
1.0
141
4.0
290
     0
  0
SCALE
  5
470E
102
{ACAD_REACTORS
330
470A
102
}
330
470A
100
AcDbScale
 70
     0
300
1:5
140
1.0
141
5.0
290
     0
  0
SCALE
  5
470F
102
{ACAD_REACTORS
330
470A
102
}
330
470A
100
AcDbScale
 70
     0
300
1:8
140
1.0
141
8.0
290
     0
  0
SCALE
  5
4710
102
{ACAD_REACTORS
330
470A
102
}
330
470A
100
AcDbScale
 70
     0
300
1:10
140
1.0
141
10.0
290
     0
  0
SCALE
  5
4711
102
{ACAD_REACTORS
330
470A
102
}
330
470A
100
AcDbScale
 70
     0
300
1:16
140
1.0
141
16.0
290
     0
  0
SCALE
  5
4712
102
{ACAD_REACTORS
330
470A
102
}
330
470A
100
AcDbScale
 70
     0
300
1:20
140
1.0
141
20.0
290
     0
  0
SCALE
  5
4713
102
{ACAD_REACTORS
330
470A
102
}
330
470A
100
AcDbScale
 70
     0
300
1:30
140
1.0
141
30.0
290
     0
  0
SCALE
  5
4714
102
{ACAD_REACTORS
330
470A
102
}
330
470A
100
AcDbScale
 70
     0
300
1:40
140
1.0
141
40.0
290
     0
  0
SCALE
  5
4715
102
{ACAD_REACTORS
330
470A
102
}
330
470A
100
AcDbScale
 70
     0
300
1:50
140
1.0
141
50.0
290
     0
  0
SCALE
  5
4716
102
{ACAD_REACTORS
330
470A
102
}
330
470A
100
AcDbScale
 70
     0
300
1:100
140
1.0
141
100.0
290
     0
  0
SCALE
  5
4717
102
{ACAD_REACTORS
330
470A
102
}
330
470A
100
AcDbScale
 70
     0
300
2:1
140
2.0
141
1.0
290
     0
  0
SCALE
  5
4718
102
{ACAD_REACTORS
330
470A
102
}
330
470A
100
AcDbScale
 70
     0
300
4:1
140
4.0
141
1.0
290
     0
  0
SCALE
  5
4719
102
{ACAD_REACTORS
330
470A
102
}
330
470A
100
AcDbScale
 70
     0
300
8:1
140
8.0
141
1.0
290
     0
  0
SCALE
  5
471A
102
{ACAD_REACTORS
330
470A
102
}
330
470A
100
AcDbScale
 70
     0
300
10:1
140
10.0
141
1.0
290
     0
  0
SCALE
  5
471B
102
{ACAD_REACTORS
330
470A
102
}
330
470A
100
AcDbScale
 70
     0
300
100:1
140
100.0
141
1.0
290
     0
  0
SCALE
  5
471C
102
{ACAD_REACTORS
330
470A
102
}
330
470A
100
AcDbScale
 70
     0
300
1/128" = 1'-0"
140
0.0078125
141
12.0
290
     0
  0
SCALE
  5
471D
102
{ACAD_REACTORS
330
470A
102
}
330
470A
100
AcDbScale
 70
     0
300
1/64" = 1'-0"
140
0.015625
141
12.0
290
     0
  0
SCALE
  5
471E
102
{ACAD_REACTORS
330
470A
102
}
330
470A
100
AcDbScale
 70
     0
300
1/32" = 1'-0"
140
0.03125
141
12.0
290
     0
  0
SCALE
  5
471F
102
{ACAD_REACTORS
330
470A
102
}
330
470A
100
AcDbScale
 70
     0
300
1/16" = 1'-0"
140
0.0625
141
12.0
290
     0
  0
SCALE
  5
4720
102
{ACAD_REACTORS
330
470A
102
}
330
470A
100
AcDbScale
 70
     0
300
3/32" = 1'-0"
140
0.09375
141
12.0
290
     0
  0
SCALE
  5
4721
102
{ACAD_REACTORS
330
470A
102
}
330
470A
100
AcDbScale
 70
     0
300
1/8" = 1'-0"
140
0.125
141
12.0
290
     0
  0
SCALE
  5
4722
102
{ACAD_REACTORS
330
470A
102
}
330
470A
100
AcDbScale
 70
     0
300
3/16" = 1'-0"
140
0.1875
141
12.0
290
     0
  0
SCALE
  5
4723
102
{ACAD_REACTORS
330
470A
102
}
330
470A
100
AcDbScale
 70
     0
300
1/4" = 1'-0"
140
0.25
141
12.0
290
     0
  0
SCALE
  5
4724
102
{ACAD_REACTORS
330
470A
102
}
330
470A
100
AcDbScale
 70
     0
300
3/8" = 1'-0"
140
0.375
141
12.0
290
     0
  0
SCALE
  5
4725
102
{ACAD_REACTORS
330
470A
102
}
330
470A
100
AcDbScale
 70
     0
300
1/2" = 1'-0"
140
0.5
141
12.0
290
     0
  0
SCALE
  5
4726
102
{ACAD_REACTORS
330
470A
102
}
330
470A
100
AcDbScale
 70
     0
300
3/4" = 1'-0"
140
0.75
141
12.0
290
     0
  0
SCALE
  5
4727
102
{ACAD_REACTORS
330
470A
102
}
330
470A
100
AcDbScale
 70
     0
300
1" = 1'-0"
140
1.0
141
12.0
290
     0
  0
SCALE
  5
4728
102
{ACAD_REACTORS
330
470A
102
}
330
470A
100
AcDbScale
 70
     0
300
1-1/2" = 1'-0"
140
1.5
141
12.0
290
     0
  0
SCALE
  5
4729
102
{ACAD_REACTORS
330
470A
102
}
330
470A
100
AcDbScale
 70
     0
300
3" = 1'-0"
140
3.0
141
12.0
290
     0
  0
SCALE
  5
472A
102
{ACAD_REACTORS
330
470A
102
}
330
470A
100
AcDbScale
 70
     0
300
6" = 1'-0"
140
6.0
141
12.0
290
     0
  0
SCALE
  5
472B
102
{ACAD_REACTORS
330
470A
102
}
330
470A
100
AcDbScale
 70
     0
300
1'-0" = 1'-0"
140
12.0
141
12.0
290
     0
  0
TABLESTYLE
  5
472D
102
{ACAD_REACTORS
330
472C
102
}
102
{ACAD_XDICTIONARY
360
4732
102
}
330
472C
100
AcDbTableStyle
  3
Standard
 70
     0
 71
     0
 40
0.06
 41
0.06
280
     0
281
     0
  7
STANDARD
140
0.18
170
     2
 62
     0
 63
   257
283
     0
 90
        4
 91
        0
  1

274
    -2
284
     1
 64
     0
275
    -2
285
     1
 65
     0
276
    -2
286
     1
 66
     0
277
    -2
287
     1
 67
     0
278
    -2
288
     1
 68
     0
279
    -2
289
     1
 69
     0
  7
STANDARD
140
0.25
170
     5
 62
     0
 63
   257
283
     0
 90
        4
 91
        0
  1

274
    -2
284
     1
 64
     0
275
    -2
285
     1
 65
     0
276
    -2
286
     1
 66
     0
277
    -2
287
     1
 67
     0
278
    -2
288
     1
 68
     0
279
    -2
289
     1
 69
     0
  7
STANDARD
140
0.18
170
     5
 62
     0
 63
   257
283
     0
 90
        4
 91
        0
  1

274
    -2
284
     1
 64
     0
275
    -2
285
     1
 65
     0
276
    -2
286
     1
 66
     0
277
    -2
287
     1
 67
     0
278
    -2
288
     1
 68
     0
279
    -2
289
     1
 69
     0
  0
DICTIONARYVAR
  5
4731
102
{ACAD_REACTORS
330
4730
102
}
330
4730
100
DictionaryVariables
280
     0
  1
1:1
  0
DICTIONARYVAR
  5
4735
102
{ACAD_REACTORS
330
4730
102
}
330
4730
100
DictionaryVariables
280
     0
  1
Standard
  0
DICTIONARY
  5
4732
330
472D
100
AcDbDictionary
280
     1
281
     1
  3
ACAD_ROUNDTRIP_2008_TABLESTYLE_CELLSTYLEMAP
360
4733
  0
CELLSTYLEMAP
  5
4733
102
{ACAD_REACTORS
330
4732
102
}
330
4732
100
AcDbCellStyleMap
 90
        3
300
CELLSTYLE
  1
TABLEFORMAT_BEGIN
 90
        5
170
     1
 91
        0
 92
        0
 62
   257
 93
        1
300
CONTENTFORMAT
  1
CONTENTFORMAT_BEGIN
 90
        0
 91
        0
 92
        4
 93
        0
300

 40
0.0
140
1.0
 94
        5
 62
     0
340
46AB
144
0.25
309
CONTENTFORMAT_END
171
     1
301
MARGIN
  1
CELLMARGIN_BEGIN
 40
0.06
 40
0.06
 40
0.06
 40
0.06
 40
0.06
 40
0.06
309
CELLMARGIN_END
 94
        6
 95
        1
302
GRIDFORMAT
  1
GRIDFORMAT_BEGIN
 90
        0
 91
        1
 62
     0
 92
       -2
340
46AD
 93
        0
 40
0.045
309
GRIDFORMAT_END
 95
        2
302
GRIDFORMAT
  1
GRIDFORMAT_BEGIN
 90
        0
 91
        1
 62
     0
 92
       -2
340
46AD
 93
        0
 40
0.045
309
GRIDFORMAT_END
 95
        4
302
GRIDFORMAT
  1
GRIDFORMAT_BEGIN
 90
        0
 91
        1
 62
     0
 92
       -2
340
46AD
 93
        0
 40
0.045
309
GRIDFORMAT_END
 95
        8
302
GRIDFORMAT
  1
GRIDFORMAT_BEGIN
 90
        0
 91
        1
 62
     0
 92
       -2
340
46AD
 93
        0
 40
0.045
309
GRIDFORMAT_END
 95
       16
302
GRIDFORMAT
  1
GRIDFORMAT_BEGIN
 90
        0
 91
        1
 62
     0
 92
       -2
340
46AD
 93
        0
 40
0.045
309
GRIDFORMAT_END
 95
       32
302
GRIDFORMAT
  1
GRIDFORMAT_BEGIN
 90
        0
 91
        1
 62
     0
 92
       -2
340
46AD
 93
        0
 40
0.045
309
GRIDFORMAT_END
309
TABLEFORMAT_END
  1
CELLSTYLE_BEGIN
 90
        1
 91
        1
300
_TITLE
309
CELLSTYLE_END
300
CELLSTYLE
  1
TABLEFORMAT_BEGIN
 90
        5
170
     1
 91
        0
 92
        0
 62
   257
 93
        1
300
CONTENTFORMAT
  1
CONTENTFORMAT_BEGIN
 90
        0
 91
        0
 92
        4
 93
        0
300

 40
0.0
140
1.0
 94
        5
 62
     0
340
46AB
144
0.18
309
CONTENTFORMAT_END
171
     1
301
MARGIN
  1
CELLMARGIN_BEGIN
 40
0.06
 40
0.06
 40
0.06
 40
0.06
 40
0.06
 40
0.06
309
CELLMARGIN_END
 94
        6
 95
        1
302
GRIDFORMAT
  1
GRIDFORMAT_BEGIN
 90
        0
 91
        1
 62
     0
 92
       -2
340
46AD
 93
        0
 40
0.045
309
GRIDFORMAT_END
 95
        2
302
GRIDFORMAT
  1
GRIDFORMAT_BEGIN
 90
        0
 91
        1
 62
     0
 92
       -2
340
46AD
 93
        0
 40
0.045
309
GRIDFORMAT_END
 95
        4
302
GRIDFORMAT
  1
GRIDFORMAT_BEGIN
 90
        0
 91
        1
 62
     0
 92
       -2
340
46AD
 93
        0
 40
0.045
309
GRIDFORMAT_END
 95
        8
302
GRIDFORMAT
  1
GRIDFORMAT_BEGIN
 90
        0
 91
        1
 62
     0
 92
       -2
340
46AD
 93
        0
 40
0.045
309
GRIDFORMAT_END
 95
       16
302
GRIDFORMAT
  1
GRIDFORMAT_BEGIN
 90
        0
 91
        1
 62
     0
 92
       -2
340
46AD
 93
        0
 40
0.045
309
GRIDFORMAT_END
 95
       32
302
GRIDFORMAT
  1
GRIDFORMAT_BEGIN
 90
        0
 91
        1
 62
     0
 92
       -2
340
46AD
 93
        0
 40
0.045
309
GRIDFORMAT_END
309
TABLEFORMAT_END
  1
CELLSTYLE_BEGIN
 90
        2
 91
        1
300
_HEADER
309
CELLSTYLE_END
300
CELLSTYLE
  1
TABLEFORMAT_BEGIN
 90
        5
170
     1
 91
        0
 92
        0
 62
   257
 93
        1
300
CONTENTFORMAT
  1
CONTENTFORMAT_BEGIN
 90
        0
 91
        0
 92
        4
 93
        0
300

 40
0.0
140
1.0
 94
        2
 62
     0
340
46AB
144
0.18
309
CONTENTFORMAT_END
171
     1
301
MARGIN
  1
CELLMARGIN_BEGIN
 40
0.06
 40
0.06
 40
0.06
 40
0.06
 40
0.06
 40
0.06
309
CELLMARGIN_END
 94
        6
 95
        1
302
GRIDFORMAT
  1
GRIDFORMAT_BEGIN
 90
        0
 91
        1
 62
     0
 92
       -2
340
46AD
 93
        0
 40
0.045
309
GRIDFORMAT_END
 95
        2
302
GRIDFORMAT
  1
GRIDFORMAT_BEGIN
 90
        0
 91
        1
 62
     0
 92
       -2
340
46AD
 93
        0
 40
0.045
309
GRIDFORMAT_END
 95
        4
302
GRIDFORMAT
  1
GRIDFORMAT_BEGIN
 90
        0
 91
        1
 62
     0
 92
       -2
340
46AD
 93
        0
 40
0.045
309
GRIDFORMAT_END
 95
        8
302
GRIDFORMAT
  1
GRIDFORMAT_BEGIN
 90
        0
 91
        1
 62
     0
 92
       -2
340
46AD
 93
        0
 40
0.045
309
GRIDFORMAT_END
 95
       16
302
GRIDFORMAT
  1
GRIDFORMAT_BEGIN
 90
        0
 91
        1
 62
     0
 92
       -2
340
46AD
 93
        0
 40
0.045
309
GRIDFORMAT_END
 95
       32
302
GRIDFORMAT
  1
GRIDFORMAT_BEGIN
 90
        0
 91
        1
 62
     0
 92
       -2
340
46AD
 93
        0
 40
0.045
309
GRIDFORMAT_END
309
TABLEFORMAT_END
  1
CELLSTYLE_BEGIN
 90
        3
 91
        2
300
_DATA
309
CELLSTYLE_END
  0
ENDSEC
  0
EOF
