  0
SECTION
  2
HEADER
  9
$ACADVER
  1
AC1024
  9
$ACADMAINTVER
 70
     6
  9
$DWGCODEPAGE
  3
ANSI_1252
  9
$INSBASE
 10
0.0
 20
0.0
 30
0.0
  9
$EXTMIN
 10
-49.40000000000001
 20
-23.0
 30
0.0
  9
$EXTMAX
 10
97.96926261000002
 20
54.0
 30
0.0
  9
$LIMMIN
 10
0.0
 20
0.0
  9
$LIMMAX
 10
297.0
 20
210.0
  9
$ORTHOMODE
 70
     0
  9
$REGENMODE
 70
     1
  9
$FILLMODE
 70
     1
  9
$QTEXTMODE
 70
     0
  9
$MIRRTEXT
 70
     1
  9
$LTSCALE
 40
10.0
  9
$ATTMODE
 70
     1
  9
$TEXTSIZE
 40
3.0
  9
$TRACEWID
 40
1.0
  9
$TEXTSTYLE
  7
YOKO
  9
$CLAYER
  8
240
  9
$CELTYPE
  6
ByLayer
  9
$CECOLOR
 62
   256
  9
$CELTSCALE
 40
1.0
  9
$DISPSILH
 70
     0
  9
$DIMSCALE
 40
1.0
  9
$DIMASZ
 40
2.229999999999999
  9
$DIMEXO
 40
0.5
  9
$DIMDLI
 40
7.0
  9
$DIMRND
 40
0.0
  9
$DIMDLE
 40
0.0
  9
$DIMEXE
 40
1.0
  9
$DIMTP
 40
0.0
  9
$DIMTM
 40
0.01
  9
$DIMTXT
 40
2.799999999999999
  9
$DIMCEN
 40
0.0
  9
$DIMTSZ
 40
0.0
  9
$DIMTOL
 70
     0
  9
$DIMLIM
 70
     0
  9
$DIMTIH
 70
     0
  9
$DIMTOH
 70
     0
  9
$DIMSE1
 70
     0
  9
$DIMSE2
 70
     0
  9
$DIMTAD
 70
     3
  9
$DIMZIN
 70
     9
  9
$DIMBLK
  1
OPEN
  9
$DIMASO
 70
     1
  9
$DIMSHO
 70
     1
  9
$DIMPOST
  1

  9
$DIMAPOST
  1

  9
$DIMALT
 70
     0
  9
$DIMALTD
 70
     2
  9
$DIMALTF
 40
25.4
  9
$DIMLFAC
 40
1.0
  9
$DIMTOFL
 70
     1
  9
$DIMTVP
 40
0.0
  9
$DIMTIX
 70
     1
  9
$DIMSOXD
 70
     0
  9
$DIMSAH
 70
     0
  9
$DIMBLK1
  1

  9
$DIMBLK2
  1

  9
$DIMSTYLE
  2
BIGT
  9
$DIMCLRD
 70
   256
  9
$DIMCLRE
 70
   256
  9
$DIMCLRT
 70
    40
  9
$DIMTFAC
 40
1.0
  9
$DIMGAP
 40
1.0
  9
$DIMJUST
 70
     0
  9
$DIMSD1
 70
     0
  9
$DIMSD2
 70
     0
  9
$DIMTOLJ
 70
     1
  9
$DIMTZIN
 70
     0
  9
$DIMALTZ
 70
     0
  9
$DIMALTTZ
 70
     0
  9
$DIMUPT
 70
     0
  9
$DIMDEC
 70
     6
  9
$DIMTDEC
 70
     6
  9
$DIMALTU
 70
     2
  9
$DIMALTTD
 70
     2
  9
$DIMTXSTY
  7
STANDARD
  9
$DIMAUNIT
 70
     0
  9
$DIMADEC
 70
     0
  9
$DIMALTRND
 40
0.0
  9
$DIMAZIN
 70
     0
  9
$DIMDSEP
 70
    46
  9
$DIMATFIT
 70
     3
  9
$DIMFRAC
 70
     0
  9
$DIMLDRBLK
  1

  9
$DIMLUNIT
 70
     2
  9
$DIMLWD
 70
    -2
  9
$DIMLWE
 70
    -2
  9
$DIMTMOVE
 70
     2
  9
$DIMFXL
 40
1.0
  9
$DIMFXLON
 70
     0
  9
$DIMJOGANG
 40
0.7853981633974483
  9
$DIMTFILL
 70
     0
  9
$DIMTFILLCLR
 70
     0
  9
$DIMARCSYM
 70
     0
  9
$DIMLTYPE
  6

  9
$DIMLTEX1
  6

  9
$DIMLTEX2
  6

  9
$DIMTXTDIRECTION
 70
     0
  9
$LUNITS
 70
     2
  9
$LUPREC
 70
     6
  9
$SKETCHINC
 40
1.0
  9
$FILLETRAD
 40
0.0
  9
$AUNITS
 70
     0
  9
$AUPREC
 70
     6
  9
$MENU
  1
.
  9
$ELEVATION
 40
0.0
  9
$PELEVATION
 40
0.0
  9
$THICKNESS
 40
0.0
  9
$LIMCHECK
 70
     0
  9
$CHAMFERA
 40
0.2
  9
$CHAMFERB
 40
0.2
  9
$CHAMFERC
 40
1.0
  9
$CHAMFERD
 40
0.0
  9
$SKPOLY
 70
     0
  9
$TDCREATE
 40
2457728.625962512
  9
$TDUCREATE
 40
2457728.834295845
  9
$TDUPDATE
 40
2457731.715501586
  9
$TDUUPDATE
 40
2457731.923834919
  9
$TDINDWG
 40
0.0047315741
  9
$TDUSRTIMER
 40
2458323.774802558
  9
$USRTIMER
 70
     1
  9
$ANGBASE
 50
0.0
  9
$ANGDIR
 70
     0
  9
$PDMODE
 70
     1
  9
$PDSIZE
 40
0.0
  9
$PLINEWID
 40
0.0
  9
$SPLFRAME
 70
     0
  9
$SPLINETYPE
 70
     6
  9
$SPLINESEGS
 70
     4
  9
$HANDSEED
  5
E06C
  9
$SURFTAB1
 70
     6
  9
$SURFTAB2
 70
     6
  9
$SURFTYPE
 70
     6
  9
$SURFU
 70
     6
  9
$SURFV
 70
     6
  9
$UCSBASE
  2

  9
$UCSNAME
  2

  9
$UCSORG
 10
0.0
 20
0.0
 30
0.0
  9
$UCSXDIR
 10
1.0
 20
0.0
 30
0.0
  9
$UCSYDIR
 10
0.0
 20
1.0
 30
0.0
  9
$UCSORTHOREF
  2

  9
$UCSORTHOVIEW
 70
     0
  9
$UCSORGTOP
 10
0.0
 20
0.0
 30
0.0
  9
$UCSORGBOTTOM
 10
0.0
 20
0.0
 30
0.0
  9
$UCSORGLEFT
 10
0.0
 20
0.0
 30
0.0
  9
$UCSORGRIGHT
 10
0.0
 20
0.0
 30
0.0
  9
$UCSORGFRONT
 10
0.0
 20
0.0
 30
0.0
  9
$UCSORGBACK
 10
0.0
 20
0.0
 30
0.0
  9
$PUCSBASE
  2

  9
$PUCSNAME
  2

  9
$PUCSORG
 10
0.0
 20
0.0
 30
0.0
  9
$PUCSXDIR
 10
1.0
 20
0.0
 30
0.0
  9
$PUCSYDIR
 10
0.0
 20
1.0
 30
0.0
  9
$PUCSORTHOREF
  2

  9
$PUCSORTHOVIEW
 70
     0
  9
$PUCSORGTOP
 10
0.0
 20
0.0
 30
0.0
  9
$PUCSORGBOTTOM
 10
0.0
 20
0.0
 30
0.0
  9
$PUCSORGLEFT
 10
0.0
 20
0.0
 30
0.0
  9
$PUCSORGRIGHT
 10
0.0
 20
0.0
 30
0.0
  9
$PUCSORGFRONT
 10
0.0
 20
0.0
 30
0.0
  9
$PUCSORGBACK
 10
0.0
 20
0.0
 30
0.0
  9
$USERI1
 70
     1
  9
$USERI2
 70
     0
  9
$USERI3
 70
     0
  9
$USERI4
 70
     0
  9
$USERI5
 70
     0
  9
$USERR1
 40
0.0
  9
$USERR2
 40
0.0
  9
$USERR3
 40
0.0
  9
$USERR4
 40
0.0
  9
$USERR5
 40
0.0
  9
$WORLDVIEW
 70
     1
  9
$SHADEDGE
 70
     3
  9
$SHADEDIF
 70
    70
  9
$TILEMODE
 70
     1
  9
$MAXACTVP
 70
    16
  9
$PINSBASE
 10
0.0
 20
0.0
 30
0.0
  9
$PLIMCHECK
 70
     0
  9
$PEXTMIN
 10
1.000000000000000E+20
 20
1.000000000000000E+20
 30
1.000000000000000E+20
  9
$PEXTMAX
 10
-1.000000000000000E+20
 20
-1.000000000000000E+20
 30
-1.000000000000000E+20
  9
$PLIMMIN
 10
0.0
 20
0.0
  9
$PLIMMAX
 10
420.0
 20
297.0
  9
$UNITMODE
 70
     0
  9
$VISRETAIN
 70
     1
  9
$PLINEGEN
 70
     0
  9
$PSLTSCALE
 70
     1
  9
$TREEDEPTH
 70
  3020
  9
$CMLSTYLE
  2
Standard
  9
$CMLJUST
 70
     0
  9
$CMLSCALE
 40
1.0
  9
$PROXYGRAPHICS
 70
     1
  9
$MEASUREMENT
 70
     0
  9
$CELWEIGHT
370
    -1
  9
$ENDCAPS
280
     0
  9
$JOINSTYLE
280
     0
  9
$LWDISPLAY
290
     0
  9
$INSUNITS
 70
     0
  9
$HYPERLINKBASE
  1

  9
$STYLESHEET
  1

  9
$XEDIT
290
     1
  9
$CEPSNTYPE
380
     0
  9
$PSTYLEMODE
290
     1
  9
$FINGERPRINTGUID
  2
{C6F21C7C-DAD4-4658-9C1B-C5AF03112504}
  9
$VERSIONGUID
  2
{FAEB1C32-E019-11D5-929B-00C0DF256EC4}
  9
$EXTNAMES
290
     1
  9
$PSVPSCALE
 40
0.0
  9
$OLESTARTUP
290
     0
  9
$SORTENTS
280
   127
  9
$INDEXCTL
280
     0
  9
$HIDETEXT
280
     1
  9
$XCLIPFRAME
280
     2
  9
$HALOGAP
280
     0
  9
$OBSCOLOR
 70
   257
  9
$OBSLTYPE
280
     0
  9
$INTERSECTIONDISPLAY
280
     0
  9
$INTERSECTIONCOLOR
 70
   257
  9
$DIMASSOC
280
     2
  9
$PROJECTNAME
  1

  9
$CAMERADISPLAY
290
     0
  9
$LENSLENGTH
 40
50.0
  9
$CAMERAHEIGHT
 40
0.0
  9
$STEPSPERSEC
 40
2.0
  9
$STEPSIZE
 40
6.0
  9
$3DDWFPREC
 40
2.0
  9
$PSOLWIDTH
 40
0.25
  9
$PSOLHEIGHT
 40
4.0
  9
$LOFTANG1
 40
1.570796326794897
  9
$LOFTANG2
 40
1.570796326794897
  9
$LOFTMAG1
 40
0.0
  9
$LOFTMAG2
 40
0.0
  9
$LOFTPARAM
 70
     7
  9
$LOFTNORMALS
280
     1
  9
$LATITUDE
 40
37.795
  9
$LONGITUDE
 40
-122.394
  9
$NORTHDIRECTION
 40
0.0
  9
$TIMEZONE
 70
 -8000
  9
$LIGHTGLYPHDISPLAY
280
     1
  9
$TILEMODELIGHTSYNCH
280
     1
  9
$SOLIDHIST
280
     1
  9
$SHOWHIST
280
     1
  9
$DWFFRAME
280
     2
  9
$DGNFRAME
280
     2
  9
$REALWORLDSCALE
290
     1
  9
$INTERFERECOLOR
 62
   256
  9
$CSHADOW
280
     0
  9
$SHADOWPLANELOCATION
 40
0.0
  0
ENDSEC
  0
SECTION
  2
CLASSES
  0
CLASS
  1
ACDBDICTIONARYWDFLT
  2
AcDbDictionaryWithDefault
  3
ObjectDBX Classes
 90
        0
 91
        7
280
     0
281
     0
  0
CLASS
  1
SCALE
  2
AcDbScale
  3
ObjectDBX Classes
 90
     1153
 91
        7
280
     0
281
     0
  0
CLASS
  1
TABLESTYLE
  2
AcDbTableStyle
  3
ObjectDBX Classes
 90
     4095
 91
        7
280
     0
281
     0
  0
CLASS
  1
RASTERVARIABLES
  2
AcDbRasterVariables
  3
ISM
 90
        0
 91
        7
280
     0
281
     0
  0
CLASS
  1
DICTIONARYVAR
  2
AcDbDictionaryVar
  3
ObjectDBX Classes
 90
        0
 91
        4
280
     0
281
     0
  0
CLASS
  1
CELLSTYLEMAP
  2
AcDbCellStyleMap
  3
ObjectDBX Classes
 90
     1152
 91
        4
280
     0
281
     0
  0
ENDSEC
  0
SECTION
  2
TABLES
  0
TABLE
  2
VPORT
  5
44E7
330
0
100
AcDbSymbolTable
 70
     1
  0
VPORT
  5
44FE
330
44E7
100
AcDbSymbolTableRecord
100
AcDbViewportTableRecord
  2
*ACTIVE
 70
     0
 10
0.0
 20
0.0
 11
1.0
 21
1.0
 12
34.35292577761551
 22
27.14019601444244
 13
0.0
 23
0.0
 14
7.0
 24
7.0
 15
7.0
 25
7.0
 16
0.0
 26
0.0
 36
1.0
 17
0.0
 27
0.0
 37
0.0
 40
140.7515007663115
 41
1.517582417582417
 42
50.0
 43
0.0
 44
0.0
 50
0.0
 51
0.0
 71
     0
 72
  2000
 73
     1
 74
     0
 75
     1
 76
     1
 77
     0
 78
     0
281
     0
 65
     0
110
0.0
120
0.0
130
0.0
111
1.0
121
0.0
131
0.0
112
0.0
122
1.0
132
0.0
 79
     0
146
0.0
 60
     3
 61
     5
292
     1
282
     1
141
0.0
142
0.0
 63
   256
  0
ENDTAB
  0
TABLE
  2
LTYPE
  5
44E4
330
0
100
AcDbSymbolTable
 70
    11
  0
LTYPE
  5
44F2
330
44E4
100
AcDbSymbolTableRecord
100
AcDbLinetypeTableRecord
  2
ByBlock
 70
     0
  3

 72
    65
 73
     0
 40
0.0
  0
LTYPE
  5
44F3
330
44E4
100
AcDbSymbolTableRecord
100
AcDbLinetypeTableRecord
  2
ByLayer
 70
     0
  3

 72
    65
 73
     0
 40
0.0
  0
LTYPE
  5
44F4
330
44E4
100
AcDbSymbolTableRecord
100
AcDbLinetypeTableRecord
  2
CONTINUOUS
 70
     0
  3
Solid line
 72
    65
 73
     0
 40
0.0
  0
LTYPE
  5
4500
330
44E4
100
AcDbSymbolTableRecord
100
AcDbLinetypeTableRecord
  2
CENTER2
 70
     0
  3
___ _ ___ _ ___ _ ___ _ ___ _ ___ _ ___ _ ___ _
 72
    65
 73
     4
 40
1.125
 49
0.75
 74
     0
 49
-0.125
 74
     0
 49
0.125
 74
     0
 49
-0.125
 74
     0
  0
LTYPE
  5
4501
330
44E4
100
AcDbSymbolTableRecord
100
AcDbLinetypeTableRecord
  2
HIDDEN2
 70
     0
  3
_ _ _ _ _ _ _ _ _ _ _ _ _ _ _ _ _ _ _ _ _ _ _ _
 72
    65
 73
     2
 40
0.1875
 49
0.125
 74
     0
 49
-0.0625
 74
     0
  0
LTYPE
  5
4502
330
44E4
100
AcDbSymbolTableRecord
100
AcDbLinetypeTableRecord
  2
PHANTOM2
 70
     0
  3
___ _ _ ___ _ _ ___ _ _ ___ _ _ ___ _ _ ___ _ _
 72
    65
 73
     6
 40
1.25
 49
0.625
 74
     0
 49
-0.125
 74
     0
 49
0.125
 74
     0
 49
-0.125
 74
     0
 49
0.125
 74
     0
 49
-0.125
 74
     0
  0
LTYPE
  5
4503
330
44E4
100
AcDbSymbolTableRecord
100
AcDbLinetypeTableRecord
  2
AM_ISO02W050
 70
     0
  3
__ __ __ __ __ __ __ __ __ __ __ __ __ __ __
 72
    65
 73
     2
 40
7.5
 49
6.0
 74
     0
 49
-1.5
 74
     0
  0
LTYPE
  5
4504
330
44E4
100
AcDbSymbolTableRecord
100
AcDbLinetypeTableRecord
  2
AMCONSTR
 70
     0
  3
_______________________
 72
    65
 73
     2
 40
9999.0
 49
9999.0
 74
     0
 49
0.0
 74
     0
  0
LTYPE
  5
4505
330
44E4
100
AcDbSymbolTableRecord
100
AcDbLinetypeTableRecord
  2
ACISOWELD
 70
     0
  3
_ _ _ _ _
 72
    65
 73
     2
 40
3.0
 49
2.0
 74
     0
 49
-1.0
 74
     0
  0
LTYPE
  5
4506
330
44E4
100
AcDbSymbolTableRecord
100
AcDbLinetypeTableRecord
  2
ACISOTGB
 70
     0
  3
__ . . __ . .
 72
    65
 73
     6
 40
9.0
 49
4.0
 74
     0
 49
-1.0
 74
     0
 49
1.0
 74
     0
 49
-1.0
 74
     0
 49
1.0
 74
     0
 49
-1.0
 74
     0
  0
LTYPE
  5
4507
330
44E4
100
AcDbSymbolTableRecord
100
AcDbLinetypeTableRecord
  2
ACISOTGL
 70
     0
  3
_ _ _ _ _
 72
    65
 73
     2
 40
3.0
 49
2.0
 74
     0
 49
-1.0
 74
     0
  0
LTYPE
  5
4508
330
44E4
100
AcDbSymbolTableRecord
100
AcDbLinetypeTableRecord
  2
ACJISTGB
 70
     0
  3
__ . . __ . .
 72
    65
 73
     6
 40
9.0
 49
4.0
 74
     0
 49
-1.0
 74
     0
 49
1.0
 74
     0
 49
-1.0
 74
     0
 49
1.0
 74
     0
 49
-1.0
 74
     0
  0
LTYPE
  5
4509
330
44E4
100
AcDbSymbolTableRecord
100
AcDbLinetypeTableRecord
  2
ACJISTGL
 70
     0
  3
_ _ _ _ _
 72
    65
 73
     2
 40
3.0
 49
2.0
 74
     0
 49
-1.0
 74
     0
  0
ENDTAB
  0
TABLE
  2
LAYER
  5
44E1
330
0
100
AcDbSymbolTable
 70
     9
  0
LAYER
  5
44EF
330
44E1
100
AcDbSymbolTableRecord
100
AcDbLayerTableRecord
  2
0
 70
     0
 62
     7
  6
CONTINUOUS
370
    -3
390
44EE
347
0
  0
LAYER
  5
450B
330
44E1
100
AcDbSymbolTableRecord
100
AcDbLayerTableRecord
  2
DEFPOINTS
 70
     0
 62
     7
  6
CONTINUOUS
290
     0
370
    -3
390
44EE
347
0
  0
LAYER
  5
450C
330
44E1
100
AcDbSymbolTableRecord
100
AcDbLayerTableRecord
  2
245
 70
     0
 62
     2
  6
CENTER2
370
    -3
390
44EE
347
0
  0
LAYER
  5
450D
330
44E1
100
AcDbSymbolTableRecord
100
AcDbLayerTableRecord
  2
240
 70
     0
 62
     4
  6
CONTINUOUS
370
    -3
390
44EE
347
0
  0
LAYER
  5
450E
330
44E1
100
AcDbSymbolTableRecord
100
AcDbLayerTableRecord
  2
241
 70
     0
 62
   211
  6
CONTINUOUS
370
    -3
390
44EE
347
0
  0
LAYER
  5
450F
330
44E1
100
AcDbSymbolTableRecord
100
AcDbLayerTableRecord
  2
242
 70
     0
 62
     3
  6
CONTINUOUS
370
    -3
390
44EE
347
0
  0
LAYER
  5
4510
330
44E1
100
AcDbSymbolTableRecord
100
AcDbLayerTableRecord
  2
243
 70
     0
 62
   211
  6
HIDDEN2
370
    -3
390
44EE
347
0
  0
LAYER
  5
4511
330
44E1
100
AcDbSymbolTableRecord
100
AcDbLayerTableRecord
  2
247
 70
     0
 62
    60
  6
CONTINUOUS
370
    -3
390
44EE
347
0
  0
LAYER
  5
4512
330
44E1
100
AcDbSymbolTableRecord
100
AcDbLayerTableRecord
  2
250
 70
     0
 62
     3
  6
CONTINUOUS
370
    -3
390
44EE
347
0
  0
ENDTAB
  0
TABLE
  2
STYLE
  5
44E2
330
0
100
AcDbSymbolTable
 70
     6
  0
STYLE
  5
44F0
330
44E2
100
AcDbSymbolTableRecord
100
AcDbTextStyleTableRecord
  2
STANDARD
 70
     0
 40
0.0
 41
1.0
 50
0.0
 71
     0
 42
3.0
  3
romans.shx
  4
extfont.shx
  0
STYLE
  5
4514
330
44E2
100
AcDbSymbolTableRecord
100
AcDbTextStyleTableRecord
  2
ACISOTS
 70
     0
 40
1.0
 41
1.0
 50
0.0
 71
     0
 42
3.0
  3
amgdt.shx
  4
extfont.shx
  0
STYLE
  5
4515
330
44E2
100
AcDbSymbolTableRecord
100
AcDbTextStyleTableRecord
  2
ACISOGDT
 70
     0
 40
0.0
 41
1.0
 50
0.0
 71
     0
 42
3.0
  3
amgdt.shx
  4
extfont.shx
  0
STYLE
  5
4516
330
44E2
100
AcDbSymbolTableRecord
100
AcDbTextStyleTableRecord
  2
ACJISTS
 70
     0
 40
1.0
 41
1.0
 50
0.0
 71
     0
 42
3.0
  3
amgdt.shx
  4
extfont.shx
  0
STYLE
  5
4517
330
44E2
100
AcDbSymbolTableRecord
100
AcDbTextStyleTableRecord
  2
ACJISGDT
 70
     0
 40
0.0
 41
1.0
 50
0.0
 71
     0
 42
3.0
  3
amgdt.shx
  4
extfont.shx
  0
STYLE
  5
4518
330
44E2
100
AcDbSymbolTableRecord
100
AcDbTextStyleTableRecord
  2
YOKO
 70
     0
 40
0.0
 41
1.0
 50
0.0
 71
     0
 42
3.0
  3
romans.shx
  4
extfont.shx
  0
ENDTAB
  0
TABLE
  2
VIEW
  5
44E5
330
0
100
AcDbSymbolTable
 70
     0
  0
ENDTAB
  0
TABLE
  2
UCS
  5
44E6
330
0
100
AcDbSymbolTable
 70
     0
  0
ENDTAB
  0
TABLE
  2
APPID
  5
44E8
330
0
100
AcDbSymbolTable
 70
    34
  0
APPID
  5
44F1
330
44E8
100
AcDbSymbolTableRecord
100
AcDbRegAppTableRecord
  2
ACAD
 70
     0
  0
APPID
  5
451A
330
44E8
100
AcDbSymbolTableRecord
100
AcDbRegAppTableRecord
  2
GLOBAL
 70
     0
  0
APPID
  5
451B
330
44E8
100
AcDbSymbolTableRecord
100
AcDbRegAppTableRecord
  2
DETAIL
 70
     0
  0
APPID
  5
451C
330
44E8
100
AcDbSymbolTableRecord
100
AcDbRegAppTableRecord
  2
GRPNAME
 70
     0
  0
APPID
  5
451D
330
44E8
100
AcDbSymbolTableRecord
100
AcDbRegAppTableRecord
  2
GPARA
 70
     0
  0
APPID
  5
451E
330
44E8
100
AcDbSymbolTableRecord
100
AcDbRegAppTableRecord
  2
MCAD_NO_VIS
 70
     0
  0
APPID
  5
451F
330
44E8
100
AcDbSymbolTableRecord
100
AcDbRegAppTableRecord
  2
ACAD_TEMP_GRAPHIC
 70
     0
  0
APPID
  5
4520
330
44E8
100
AcDbSymbolTableRecord
100
AcDbRegAppTableRecord
  2
ACATTRIBSERVICES
 70
     0
  0
APPID
  5
4521
330
44E8
100
AcDbSymbolTableRecord
100
AcDbRegAppTableRecord
  2
GENIUS_GENSCREG_15
 70
     0
  0
APPID
  5
4522
330
44E8
100
AcDbSymbolTableRecord
100
AcDbRegAppTableRecord
  2
GENIUS_GENODEF_13
 70
     0
  0
APPID
  5
4523
330
44E8
100
AcDbSymbolTableRecord
100
AcDbRegAppTableRecord
  2
GENIUS_GENOBJ-N-SDF_13
 70
     0
  0
APPID
  5
4524
330
44E8
100
AcDbSymbolTableRecord
100
AcDbRegAppTableRecord
  2
GENIUS_GENREC_14
 70
     0
  0
APPID
  5
4525
330
44E8
100
AcDbSymbolTableRecord
100
AcDbRegAppTableRecord
  2
GENIUS_GENOBJ-N-REC_13
 70
     0
  0
APPID
  5
4526
330
44E8
100
AcDbSymbolTableRecord
100
AcDbRegAppTableRecord
  2
GENIUS_GENDIMSH_14
 70
     0
  0
APPID
  5
4527
330
44E8
100
AcDbSymbolTableRecord
100
AcDbRegAppTableRecord
  2
GENIUS_GENOBJ-N-DIM_13
 70
     0
  0
APPID
  5
4528
330
44E8
100
AcDbSymbolTableRecord
100
AcDbRegAppTableRecord
  2
GENIUS_GENDIM_13
 70
     0
  0
APPID
  5
4529
330
44E8
100
AcDbSymbolTableRecord
100
AcDbRegAppTableRecord
  2
GENIUS_GENDTOL_13
 70
     0
  0
APPID
  5
452A
330
44E8
100
AcDbSymbolTableRecord
100
AcDbRegAppTableRecord
  2
GENIUS_GENOLIS_13
 70
     0
  0
APPID
  5
452B
330
44E8
100
AcDbSymbolTableRecord
100
AcDbRegAppTableRecord
  2
GENIUS_GENOENT_13
 70
     0
  0
APPID
  5
452C
330
44E8
100
AcDbSymbolTableRecord
100
AcDbRegAppTableRecord
  2
GENIUS_GENOBJ-F-FEM_13
 70
     0
  0
APPID
  5
452D
330
44E8
100
AcDbSymbolTableRecord
100
AcDbRegAppTableRecord
  2
GENIUS_GENOREF_13
 70
     0
  0
APPID
  5
452E
330
44E8
100
AcDbSymbolTableRecord
100
AcDbRegAppTableRecord
  2
GENIUS_GEFFEM_13
 70
     0
  0
APPID
  5
452F
330
44E8
100
AcDbSymbolTableRecord
100
AcDbRegAppTableRecord
  2
GENIUS_GEFFEMP_13
 70
     0
  0
APPID
  5
4530
330
44E8
100
AcDbSymbolTableRecord
100
AcDbRegAppTableRecord
  2
AD_DRAW
 70
     0
  0
APPID
  5
4531
330
44E8
100
AcDbSymbolTableRecord
100
AcDbRegAppTableRecord
  2
DESIGNERASSEMBLIES
 70
     0
  0
APPID
  5
4532
330
44E8
100
AcDbSymbolTableRecord
100
AcDbRegAppTableRecord
  2
ACADM_DIM_EDIT
 70
     0
  0
APPID
  5
4533
330
44E8
100
AcDbSymbolTableRecord
100
AcDbRegAppTableRecord
  2
AMDT_DM_ADJ
 70
     0
  0
APPID
  5
4534
330
44E8
100
AcDbSymbolTableRecord
100
AcDbRegAppTableRecord
  2
ITEMNAME
 70
     0
  0
APPID
  5
4535
330
44E8
100
AcDbSymbolTableRecord
100
AcDbRegAppTableRecord
  2
GENIUS_GENOBJ-N-FIL_13
 70
     0
  0
APPID
  5
4536
330
44E8
100
AcDbSymbolTableRecord
100
AcDbRegAppTableRecord
  2
GENIUS_GENFIL_13
 70
     0
  0
APPID
  5
4537
330
44E8
100
AcDbSymbolTableRecord
100
AcDbRegAppTableRecord
  2
GENIUS_GENOBJ-N-CHA_13
 70
     0
  0
APPID
  5
4538
330
44E8
100
AcDbSymbolTableRecord
100
AcDbRegAppTableRecord
  2
ACAD_NAV_VCDISPLAY
 70
     0
  0
APPID
  5
4539
330
44E8
100
AcDbSymbolTableRecord
100
AcDbRegAppTableRecord
  2
ACAD_EXEMPT_FROM_CAD_STANDARDS
 70
     0
  0
APPID
  5
453A
330
44E8
100
AcDbSymbolTableRecord
100
AcDbRegAppTableRecord
  2
ACAD_MLEADERVER
 70
     0
  0
ENDTAB
  0
TABLE
  2
DIMSTYLE
  5
44E9
330
0
100
AcDbSymbolTable
 70
    23
100
AcDbDimStyleTable
  0
DIMSTYLE
105
E0
330
44E9
100
AcDbSymbolTableRecord
100
AcDbDimStyleTableRecord
  2
BIGT
 70
     0
 41
2.229999999999999
 42
0.5
 43
7.0
 44
1.0
 48
0.01
 73
     0
 74
     0
 77
     3
 78
     9
140
2.799999999999999
141
0.0
147
1.0
172
     1
174
     1
176
   256
177
   256
178
    40
340
4518
341
E03A
342
E03A
  0
DIMSTYLE
105
453B
330
44E9
100
AcDbSymbolTableRecord
100
AcDbDimStyleTableRecord
  2
AM_ISO
 70
     0
  4
"
 41
2.5
 42
1.0
 43
10.0
 44
1.0
 47
0.1
 48
0.1
 73
     0
 74
     0
 77
     1
 78
     8
140
3.5
141
0.0
143
0.0393701
146
0.71
147
1.5
172
     1
176
   256
177
   256
178
     2
340
4518
  0
DIMSTYLE
105
453C
330
44E9
100
AcDbSymbolTableRecord
100
AcDbDimStyleTableRecord
  2
AM_ISO$3
 70
     0
  4
"
 41
2.5
 42
1.0
 43
10.0
 44
1.0
 47
0.1
 48
0.1
 73
     0
 77
     1
 78
     8
140
3.5
141
0.0
143
0.0393701
146
0.71
147
1.5
176
   256
177
   256
178
     2
340
4518
  0
DIMSTYLE
105
453D
330
44E9
100
AcDbSymbolTableRecord
100
AcDbDimStyleTableRecord
  2
AM_ISO$4
 70
     0
  4
"
 41
2.5
 42
1.0
 43
10.0
 44
1.0
 47
0.1
 48
0.1
 73
     0
 77
     1
 78
     8
140
3.5
141
0.0
143
0.0393701
146
0.71
147
1.5
176
   256
177
   256
178
     2
340
4518
  0
DIMSTYLE
105
453E
330
44E9
100
AcDbSymbolTableRecord
100
AcDbDimStyleTableRecord
  2
AM_ISO$6
 70
     0
  4
"
 41
2.5
 42
1.0
 43
10.0
 44
1.0
 47
0.1
 48
0.1
 73
     0
 74
     0
 78
     8
140
3.5
141
0.0
143
0.0393701
146
0.71
147
1.5
172
     1
176
   256
177
   256
178
     2
340
4518
  0
DIMSTYLE
105
453F
330
44E9
100
AcDbSymbolTableRecord
100
AcDbDimStyleTableRecord
  2
AM_ISO$7
 70
     0
  4
"
 41
2.5
 42
1.0
 43
10.0
 44
1.0
 47
0.1
 48
0.1
 73
     0
 74
     0
 77
     1
 78
     8
140
5.0
141
0.0
143
0.0393701
146
0.71
147
1.5
172
     1
176
   256
177
   256
178
     2
340
4518
  0
DIMSTYLE
105
4540
330
44E9
100
AcDbSymbolTableRecord
100
AcDbDimStyleTableRecord
  2
AM_ISO$SF
 70
     0
  4
"
 41
2.5
 42
1.0
 43
10.0
 44
1.0
 47
0.1
 48
0.1
 73
     0
 74
     0
 75
     1
 76
     1
 77
     1
 78
     8
140
3.5
141
0.0
143
0.0393701
146
0.71
147
1.5
172
     1
176
   256
177
   256
178
     2
340
4518
  0
DIMSTYLE
105
4541
330
44E9
100
AcDbSymbolTableRecord
100
AcDbDimStyleTableRecord
  2
AM_ISO$SH
 70
     0
  4
"
 41
2.5
 42
1.0
 43
10.0
 44
1.0
 47
0.1
 48
0.1
 73
     0
 74
     0
 75
     1
 76
     1
 77
     1
 78
     8
140
3.5
141
0.0
143
0.0393701
144
2.0
146
0.71
147
1.5
172
     1
173
     1
176
   256
177
   256
178
     2
340
4518
341
E03C
343
E03C
  0
DIMSTYLE
105
4542
330
44E9
100
AcDbSymbolTableRecord
100
AcDbDimStyleTableRecord
  2
BIGT$2
 70
     0
 41
2.229999999999999
 42
0.5
 43
7.0
 44
1.0
 48
0.01
 73
     0
 74
     0
 77
     3
 78
     9
140
2.799999999999999
141
0.0
147
1.0
172
     1
176
   256
177
   256
178
    40
340
4518
341
E03A
342
E03A
  0
DIMSTYLE
105
4543
330
44E9
100
AcDbSymbolTableRecord
100
AcDbDimStyleTableRecord
  2
BIGT$3
 70
     0
 41
2.229999999999999
 42
0.5
 43
2.5
 44
1.0
 48
0.01
 73
     0
 74
     0
 77
     3
 78
     9
140
2.799999999999999
141
0.0
147
1.0
172
     1
176
   256
177
   256
178
    40
340
4518
341
E03A
342
E03A
  0
DIMSTYLE
105
4544
330
44E9
100
AcDbSymbolTableRecord
100
AcDbDimStyleTableRecord
  2
BIGT$7
 70
     0
 40
0.0
 41
2.229999999999999
 42
0.5
 43
7.0
 44
1.0
 48
0.01
 73
     0
 74
     0
 77
     3
 78
     9
140
2.799999999999999
141
0.0
147
1.0
176
   256
177
   256
178
    40
340
4518
341
E03A
342
E03A
  0
DIMSTYLE
105
4545
330
44E9
100
AcDbSymbolTableRecord
100
AcDbDimStyleTableRecord
  2
BIGT$6
 70
     0
 41
2.229999999999999
 42
0.5
 43
2.5
 44
1.0
 48
0.01
 73
     0
 74
     0
 77
     3
 78
     9
140
2.799999999999999
141
0.0
147
1.0
172
     1
176
   256
177
   256
178
    40
340
4518
341
E03A
342
E03A
  0
DIMSTYLE
105
4546
330
44E9
100
AcDbSymbolTableRecord
100
AcDbDimStyleTableRecord
  2
BIGT$0
 70
     0
 41
2.229999999999999
 42
0.5
 43
7.0
 44
1.0
 48
0.01
 73
     0
 74
     0
 77
     3
 78
     9
140
2.799999999999999
141
0.0
147
1.0
172
     1
174
     1
176
   256
177
   256
178
    40
340
4518
341
E03A
342
E03A
  0
DIMSTYLE
105
4547
330
44E9
100
AcDbSymbolTableRecord
100
AcDbDimStyleTableRecord
  2
BIGT$4
 70
     0
 41
2.229999999999999
 42
0.5
 43
2.5
 44
1.0
 48
0.01
 73
     0
 74
     0
 77
     3
 78
     9
140
2.799999999999999
141
0.0
147
1.0
172
     1
176
   256
177
   256
178
    40
340
4518
341
E03A
342
E03A
  0
DIMSTYLE
105
4548
330
44E9
100
AcDbSymbolTableRecord
100
AcDbDimStyleTableRecord
  2
BIGT$SH
 70
     0
 41
2.229999999999999
 42
0.5
 43
7.0
 44
1.0
 73
     0
 74
     0
 77
     3
 78
     9
140
2.799999999999999
141
0.0
147
1.0
172
     1
176
   256
177
   256
178
    40
340
4518
341
E03A
342
E03A
  0
DIMSTYLE
105
4549
330
44E9
100
AcDbSymbolTableRecord
100
AcDbDimStyleTableRecord
  2
BIGT$SF
 70
     0
 41
2.229999999999999
 42
0.5
 43
7.0
 44
1.0
 73
     0
 74
     0
 77
     3
 78
     9
140
2.799999999999999
141
0.0
147
1.0
172
     1
176
   256
177
   256
178
    40
340
4518
341
E03A
342
E03A
  0
DIMSTYLE
105
E030
330
44E9
100
AcDbSymbolTableRecord
100
AcDbDimStyleTableRecord
  2
TECHNICAL_OSAKA
 70
     0
  4
"
 41
2.5
 42
1.0
 43
10.0
 44
1.0
 47
0.1
 48
0.1
 73
     0
 74
     0
 77
     3
 78
     8
140
2.799999999999999
141
0.0
143
0.0393701
146
0.71
147
1.5
172
     1
176
   256
177
   256
178
    40
340
4518
341
E03E
342
E03E
  0
DIMSTYLE
105
E031
330
44E9
100
AcDbSymbolTableRecord
100
AcDbDimStyleTableRecord
  2
TECHNICAL_OSAKA$3
 70
     0
  4
"
 41
2.5
 42
1.0
 43
10.0
 44
1.0
 47
0.1
 48
0.1
 73
     0
 77
     3
 78
     8
140
2.799999999999999
141
0.0
143
0.0393701
146
0.71
147
1.5
176
   256
177
   256
178
    40
340
4518
341
E03E
342
E03E
  0
DIMSTYLE
105
E032
330
44E9
100
AcDbSymbolTableRecord
100
AcDbDimStyleTableRecord
  2
TECHNICAL_OSAKA$4
 70
     0
  4
"
 41
2.5
 42
1.0
 43
10.0
 44
1.0
 47
0.1
 48
0.1
 73
     0
 77
     3
 78
     8
140
2.799999999999999
141
0.0
143
0.0393701
146
0.71
147
1.5
176
   256
177
   256
178
    40
340
4518
341
E03E
342
E03E
  0
DIMSTYLE
105
E033
330
44E9
100
AcDbSymbolTableRecord
100
AcDbDimStyleTableRecord
  2
TECHNICAL_OSAKA$6
 70
     0
  4
"
 41
2.5
 42
1.0
 43
10.0
 44
1.0
 47
0.1
 48
0.1
 73
     0
 74
     0
 78
     8
140
2.799999999999999
141
0.0
143
0.0393701
146
0.71
147
1.5
172
     1
176
   256
177
   256
178
    40
340
4518
341
E03E
342
E03E
  0
DIMSTYLE
105
E034
330
44E9
100
AcDbSymbolTableRecord
100
AcDbDimStyleTableRecord
  2
TECHNICAL_OSAKA$7
 70
     0
  4
"
 41
2.5
 42
1.0
 43
10.0
 44
1.0
 47
0.1
 48
0.1
 73
     0
 74
     0
 77
     3
 78
     8
140
2.799999999999999
141
0.0
143
0.0393701
146
0.71
147
1.5
172
     1
176
   256
177
   256
178
    40
340
4518
341
E03E
342
E03E
  0
DIMSTYLE
105
E035
330
44E9
100
AcDbSymbolTableRecord
100
AcDbDimStyleTableRecord
  2
TECHNICAL_OSAKA$SF
 70
     0
  4
"
 41
2.5
 42
1.0
 43
10.0
 44
1.0
 47
0.1
 48
0.1
 73
     0
 74
     0
 75
     1
 76
     1
 77
     3
 78
     8
140
3.5
141
0.0
143
0.0393701
146
0.71
147
1.5
172
     1
176
   256
177
   256
178
    40
340
4518
341
E03E
342
E03E
343
E03E
344
E03E
  0
DIMSTYLE
105
E036
330
44E9
100
AcDbSymbolTableRecord
100
AcDbDimStyleTableRecord
  2
TECHNICAL_OSAKA$SH
 70
     0
  4
"
 41
2.5
 42
1.0
 43
10.0
 44
1.0
 47
0.1
 48
0.1
 73
     0
 74
     0
 75
     1
 76
     1
 77
     3
 78
     8
140
3.5
141
0.0
143
0.0393701
144
2.0
146
0.71
147
1.5
172
     1
173
     1
176
   256
177
   256
178
    40
340
4518
341
E03E
342
E03E
343
E03C
344
E03E
  0
ENDTAB
  0
TABLE
  2
BLOCK_RECORD
  5
44E0
330
0
100
AcDbSymbolTable
 70
     3
  0
BLOCK_RECORD
  5
44FB
330
44E0
100
AcDbSymbolTableRecord
100
AcDbBlockTableRecord
  2
*Model_Space
340
44FC
 70
     0
280
     1
281
     0
  0
BLOCK_RECORD
  5
44F9
330
44E0
100
AcDbSymbolTableRecord
100
AcDbBlockTableRecord
  2
*Paper_Space
340
44FA
 70
     0
280
     1
281
     0
  0
BLOCK_RECORD
  5
E03A
330
44E0
100
AcDbSymbolTableRecord
100
AcDbBlockTableRecord
  2
_OPEN
340
0
 70
     0
280
     1
281
     0
  0
BLOCK_RECORD
  5
E03C
330
44E0
100
AcDbSymbolTableRecord
100
AcDbBlockTableRecord
  2
GENAXEH
340
0
 70
     0
280
     1
281
     0
  0
BLOCK_RECORD
  5
E03E
330
44E0
100
AcDbSymbolTableRecord
100
AcDbBlockTableRecord
  2
_OPEN30
340
0
 70
     0
280
     1
281
     0
  0
ENDTAB
  0
ENDSEC
  0
SECTION
  2
BLOCKS
  0
BLOCK
  5
E037
330
44FB
100
AcDbEntity
  8
0
100
AcDbBlockBegin
  2
*Model_Space
 70
     0
 10
0.0
 20
0.0
 30
0.0
  3
*Model_Space
  1

  0
ENDBLK
  5
1C
330
44FB
100
AcDbEntity
  8
0
100
AcDbBlockEnd
  0
BLOCK
  5
E038
330
44F9
100
AcDbEntity
 67
     1
  8
0
100
AcDbBlockBegin
  2
*Paper_Space
 70
     0
 10
0.0
 20
0.0
 30
0.0
  3
*Paper_Space
  1

  0
ENDBLK
  5
19
330
44F9
100
AcDbEntity
 67
     1
  8
0
100
AcDbBlockEnd
  0
BLOCK
  5
E039
330
E03A
100
AcDbEntity
  8
0
100
AcDbBlockBegin
  2
_OPEN
 70
     0
 10
0.0
 20
0.0
 30
0.0
  3
_OPEN
  1

  0
LINE
  5
43E7
330
E03A
100
AcDbEntity
  8
0
  6
ByBlock
 62
     0
100
AcDbLine
 10
-1.0
 20
0.1666666666666666
 30
0.0
 11
0.0
 21
0.0
 31
0.0
  0
LINE
  5
43E8
330
E03A
100
AcDbEntity
  8
0
  6
ByBlock
 62
     0
100
AcDbLine
 10
-1.0
 20
-0.1666666666666666
 30
0.0
 11
0.0
 21
0.0
 31
0.0
  0
LINE
  5
43E9
330
E03A
100
AcDbEntity
  8
0
  6
ByBlock
 62
     0
100
AcDbLine
 10
0.0
 20
0.0
 30
0.0
 11
-1.0
 21
0.0
 31
0.0
  0
ENDBLK
  5
43EA
330
E03A
100
AcDbEntity
  8
0
100
AcDbBlockEnd
  0
BLOCK
  5
E03B
330
E03C
100
AcDbEntity
  8
0
100
AcDbBlockBegin
  2
GENAXEH
 70
     0
 10
0.0
 20
0.0
 30
0.0
  3
GENAXEH
  1

  0
LINE
  5
4422
330
E03C
100
AcDbEntity
  8
0
100
AcDbLine
 10
-1.0
 20
0.0
 30
0.0
 11
1.0
 21
0.0
 31
0.0
  0
ENDBLK
  5
4423
330
E03C
100
AcDbEntity
  8
0
100
AcDbBlockEnd
  0
BLOCK
  5
E03D
330
E03E
100
AcDbEntity
  8
0
100
AcDbBlockBegin
  2
_OPEN30
 70
     0
 10
0.0
 20
0.0
 30
0.0
  3
_OPEN30
  1

  0
LINE
  5
445E
330
E03E
100
AcDbEntity
  8
0
  6
ByBlock
 62
     0
100
AcDbLine
 10
-1.0
 20
0.26794919
 30
0.0
 11
0.0
 21
0.0
 31
0.0
  0
LINE
  5
445F
330
E03E
100
AcDbEntity
  8
0
  6
ByBlock
 62
     0
100
AcDbLine
 10
0.0
 20
0.0
 30
0.0
 11
-1.0
 21
-0.26794919
 31
0.0
  0
LINE
  5
4460
330
E03E
100
AcDbEntity
  8
0
  6
ByBlock
 62
     0
100
AcDbLine
 10
0.0
 20
0.0
 30
0.0
 11
-1.0
 21
0.0
 31
0.0
  0
ENDBLK
  5
4461
330
E03E
100
AcDbEntity
  8
0
100
AcDbBlockEnd
  0
ENDSEC
  0
SECTION
  2
ENTITIES
  0
LINE
  5
422A
330
44FB
100
AcDbEntity
  8
245
  6
CENTER2
100
AcDbLine
 10
-49.40000000000001
 20
0.0
 30
0.0
 11
83.85577197666055
 21
0.0
 31
0.0
  0
ARC
  5
4242
330
44FB
100
AcDbEntity
  8
240
  6
Continuous
100
AcDbCircle
 10
27.0
 20
17.00000000000001
 30
0.0
 40
5.0
100
AcDbArc
 50
180.0
 51
270.0
1001
GENIUS_GENODEF_13
1002
{
1000
HIER
1070
     0
1002
}
1002
{
1000
MANEDIT
1070
     0
1002
}
1002
{
1000
NOSEL
1070
     0
1002
}
1002
{
1000
BEHIND
1070
     0
1002
}
1002
{
1000
OTHER
1070
     0
1002
}
1002
{
1000
REACTOR
1002
}
1001
GENIUS_GENOBJ-N-FIL_13
1002
{
1000
OWNER
1000
GEN
1002
}
  0
ARC
  5
4243
330
44FB
100
AcDbEntity
  8
240
  6
Continuous
100
AcDbCircle
 10
27.0
 20
-17.00000000000008
 30
0.0
 40
5.0
100
AcDbArc
 50
90.00000000000009
 51
180.0
1001
GENIUS_GENODEF_13
1002
{
1000
HIER
1070
     0
1002
}
1002
{
1000
MANEDIT
1070
     0
1002
}
1002
{
1000
NOSEL
1070
     0
1002
}
1002
{
1000
BEHIND
1070
     0
1002
}
1002
{
1000
OTHER
1070
     0
1002
}
1002
{
1000
REACTOR
1002
}
1001
GENIUS_GENOBJ-N-FIL_13
1002
{
1000
OWNER
1000
GEN
1002
}
  0
LINE
  5
4260
330
44FB
100
AcDbEntity
  8
240
  6
Continuous
100
AcDbLine
 10
82.50000000000006
 20
12.0
 30
0.0
 11
27.00000000000001
 21
12.0
 31
0.0
  0
LINE
  5
4261
330
44FB
100
AcDbEntity
  8
240
  6
Continuous
100
AcDbLine
 10
82.50000000000006
 20
-12.0
 30
0.0
 11
26.99999999999999
 21
-12.00000000000009
 31
0.0
  0
LINE
  5
4262
330
44FB
100
AcDbEntity
  8
240
  6
Continuous
100
AcDbLine
 10
82.50000000000006
 20
-12.0
 30
0.0
 11
82.50000000000006
 21
12.0
 31
0.0
  0
LINE
  5
4263
330
44FB
100
AcDbEntity
  8
243
  6
HIDDEN2
100
AcDbLine
 10
64.94999999999999
 20
7.0
 30
0.0
 11
82.50000000000006
 21
7.0
 31
0.0
  0
LINE
  5
4264
330
44FB
100
AcDbEntity
  8
243
  6
HIDDEN2
100
AcDbLine
 10
64.94999999999999
 20
-6.999999999999996
 30
0.0
 11
82.50000000000006
 21
-6.999999999999996
 31
0.0
  0
LINE
  5
4265
330
44FB
100
AcDbEntity
  8
241
  6
Continuous
100
AcDbLine
 10
22.0
 20
17.00000000000001
 30
0.0
 11
22.0
 21
-17.00000000000008
 31
0.0
  0
TEXT
  5
4266
330
44FB
100
AcDbEntity
  8
241
  6
Continuous
100
AcDbText
 10
-48.4
 20
50.66666666666666
 30
0.0
 40
5.0
  1
BT30-CKB2-83
  7
YOKO
 11
-48.4
 21
49.0
 31
0.0
100
AcDbText
 73
     1
  0
LINE
  5
4267
330
44FB
100
AcDbEntity
  8
250
  6
Continuous
100
AcDbLine
 10
84.90259595
 20
25.87551622
 30
0.0
 11
97.96926261000002
 21
25.87551622
 31
0.0
1001
ITEMNAME
1000
LNSP2
  0
CIRCLE
  5
4268
330
44FB
100
AcDbEntity
  8
242
  6
Continuous
100
AcDbCircle
 10
76.0
 20
0.0
 30
0.0
 40
2.25
  0
CIRCLE
  5
4269
330
44FB
100
AcDbEntity
  8
241
  6
Continuous
100
AcDbCircle
 10
76.0
 20
0.0
 30
0.0
 40
2.6
  0
LWPOLYLINE
  5
426A
330
44FB
100
AcDbEntity
  8
241
  6
Continuous
100
AcDbPolyline
 90
        6
 70
     1
 43
0.0
 10
74.75
 20
-0.72168784
 10
76.0
 20
-1.443375669999998
 10
77.25
 20
-0.72168784
 10
77.25
 20
0.72168784
 10
76.0
 20
1.443375669999998
 10
74.75
 20
0.72168784
  0
LINE
  5
4272
330
44FB
100
AcDbEntity
  8
245
  6
CENTER2
100
AcDbLine
 10
76.0
 20
3.6
 30
0.0
 11
76.0
 21
-3.6
 31
0.0
  0
LWPOLYLINE
  5
4273
330
44FB
100
AcDbEntity
  8
250
  6
Continuous
100
AcDbPolyline
 90
        2
 70
     0
 43
0.0
 10
78.00656292054678
 20
13.93123665012361
 10
84.90259595
 20
25.87551622
1001
ACAD
1000
DSTYLE
1002
{
1070
     6
1000
OPEN
1070
   343
1005
0
1002
}
  0
TEXT
  5
4277
330
44FB
100
AcDbEntity
  8
250
  6
Continuous
100
AcDbText
 10
87.30259594999997
 20
26.87551622
 30
0.0
 40
2.799999999999998
  1
CK2
  7
YOKO
100
AcDbText
1001
ITEMNAME
1000
LNSP3
1001
ACAD
1000
MTEXTBEGIN
1070
    73
1070
     1
1070
    44
1040
1.0
1070
    74
1070
     0
1000
MTEXTEND
1000
MTEXTBEGIN
1070
    73
1070
     1
1070
    44
1040
1.0
1070
    74
1070
     0
1000
MTEXTEND
  0
LINE
  5
4278
330
44FB
100
AcDbEntity
  8
250
  6
Continuous
100
AcDbLine
 10
0.0
 20
16.375
 30
0.0
 11
0.0
 21
36.0
 31
0.0
  0
LINE
  5
4279
330
44FB
100
AcDbEntity
  8
250
  6
Continuous
100
AcDbLine
 10
82.5
 20
12.5
 30
0.0
 11
82.5
 21
36.0
 31
0.0
  0
LINE
  5
427A
330
44FB
100
AcDbEntity
  8
250
  6
Continuous
100
AcDbLine
 10
2.229999999999999
 20
35.0
 30
0.0
 11
80.27
 21
35.0
 31
0.0
  0
LINE
  5
427B
330
44FB
100
AcDbEntity
  8
250
  6
Continuous
100
AcDbLine
 10
83.0
 20
-12.0
 30
0.0
 11
95.0
 21
-12.0
 31
0.0
  0
LINE
  5
427C
330
44FB
100
AcDbEntity
  8
250
  6
Continuous
100
AcDbLine
 10
83.0
 20
12.0
 30
0.0
 11
95.0
 21
12.0
 31
0.0
  0
LINE
  5
427D
330
44FB
100
AcDbEntity
  8
250
  6
Continuous
100
AcDbLine
 10
94.0
 20
-9.77
 30
0.0
 11
94.0
 21
9.77
 31
0.0
  0
TEXT
  5
427E
330
44FB
100
AcDbEntity
  8
250
  6
Continuous
100
AcDbText
 10
36.58333333333334
 20
36.0
 30
0.0
 40
2.799999999999998
  1
82.5
100
AcDbText
1001
ACAD
1000
MTEXTBEGIN
1070
    73
1070
     1
1070
    44
1040
1.0
1070
    74
1070
     0
1000
MTEXTEND
  0
LINE
  5
427F
330
44FB
100
AcDbEntity
  8
250
  6
Continuous
100
AcDbLine
 10
80.27
 20
35.37166666666667
 30
0.0
 11
82.5
 21
35.0
 31
0.0
  0
LINE
  5
4280
330
44FB
100
AcDbEntity
  8
250
  6
Continuous
100
AcDbLine
 10
80.27
 20
34.62833333333333
 30
0.0
 11
82.5
 21
35.0
 31
0.0
  0
LINE
  5
4281
330
44FB
100
AcDbEntity
  8
250
  6
Continuous
100
AcDbLine
 10
82.5
 20
35.0
 30
0.0
 11
80.27
 21
35.0
 31
0.0
  0
LINE
  5
4282
330
44FB
100
AcDbEntity
  8
250
  6
Continuous
100
AcDbLine
 10
2.229999999999999
 20
34.62833333333333
 30
0.0
 11
0.0
 21
35.0
 31
0.0
  0
LINE
  5
4283
330
44FB
100
AcDbEntity
  8
250
  6
Continuous
100
AcDbLine
 10
2.229999999999999
 20
35.37166666666667
 30
0.0
 11
0.0
 21
35.0
 31
0.0
  0
LINE
  5
4284
330
44FB
100
AcDbEntity
  8
250
  6
Continuous
100
AcDbLine
 10
0.0
 20
35.0
 30
0.0
 11
2.229999999999999
 21
35.0
 31
0.0
  0
TEXT
  5
4285
330
44FB
100
AcDbEntity
  8
250
  6
Continuous
100
AcDbText
 10
92.99999999999999
 20
-3.999999999999999
 30
0.0
 40
2.799999999999998
  1
∅24
 50
90.0
100
AcDbText
1001
ACAD
1000
MTEXTBEGIN
1070
    73
1070
     1
1070
    44
1040
1.0
1070
    74
1070
     0
1000
MTEXTEND
  0
LINE
  5
4286
330
44FB
100
AcDbEntity
  8
250
  6
Continuous
100
AcDbLine
 10
93.62833333333332
 20
9.77
 30
0.0
 11
94.0
 21
12.0
 31
0.0
  0
LINE
  5
4287
330
44FB
100
AcDbEntity
  8
250
  6
Continuous
100
AcDbLine
 10
94.37166666666668
 20
9.77
 30
0.0
 11
94.0
 21
12.0
 31
0.0
  0
LINE
  5
4288
330
44FB
100
AcDbEntity
  8
250
  6
Continuous
100
AcDbLine
 10
94.0
 20
12.0
 30
0.0
 11
94.0
 21
9.77
 31
0.0
  0
LINE
  5
4289
330
44FB
100
AcDbEntity
  8
250
  6
Continuous
100
AcDbLine
 10
94.37166666666668
 20
-9.77
 30
0.0
 11
94.0
 21
-12.0
 31
0.0
  0
LINE
  5
428A
330
44FB
100
AcDbEntity
  8
250
  6
Continuous
100
AcDbLine
 10
93.62833333333332
 20
-9.77
 30
0.0
 11
94.0
 21
-12.0
 31
0.0
  0
LINE
  5
428B
330
44FB
100
AcDbEntity
  8
250
  6
Continuous
100
AcDbLine
 10
94.0
 20
-12.0
 30
0.0
 11
94.0
 21
-9.77
 31
0.0
  0
LINE
  5
428C
330
44FB
100
AcDbEntity
  8
250
  6
Continuous
100
AcDbLine
 10
78.32843569556739
 20
13.74540331669915
 30
0.0
 11
76.89156291999998
 21
12.0
 31
0.0
  0
LINE
  5
428D
330
44FB
100
AcDbEntity
  8
250
  6
Continuous
100
AcDbLine
 10
77.68469014552619
 20
14.11706998354808
 30
0.0
 11
76.89156291999998
 21
12.0
 31
0.0
  0
LINE
  5
428E
330
44FB
100
AcDbEntity
  8
250
  6
Continuous
100
AcDbLine
 10
76.89156291999998
 20
12.0
 30
0.0
 11
78.00656292054678
 21
13.93123665012361
 31
0.0
  0
LINE
  5
4305
330
44FB
100
AcDbEntity
  8
240
  6
Continuous
100
AcDbLine
 10
17.59999999999997
 20
23.0
 30
0.0
 11
21.99999999999997
 21
23.0
 31
0.0
  0
LINE
  5
4306
330
44FB
100
AcDbEntity
  8
243
  6
HIDDEN2
100
AcDbLine
 10
18.99999999999997
 20
16.30000000000001
 30
0.0
 11
1.999999999999977
 21
16.30000000000001
 31
0.0
  0
LINE
  5
4307
330
44FB
100
AcDbEntity
  8
240
  6
Continuous
100
AcDbLine
 10
17.59999999999997
 20
-23.0
 30
0.0
 11
21.99999999999997
 21
-23.0
 31
0.0
  0
LINE
  5
4308
330
44FB
100
AcDbEntity
  8
243
  6
HIDDEN2
100
AcDbLine
 10
18.99999999999997
 20
-16.30000000000001
 30
0.0
 11
1.999999999999977
 21
-16.30000000000004
 31
0.0
  0
LINE
  5
4309
330
44FB
100
AcDbEntity
  8
240
  6
Continuous
100
AcDbLine
 10
-48.39999999999999
 20
-8.816500001986697
 30
0.0
 11
0.4999999999999787
 21
-15.94791838840922
 31
0.0
  0
LINE
  5
430A
330
44FB
100
AcDbEntity
  8
240
  6
Continuous
100
AcDbLine
 10
-48.39999999999999
 20
-8.816500001986697
 30
0.0
 11
-48.39999999999999
 21
8.816500001986697
 31
0.0
  0
LINE
  5
430B
330
44FB
100
AcDbEntity
  8
240
  6
Continuous
100
AcDbLine
 10
15.29059891999999
 20
-19.0
 30
0.0
 11
17.59999999999997
 21
-23.0
 31
0.0
  0
LINE
  5
430C
330
44FB
100
AcDbEntity
  8
240
  6
Continuous
100
AcDbLine
 10
11.90940107999998
 20
-19.0
 30
0.0
 11
9.599999999999971
 21
-23.0
 31
0.0
  0
LINE
  5
430D
330
44FB
100
AcDbEntity
  8
241
  6
Continuous
100
AcDbLine
 10
17.59999999999996
 20
23.00000000000006
 30
0.0
 11
17.59999999999997
 21
-23.0
 31
0.0
  0
LINE
  5
430E
330
44FB
100
AcDbEntity
  8
241
  6
Continuous
100
AcDbLine
 10
9.599999999999971
 20
-23.0
 30
0.0
 11
9.599999999999971
 21
23.0
 31
0.0
  0
LINE
  5
430F
330
44FB
100
AcDbEntity
  8
240
  6
Continuous
100
AcDbLine
 10
9.599999999999971
 20
-23.0
 30
0.0
 11
1.999999999999977
 21
-23.0
 31
0.0
  0
LINE
  5
4310
330
44FB
100
AcDbEntity
  8
241
  6
Continuous
100
AcDbLine
 10
15.29059891999999
 20
-19.0
 30
0.0
 11
15.29059891999997
 21
19.0
 31
0.0
  0
LINE
  5
4311
330
44FB
100
AcDbEntity
  8
241
  6
Continuous
100
AcDbLine
 10
11.90940107999998
 20
-19.0
 30
0.0
 11
11.90940107999996
 21
19.0
 31
0.0
  0
LINE
  5
4312
330
44FB
100
AcDbEntity
  8
241
  6
Continuous
100
AcDbLine
 10
1.999999999999977
 20
15.94791838840922
 30
0.0
 11
1.999999999999977
 21
-15.94685894488896
 31
0.0
  0
LINE
  5
4313
330
44FB
100
AcDbEntity
  8
240
  6
Continuous
100
AcDbLine
 10
0.4999999999999787
 20
-15.94685894488896
 30
0.0
 11
1.999999999999977
 21
-15.94685894488896
 31
0.0
  0
LINE
  5
4314
330
44FB
100
AcDbEntity
  8
240
  6
Continuous
100
AcDbLine
 10
11.90940107999998
 20
-19.0
 30
0.0
 11
15.29059891999999
 21
-19.0
 31
0.0
  0
LINE
  5
4315
330
44FB
100
AcDbEntity
  8
240
  6
Continuous
100
AcDbLine
 10
-48.39999999999999
 20
8.816500001986697
 30
0.0
 11
0.4999999999999787
 21
15.94791838840922
 31
0.0
  0
LINE
  5
4316
330
44FB
100
AcDbEntity
  8
240
  6
Continuous
100
AcDbLine
 10
15.29059891999999
 20
19.0
 30
0.0
 11
17.59999999999997
 21
23.0
 31
0.0
  0
LINE
  5
4317
330
44FB
100
AcDbEntity
  8
240
  6
Continuous
100
AcDbLine
 10
11.90940107999998
 20
19.0
 30
0.0
 11
9.599999999999971
 21
23.0
 31
0.0
  0
LINE
  5
4318
330
44FB
100
AcDbEntity
  8
240
  6
Continuous
100
AcDbLine
 10
0.4999999999999292
 20
15.94791838840922
 30
0.0
 11
1.999999999999977
 21
15.94791838840922
 31
0.0
  0
LINE
  5
4319
330
44FB
100
AcDbEntity
  8
240
  6
Continuous
100
AcDbLine
 10
11.90940107999998
 20
19.0
 30
0.0
 11
15.29059891999999
 21
19.0
 31
0.0
  0
LINE
  5
431A
330
44FB
100
AcDbEntity
  8
240
  6
Continuous
100
AcDbLine
 10
9.599999999999971
 20
23.0
 30
0.0
 11
1.999999999999977
 21
23.0
 31
0.0
  0
LINE
  5
431B
330
44FB
100
AcDbEntity
  8
240
  6
Continuous
100
AcDbLine
 10
21.99999999999997
 20
-23.0
 30
0.0
 11
21.99999999999997
 21
-17.00000000000008
 31
0.0
  0
LINE
  5
431C
330
44FB
100
AcDbEntity
  8
243
  6
HIDDEN2
100
AcDbLine
 10
18.99999999999997
 20
-16.30000000000001
 30
0.0
 11
18.99999999999997
 21
-23.0
 31
0.0
  0
LINE
  5
431D
330
44FB
100
AcDbEntity
  8
243
  6
HIDDEN2
100
AcDbLine
 10
18.99999999999997
 20
16.30000000000001
 30
0.0
 11
18.99999999999997
 21
23.0
 31
0.0
  0
LINE
  5
431E
330
44FB
100
AcDbEntity
  8
247
  6
Continuous
100
AcDbLine
 10
6.99999999999992
 20
-13.75
 30
0.0
 11
6.999999999999977
 21
-9.115384615669997
 31
0.0
  0
LINE
  5
431F
330
44FB
100
AcDbEntity
  8
247
  6
Continuous
100
AcDbLine
 10
4.499999999999977
 20
-12.95489349998792
 30
0.0
 11
6.599999999915985
 21
-13.55705881005735
 31
0.0
  0
LINE
  5
4320
330
44FB
100
AcDbEntity
  8
247
  6
Continuous
100
AcDbLine
 10
5.496153846113975
 20
-12.32515140351904
 30
0.0
 11
5.496153846113975
 21
-13.24053601886703
 31
0.0
  0
ARC
  5
4321
330
44FB
100
AcDbEntity
  8
247
  6
Continuous
100
AcDbCircle
 10
4.884719067294075
 20
-12.08726340194675
 30
0.0
 40
0.3876715809326743
100
AcDbArc
 50
72.99788967529301
 51
172.9241662185135
  0
ARC
  5
4322
330
44FB
100
AcDbEntity
  8
247
  6
Continuous
100
AcDbCircle
 10
4.805223131027991
 20
-12.38247755680407
 30
0.0
 40
0.693304796535877
100
AcDbArc
 50
4.742936852202213
 51
73.84922627326675
1001
GENIUS_GENOBJ-N-FIL_13
1002
{
1000
OWNER
1000
GEN
1002
}
1001
GENIUS_GENODEF_13
1002
{
1000
HIER
1070
     0
1002
}
1002
{
1000
MANEDIT
1070
     0
1002
}
1002
{
1000
NOSEL
1070
     0
1002
}
1002
{
1000
BEHIND
1070
     0
1002
}
1002
{
1000
OTHER
1070
     0
1002
}
1002
{
1000
REACTOR
1002
}
  0
LINE
  5
4323
330
44FB
100
AcDbEntity
  8
247
  6
Continuous
100
AcDbLine
 10
6.599999999915985
 20
-12.64167419470936
 30
0.0
 11
6.599999999915985
 21
-13.55705881005735
 31
0.0
  0
LINE
  5
4324
330
44FB
100
AcDbEntity
  8
247
  6
Continuous
100
AcDbLine
 10
4.499999999999977
 20
-12.95489349998792
 30
0.0
 11
4.499999999999977
 21
-12.03950888463993
 31
0.0
  0
ARC
  5
4325
330
44FB
100
AcDbEntity
  8
247
  6
Continuous
100
AcDbCircle
 10
5.887416962767849
 20
-12.3783064762668
 30
0.0
 40
0.394857301075386
100
AcDbArc
 50
65.99094165252889
 51
172.2634434590691
  0
ARC
  5
4326
330
44FB
100
AcDbEntity
  8
247
  6
Continuous
100
AcDbCircle
 10
5.891200327332545
 20
-12.71244661042692
 30
0.0
 40
0.7123241612361686
100
AcDbArc
 50
5.701985164256504
 51
77.277338436822
1001
GENIUS_GENOBJ-N-FIL_13
1002
{
1000
OWNER
1000
GEN
1002
}
1001
GENIUS_GENODEF_13
1002
{
1000
HIER
1070
     0
1002
}
1002
{
1000
MANEDIT
1070
     0
1002
}
1002
{
1000
NOSEL
1070
     0
1002
}
1002
{
1000
BEHIND
1070
     0
1002
}
1002
{
1000
OTHER
1070
     0
1002
}
1002
{
1000
REACTOR
1002
}
  0
LINE
  5
4327
330
44FB
100
AcDbEntity
  8
247
  6
Continuous
100
AcDbLine
 10
6.599999999915985
 20
-11.68398188706334
 30
0.0
 11
4.499999999999977
 21
-11.08181657699396
 31
0.0
  0
LINE
  5
4328
330
44FB
100
AcDbEntity
  8
247
  6
Continuous
100
AcDbLine
 10
4.499999999999977
 20
-9.585662730907927
 30
0.0
 11
4.499999999999977
 21
-9.98167836430355
 31
0.0
  0
LINE
  5
4329
330
44FB
100
AcDbEntity
  8
247
  6
Continuous
100
AcDbLine
 10
6.599999999915985
 20
-10.60873965394393
 30
0.0
 11
6.599999999915985
 21
-10.17797042319193
 31
0.0
  0
ARC
  5
432A
330
44FB
100
AcDbEntity
  8
247
  6
Continuous
100
AcDbCircle
 10
5.958299595083336
 20
-9.381816577069912
 30
0.0
 40
1.576855057639547
100
AcDbArc
 50
202.3594881415294
 51
254.9932485428469
  0
ARC
  5
432B
330
44FB
100
AcDbEntity
  8
247
  6
Continuous
100
AcDbCircle
 10
5.065818858538112
 20
-9.847511366133176
 30
0.0
 40
0.6234706797009447
100
AcDbArc
 50
94.99458931907532
 51
155.1663289573041
1001
GENIUS_GENOBJ-N-FIL_13
1002
{
1000
OWNER
1000
GEN
1002
}
1001
GENIUS_GENODEF_13
1002
{
1000
HIER
1070
     0
1002
}
1002
{
1000
MANEDIT
1070
     0
1002
}
1002
{
1000
NOSEL
1070
     0
1002
}
1002
{
1000
BEHIND
1070
     0
1002
}
1002
{
1000
OTHER
1070
     0
1002
}
1002
{
1000
REACTOR
1002
}
  0
ARC
  5
432C
330
44FB
100
AcDbEntity
  8
247
  6
Continuous
100
AcDbCircle
 10
5.662102121969415
 20
-10.44418395103275
 30
0.0
 40
0.9749472149106982
100
AcDbArc
 50
15.84609655578068
 51
82.32513700416929
  0
ARC
  5
432D
330
44FB
100
AcDbEntity
  8
247
  6
Continuous
100
AcDbCircle
 10
5.871470401971042
 20
-10.03521163877218
 30
0.0
 40
0.9271945638692008
100
AcDbArc
 50
249.7136016704969
 51
321.7887456564109
1001
GENIUS_GENOBJ-N-FIL_13
1002
{
1000
OWNER
1000
GEN
1002
}
1001
GENIUS_GENODEF_13
1002
{
1000
HIER
1070
     0
1002
}
1002
{
1000
MANEDIT
1070
     0
1002
}
1002
{
1000
NOSEL
1070
     0
1002
}
1002
{
1000
BEHIND
1070
     0
1002
}
1002
{
1000
OTHER
1070
     0
1002
}
1002
{
1000
REACTOR
1002
}
  0
LINE
  5
432E
330
44FB
100
AcDbEntity
  8
247
  6
Continuous
100
AcDbLine
 10
5.792307692255953
 20
-9.962585807815913
 30
0.0
 11
5.792307692255953
 21
-9.47797042321997
 31
0.0
  0
ARC
  5
432F
330
44FB
100
AcDbEntity
  8
247
  6
Continuous
100
AcDbCircle
 10
5.749999999999977
 20
-13.75
 30
0.0
 40
1.25
100
AcDbArc
 50
180.0
 51
0.0
  0
LINE
  5
4330
330
44FB
100
AcDbEntity
  8
247
  6
Continuous
100
AcDbLine
 10
4.499999999999977
 20
-13.75
 30
0.0
 11
4.499999999999977
 21
-13.30384615391398
 31
0.0
  0
ARC
  5
4331
330
44FB
100
AcDbEntity
  8
247
  6
Continuous
100
AcDbCircle
 10
5.749999999999977
 20
-9.115384615669997
 30
0.0
 40
1.25
100
AcDbArc
 50
0.0
 51
180.0
  0
LINE
  5
4332
330
44FB
100
AcDbEntity
  8
250
  6
Continuous
100
AcDbLine
 10
-29.19264599999999
 20
-20.99326654099332
 30
0.0
 11
-41.78248808867921
 21
-20.99326654099332
 31
0.0
1001
ITEMNAME
1000
LNSP2
  0
TEXT
  5
4333
330
44FB
100
AcDbEntity
  8
250
  6
Continuous
100
AcDbText
 10
-40.34417769619468
 20
-19.99326654099332
 30
0.0
 40
2.799999999999998
  1
BT30
  7
YOKO
100
AcDbText
1001
ITEMNAME
1000
LNSP3
1001
ACAD
1000
MTEXTBEGIN
1070
    73
1070
     1
1070
    44
1040
1.0
1070
    74
1070
     0
1000
MTEXTEND
1000
MTEXTBEGIN
1070
    73
1070
     1
1070
    44
1040
1.0
1070
    74
1070
     0
1000
MTEXTEND
1000
MTEXTBEGIN
1070
    73
1070
     1
1070
    44
1040
1.0
1070
    74
1070
     0
1000
MTEXTEND
1000
MTEXTBEGIN
1070
    73
1070
     1
1070
    44
1040
1.0
1070
    74
1070
     0
1000
MTEXTEND
  0
LINE
  5
4334
330
44FB
100
AcDbEntity
  8
250
  6
Continuous
100
AcDbLine
 10
-25.31499999963307
 20
-14.2769866516445
 30
0.0
 11
-29.19264599999999
 21
-20.99326654099332
 31
0.0
1001
ACAD
1000
DSTYLE
1002
{
1070
     6
1000
OPEN
1070
   343
1005
0
1002
}
  0
LINE
  5
4335
330
44FB
100
AcDbEntity
  8
250
  6
Continuous
100
AcDbLine
 10
-25.63687277474158
 20
-14.09115331837233
 30
0.0
 11
-24.20000000000002
 21
-12.34575000099335
 31
0.0
  0
LINE
  5
4336
330
44FB
100
AcDbEntity
  8
250
  6
Continuous
100
AcDbLine
 10
-24.99312722452455
 20
-14.46281998491668
 30
0.0
 11
-24.20000000000002
 21
-12.34575000099335
 31
0.0
  0
LINE
  5
4337
330
44FB
100
AcDbEntity
  8
250
  6
Continuous
100
AcDbLine
 10
-24.20000000000002
 20
-12.34575000099335
 30
0.0
 11
-25.31499999963307
 21
-14.2769866516445
 31
0.0
  0
LINE
  5
4338
330
44FB
100
AcDbEntity
  8
241
  6
Continuous
100
AcDbLine
 10
0.4999999999999787
 20
-15.94791838840922
 30
0.0
 11
0.4999999999999787
 21
15.94791838840922
 31
0.0
  0
LINE
  5
4339
330
44FB
100
AcDbEntity
  8
240
  6
Continuous
100
AcDbLine
 10
1.999999999999977
 20
23.0
 30
0.0
 11
1.999999999999977
 21
15.94791838840922
 31
0.0
  0
LINE
  5
433A
330
44FB
100
AcDbEntity
  8
240
  6
Continuous
100
AcDbLine
 10
1.999999999999977
 20
-23.0
 30
0.0
 11
1.999999999999977
 21
-15.94685894488896
 31
0.0
  0
LINE
  5
433B
330
44FB
100
AcDbEntity
  8
245
  6
CENTER2
100
AcDbLine
 10
0.0
 20
-16.875
 30
0.0
 11
0.0
 21
16.875
 31
0.0
  0
LINE
  5
433C
330
44FB
100
AcDbEntity
  8
240
  6
Continuous
100
AcDbLine
 10
21.99999999999997
 20
17.00000000000001
 30
0.0
 11
21.99999999999997
 21
23.0
 31
0.0
  0
VIEWPORT
  5
22
330
44F9
100
AcDbEntity
 67
     1
  8
0
100
AcDbViewport
 10
261.5176991150442
 20
148.5
 30
0.0
 40
523.0353982300885
 41
297.0
 68
     1
 69
    -1
 12
261.5176991150442
 22
148.5
 13
0.0
 23
0.0
 14
1.0
 24
1.0
 15
10.0
 25
10.0
 16
0.0
 26
0.0
 36
1.0
 17
0.0
 27
0.0
 37
0.0
 42
50.0
 43
0.0
 44
0.0
 45
297.0
 50
0.0
 51
0.0
 72
   100
 90
   557216
  1

281
     0
 71
     0
 74
     0
110
0.0
120
0.0
130
0.0
111
1.0
121
0.0
131
0.0
112
0.0
122
1.0
132
0.0
 79
     0
146
0.0
170
     0
 61
     5
292
     1
282
     1
141
0.0
142
0.0
 63
   256
1001
GENIUS_GENODEF_13
1002
{
1000
HIER
1070
     0
1002
}
1002
{
1000
MANEDIT
1070
     0
1002
}
1002
{
1000
NOSEL
1070
     0
1002
}
1002
{
1000
BEHIND
1070
     0
1002
}
1002
{
1000
OTHER
1070
     0
1002
}
1002
{
1000
REACTOR
1002
}
1001
GENIUS_GENOBJ-N-SDF_13
1002
{
1000
OWNER
1000
GEN
1002
}
1001
GENIUS_GENSCREG_15
1000
PF
1040
1.0
1000
DF
1040
1.0
1000
MIN
1011
0.0
1021
0.0
1031
0.0
1000
MAX
1011
523.0353982300885
1021
297.0
1031
0.0
1000
FLAGS
1070
     4
  0
ENDSEC
  0
SECTION
  2
OBJECTS
  0
DICTIONARY
  5
44EB
330
0
100
AcDbDictionary
281
     1
  3
ACAD_GROUP
350
44EC
  3
ACAD_IMAGE_VARS
350
E064
  3
ACAD_LAYOUT
350
44F8
  3
ACAD_MLEADERSTYLE
350
E06B
  3
ACAD_MLINESTYLE
350
44F5
  3
ACAD_PLOTSETTINGS
350
44F7
  3
ACAD_PLOTSTYLENAME
350
44ED
  3
ACAD_SCALELIST
350
E03F
  3
ACAD_TABLESTYLE
350
E061
  3
ACDB_RECOMPOSE_DATA
350
E069
  3
AcDbVariableDictionary
350
E065
  3
APPDATA
350
E063
  0
DICTIONARY
  5
44EC
102
{ACAD_REACTORS
330
44EB
102
}
330
44EB
100
AcDbDictionary
281
     1
  0
RASTERVARIABLES
  5
E064
102
{ACAD_REACTORS
330
44EB
102
}
330
44EB
100
AcDbRasterVariables
 90
        0
 70
     1
 71
     1
 72
     0
  0
DICTIONARY
  5
44F8
102
{ACAD_REACTORS
330
44EB
102
}
330
44EB
100
AcDbDictionary
281
     1
  3
Model
350
44FC
  3
Sheet1
350
44FA
  0
DICTIONARY
  5
E06B
102
{ACAD_REACTORS
330
44EB
102
}
330
44EB
100
AcDbDictionary
281
     1
  0
DICTIONARY
  5
44F5
102
{ACAD_REACTORS
330
44EB
102
}
330
44EB
100
AcDbDictionary
281
     1
  3
Standard
350
44F6
  0
DICTIONARY
  5
44F7
102
{ACAD_REACTORS
330
44EB
102
}
330
44EB
100
AcDbDictionary
281
     1
  0
ACDBDICTIONARYWDFLT
  5
44ED
102
{ACAD_REACTORS
330
44EB
102
}
330
44EB
100
AcDbDictionary
281
     1
  3
Normal
350
44EE
100
AcDbDictionaryWithDefault
340
44EE
  0
DICTIONARY
  5
E03F
102
{ACAD_REACTORS
330
44EB
102
}
330
44EB
100
AcDbDictionary
281
     1
  3
A0
350
E040
  3
A1
350
E041
  3
A2
350
E042
  3
A3
350
E043
  3
A4
350
E044
  3
A5
350
E045
  3
A6
350
E046
  3
A7
350
E047
  3
A8
350
E048
  3
A9
350
E049
  3
B0
350
E04A
  3
B1
350
E04B
  3
B2
350
E04C
  3
B3
350
E04D
  3
B4
350
E04E
  3
B5
350
E04F
  3
B6
350
E050
  3
B7
350
E051
  3
B8
350
E052
  3
B9
350
E053
  3
C0
350
E054
  3
C1
350
E055
  3
C2
350
E056
  3
C3
350
E057
  3
C4
350
E058
  3
C5
350
E059
  3
C6
350
E05A
  3
C7
350
E05B
  3
C8
350
E05C
  3
C9
350
E05D
  3
D0
350
E05E
  3
D1
350
E05F
  3
D2
350
E060
  0
DICTIONARY
  5
E061
102
{ACAD_REACTORS
330
44EB
102
}
330
44EB
100
AcDbDictionary
281
     1
  3
Standard
350
E062
  0
XRECORD
  5
E069
102
{ACAD_REACTORS
330
44EB
102
}
330
44EB
100
AcDbXrecord
280
     1
 90
        1
330
E062
  0
DICTIONARY
  5
E065
102
{ACAD_REACTORS
330
44EB
102
}
330
44EB
100
AcDbDictionary
281
     1
  3
CANNOSCALE
350
E066
  3
CTABLESTYLE
350
E06A
  0
DICTIONARY
  5
E063
102
{ACAD_REACTORS
330
44EB
102
}
330
44EB
100
AcDbDictionary
281
     1
  0
LAYOUT
  5
44FC
102
{ACAD_REACTORS
330
44F8
102
}
330
44F8
100
AcDbPlotSettings
  1

  2
none_device
  4

  6

 40
0.0
 41
0.0
 42
0.0
 43
0.0
 44
0.0
 45
0.0
 46
0.0
 47
0.0
 48
0.0
 49
0.0
140
0.0
141
0.0
142
1.0
143
1.0
 70
  1712
 72
     0
 73
     0
 74
     0
  7

 75
     0
 76
     0
 77
     2
 78
   300
147
1.0
148
0.0
149
0.0
100
AcDbLayout
  1
Model
 70
     1
 71
     0
 10
0.0
 20
0.0
 11
12.0
 21
9.0
 12
0.0
 22
0.0
 32
0.0
 14
-49.40000000000001
 24
-23.0
 34
0.0
 15
97.96926261000002
 25
54.0
 35
0.0
146
0.0
 13
0.0
 23
0.0
 33
0.0
 16
1.0
 26
0.0
 36
0.0
 17
0.0
 27
1.0
 37
0.0
 76
     0
330
44FB
331
44FE
  0
LAYOUT
  5
44FA
102
{ACAD_REACTORS
330
44F8
102
}
330
44F8
100
AcDbPlotSettings
  1

  2
none_device
  4

  6

 40
0.0
 41
0.0
 42
0.0
 43
0.0
 44
0.0
 45
0.0
 46
0.0
 47
0.0
 48
0.0
 49
0.0
140
0.0
141
0.0
142
1.0
143
1.0
 70
   688
 72
     0
 73
     0
 74
     5
  7

 75
    16
 76
     0
 77
     2
 78
   300
147
1.0
148
0.0
149
0.0
100
AcDbLayout
  1
Sheet1
 70
     1
 71
     1
 10
0.0
 20
0.0
 11
420.0
 21
297.0
 12
0.0
 22
0.0
 32
0.0
 14
1.000000000000000E+20
 24
1.000000000000000E+20
 34
1.000000000000000E+20
 15
-1.000000000000000E+20
 25
-1.000000000000000E+20
 35
-1.000000000000000E+20
146
0.0
 13
0.0
 23
0.0
 33
0.0
 16
1.0
 26
0.0
 36
0.0
 17
0.0
 27
1.0
 37
0.0
 76
     0
330
44F9
331
22
  0
MLINESTYLE
  5
44F6
102
{ACAD_REACTORS
330
44F5
102
}
330
44F5
100
AcDbMlineStyle
  2
Standard
 70
     0
  3

 62
   256
 51
90.0
 52
90.0
 71
     2
 49
0.5
 62
   256
  6
BYLAYER
 49
-0.5
 62
   256
  6
BYLAYER
  0
ACDBPLACEHOLDER
  5
44EE
102
{ACAD_REACTORS
330
44ED
102
}
330
44ED
  0
SCALE
  5
E040
102
{ACAD_REACTORS
330
E03F
102
}
330
E03F
100
AcDbScale
 70
     0
300
1:1
140
1.0
141
1.0
290
     1
  0
SCALE
  5
E041
102
{ACAD_REACTORS
330
E03F
102
}
330
E03F
100
AcDbScale
 70
     0
300
1:2
140
1.0
141
2.0
290
     0
  0
SCALE
  5
E042
102
{ACAD_REACTORS
330
E03F
102
}
330
E03F
100
AcDbScale
 70
     0
300
1:4
140
1.0
141
4.0
290
     0
  0
SCALE
  5
E043
102
{ACAD_REACTORS
330
E03F
102
}
330
E03F
100
AcDbScale
 70
     0
300
1:5
140
1.0
141
5.0
290
     0
  0
SCALE
  5
E044
102
{ACAD_REACTORS
330
E03F
102
}
330
E03F
100
AcDbScale
 70
     0
300
1:8
140
1.0
141
8.0
290
     0
  0
SCALE
  5
E045
102
{ACAD_REACTORS
330
E03F
102
}
330
E03F
100
AcDbScale
 70
     0
300
1:10
140
1.0
141
10.0
290
     0
  0
SCALE
  5
E046
102
{ACAD_REACTORS
330
E03F
102
}
330
E03F
100
AcDbScale
 70
     0
300
1:16
140
1.0
141
16.0
290
     0
  0
SCALE
  5
E047
102
{ACAD_REACTORS
330
E03F
102
}
330
E03F
100
AcDbScale
 70
     0
300
1:20
140
1.0
141
20.0
290
     0
  0
SCALE
  5
E048
102
{ACAD_REACTORS
330
E03F
102
}
330
E03F
100
AcDbScale
 70
     0
300
1:30
140
1.0
141
30.0
290
     0
  0
SCALE
  5
E049
102
{ACAD_REACTORS
330
E03F
102
}
330
E03F
100
AcDbScale
 70
     0
300
1:40
140
1.0
141
40.0
290
     0
  0
SCALE
  5
E04A
102
{ACAD_REACTORS
330
E03F
102
}
330
E03F
100
AcDbScale
 70
     0
300
1:50
140
1.0
141
50.0
290
     0
  0
SCALE
  5
E04B
102
{ACAD_REACTORS
330
E03F
102
}
330
E03F
100
AcDbScale
 70
     0
300
1:100
140
1.0
141
100.0
290
     0
  0
SCALE
  5
E04C
102
{ACAD_REACTORS
330
E03F
102
}
330
E03F
100
AcDbScale
 70
     0
300
2:1
140
2.0
141
1.0
290
     0
  0
SCALE
  5
E04D
102
{ACAD_REACTORS
330
E03F
102
}
330
E03F
100
AcDbScale
 70
     0
300
4:1
140
4.0
141
1.0
290
     0
  0
SCALE
  5
E04E
102
{ACAD_REACTORS
330
E03F
102
}
330
E03F
100
AcDbScale
 70
     0
300
8:1
140
8.0
141
1.0
290
     0
  0
SCALE
  5
E04F
102
{ACAD_REACTORS
330
E03F
102
}
330
E03F
100
AcDbScale
 70
     0
300
10:1
140
10.0
141
1.0
290
     0
  0
SCALE
  5
E050
102
{ACAD_REACTORS
330
E03F
102
}
330
E03F
100
AcDbScale
 70
     0
300
100:1
140
100.0
141
1.0
290
     0
  0
SCALE
  5
E051
102
{ACAD_REACTORS
330
E03F
102
}
330
E03F
100
AcDbScale
 70
     0
300
1/128" = 1'-0"
140
0.0078125
141
12.0
290
     0
  0
SCALE
  5
E052
102
{ACAD_REACTORS
330
E03F
102
}
330
E03F
100
AcDbScale
 70
     0
300
1/64" = 1'-0"
140
0.015625
141
12.0
290
     0
  0
SCALE
  5
E053
102
{ACAD_REACTORS
330
E03F
102
}
330
E03F
100
AcDbScale
 70
     0
300
1/32" = 1'-0"
140
0.03125
141
12.0
290
     0
  0
SCALE
  5
E054
102
{ACAD_REACTORS
330
E03F
102
}
330
E03F
100
AcDbScale
 70
     0
300
1/16" = 1'-0"
140
0.0625
141
12.0
290
     0
  0
SCALE
  5
E055
102
{ACAD_REACTORS
330
E03F
102
}
330
E03F
100
AcDbScale
 70
     0
300
3/32" = 1'-0"
140
0.09375
141
12.0
290
     0
  0
SCALE
  5
E056
102
{ACAD_REACTORS
330
E03F
102
}
330
E03F
100
AcDbScale
 70
     0
300
1/8" = 1'-0"
140
0.125
141
12.0
290
     0
  0
SCALE
  5
E057
102
{ACAD_REACTORS
330
E03F
102
}
330
E03F
100
AcDbScale
 70
     0
300
3/16" = 1'-0"
140
0.1875
141
12.0
290
     0
  0
SCALE
  5
E058
102
{ACAD_REACTORS
330
E03F
102
}
330
E03F
100
AcDbScale
 70
     0
300
1/4" = 1'-0"
140
0.25
141
12.0
290
     0
  0
SCALE
  5
E059
102
{ACAD_REACTORS
330
E03F
102
}
330
E03F
100
AcDbScale
 70
     0
300
3/8" = 1'-0"
140
0.375
141
12.0
290
     0
  0
SCALE
  5
E05A
102
{ACAD_REACTORS
330
E03F
102
}
330
E03F
100
AcDbScale
 70
     0
300
1/2" = 1'-0"
140
0.5
141
12.0
290
     0
  0
SCALE
  5
E05B
102
{ACAD_REACTORS
330
E03F
102
}
330
E03F
100
AcDbScale
 70
     0
300
3/4" = 1'-0"
140
0.75
141
12.0
290
     0
  0
SCALE
  5
E05C
102
{ACAD_REACTORS
330
E03F
102
}
330
E03F
100
AcDbScale
 70
     0
300
1" = 1'-0"
140
1.0
141
12.0
290
     0
  0
SCALE
  5
E05D
102
{ACAD_REACTORS
330
E03F
102
}
330
E03F
100
AcDbScale
 70
     0
300
1-1/2" = 1'-0"
140
1.5
141
12.0
290
     0
  0
SCALE
  5
E05E
102
{ACAD_REACTORS
330
E03F
102
}
330
E03F
100
AcDbScale
 70
     0
300
3" = 1'-0"
140
3.0
141
12.0
290
     0
  0
SCALE
  5
E05F
102
{ACAD_REACTORS
330
E03F
102
}
330
E03F
100
AcDbScale
 70
     0
300
6" = 1'-0"
140
6.0
141
12.0
290
     0
  0
SCALE
  5
E060
102
{ACAD_REACTORS
330
E03F
102
}
330
E03F
100
AcDbScale
 70
     0
300
1'-0" = 1'-0"
140
12.0
141
12.0
290
     0
  0
TABLESTYLE
  5
E062
102
{ACAD_REACTORS
330
E061
102
}
102
{ACAD_XDICTIONARY
360
E067
102
}
330
E061
100
AcDbTableStyle
  3
Standard
 70
     0
 71
     0
 40
0.06
 41
0.06
280
     0
281
     0
  7
STANDARD
140
0.18
170
     2
 62
     0
 63
   257
283
     0
 90
        4
 91
        0
  1

274
    -2
284
     1
 64
     0
275
    -2
285
     1
 65
     0
276
    -2
286
     1
 66
     0
277
    -2
287
     1
 67
     0
278
    -2
288
     1
 68
     0
279
    -2
289
     1
 69
     0
  7
STANDARD
140
0.25
170
     5
 62
     0
 63
   257
283
     0
 90
        4
 91
        0
  1

274
    -2
284
     1
 64
     0
275
    -2
285
     1
 65
     0
276
    -2
286
     1
 66
     0
277
    -2
287
     1
 67
     0
278
    -2
288
     1
 68
     0
279
    -2
289
     1
 69
     0
  7
STANDARD
140
0.18
170
     5
 62
     0
 63
   257
283
     0
 90
        4
 91
        0
  1

274
    -2
284
     1
 64
     0
275
    -2
285
     1
 65
     0
276
    -2
286
     1
 66
     0
277
    -2
287
     1
 67
     0
278
    -2
288
     1
 68
     0
279
    -2
289
     1
 69
     0
  0
DICTIONARYVAR
  5
E066
102
{ACAD_REACTORS
330
E065
102
}
330
E065
100
DictionaryVariables
280
     0
  1
1:1
  0
DICTIONARYVAR
  5
E06A
102
{ACAD_REACTORS
330
E065
102
}
330
E065
100
DictionaryVariables
280
     0
  1
Standard
  0
DICTIONARY
  5
E067
330
E062
100
AcDbDictionary
280
     1
281
     1
  3
ACAD_ROUNDTRIP_2008_TABLESTYLE_CELLSTYLEMAP
360
E068
  0
CELLSTYLEMAP
  5
E068
102
{ACAD_REACTORS
330
E067
102
}
330
E067
100
AcDbCellStyleMap
 90
        3
300
CELLSTYLE
  1
TABLEFORMAT_BEGIN
 90
        5
170
     1
 91
        0
 92
        0
 62
   257
 93
        1
300
CONTENTFORMAT
  1
CONTENTFORMAT_BEGIN
 90
        0
 91
        0
 92
        4
 93
        0
300

 40
0.0
140
1.0
 94
        5
 62
     0
340
44F0
144
0.25
309
CONTENTFORMAT_END
171
     1
301
MARGIN
  1
CELLMARGIN_BEGIN
 40
0.06
 40
0.06
 40
0.06
 40
0.06
 40
0.06
 40
0.06
309
CELLMARGIN_END
 94
        6
 95
        1
302
GRIDFORMAT
  1
GRIDFORMAT_BEGIN
 90
        0
 91
        1
 62
     0
 92
       -2
340
44F2
 93
        0
 40
0.045
309
GRIDFORMAT_END
 95
        2
302
GRIDFORMAT
  1
GRIDFORMAT_BEGIN
 90
        0
 91
        1
 62
     0
 92
       -2
340
44F2
 93
        0
 40
0.045
309
GRIDFORMAT_END
 95
        4
302
GRIDFORMAT
  1
GRIDFORMAT_BEGIN
 90
        0
 91
        1
 62
     0
 92
       -2
340
44F2
 93
        0
 40
0.045
309
GRIDFORMAT_END
 95
        8
302
GRIDFORMAT
  1
GRIDFORMAT_BEGIN
 90
        0
 91
        1
 62
     0
 92
       -2
340
44F2
 93
        0
 40
0.045
309
GRIDFORMAT_END
 95
       16
302
GRIDFORMAT
  1
GRIDFORMAT_BEGIN
 90
        0
 91
        1
 62
     0
 92
       -2
340
44F2
 93
        0
 40
0.045
309
GRIDFORMAT_END
 95
       32
302
GRIDFORMAT
  1
GRIDFORMAT_BEGIN
 90
        0
 91
        1
 62
     0
 92
       -2
340
44F2
 93
        0
 40
0.045
309
GRIDFORMAT_END
309
TABLEFORMAT_END
  1
CELLSTYLE_BEGIN
 90
        1
 91
        1
300
_TITLE
309
CELLSTYLE_END
300
CELLSTYLE
  1
TABLEFORMAT_BEGIN
 90
        5
170
     1
 91
        0
 92
        0
 62
   257
 93
        1
300
CONTENTFORMAT
  1
CONTENTFORMAT_BEGIN
 90
        0
 91
        0
 92
        4
 93
        0
300

 40
0.0
140
1.0
 94
        5
 62
     0
340
44F0
144
0.18
309
CONTENTFORMAT_END
171
     1
301
MARGIN
  1
CELLMARGIN_BEGIN
 40
0.06
 40
0.06
 40
0.06
 40
0.06
 40
0.06
 40
0.06
309
CELLMARGIN_END
 94
        6
 95
        1
302
GRIDFORMAT
  1
GRIDFORMAT_BEGIN
 90
        0
 91
        1
 62
     0
 92
       -2
340
44F2
 93
        0
 40
0.045
309
GRIDFORMAT_END
 95
        2
302
GRIDFORMAT
  1
GRIDFORMAT_BEGIN
 90
        0
 91
        1
 62
     0
 92
       -2
340
44F2
 93
        0
 40
0.045
309
GRIDFORMAT_END
 95
        4
302
GRIDFORMAT
  1
GRIDFORMAT_BEGIN
 90
        0
 91
        1
 62
     0
 92
       -2
340
44F2
 93
        0
 40
0.045
309
GRIDFORMAT_END
 95
        8
302
GRIDFORMAT
  1
GRIDFORMAT_BEGIN
 90
        0
 91
        1
 62
     0
 92
       -2
340
44F2
 93
        0
 40
0.045
309
GRIDFORMAT_END
 95
       16
302
GRIDFORMAT
  1
GRIDFORMAT_BEGIN
 90
        0
 91
        1
 62
     0
 92
       -2
340
44F2
 93
        0
 40
0.045
309
GRIDFORMAT_END
 95
       32
302
GRIDFORMAT
  1
GRIDFORMAT_BEGIN
 90
        0
 91
        1
 62
     0
 92
       -2
340
44F2
 93
        0
 40
0.045
309
GRIDFORMAT_END
309
TABLEFORMAT_END
  1
CELLSTYLE_BEGIN
 90
        2
 91
        1
300
_HEADER
309
CELLSTYLE_END
300
CELLSTYLE
  1
TABLEFORMAT_BEGIN
 90
        5
170
     1
 91
        0
 92
        0
 62
   257
 93
        1
300
CONTENTFORMAT
  1
CONTENTFORMAT_BEGIN
 90
        0
 91
        0
 92
        4
 93
        0
300

 40
0.0
140
1.0
 94
        2
 62
     0
340
44F0
144
0.18
309
CONTENTFORMAT_END
171
     1
301
MARGIN
  1
CELLMARGIN_BEGIN
 40
0.06
 40
0.06
 40
0.06
 40
0.06
 40
0.06
 40
0.06
309
CELLMARGIN_END
 94
        6
 95
        1
302
GRIDFORMAT
  1
GRIDFORMAT_BEGIN
 90
        0
 91
        1
 62
     0
 92
       -2
340
44F2
 93
        0
 40
0.045
309
GRIDFORMAT_END
 95
        2
302
GRIDFORMAT
  1
GRIDFORMAT_BEGIN
 90
        0
 91
        1
 62
     0
 92
       -2
340
44F2
 93
        0
 40
0.045
309
GRIDFORMAT_END
 95
        4
302
GRIDFORMAT
  1
GRIDFORMAT_BEGIN
 90
        0
 91
        1
 62
     0
 92
       -2
340
44F2
 93
        0
 40
0.045
309
GRIDFORMAT_END
 95
        8
302
GRIDFORMAT
  1
GRIDFORMAT_BEGIN
 90
        0
 91
        1
 62
     0
 92
       -2
340
44F2
 93
        0
 40
0.045
309
GRIDFORMAT_END
 95
       16
302
GRIDFORMAT
  1
GRIDFORMAT_BEGIN
 90
        0
 91
        1
 62
     0
 92
       -2
340
44F2
 93
        0
 40
0.045
309
GRIDFORMAT_END
 95
       32
302
GRIDFORMAT
  1
GRIDFORMAT_BEGIN
 90
        0
 91
        1
 62
     0
 92
       -2
340
44F2
 93
        0
 40
0.045
309
GRIDFORMAT_END
309
TABLEFORMAT_END
  1
CELLSTYLE_BEGIN
 90
        3
 91
        2
300
_DATA
309
CELLSTYLE_END
  0
ENDSEC
  0
EOF
