  0
SECTION
  2
HEADER
  9
$ACADVER
  1
AC1009
  9
$INSBASE
 10
0.0
 20
0.0
 30
0.0
  9
$EXTMIN
 10
-102.5999999999999943
 20
-49.2124999999999986
 30
0.0
  9
$EXTMAX
 10
136.2867170876045861
 20
82.0000000000000142
 30
0.0
  9
$LIMMIN
 10
0.0
 20
0.0
  9
$LIMMAX
 10
297.0
 20
210.0
  9
$ORTHOMODE
 70
     1
  9
$REGENMODE
 70
     1
  9
$FILLMODE
 70
     1
  9
$QTEXTMODE
 70
     0
  9
$MIRRTEXT
 70
     1
  9
$DRAGMODE
 70
     2
  9
$LTSCALE
 40
10.0
  9
$OSMODE
 70
   807
  9
$ATTMODE
 70
     1
  9
$TEXTSIZE
 40
3.0
  9
$TRACEWID
 40
1.0
  9
$TEXTSTYLE
  7
YOKO
  9
$CLAYER
  8
240
  9
$CELTYPE
  6
BYLAYER
  9
$CECOLOR
 62
   256
  9
$DIMSCALE
 40
1.0
  9
$DIMASZ
 40
2.0
  9
$DIMEXO
 40
0.5
  9
$DIMDLI
 40
2.5
  9
$DIMRND
 40
0.0
  9
$DIMDLE
 40
0.0
  9
$DIMEXE
 40
1.0
  9
$DIMTP
 40
0.0
  9
$DIMTM
 40
0.0
  9
$DIMTXT
 40
2.799999999999998
  9
$DIMCEN
 40
0.0
  9
$DIMTSZ
 40
0.0
  9
$DIMTOL
 70
     0
  9
$DIMLIM
 70
     0
  9
$DIMTIH
 70
     0
  9
$DIMTOH
 70
     0
  9
$DIMSE1
 70
     0
  9
$DIMSE2
 70
     0
  9
$DIMTAD
 70
     3
  9
$DIMZIN
 70
     8
  9
$DIMBLK
  1

  9
$DIMASO
 70
     1
  9
$DIMSHO
 70
     1
  9
$DIMPOST
  1

  9
$DIMAPOST
  1

  9
$DIMALT
 70
     0
  9
$DIMALTD
 70
     2
  9
$DIMALTF
 40
25.3999999999999986
  9
$DIMLFAC
 40
1.0
  9
$DIMTOFL
 70
     1
  9
$DIMTVP
 40
0.0
  9
$DIMTIX
 70
     1
  9
$DIMSOXD
 70
     0
  9
$DIMSAH
 70
     1
  9
$DIMBLK1
  1
OPEN
  9
$DIMBLK2
  1
OPEN
  9
$DIMSTYLE
  2
BIGT
  9
$DIMCLRD
 70
     3
  9
$DIMCLRE
 70
     3
  9
$DIMCLRT
 70
    40
  9
$DIMTFAC
 40
1.0
  9
$DIMGAP
 40
1.0
  9
$LUNITS
 70
     2
  9
$LUPREC
 70
     2
  9
$SKETCHINC
 40
1.0
  9
$FILLETRAD
 40
1.0
  9
$AUNITS
 70
     0
  9
$AUPREC
 70
     3
  9
$MENU
  1
.
  9
$ELEVATION
 40
0.0
  9
$PELEVATION
 40
0.0
  9
$THICKNESS
 40
0.0
  9
$LIMCHECK
 70
     0
  9
$BLIPMODE
 70
     0
  9
$CHAMFERA
 40
10.0
  9
$CHAMFERB
 40
10.0
  9
$SKPOLY
 70
     0
  9
$TDCREATE
 40
2457760.3718171301297843
  9
$TDUPDATE
 40
2458172.6345138889737427
  9
$TDINDWG
 40
0.0563962616
  9
$TDUSRTIMER
 40
0.0563959838
  9
$USRTIMER
 70
     1
  9
$ANGBASE
 50
0.0
  9
$ANGDIR
 70
     0
  9
$PDMODE
 70
     0
  9
$PDSIZE
 40
-5.0
  9
$PLINEWID
 40
0.0
  9
$COORDS
 70
     1
  9
$SPLFRAME
 70
     0
  9
$SPLINETYPE
 70
     6
  9
$SPLINESEGS
 70
     8
  9
$ATTDIA
 70
     1
  9
$ATTREQ
 70
     1
  9
$HANDLING
 70
     1
  9
$HANDSEED
  5
1315
  9
$SURFTAB1
 70
     6
  9
$SURFTAB2
 70
     6
  9
$SURFTYPE
 70
     6
  9
$SURFU
 70
     6
  9
$SURFV
 70
     6
  9
$UCSNAME
  2

  9
$UCSORG
 10
0.0
 20
0.0
 30
0.0
  9
$UCSXDIR
 10
1.0
 20
0.0
 30
0.0
  9
$UCSYDIR
 10
0.0
 20
1.0
 30
0.0
  9
$PUCSNAME
  2

  9
$PUCSORG
 10
0.0
 20
0.0
 30
0.0
  9
$PUCSXDIR
 10
1.0
 20
0.0
 30
0.0
  9
$PUCSYDIR
 10
0.0
 20
1.0
 30
0.0
  9
$USERI1
 70
     1
  9
$USERI2
 70
     0
  9
$USERI3
 70
     0
  9
$USERI4
 70
     0
  9
$USERI5
 70
     0
  9
$USERR1
 40
0.0
  9
$USERR2
 40
0.0
  9
$USERR3
 40
0.0
  9
$USERR4
 40
0.0
  9
$USERR5
 40
0.0
  9
$WORLDVIEW
 70
     1
  9
$SHADEDGE
 70
     3
  9
$SHADEDIF
 70
    70
  9
$TILEMODE
 70
     1
  9
$MAXACTVP
 70
    16
  9
$PLIMCHECK
 70
     0
  9
$PEXTMIN
 10
1.0000000000000000E+20
 20
1.0000000000000000E+20
 30
1.0000000000000000E+20
  9
$PEXTMAX
 10
-1.0000000000000000E+20
 20
-1.0000000000000000E+20
 30
-1.0000000000000000E+20
  9
$PLIMMIN
 10
0.0
 20
0.0
  9
$PLIMMAX
 10
420.0
 20
297.0
  9
$UNITMODE
 70
     0
  9
$VISRETAIN
 70
     0
  9
$PLINEGEN
 70
     0
  9
$PSLTSCALE
 70
     1
  0
ENDSEC
  0
SECTION
  2
TABLES
  0
TABLE
  2
VPORT
 70
     1
  0
VPORT
  2
*ACTIVE
 70
     0
 10
0.0
 20
0.0
 11
1.0
 21
1.0
 12
25.3358091297199408
 22
16.3820930857343789
 13
0.0
 23
0.0
 14
7.0
 24
7.0
 15
7.0
 25
7.0
 16
0.0
 26
0.0
 36
1.0
 17
0.0
 27
0.0
 37
0.0
 40
206.0390632070640891
 41
2.0192076830732288
 42
50.0
 43
0.0
 44
0.0
 50
0.0
 51
0.0
 71
     0
 72
 20000
 73
     1
 74
     0
 75
     0
 76
     0
 77
     0
 78
     0
  0
ENDTAB
  0
TABLE
  2
LTYPE
 70
    16
  0
LTYPE
  2
CONTINUOUS
 70
     0
  3
Solid line
 72
    65
 73
     0
 40
0.0
  0
LTYPE
  2
CENTER2
 70
     0
  3
___ _ ___ _ ___ _ ___ _ ___ _ ___ _ ___ _ ___ _
 72
    65
 73
     4
 40
1.125
 49
0.75
 49
-0.125
 49
0.125
 49
-0.125
  0
LTYPE
  2
HIDDEN2
 70
     0
  3
_ _ _ _ _ _ _ _ _ _ _ _ _ _ _ _ _ _ _ _ _ _ _ _
 72
    65
 73
     2
 40
0.1875
 49
0.125
 49
-0.0625
  0
LTYPE
  2
AM_ISO02W050
 70
     0
  3
__ __ __ __ __ __ __ __ __ __ __ __ __ __ __
 72
    65
 73
     2
 40
7.5
 49
6.0
 49
-1.5
  0
LTYPE
  2
AM_ISO08W050
 70
     0
  3
____ . ____ . ____ . ____ . ____ . ____ . ____
 72
    65
 73
     4
 40
18.0
 49
12.0
 49
-1.5
 49
3.0
 49
-1.5
  0
LTYPE
  2
AM_ISO09W050
 70
     0
  3
_____ . . _____ . . _____ . . ____ .. ____
 72
    65
 73
     6
 40
22.5
 49
12.0
 49
-1.5
 49
3.0
 49
-1.5
 49
3.0
 49
-1.5
  0
LTYPE
  2
AMCONSTR
 70
     0
  3
_______________________
 72
    65
 73
     2
 40
9999.0
 49
9999.0
 49
0.0
  0
LTYPE
  2
AM_ISO08W050X2
 70
     0
  3
__ . __ . __ . __ . __ . __
 72
    65
 73
     4
 40
9.0
 49
6.0
 49
-0.75
 49
1.5
 49
-0.75
  0
LTYPE
  2
AM_ISO02W050X2
 70
     0
  3
 _ _ _ _ _ _ _ _ _ _ _ _
 72
    65
 73
     2
 40
3.75
 49
3.0
 49
-0.75
  0
LTYPE
  2
AMZIGZAG
 70
     0
  3
/\/-/\/-/\/-/\/-/\/-/\/
 72
    65
 73
     2
 40
11.0000999999999998
 49
0.0001
 49
-11.0
  0
LTYPE
  2
ACISOWELD
 70
     0
  3
_ _ _ _ _
 72
    65
 73
     2
 40
2.0
 49
2.0
 49
-1.0
  0
LTYPE
  2
ACISOTGL
 70
     0
  3
_ _ _ _ _
 72
    65
 73
     2
 40
3.0
 49
2.0
 49
-1.0
  0
LTYPE
  2
ACISOTGB
 70
     0
  3
__ . . __ . .
 72
    65
 73
     6
 40
9.0
 49
4.0
 49
-1.0
 49
1.0
 49
-1.0
 49
1.0
 49
-1.0
  0
ENDTAB
  0
TABLE
  2
LAYER
 70
    10
  0
LAYER
  2
0
 70
     0
 62
     7
  6
CONTINUOUS
  0
LAYER
  2
240
 70
     0
 62
     4
  6
CONTINUOUS
  0
LAYER
  2
241
 70
     0
 62
   211
  6
CONTINUOUS
  0
LAYER
  2
242
 70
     0
 62
     3
  6
CONTINUOUS
  0
LAYER
  2
243
 70
     0
 62
   211
  6
HIDDEN2
  0
LAYER
  2
245
 70
     0
 62
     2
  6
CENTER2
  0
LAYER
  2
247
 70
     0
 62
    60
  6
CONTINUOUS
  0
LAYER
  2
250
 70
     0
 62
     3
  6
CONTINUOUS
  0
LAYER
  2
251
 70
     0
 62
     3
  6
CONTINUOUS
  0
ENDTAB
  0
TABLE
  2
STYLE
 70
     5
  0
STYLE
  2
STANDARD
 70
     0
 40
0.0
 41
1.0
 50
0.0
 71
     0
 42
3.0
  3
romans.shx
  4
BIGFONT.SHX
  0
STYLE
  2
YOKO
 70
     0
 40
0.0
 41
1.0
 50
0.0
 71
     0
 42
3.0
  3
romans.shx
  4
extfont.shx
  0
STYLE
  2

 70
     1
 40
0.0
 41
1.0
 50
0.0
 71
     0
 42
3.0
  3
genltshp.shx
  4

  0
STYLE
  2
ACISOGDT
 70
     0
 40
0.0
 41
1.0
 50
0.0
 71
     0
 42
3.0
  3
amgdt.shx
  4

  0
ENDTAB
  0
TABLE
  2
VIEW
 70
     0
  0
ENDTAB
  0
TABLE
  2
UCS
 70
     0
  0
ENDTAB
  0
TABLE
  2
APPID
 70
    26
  0
APPID
  2
ACAD
 70
     0
  0
APPID
  2
GLOBAL
 70
     0
  0
APPID
  2
DETAIL
 70
     0
  0
APPID
  2
GRPNAME
 70
     0
  0
APPID
  2
GPARA
 70
     0
  0
APPID
  2
DCO15
 70
     0
  0
APPID
  2
ITEMNAME
 70
     0
  0
APPID
  2
GRADE_0
 70
     0
  0
APPID
  2
ACAD_DSTYLE_DIMJAG
 70
     0
  0
APPID
  2
ACAD_DSTYLE_DIMTALN
 70
     0
  0
APPID
  2
ACAD_NAV_VCDISPLAY
 70
     0
  0
APPID
  2
ACAD_MLEADERVER
 70
     0
  0
APPID
  2
ACAD_DSTYLE_DIMBREAK
 70
     0
  0
APPID
  2
GENIUS_GENODEF_13
 70
     0
  0
APPID
  2
GENIUS_GENOBJ-N-FIL_13
 70
     0
  0
APPID
  2
ACAD_PSEXT
 70
     0
  0
APPID
  2
ACAD_EXEMPT_FROM_CAD_STANDARDS
 70
     0
  0
APPID
  2
MCAD_NO_VIS
 70
     0
  0
APPID
  2
ACAD_TEMP_GRAPHIC
 70
     0
  0
APPID
  2
ACATTRIBSERVICES
 70
     0
  0
APPID
  2
DESIGNERASSEMBLIES
 70
     0
  0
APPID
  2
GENIUS_GENSCREG_15
 70
     0
  0
APPID
  2
GENIUS_GENOBJ-N-SDF_13
 70
     0
  0
APPID
  2
GENIUS_GENFIL_13
 70
     0
  0
APPID
  2
GENIUS_GENOBJ-N-CHA_13
 70
     0
  0
APPID
  2
ACAECLAYERSTANDARD
 70
     0
  0
ENDTAB
  0
TABLE
  2
DIMSTYLE
 70
     8
  0
DIMSTYLE
  2
BIGT
 70
     0
  3

  4

  5

  6
OPEN
  7
OPEN
 40
1.0
 41
2.0
 42
0.5
 43
2.5
 44
1.0
 45
0.0
 46
0.0
 47
0.0
 48
0.0
140
2.799999999999998
141
0.0
142
0.0
143
25.3999999999999986
144
1.0
145
0.0
146
1.0
147
1.0
 71
     0
 72
     0
 73
     0
 74
     0
 75
     0
 76
     0
 77
     3
 78
     8
170
     0
171
     2
172
     1
173
     1
174
     1
175
     0
176
     3
177
     3
178
    40
  0
DIMSTYLE
  2
AM_ISO
 70
     0
  3

  4
"
  5

  6

  7

 40
1.0
 41
3.5
 42
1.0
 43
10.0
 44
1.0
 45
0.0
 46
0.0
 47
0.1
 48
0.1
140
3.5
141
0.0
142
0.0
143
0.0393701
144
1.0
145
0.0
146
0.71
147
1.5
 71
     0
 72
     0
 73
     0
 74
     0
 75
     0
 76
     0
 77
     1
 78
     8
170
     0
171
     2
172
     1
173
     0
174
     0
175
     0
176
   256
177
   256
178
     2
  0
DIMSTYLE
  2
AM_ISO$3
 70
     0
  3

  4
"
  5

  6

  7

 40
1.0
 41
3.5
 42
1.0
 43
10.0
 44
1.0
 45
0.0
 46
0.0
 47
0.1
 48
0.1
140
3.5
141
0.0
142
0.0
143
0.0393701
144
1.0
145
0.0
146
0.71
147
1.5
 71
     0
 72
     0
 73
     0
 74
     1
 75
     0
 76
     0
 77
     1
 78
     8
170
     0
171
     2
172
     0
173
     0
174
     0
175
     0
176
   256
177
   256
178
     2
  0
DIMSTYLE
  2
AM_ISO$4
 70
     0
  3

  4
"
  5

  6

  7

 40
1.0
 41
3.5
 42
1.0
 43
10.0
 44
1.0
 45
0.0
 46
0.0
 47
0.1
 48
0.1
140
3.5
141
0.0
142
0.0
143
0.0393701
144
1.0
145
0.0
146
0.71
147
1.5
 71
     0
 72
     0
 73
     0
 74
     1
 75
     0
 76
     0
 77
     1
 78
     8
170
     0
171
     2
172
     0
173
     0
174
     0
175
     0
176
   256
177
   256
178
     2
  0
DIMSTYLE
  2
AM_ISO$6
 70
     0
  3

  4
"
  5

  6

  7

 40
1.0
 41
3.5
 42
1.0
 43
10.0
 44
1.0
 45
0.0
 46
0.0
 47
0.1
 48
0.1
140
3.5
141
0.0
142
0.0
143
0.0393701
144
1.0
145
0.0
146
0.71
147
1.5
 71
     0
 72
     0
 73
     0
 74
     0
 75
     0
 76
     0
 77
     0
 78
     8
170
     0
171
     2
172
     1
173
     0
174
     0
175
     0
176
   256
177
   256
178
     2
  0
DIMSTYLE
  2
AM_ISO$7
 70
     0
  3

  4
"
  5

  6

  7

 40
1.0
 41
3.5
 42
1.0
 43
10.0
 44
1.0
 45
0.0
 46
0.0
 47
0.1
 48
0.1
140
3.5
141
0.0
142
0.0
143
0.0393701
144
1.0
145
0.0
146
0.71
147
1.5
 71
     0
 72
     0
 73
     0
 74
     0
 75
     0
 76
     0
 77
     1
 78
     8
170
     0
171
     2
172
     1
173
     0
174
     0
175
     0
176
   256
177
   256
178
     2
  0
DIMSTYLE
  2
AM_ISO$SF
 70
     0
  3

  4
"
  5

  6

  7

 40
1.0
 41
3.5
 42
1.0
 43
10.0
 44
1.0
 45
0.0
 46
0.0
 47
0.1
 48
0.1
140
3.5
141
0.0
142
0.0
143
0.0393701
144
1.0
145
0.0
146
0.71
147
1.5
 71
     0
 72
     0
 73
     0
 74
     0
 75
     1
 76
     1
 77
     1
 78
     8
170
     0
171
     2
172
     1
173
     0
174
     0
175
     0
176
   256
177
   256
178
     2
  0
DIMSTYLE
  2
AM_ISO$SH
 70
     0
  3

  4
"
  5

  6
GENAXEH
  7

 40
1.0
 41
3.5
 42
1.0
 43
10.0
 44
1.0
 45
0.0
 46
0.0
 47
0.1
 48
0.1
140
3.5
141
0.0
142
0.0
143
0.0393701
144
2.0
145
0.0
146
0.71
147
1.5
 71
     0
 72
     0
 73
     0
 74
     0
 75
     1
 76
     1
 77
     1
 78
     8
170
     0
171
     2
172
     1
173
     1
174
     0
175
     0
176
   256
177
   256
178
     2
  0
ENDTAB
  0
ENDSEC
  0
SECTION
  2
BLOCKS
  0
BLOCK
  8
0
  2
$MODEL_SPACE
 70
     0
 10
0.0
 20
0.0
 30
0.0
  3
$MODEL_SPACE
  1

  0
ENDBLK
  5
1C
  8
0
  0
BLOCK
 67
     1
  8
0
  2
$PAPER_SPACE
 70
     0
 10
0.0
 20
0.0
 30
0.0
  3
$PAPER_SPACE
  1

  0
ENDBLK
  5
19
 67
     1
  8
0
  0
BLOCK
  8
0
  2
_OPEN
 70
     0
 10
0.0
 20
0.0
 30
0.0
  3
_OPEN
  1

  0
LINE
  5
595
  8
0
  6
BYBLOCK
 62
     0
 10
-1.0
 20
0.1666666666666666
 30
0.0
 11
0.0
 21
0.0
 31
0.0
  0
LINE
  5
596
  8
0
  6
BYBLOCK
 62
     0
 10
-1.0
 20
-0.1666666666666666
 30
0.0
 11
0.0
 21
0.0
 31
0.0
  0
LINE
  5
597
  8
0
  6
BYBLOCK
 62
     0
 10
0.0
 20
0.0
 30
0.0
 11
-1.0
 21
0.0
 31
0.0
  0
ENDBLK
  5
599
  8
0
  0
BLOCK
  8
0
  2
矢印なし
 70
     0
 10
0.0
 20
0.0
 30
0.0
  3
矢印なし
  1

  0
ENDBLK
  5
6E5
  8
0
  0
BLOCK
  8
0
  2
GENAXEH
 70
     0
 10
0.0
 20
0.0
 30
0.0
  3
GENAXEH
  1

  0
LINE
  5
115E
  8
0
 10
-1.0
 20
0.0
 30
0.0
 11
1.0
 21
0.0
 31
0.0
  0
ENDBLK
  5
1160
  8
0
  0
BLOCK
  8
0
  2
*U5
 70
     1
 10
0.0
 20
0.0
 30
0.0
  3
*U5
  1

  0
TEXT
  5
12A1
  8
250
 10
52.8833333333335105
 20
64.0000000000000142
 30
0.0
 40
2.799999999999998
  1
4.53
  0
ENDBLK
  5
12A3
  8
0
  0
BLOCK
  8
0
  2
*U6
 70
     1
 10
0.0
 20
0.0
 30
0.0
  3
*U6
  1

  0
TEXT
  5
12A5
  8
250
 10
132.0
 20
-7.2000000000000171
 30
0.0
 40
2.7999999999999989
  1
\U+2205
 50
90.0
  0
TEXT
  5
12A6
  8
250
 10
132.0
 20
-4.6666666666666829
 30
0.0
 40
2.799999999999998
  1
1.969
 50
90.0
  0
ENDBLK
  5
12A8
  8
0
  0
ENDSEC
  0
SECTION
  2
ENTITIES
  0
INSERT
  5
6E6
  8
245
  2
矢印なし
 10
175.6238269664376901
 20
90.5512357169059783
 30
0.0
  0
LINE
  5
B37
  8
245
  6
CENTER2
 10
-102.5999999999999943
 20
0.0000000000000169
 30
0.0
 11
116.100000000000307
 21
-0.0000000000000367
 31
0.0
1001
GRPNAME
1000
PASTMD0L
  0
LINE
  5
B38
  8
240
  6
CONTINUOUS
 10
0.0
 20
34.9250000000000114
 30
0.0
 11
-101.5999999999999943
 21
20.1083333297216917
 31
0.0
1001
GRPNAME
1000
PASTMD0L
  0
LINE
  5
B39
  8
240
  6
CONTINUOUS
 10
0.0
 20
-34.9250000000000114
 30
0.0
 11
-101.5999999999999943
 21
-20.1083333297217202
 31
0.0
1001
GRPNAME
1000
PASTMD0L
  0
LINE
  5
B3A
  8
240
  6
CONTINUOUS
 10
-101.5999999999999943
 20
20.1083333297216917
 30
0.0
 11
-101.5999999999999943
 21
-20.1083333297217202
 31
0.0
1001
GRPNAME
1000
PASTMD0L
  0
LINE
  5
B3B
  8
241
  6
CONTINUOUS
 10
7.5938332300000013
 20
49.2124999999999702
 30
0.0
 11
7.5938332300000022
 21
12.6999999999964697
 31
0.0
1001
GRPNAME
1000
PASTMD0L
  0
LINE
  5
B3C
  8
241
  6
CONTINUOUS
 10
9.2000000000000028
 20
45.6449999999999818
 30
0.0
 11
9.2000000000000028
 21
12.6999999999954696
 31
0.0
1001
GRPNAME
1000
PASTMD0L
  0
LINE
  5
B3D
  8
241
  6
CONTINUOUS
 10
13.0399999999999903
 20
45.6449999999999818
 30
0.0
 11
13.0399999999999903
 21
12.6999999999930804
 31
0.0
1001
GRPNAME
1000
PASTMD0L
  0
LINE
  5
B3E
  8
241
  6
CONTINUOUS
 10
14.6461667700000095
 20
49.2124999999999702
 30
0.0
 11
14.6461667700000095
 21
12.6999999999920803
 31
0.0
1001
GRPNAME
1000
PASTMD0L
  0
LINE
  5
B3F
  8
241
  6
CONTINUOUS
 10
1.5
 20
34.9250000000000114
 30
0.0
 11
1.5
 21
-34.9250000000000114
 31
0.0
1001
GRPNAME
1000
PASTMD0L
  0
LINE
  5
B40
  8
241
  6
CONTINUOUS
 10
9.2000000000000028
 20
-45.6450000000000102
 30
0.0
 11
9.2000000000000028
 21
-12.6999999999962601
 31
0.0
1001
GRPNAME
1000
PASTMD0L
  0
LINE
  5
B41
  8
241
  6
CONTINUOUS
 10
7.5938332300000013
 20
-49.2124999999999986
 30
0.0
 11
7.5938332299999969
 21
-12.6999999999969404
 31
0.0
1001
GRPNAME
1000
PASTMD0L
  0
LINE
  5
B42
  8
241
  6
CONTINUOUS
 10
13.0399999999999903
 20
-45.6450000000000102
 30
0.0
 11
13.0399999999999903
 21
-12.69999999999464
 31
0.0
1001
GRPNAME
1000
PASTMD0L
  0
LINE
  5
B43
  8
241
  6
CONTINUOUS
 10
14.6461667700000095
 20
-49.2124999999999986
 30
0.0
 11
14.6461667700000095
 21
-12.6999999999939597
 31
0.0
1001
GRPNAME
1000
PASTMD0L
  0
LINE
  5
B44
  8
240
  6
CONTINUOUS
 10
1.5
 20
-49.2124999999999986
 30
0.0
 11
1.5
 21
-34.9250000000000114
 31
0.0
1001
GRPNAME
1000
PASTMD0L
  0
LINE
  5
B45
  8
240
  6
CONTINUOUS
 10
19.0500000000000114
 20
-49.2124999999999986
 30
0.0
 11
19.0500000000000185
 21
-44.5010376910481185
 31
0.0
1001
GRPNAME
1000
PASTMD0L
  0
LINE
  5
B46
  8
240
  6
CONTINUOUS
 10
14.6461667700000095
 20
-49.2124999999999986
 30
0.0
 11
19.0500000000000114
 21
-49.2124999999999986
 31
0.0
1001
GRPNAME
1000
PASTMD0L
  0
LINE
  5
B47
  8
240
  6
CONTINUOUS
 10
1.5
 20
-49.2124999999999986
 30
0.0
 11
7.5938332300000013
 21
-49.2124999999999986
 31
0.0
1001
GRPNAME
1000
PASTMD0L
  0
LINE
  5
B48
  8
240
  6
CONTINUOUS
 10
9.2000000000000028
 20
-45.6450000000000102
 30
0.0
 11
13.0399999999999903
 21
-45.6450000000000102
 31
0.0
1001
GRPNAME
1000
PASTMD0L
  0
LINE
  5
B49
  8
240
  6
CONTINUOUS
 10
9.2000000000000028
 20
-46.4305375499999897
 30
0.0
 11
7.5938332300000013
 21
-49.2124999999999986
 31
0.0
1001
GRPNAME
1000
PASTMD0L
  0
LINE
  5
B4A
  8
240
  6
CONTINUOUS
 10
9.2000000000000028
 20
-45.6450000000000102
 30
0.0
 11
9.2000000000000028
 21
-46.4305375499999897
 31
0.0
1001
GRPNAME
1000
PASTMD0L
  0
LINE
  5
B4B
  8
240
  6
CONTINUOUS
 10
13.0399999999999903
 20
-46.4305375499999897
 30
0.0
 11
14.6461667700000095
 21
-49.2124999999999986
 31
0.0
1001
GRPNAME
1000
PASTMD0L
  0
LINE
  5
B4C
  8
240
  6
CONTINUOUS
 10
13.0399999999999903
 20
-45.6450000000000102
 30
0.0
 11
13.0399999999999903
 21
-46.4305375499999897
 31
0.0
1001
GRPNAME
1000
PASTMD0L
  0
LINE
  5
B4E
  8
241
  6
CONTINUOUS
 10
0.0
 20
-34.9250000000000114
 30
0.0
 11
0.0
 21
34.9250000000000114
 31
0.0
1001
GRPNAME
1000
PASTMD0L
  0
LINE
  5
B50
  8
240
  6
CONTINUOUS
 10
0.0
 20
-34.9250000000000114
 30
0.0
 11
1.5
 21
-34.9250000000000114
 31
0.0
  0
LINE
  5
B55
  8
240
  6
CONTINUOUS
 10
1.5
 20
49.2124999999999702
 30
0.0
 11
1.5
 21
34.9250000000000114
 31
0.0
1001
GRPNAME
1000
PASTMD0L
  0
LINE
  5
B56
  8
240
  6
CONTINUOUS
 10
19.0500000000000114
 20
49.2124999999999702
 30
0.0
 11
19.0500000000000185
 21
44.50103769104809
 31
0.0
1001
GRPNAME
1000
PASTMD0L
  0
LINE
  5
B57
  8
240
  6
CONTINUOUS
 10
0.0
 20
34.9250000000000114
 30
0.0
 11
1.5
 21
34.9250000000000114
 31
0.0
  0
LINE
  5
B59
  8
240
  6
CONTINUOUS
 10
14.6461667700000095
 20
49.2124999999999702
 30
0.0
 11
19.0500000000000114
 21
49.2124999999999702
 31
0.0
1001
GRPNAME
1000
PASTMD0L
  0
LINE
  5
B5A
  8
240
  6
CONTINUOUS
 10
1.5
 20
49.2124999999999702
 30
0.0
 11
7.5938332300000013
 21
49.2124999999999702
 31
0.0
1001
GRPNAME
1000
PASTMD0L
  0
LINE
  5
B5B
  8
240
  6
CONTINUOUS
 10
9.2000000000000028
 20
45.6449999999999818
 30
0.0
 11
13.0399999999999903
 21
45.6449999999999818
 31
0.0
1001
GRPNAME
1000
PASTMD0L
  0
LINE
  5
B5C
  8
240
  6
CONTINUOUS
 10
9.2000000000000028
 20
45.6449999999999818
 30
0.0
 11
9.2000000000000028
 21
46.4305375499999897
 31
0.0
1001
GRPNAME
1000
PASTMD0L
  0
LINE
  5
B5D
  8
240
  6
CONTINUOUS
 10
9.2000000000000028
 20
46.4305375499999897
 30
0.0
 11
7.5938332300000013
 21
49.2124999999999702
 31
0.0
1001
GRPNAME
1000
PASTMD0L
  0
LINE
  5
B5E
  8
240
  6
CONTINUOUS
 10
13.0399999999999903
 20
45.6449999999999818
 30
0.0
 11
13.0399999999999903
 21
46.4305375499999897
 31
0.0
1001
GRPNAME
1000
PASTMD0L
  0
LINE
  5
B5F
  8
240
  6
CONTINUOUS
 10
13.0399999999999903
 20
46.4305375499999897
 30
0.0
 11
14.6461667700000095
 21
49.2124999999999702
 31
0.0
1001
GRPNAME
1000
PASTMD0L
  0
TEXT
  5
B60
  8
250
  6
CONTINUOUS
 10
-73.9885626086238517
 20
-37.3577389430146312
 30
0.0
 40
2.799999999999998
  1
BCV50Y
  7
YOKO
1001
ITEMNAME
1000
LNSP3
  0
LINE
  5
B61
  8
250
  6
CONTINUOUS
 10
-57.0612186589336901
 20
-38.3577389430146312
 30
0.0
 11
-75.0612186589336829
 21
-38.3577389430146312
 31
0.0
1001
ITEMNAME
1000
LNSP2
  0
LINE
  5
B62
  8
250
  6
CONTINUOUS
 10
-52.088904974520247
 20
-29.0818615630252886
 30
0.0
 11
-50.7999999989336999
 21
-27.5166666630146288
 31
0.0
  0
LINE
  5
B63
  8
250
  6
CONTINUOUS
 10
-51.5116036569175506
 20
-29.4152796686203608
 30
0.0
 11
-50.7999999989336999
 21
-27.5166666630146288
 31
0.0
  0
LINE
  5
B64
  8
250
  6
CONTINUOUS
 10
-50.7999999989336999
 20
-27.5166666630146288
 30
0.0
 11
-51.8002543157188811
 21
-29.2485706158228211
 31
0.0
  0
LINE
  5
B65
  8
250
  6
CONTINUOUS
 10
-51.8002543157188811
 20
-29.2485706158228211
 30
0.0
 11
-57.0612186589336901
 21
-38.3577389430146312
 31
0.0
1001
ACAD
1000
DSTYLE
1002
{
1070
     6
1000
OPEN
1070
    41
1040
2.0
1070
    42
1040
2.0
1070
    44
1040
2.0
1070
   140
1040
4.0
1070
   343
1005
0
1002
}
  0
LINE
  5
B66
  8
247
  6
CONTINUOUS
 10
5.4999999999999432
 20
-26.75
 30
0.0
 11
5.5
 21
-22.1153846156700489
 31
0.0
  0
LINE
  5
B67
  8
247
  6
CONTINUOUS
 10
3.0
 20
-25.9548934999879783
 30
0.0
 11
5.0999999999160073
 21
-26.5570588100573595
 31
0.0
  0
LINE
  5
B68
  8
247
  6
CONTINUOUS
 10
3.996153846113998
 20
-25.3251514035190404
 30
0.0
 11
3.996153846113998
 21
-26.24053601886704
 31
0.0
  0
ARC
  5
B69
  8
247
  6
CONTINUOUS
 10
3.3847190672940979
 20
-25.0872634019468101
 30
0.0
 40
0.3876715809326743
 50
72.9978896752921997
 51
172.9241662185135908
  0
ARC
  5
B6A
  8
247
  6
CONTINUOUS
 10
3.305223131028014
 20
-25.3824775568041296
 30
0.0
 40
0.693304796535877
 50
4.7429368522022113
 51
73.8492262732667513
1001
GENIUS_GENOBJ-N-FIL_13
1002
{
1000
OWNER
1000
GEN
1002
}
1001
GENIUS_GENODEF_13
1002
{
1000
HIER
1070
     0
1002
}
1002
{
1000
MANEDIT
1070
     0
1002
}
1002
{
1000
NOSEL
1070
     0
1002
}
1002
{
1000
BEHIND
1070
     0
1002
}
1002
{
1000
OTHER
1070
     0
1002
}
1002
{
1000
REACTOR
1002
}
  0
LINE
  5
B6B
  8
247
  6
CONTINUOUS
 10
5.0999999999160073
 20
-25.6416741947093705
 30
0.0
 11
5.0999999999160073
 21
-26.5570588100573595
 31
0.0
  0
LINE
  5
B6C
  8
247
  6
CONTINUOUS
 10
3.0
 20
-25.9548934999879783
 30
0.0
 11
3.0
 21
-25.0395088846399894
 31
0.0
  0
ARC
  5
B6D
  8
247
  6
CONTINUOUS
 10
4.3874169627678681
 20
-25.3783064762668609
 30
0.0
 40
0.394857301075386
 50
65.990941652528889
 51
172.2634434590690944
  0
ARC
  5
B6E
  8
247
  6
CONTINUOUS
 10
4.3912003273325659
 20
-25.7124466104269302
 30
0.0
 40
0.7123241612361686
 50
5.701985164259785
 51
77.2773384368220206
1001
GENIUS_GENOBJ-N-FIL_13
1002
{
1000
OWNER
1000
GEN
1002
}
1001
GENIUS_GENODEF_13
1002
{
1000
HIER
1070
     0
1002
}
1002
{
1000
MANEDIT
1070
     0
1002
}
1002
{
1000
NOSEL
1070
     0
1002
}
1002
{
1000
BEHIND
1070
     0
1002
}
1002
{
1000
OTHER
1070
     0
1002
}
1002
{
1000
REACTOR
1002
}
  0
LINE
  5
B6F
  8
247
  6
CONTINUOUS
 10
5.0999999999160073
 20
-24.6839818870633998
 30
0.0
 11
3.0
 21
-24.0818165769940116
 31
0.0
  0
LINE
  5
B70
  8
247
  6
CONTINUOUS
 10
3.0
 20
-22.5856627309079805
 30
0.0
 11
3.0
 21
-22.9816783643036011
 31
0.0
  0
LINE
  5
B71
  8
247
  6
CONTINUOUS
 10
5.0999999999160073
 20
-23.6087396539439816
 30
0.0
 11
5.0999999999160073
 21
-23.1779704231919901
 31
0.0
  0
ARC
  5
B72
  8
247
  6
CONTINUOUS
 10
4.4582995950833562
 20
-22.3818165770699693
 30
0.0
 40
1.576855057639547
 50
202.3594881415291127
 51
254.9932485428464872
  0
ARC
  5
B73
  8
247
  6
CONTINUOUS
 10
3.5658188585381332
 20
-22.8475113661332294
 30
0.0
 40
0.6234706797009447
 50
94.9945893190753168
 51
155.1663289573039037
1001
GENIUS_GENOBJ-N-FIL_13
1002
{
1000
OWNER
1000
GEN
1002
}
1001
GENIUS_GENODEF_13
1002
{
1000
HIER
1070
     0
1002
}
1002
{
1000
MANEDIT
1070
     0
1002
}
1002
{
1000
NOSEL
1070
     0
1002
}
1002
{
1000
BEHIND
1070
     0
1002
}
1002
{
1000
OTHER
1070
     0
1002
}
1002
{
1000
REACTOR
1002
}
  0
ARC
  5
B74
  8
247
  6
CONTINUOUS
 10
4.1621021219694381
 20
-23.4441839510328087
 30
0.0
 40
0.9749472149106982
 50
15.8460965557808002
 51
82.325137004169278
  0
ARC
  5
B75
  8
247
  6
CONTINUOUS
 10
4.3714704019710631
 20
-23.035211638772239
 30
0.0
 40
0.9271945638692008
 50
249.7136016704968995
 51
321.7887456564109243
1001
GENIUS_GENOBJ-N-FIL_13
1002
{
1000
OWNER
1000
GEN
1002
}
1001
GENIUS_GENODEF_13
1002
{
1000
HIER
1070
     0
1002
}
1002
{
1000
MANEDIT
1070
     0
1002
}
1002
{
1000
NOSEL
1070
     0
1002
}
1002
{
1000
BEHIND
1070
     0
1002
}
1002
{
1000
OTHER
1070
     0
1002
}
1002
{
1000
REACTOR
1002
}
  0
LINE
  5
B76
  8
247
  6
CONTINUOUS
 10
4.2923076922559726
 20
-22.9625858078159588
 30
0.0
 11
4.2923076922559726
 21
-22.4779704232199684
 31
0.0
  0
ARC
  5
B77
  8
247
  6
CONTINUOUS
 10
4.25
 20
-26.75
 30
0.0
 40
1.25
 50
180.0
 51
0.0
  0
LINE
  5
B78
  8
247
  6
CONTINUOUS
 10
3.0
 20
-26.75
 30
0.0
 11
3.0
 21
-26.3038461539140407
 31
0.0
  0
ARC
  5
B79
  8
247
  6
CONTINUOUS
 10
4.25
 20
-22.1153846156700489
 30
0.0
 40
1.25
 50
0.0
 51
180.0
  0
TEXT
  5
C22
  8
241
  6
CONTINUOUS
 10
-101.5999999999999943
 20
77.0000000000000142
 30
0.0
 40
5.0
  1
BCV50Y-S50-4.5
  7
YOKO
 11
-101.5999999999999943
 21
77.0000000000000142
 31
0.0
 73
     1
  0
LINE
  5
DE4
  8
241
  6
CONTINUOUS
 10
28.6247839541754914
 20
12.6999999999833797
 30
0.0
 11
3.7000000000013689
 21
12.6999999999988908
 31
0.0
  0
LINE
  5
DE5
  8
241
  6
CONTINUOUS
 10
28.6247839541705389
 20
-12.6999999999880604
 30
0.0
 11
3.7000000000000002
 21
-12.69999999999858
 31
0.0
  0
POLYLINE
  8
241
  5
12B3
  66
     1
 10
0.000000
 20
0.000000
 30
0.000000
  70
     8
  0
VERTEX
  8
241
  5
12B4
 10
28.5258
 20
12.7530
 30
0.000000
  70
    32
  0
VERTEX
  8
241
  5
12B5
 10
28.7893
 20
12.4690
 30
0.000000
  70
    32
  0
VERTEX
  8
241
  5
12B6
 10
29.0465
 20
12.1861
 30
0.000000
  70
    32
  0
VERTEX
  8
241
  5
12B7
 10
29.2976
 20
11.9042
 30
0.000000
  70
    32
  0
VERTEX
  8
241
  5
12B8
 10
29.5425
 20
11.6234
 30
0.000000
  70
    32
  0
VERTEX
  8
241
  5
12B9
 10
29.7813
 20
11.3436
 30
0.000000
  70
    32
  0
VERTEX
  8
241
  5
12BA
 10
30.0141
 20
11.0647
 30
0.000000
  70
    32
  0
VERTEX
  8
241
  5
12BB
 10
30.2409
 20
10.7869
 30
0.000000
  70
    32
  0
VERTEX
  8
241
  5
12BC
 10
30.4616
 20
10.5099
 30
0.000000
  70
    32
  0
VERTEX
  8
241
  5
12BD
 10
30.6765
 20
10.2338
 30
0.000000
  70
    32
  0
VERTEX
  8
241
  5
12BE
 10
30.8854
 20
9.95861
 30
0.000000
  70
    32
  0
VERTEX
  8
241
  5
12BF
 10
31.0884
 20
9.68425
 30
0.000000
  70
    32
  0
VERTEX
  8
241
  5
12C0
 10
31.2857
 20
9.41073
 30
0.000000
  70
    32
  0
VERTEX
  8
241
  5
12C1
 10
31.4771
 20
9.13799
 30
0.000000
  70
    32
  0
VERTEX
  8
241
  5
12C2
 10
31.6627
 20
8.86603
 30
0.000000
  70
    32
  0
VERTEX
  8
241
  5
12C3
 10
31.8427
 20
8.59482
 30
0.000000
  70
    32
  0
VERTEX
  8
241
  5
12C4
 10
32.0169
 20
8.32433
 30
0.000000
  70
    32
  0
VERTEX
  8
241
  5
12C5
 10
32.1854
 20
8.05455
 30
0.000000
  70
    32
  0
VERTEX
  8
241
  5
12C6
 10
32.3483
 20
7.78543
 30
0.000000
  70
    32
  0
VERTEX
  8
241
  5
12C7
 10
32.5056
 20
7.51698
 30
0.000000
  70
    32
  0
VERTEX
  8
241
  5
12C8
 10
32.6573
 20
7.24914
 30
0.000000
  70
    32
  0
VERTEX
  8
241
  5
12C9
 10
32.8034
 20
6.98192
 30
0.000000
  70
    32
  0
VERTEX
  8
241
  5
12CA
 10
32.9440
 20
6.71528
 30
0.000000
  70
    32
  0
VERTEX
  8
241
  5
12CB
 10
33.0790
 20
6.44919
 30
0.000000
  70
    32
  0
VERTEX
  8
241
  5
12CC
 10
33.2086
 20
6.18364
 30
0.000000
  70
    32
  0
VERTEX
  8
241
  5
12CD
 10
33.3326
 20
5.91861
 30
0.000000
  70
    32
  0
VERTEX
  8
241
  5
12CE
 10
33.4513
 20
5.65407
 30
0.000000
  70
    32
  0
VERTEX
  8
241
  5
12CF
 10
33.5644
 20
5.38999
 30
0.000000
  70
    32
  0
VERTEX
  8
241
  5
12D0
 10
33.6722
 20
5.12637
 30
0.000000
  70
    32
  0
VERTEX
  8
241
  5
12D1
 10
33.7746
 20
4.86316
 30
0.000000
  70
    32
  0
VERTEX
  8
241
  5
12D2
 10
33.8716
 20
4.60036
 30
0.000000
  70
    32
  0
VERTEX
  8
241
  5
12D3
 10
33.9632
 20
4.33794
 30
0.000000
  70
    32
  0
VERTEX
  8
241
  5
12D4
 10
34.0494
 20
4.07588
 30
0.000000
  70
    32
  0
VERTEX
  8
241
  5
12D5
 10
34.1304
 20
3.81415
 30
0.000000
  70
    32
  0
VERTEX
  8
241
  5
12D6
 10
34.2060
 20
3.55274
 30
0.000000
  70
    32
  0
VERTEX
  8
241
  5
12D7
 10
34.2762
 20
3.29163
 30
0.000000
  70
    32
  0
VERTEX
  8
241
  5
12D8
 10
34.3412
 20
3.03078
 30
0.000000
  70
    32
  0
VERTEX
  8
241
  5
12D9
 10
34.4009
 20
2.77019
 30
0.000000
  70
    32
  0
VERTEX
  8
241
  5
12DA
 10
34.4553
 20
2.50982
 30
0.000000
  70
    32
  0
VERTEX
  8
241
  5
12DB
 10
34.5045
 20
2.24966
 30
0.000000
  70
    32
  0
VERTEX
  8
241
  5
12DC
 10
34.5484
 20
1.98969
 30
0.000000
  70
    32
  0
VERTEX
  8
241
  5
12DD
 10
34.5870
 20
1.72989
 30
0.000000
  70
    32
  0
VERTEX
  8
241
  5
12DE
 10
34.6204
 20
1.47023
 30
0.000000
  70
    32
  0
VERTEX
  8
241
  5
12DF
 10
34.6485
 20
1.21069
 30
0.000000
  70
    32
  0
VERTEX
  8
241
  5
12E0
 10
34.6714
 20
0.951255
 30
0.000000
  70
    32
  0
VERTEX
  8
241
  5
12E1
 10
34.6890
 20
0.691901
 30
0.000000
  70
    32
  0
VERTEX
  8
241
  5
12E2
 10
34.7014
 20
0.432607
 30
0.000000
  70
    32
  0
VERTEX
  8
241
  5
12E3
 10
34.7086
 20
0.173353
 30
0.000000
  70
    32
  0
VERTEX
  8
241
  5
12E4
 10
34.7106
 20
-0.0858826
 30
0.000000
  70
    32
  0
VERTEX
  8
241
  5
12E5
 10
34.7073
 20
-0.345121
 30
0.000000
  70
    32
  0
VERTEX
  8
241
  5
12E6
 10
34.6988
 20
-0.604383
 30
0.000000
  70
    32
  0
VERTEX
  8
241
  5
12E7
 10
34.6851
 20
-0.863690
 30
0.000000
  70
    32
  0
VERTEX
  8
241
  5
12E8
 10
34.6661
 20
-1.12306
 30
0.000000
  70
    32
  0
VERTEX
  8
241
  5
12E9
 10
34.6419
 20
-1.38252
 30
0.000000
  70
    32
  0
VERTEX
  8
241
  5
12EA
 10
34.6124
 20
-1.64209
 30
0.000000
  70
    32
  0
VERTEX
  8
241
  5
12EB
 10
34.5777
 20
-1.90178
 30
0.000000
  70
    32
  0
VERTEX
  8
241
  5
12EC
 10
34.5377
 20
-2.16163
 30
0.000000
  70
    32
  0
VERTEX
  8
241
  5
12ED
 10
34.4925
 20
-2.42164
 30
0.000000
  70
    32
  0
VERTEX
  8
241
  5
12EE
 10
34.4421
 20
-2.68185
 30
0.000000
  70
    32
  0
VERTEX
  8
241
  5
12EF
 10
34.3863
 20
-2.94227
 30
0.000000
  70
    32
  0
VERTEX
  8
241
  5
12F0
 10
34.3253
 20
-3.20293
 30
0.000000
  70
    32
  0
VERTEX
  8
241
  5
12F1
 10
34.2589
 20
-3.46384
 30
0.000000
  70
    32
  0
VERTEX
  8
241
  5
12F2
 10
34.1873
 20
-3.72503
 30
0.000000
  70
    32
  0
VERTEX
  8
241
  5
12F3
 10
34.1104
 20
-3.98652
 30
0.000000
  70
    32
  0
VERTEX
  8
241
  5
12F4
 10
34.0281
 20
-4.24833
 30
0.000000
  70
    32
  0
VERTEX
  8
241
  5
12F5
 10
33.9405
 20
-4.51048
 30
0.000000
  70
    32
  0
VERTEX
  8
241
  5
12F6
 10
33.8475
 20
-4.77300
 30
0.000000
  70
    32
  0
VERTEX
  8
241
  5
12F7
 10
33.7491
 20
-5.03590
 30
0.000000
  70
    32
  0
VERTEX
  8
241
  5
12F8
 10
33.6454
 20
-5.29920
 30
0.000000
  70
    32
  0
VERTEX
  8
241
  5
12F9
 10
33.5363
 20
-5.56294
 30
0.000000
  70
    32
  0
VERTEX
  8
241
  5
12FA
 10
33.4217
 20
-5.82713
 30
0.000000
  70
    32
  0
VERTEX
  8
241
  5
12FB
 10
33.3017
 20
-6.09180
 30
0.000000
  70
    32
  0
VERTEX
  8
241
  5
12FC
 10
33.1763
 20
-6.35696
 30
0.000000
  70
    32
  0
VERTEX
  8
241
  5
12FD
 10
33.0453
 20
-6.62264
 30
0.000000
  70
    32
  0
VERTEX
  8
241
  5
12FE
 10
32.9089
 20
-6.88887
 30
0.000000
  70
    32
  0
VERTEX
  8
241
  5
12FF
 10
32.7669
 20
-7.15565
 30
0.000000
  70
    32
  0
VERTEX
  8
241
  5
1300
 10
32.6194
 20
-7.42303
 30
0.000000
  70
    32
  0
VERTEX
  8
241
  5
1301
 10
32.4663
 20
-7.69102
 30
0.000000
  70
    32
  0
VERTEX
  8
241
  5
1302
 10
32.3076
 20
-7.95964
 30
0.000000
  70
    32
  0
VERTEX
  8
241
  5
1303
 10
32.1432
 20
-8.22892
 30
0.000000
  70
    32
  0
VERTEX
  8
241
  5
1304
 10
31.9733
 20
-8.49888
 30
0.000000
  70
    32
  0
VERTEX
  8
241
  5
1305
 10
31.7976
 20
-8.76955
 30
0.000000
  70
    32
  0
VERTEX
  8
241
  5
1306
 10
31.6162
 20
-9.04095
 30
0.000000
  70
    32
  0
VERTEX
  8
241
  5
1307
 10
31.4291
 20
-9.31310
 30
0.000000
  70
    32
  0
VERTEX
  8
241
  5
1308
 10
31.2362
 20
-9.58604
 30
0.000000
  70
    32
  0
VERTEX
  8
241
  5
1309
 10
31.0375
 20
-9.85977
 30
0.000000
  70
    32
  0
VERTEX
  8
241
  5
130A
 10
30.8330
 20
-10.1343
 30
0.000000
  70
    32
  0
VERTEX
  8
241
  5
130B
 10
30.6226
 20
-10.4098
 30
0.000000
  70
    32
  0
VERTEX
  8
241
  5
130C
 10
30.4062
 20
-10.6861
 30
0.000000
  70
    32
  0
VERTEX
  8
241
  5
130D
 10
30.1840
 20
-10.9633
 30
0.000000
  70
    32
  0
VERTEX
  8
241
  5
130E
 10
29.9557
 20
-11.2414
 30
0.000000
  70
    32
  0
VERTEX
  8
241
  5
130F
 10
29.7214
 20
-11.5205
 30
0.000000
  70
    32
  0
VERTEX
  8
241
  5
1310
 10
29.4810
 20
-11.8006
 30
0.000000
  70
    32
  0
VERTEX
  8
241
  5
1311
 10
29.2345
 20
-12.0816
 30
0.000000
  70
    32
  0
VERTEX
  8
241
  5
1312
 10
28.9819
 20
-12.3638
 30
0.000000
  70
    32
  0
VERTEX
  8
241
  5
1313
 10
28.7231
 20
-12.6470
 30
0.000000
  70
    32
  0
SEQEND
  8
241
  5
1314
  0
LINE
  5
E01
  8
241
  6
CONTINUOUS
 10
19.0500000000000114
 20
-44.5010376910481185
 30
0.0
 11
19.0500000000000114
 21
-12.6999999999920998
 31
0.0
  0
LINE
  5
E02
  8
241
  6
CONTINUOUS
 10
19.0500000000000114
 20
12.6999999999893394
 30
0.0
 11
19.0500000000000114
 21
44.50103769104809
 31
0.0
  0
LINE
  5
FAE
  8
241
  6
CONTINUOUS
 10
39.0499999999992511
 20
33.7205953146761317
 30
0.0
 11
39.0499999999992511
 21
-33.7205953146760322
 31
0.0
  0
LINE
  5
FAF
  8
240
  6
CONTINUOUS
 10
40.222224960851058
 20
-33.5861771752762621
 30
0.0
 11
115.1000000000001933
 21
-24.9999999999999893
 31
0.0
  0
LINE
  5
FB0
  8
240
  6
CONTINUOUS
 10
37.9412504706549782
 20
-34.1241471406138004
 30
0.0
 11
22.3398992833718104
 21
-39.8025745871186274
 31
0.0
  0
ARC
  5
FB1
  8
240
  6
CONTINUOUS
 10
24.0500000000002103
 20
-44.5010376910481327
 30
0.0
 40
5.0
 50
109.9999999999979963
 51
180.0
  0
ARC
  5
FB2
  8
240
  6
CONTINUOUS
 10
41.3614519039117283
 20
-43.5210733484729104
 30
0.0
 40
10.0
 50
96.541491616678357
 51
109.9999999999979963
  0
LINE
  5
FB3
  8
240
  6
CONTINUOUS
 10
115.100000000000307
 20
24.9999999999999112
 30
0.0
 11
115.1000000000001933
 21
-24.9999999999999893
 31
0.0
  0
LINE
  5
FB9
  8
240
  6
CONTINUOUS
 10
40.2222249608510793
 20
33.5861771752762408
 30
0.0
 11
115.100000000000307
 21
24.9999999999999112
 31
0.0
  0
LINE
  5
FBA
  8
240
  6
CONTINUOUS
 10
37.9412504706549925
 20
34.124147140613772
 30
0.0
 11
22.3398992833718211
 21
39.802574587118599
 31
0.0
  0
ARC
  5
FBB
  8
240
  6
CONTINUOUS
 10
24.0500000000002316
 20
44.50103769104809
 30
0.0
 40
5.0
 50
180.0
 51
250.0000000000019895
  0
ARC
  5
FBC
  8
240
  6
CONTINUOUS
 10
41.3614519039117425
 20
43.5210733484728678
 30
0.0
 40
10.0
 50
250.0000000000019895
 51
263.4585083833216004
  0
LINE
  5
1018
  8
243
 10
84.6000000000003638
 20
13.9999999999997105
 30
0.0
 11
115.100000000000307
 21
13.9999999999997708
 31
0.0
  0
LINE
  5
1019
  8
243
 10
84.6000000000003638
 20
-14.0000000000001794
 30
0.0
 11
115.1000000000001933
 21
-14.0000000000002398
 31
0.0
  0
LINE
  5
1022
  8
251
  6
CONTINUOUS
 10
123.4867170876046032
 20
48.88839581749545
 30
0.0
 11
136.2867170876045861
 21
48.88839581749545
 31
0.0
1001
ITEMNAME
1000
LNSP2
  0
LINE
  5
1024
  8
250
  6
CONTINUOUS
 10
0.0
 20
35.4250000000000114
 30
0.0
 11
0.0000000000000018
 21
64.0
 31
0.0
  0
LINE
  5
1025
  8
250
  6
CONTINUOUS
 10
115.100000000000307
 20
25.4999999999999005
 30
0.0
 11
115.100000000000307
 21
64.0
 31
0.0
  0
LINE
  5
1026
  8
250
  6
CONTINUOUS
 10
2.0
 20
63.0
 30
0.0
 11
113.100000000000307
 21
63.0
 31
0.0
  0
INSERT
  5
1027
  8
250
  6
CONTINUOUS
  2
_OPEN
 10
0.0000000000000017
 20
63.0
 30
0.0
 41
2.0
 42
2.0
 43
2.0
 50
180.0
  0
INSERT
  5
1028
  8
250
  6
CONTINUOUS
  2
_OPEN
 10
115.100000000000307
 20
63.0
 30
0.0
 41
2.0
 42
2.0
 43
2.0
  0
INSERT
  5
1029
  8
240
  2
*U5
 10
0.0
 20
0.0
 30
0.0
  0
LINE
  5
102A
  8
250
  6
CONTINUOUS
 10
115.6000000000001933
 20
-24.9999999999999787
 30
0.0
 11
134.0
 21
-24.9999999999999893
 31
0.0
  0
LINE
  5
102B
  8
250
  6
CONTINUOUS
 10
115.600000000000307
 20
24.9999999999999112
 30
0.0
 11
134.0
 21
24.9999999999999005
 31
0.0
  0
LINE
  5
102C
  8
250
  6
CONTINUOUS
 10
133.0
 20
-22.9999999999999787
 30
0.0
 11
133.0
 21
22.9999999999999005
 31
0.0
  0
INSERT
  5
102D
  8
250
  6
CONTINUOUS
  2
_OPEN
 10
133.0
 20
-24.9999999999999893
 30
0.0
 41
2.0
 42
2.0
 43
2.0
 50
270.0
  0
INSERT
  5
102E
  8
250
  6
CONTINUOUS
  2
_OPEN
 10
133.0
 20
24.9999999999999005
 30
0.0
 41
2.0
 42
2.0
 43
2.0
 50
90.0
  0
INSERT
  5
102F
  8
240
  2
*U6
 10
0.0
 20
0.0
 30
0.0
  0
TEXT
  5
1030
  8
251
  6
CONTINUOUS
 10
125.8867170876045947
 20
49.88839581749545
 30
0.0
 40
2.799999999999998
  1
S50
  7
YOKO
1001
ITEMNAME
1000
LNSP3
  0
INSERT
  5
1031
  8
251
  6
CONTINUOUS
  2
_OPEN
 10
103.3438923707792014
 20
13.9999999999997407
 30
0.0
 41
2.0
 42
2.0
 43
2.0
 50
240.0
1001
ACAD
1000
DSTYLE
1002
{
1070
   140
1040
2.799999999999998
1002
}
  0
POLYLINE
  5
1032
  8
251
  6
CONTINUOUS
 66
     1
 10
0.0
 20
0.0
 30
0.0
1001
ACAD
1000
DSTYLE
1002
{
1070
   140
1040
2.799999999999998
1002
}
  0
VERTEX
  5
12A9
  8
251
  6
CONTINUOUS
 10
104.3438923707792014
 20
15.7320508075686192
 30
0.0
  0
VERTEX
  5
12AA
  8
251
  6
CONTINUOUS
 10
123.4867170876046032
 20
48.88839581749545
 30
0.0
  0
SEQEND
  5
12AB
  8
251
  6
CONTINUOUS
  0
LINE
  5
10A7
  8
245
  6
CENTER2
 10
101.0500000000004945
 20
5.9999999999999636
 30
0.0
 11
101.0500000000004945
 21
-6.0000000000000302
 31
0.0
  0
CIRCLE
  5
10A8
  8
241
  6
CONTINUOUS
 10
101.0500000000002956
 20
-0.0000000000000329
 30
0.0
 40
5.0
  0
CIRCLE
  5
10A9
  8
242
  6
CONTINUOUS
 10
101.0500000000002956
 20
-0.0000000000000329
 30
0.0
 40
4.5
  0
POLYLINE
  5
10AA
  8
241
  6
CONTINUOUS
 66
     1
 10
0.0
 20
0.0
 30
0.0
 70
     1
  0
VERTEX
  5
12AC
  8
241
  6
CONTINUOUS
 10
98.550000000000324
 20
-1.443375672974103
 30
0.0
  0
VERTEX
  5
12AD
  8
241
  6
CONTINUOUS
 10
101.0500000000002956
 20
-2.8867513459481708
 30
0.0
  0
VERTEX
  5
12AE
  8
241
  6
CONTINUOUS
 10
103.5500000000002956
 20
-1.443375672974103
 30
0.0
  0
VERTEX
  5
12AF
  8
241
  6
CONTINUOUS
 10
103.5500000000002956
 20
1.443375672974035
 30
0.0
  0
VERTEX
  5
12B0
  8
241
  6
CONTINUOUS
 10
101.0500000000002956
 20
2.886751345948106
 30
0.0
  0
VERTEX
  5
12B1
  8
241
  6
CONTINUOUS
 10
98.550000000000324
 20
1.443375672974035
 30
0.0
  0
SEQEND
  5
12B2
  8
241
  6
CONTINUOUS
  0
LINE
  5
1185
  8
241
  6
CONTINUOUS
 10
1.5
 20
14.9000000000002597
 30
0.0
 11
3.7000000000013689
 21
12.6999999999988908
 31
0.0
1001
GENIUS_GENFIL_13
1070
     1
1040
10.0
1040
10.0
1040
2.2000000000000002
1040
45.0
1002
{
1002
}
1001
GENIUS_GENOBJ-N-CHA_13
1002
{
1000
OWNER
1000
GEN
1002
}
1001
GENIUS_GENODEF_13
1002
{
1000
HIER
1070
     0
1002
}
1002
{
1000
MANEDIT
1070
     0
1002
}
1002
{
1000
NOSEL
1070
     0
1002
}
1002
{
1000
BEHIND
1070
     0
1002
}
1002
{
1000
OTHER
1070
     0
1002
}
1002
{
1000
REACTOR
1002
}
  0
LINE
  5
1188
  8
241
  6
CONTINUOUS
 10
3.7000000000000002
 20
-12.69999999999858
 30
0.0
 11
1.5
 21
-14.9000000000004302
 31
0.0
1001
GRPNAME
1000
PASTMD0L
1001
GENIUS_GENFIL_13
1070
     1
1040
10.0
1040
10.0
1040
2.2000000000000002
1040
45.0
1002
{
1002
}
1001
GENIUS_GENODEF_13
1002
{
1000
HIER
1070
     0
1002
}
1002
{
1000
MANEDIT
1070
     0
1002
}
1002
{
1000
NOSEL
1070
     0
1002
}
1002
{
1000
BEHIND
1070
     0
1002
}
1002
{
1000
OTHER
1070
     0
1002
}
1002
{
1000
REACTOR
1002
}
1001
GENIUS_GENOBJ-N-CHA_13
1002
{
1000
OWNER
1000
GEN
1002
}
  0
VIEWPORT
  5
22
 67
     1
  8
0
 10
261.517699115044195
 20
148.5
 30
0.0
 40
523.0353982300885036
 41
297.0
 68
     1
 69
     1
1001
ACAD
1000
MVIEW
1002
{
1070
    16
1010
0.0
1020
0.0
1030
0.0
1010
0.0
1020
0.0
1030
1.0
1040
0.0
1040
297.0
1040
261.517699115044195
1040
148.5
1040
50.0
1040
0.0
1040
0.0
1070
     0
1070
   100
1070
     1
1070
     1
1070
     0
1070
     0
1070
     0
1070
     0
1040
0.0
1040
0.0
1040
0.0
1040
1.0
1040
1.0
1040
10.0
1040
10.0
1070
     0
1002
{
1002
}
1002
}
1001
GENIUS_GENOBJ-N-SDF_13
1002
{
1000
OWNER
1000
GEN
1002
}
1001
GENIUS_GENODEF_13
1002
{
1000
HIER
1070
     0
1002
}
1002
{
1000
MANEDIT
1070
     0
1002
}
1002
{
1000
NOSEL
1070
     0
1002
}
1002
{
1000
BEHIND
1070
     0
1002
}
1002
{
1000
OTHER
1070
     0
1002
}
1002
{
1000
REACTOR
1002
}
1001
GENIUS_GENSCREG_15
1000
PF
1040
1.0
1000
DF
1040
1.0
1000
MIN
1011
0.0
1021
0.0
1031
0.0
1021
0.0
1031
0.0
1000
MAX
1011
523.0353982300885036
1021
0.0
1031
0.0
1021
297.0
1031
0.0
1000
FLAGS
1070
     4
  0
ENDSEC
  0
EOF
