  0
SECTION
  2
HEADER
  9
$ACADVER
  1
AC1009
  9
$INSBASE
 10
0.0
 20
0.0
 30
0.0
  9
$EXTMIN
 10
-102.5999999999999943
 20
-49.2124999999999986
 30
0.0
  9
$EXTMAX
 10
115.1775467269111033
 20
82.0000000000000142
 30
0.0
  9
$LIMMIN
 10
0.0
 20
0.0
  9
$LIMMAX
 10
297.0
 20
210.0
  9
$ORTHOMODE
 70
     1
  9
$REGENMODE
 70
     1
  9
$FILLMODE
 70
     1
  9
$QTEXTMODE
 70
     0
  9
$MIRRTEXT
 70
     1
  9
$DRAGMODE
 70
     2
  9
$LTSCALE
 40
10.0
  9
$OSMODE
 70
   807
  9
$ATTMODE
 70
     1
  9
$TEXTSIZE
 40
3.0
  9
$TRACEWID
 40
1.0
  9
$TEXTSTYLE
  7
YOKO
  9
$CLAYER
  8
245
  9
$CELTYPE
  6
BYLAYER
  9
$CECOLOR
 62
   256
  9
$DIMSCALE
 40
1.0
  9
$DIMASZ
 40
2.0
  9
$DIMEXO
 40
0.5
  9
$DIMDLI
 40
2.5
  9
$DIMRND
 40
0.0
  9
$DIMDLE
 40
0.0
  9
$DIMEXE
 40
1.0
  9
$DIMTP
 40
0.0
  9
$DIMTM
 40
0.0
  9
$DIMTXT
 40
2.799999999999998
  9
$DIMCEN
 40
0.0
  9
$DIMTSZ
 40
0.0
  9
$DIMTOL
 70
     0
  9
$DIMLIM
 70
     0
  9
$DIMTIH
 70
     0
  9
$DIMTOH
 70
     0
  9
$DIMSE1
 70
     0
  9
$DIMSE2
 70
     0
  9
$DIMTAD
 70
     3
  9
$DIMZIN
 70
     8
  9
$DIMBLK
  1

  9
$DIMASO
 70
     1
  9
$DIMSHO
 70
     1
  9
$DIMPOST
  1

  9
$DIMAPOST
  1

  9
$DIMALT
 70
     0
  9
$DIMALTD
 70
     2
  9
$DIMALTF
 40
25.3999999999999986
  9
$DIMLFAC
 40
1.0
  9
$DIMTOFL
 70
     1
  9
$DIMTVP
 40
0.0
  9
$DIMTIX
 70
     1
  9
$DIMSOXD
 70
     0
  9
$DIMSAH
 70
     1
  9
$DIMBLK1
  1
OPEN
  9
$DIMBLK2
  1
OPEN
  9
$DIMSTYLE
  2
BIGT
  9
$DIMCLRD
 70
     3
  9
$DIMCLRE
 70
     3
  9
$DIMCLRT
 70
    40
  9
$DIMTFAC
 40
1.0
  9
$DIMGAP
 40
1.0
  9
$LUNITS
 70
     2
  9
$LUPREC
 70
     2
  9
$SKETCHINC
 40
1.0
  9
$FILLETRAD
 40
1.0
  9
$AUNITS
 70
     0
  9
$AUPREC
 70
     3
  9
$MENU
  1
.
  9
$ELEVATION
 40
0.0
  9
$PELEVATION
 40
0.0
  9
$THICKNESS
 40
0.0
  9
$LIMCHECK
 70
     0
  9
$BLIPMODE
 70
     0
  9
$CHAMFERA
 40
10.0
  9
$CHAMFERB
 40
10.0
  9
$SKPOLY
 70
     0
  9
$TDCREATE
 40
2457760.3718171301297843
  9
$TDUPDATE
 40
2458172.623217592947185
  9
$TDINDWG
 40
0.0491324884
  9
$TDUSRTIMER
 40
0.0491321759
  9
$USRTIMER
 70
     1
  9
$ANGBASE
 50
0.0
  9
$ANGDIR
 70
     0
  9
$PDMODE
 70
     0
  9
$PDSIZE
 40
-5.0
  9
$PLINEWID
 40
0.0
  9
$COORDS
 70
     1
  9
$SPLFRAME
 70
     0
  9
$SPLINETYPE
 70
     6
  9
$SPLINESEGS
 70
     8
  9
$ATTDIA
 70
     1
  9
$ATTREQ
 70
     1
  9
$HANDLING
 70
     1
  9
$HANDSEED
  5
1170
  9
$SURFTAB1
 70
     6
  9
$SURFTAB2
 70
     6
  9
$SURFTYPE
 70
     6
  9
$SURFU
 70
     6
  9
$SURFV
 70
     6
  9
$UCSNAME
  2

  9
$UCSORG
 10
0.0
 20
0.0
 30
0.0
  9
$UCSXDIR
 10
1.0
 20
0.0
 30
0.0
  9
$UCSYDIR
 10
0.0
 20
1.0
 30
0.0
  9
$PUCSNAME
  2

  9
$PUCSORG
 10
0.0
 20
0.0
 30
0.0
  9
$PUCSXDIR
 10
1.0
 20
0.0
 30
0.0
  9
$PUCSYDIR
 10
0.0
 20
1.0
 30
0.0
  9
$USERI1
 70
     1
  9
$USERI2
 70
     0
  9
$USERI3
 70
     0
  9
$USERI4
 70
     0
  9
$USERI5
 70
     0
  9
$USERR1
 40
0.0
  9
$USERR2
 40
0.0
  9
$USERR3
 40
0.0
  9
$USERR4
 40
0.0
  9
$USERR5
 40
0.0
  9
$WORLDVIEW
 70
     1
  9
$SHADEDGE
 70
     3
  9
$SHADEDIF
 70
    70
  9
$TILEMODE
 70
     1
  9
$MAXACTVP
 70
    16
  9
$PLIMCHECK
 70
     0
  9
$PEXTMIN
 10
1.0000000000000000E+20
 20
1.0000000000000000E+20
 30
1.0000000000000000E+20
  9
$PEXTMAX
 10
-1.0000000000000000E+20
 20
-1.0000000000000000E+20
 30
-1.0000000000000000E+20
  9
$PLIMMIN
 10
0.0
 20
0.0
  9
$PLIMMAX
 10
420.0
 20
297.0
  9
$UNITMODE
 70
     0
  9
$VISRETAIN
 70
     0
  9
$PLINEGEN
 70
     0
  9
$PSLTSCALE
 70
     1
  0
ENDSEC
  0
SECTION
  2
TABLES
  0
TABLE
  2
VPORT
 70
     1
  0
VPORT
  2
*ACTIVE
 70
     0
 10
0.0
 20
0.0
 11
1.0
 21
1.0
 12
67.2342870260074221
 22
-1.5495681264647061
 13
0.0
 23
0.0
 14
7.0
 24
7.0
 15
7.0
 25
7.0
 16
0.0
 26
0.0
 36
1.0
 17
0.0
 27
0.0
 37
0.0
 40
205.5358208372387026
 41
2.0192076830732288
 42
50.0
 43
0.0
 44
0.0
 50
0.0
 51
0.0
 71
     0
 72
 20000
 73
     1
 74
     0
 75
     0
 76
     0
 77
     0
 78
     0
  0
ENDTAB
  0
TABLE
  2
LTYPE
 70
    16
  0
LTYPE
  2
CONTINUOUS
 70
     0
  3
Solid line
 72
    65
 73
     0
 40
0.0
  0
LTYPE
  2
CENTER2
 70
     0
  3
___ _ ___ _ ___ _ ___ _ ___ _ ___ _ ___ _ ___ _
 72
    65
 73
     4
 40
1.125
 49
0.75
 49
-0.125
 49
0.125
 49
-0.125
  0
LTYPE
  2
HIDDEN2
 70
     0
  3
_ _ _ _ _ _ _ _ _ _ _ _ _ _ _ _ _ _ _ _ _ _ _ _
 72
    65
 73
     2
 40
0.1875
 49
0.125
 49
-0.0625
  0
LTYPE
  2
AM_ISO02W050
 70
     0
  3
__ __ __ __ __ __ __ __ __ __ __ __ __ __ __
 72
    65
 73
     2
 40
7.5
 49
6.0
 49
-1.5
  0
LTYPE
  2
AM_ISO08W050
 70
     0
  3
____ . ____ . ____ . ____ . ____ . ____ . ____
 72
    65
 73
     4
 40
18.0
 49
12.0
 49
-1.5
 49
3.0
 49
-1.5
  0
LTYPE
  2
AM_ISO09W050
 70
     0
  3
_____ . . _____ . . _____ . . ____ .. ____
 72
    65
 73
     6
 40
22.5
 49
12.0
 49
-1.5
 49
3.0
 49
-1.5
 49
3.0
 49
-1.5
  0
LTYPE
  2
AMCONSTR
 70
     0
  3
_______________________
 72
    65
 73
     2
 40
9999.0
 49
9999.0
 49
0.0
  0
LTYPE
  2
AM_ISO08W050X2
 70
     0
  3
__ . __ . __ . __ . __ . __
 72
    65
 73
     4
 40
9.0
 49
6.0
 49
-0.75
 49
1.5
 49
-0.75
  0
LTYPE
  2
AM_ISO02W050X2
 70
     0
  3
 _ _ _ _ _ _ _ _ _ _ _ _
 72
    65
 73
     2
 40
3.75
 49
3.0
 49
-0.75
  0
LTYPE
  2
AMZIGZAG
 70
     0
  3
/\/-/\/-/\/-/\/-/\/-/\/
 72
    65
 73
     2
 40
11.0000999999999998
 49
0.0001
 49
-11.0
  0
LTYPE
  2
ACISOWELD
 70
     0
  3
_ _ _ _ _
 72
    65
 73
     2
 40
2.0
 49
2.0
 49
-1.0
  0
LTYPE
  2
ACISOTGL
 70
     0
  3
_ _ _ _ _
 72
    65
 73
     2
 40
3.0
 49
2.0
 49
-1.0
  0
LTYPE
  2
ACISOTGB
 70
     0
  3
__ . . __ . .
 72
    65
 73
     6
 40
9.0
 49
4.0
 49
-1.0
 49
1.0
 49
-1.0
 49
1.0
 49
-1.0
  0
ENDTAB
  0
TABLE
  2
LAYER
 70
    10
  0
LAYER
  2
0
 70
     0
 62
     7
  6
CONTINUOUS
  0
LAYER
  2
240
 70
     0
 62
     4
  6
CONTINUOUS
  0
LAYER
  2
241
 70
     0
 62
   211
  6
CONTINUOUS
  0
LAYER
  2
242
 70
     0
 62
     3
  6
CONTINUOUS
  0
LAYER
  2
243
 70
     0
 62
   211
  6
HIDDEN2
  0
LAYER
  2
245
 70
     0
 62
     2
  6
CENTER2
  0
LAYER
  2
247
 70
     0
 62
    60
  6
CONTINUOUS
  0
LAYER
  2
250
 70
     0
 62
     3
  6
CONTINUOUS
  0
LAYER
  2
251
 70
     0
 62
     3
  6
CONTINUOUS
  0
ENDTAB
  0
TABLE
  2
STYLE
 70
     5
  0
STYLE
  2
STANDARD
 70
     0
 40
0.0
 41
1.0
 50
0.0
 71
     0
 42
3.0
  3
romans.shx
  4
BIGFONT.SHX
  0
STYLE
  2
YOKO
 70
     0
 40
0.0
 41
1.0
 50
0.0
 71
     0
 42
3.0
  3
romans.shx
  4
extfont.shx
  0
STYLE
  2

 70
     1
 40
0.0
 41
1.0
 50
0.0
 71
     0
 42
3.0
  3
genltshp.shx
  4

  0
STYLE
  2
ACISOGDT
 70
     0
 40
0.0
 41
1.0
 50
0.0
 71
     0
 42
3.0
  3
amgdt.shx
  4

  0
ENDTAB
  0
TABLE
  2
VIEW
 70
     0
  0
ENDTAB
  0
TABLE
  2
UCS
 70
     0
  0
ENDTAB
  0
TABLE
  2
APPID
 70
    26
  0
APPID
  2
ACAD
 70
     0
  0
APPID
  2
GLOBAL
 70
     0
  0
APPID
  2
DETAIL
 70
     0
  0
APPID
  2
GRPNAME
 70
     0
  0
APPID
  2
GPARA
 70
     0
  0
APPID
  2
DCO15
 70
     0
  0
APPID
  2
ITEMNAME
 70
     0
  0
APPID
  2
GRADE_0
 70
     0
  0
APPID
  2
ACAD_DSTYLE_DIMJAG
 70
     0
  0
APPID
  2
ACAD_DSTYLE_DIMTALN
 70
     0
  0
APPID
  2
ACAD_NAV_VCDISPLAY
 70
     0
  0
APPID
  2
ACAD_MLEADERVER
 70
     0
  0
APPID
  2
ACAD_DSTYLE_DIMBREAK
 70
     0
  0
APPID
  2
GENIUS_GENODEF_13
 70
     0
  0
APPID
  2
GENIUS_GENOBJ-N-FIL_13
 70
     0
  0
APPID
  2
ACAD_PSEXT
 70
     0
  0
APPID
  2
ACAD_EXEMPT_FROM_CAD_STANDARDS
 70
     0
  0
APPID
  2
MCAD_NO_VIS
 70
     0
  0
APPID
  2
ACAD_TEMP_GRAPHIC
 70
     0
  0
APPID
  2
ACATTRIBSERVICES
 70
     0
  0
APPID
  2
DESIGNERASSEMBLIES
 70
     0
  0
APPID
  2
GENIUS_GENSCREG_15
 70
     0
  0
APPID
  2
GENIUS_GENOBJ-N-SDF_13
 70
     0
  0
APPID
  2
GENIUS_GENFIL_13
 70
     0
  0
APPID
  2
GENIUS_GENOBJ-N-CHA_13
 70
     0
  0
APPID
  2
ACAECLAYERSTANDARD
 70
     0
  0
ENDTAB
  0
TABLE
  2
DIMSTYLE
 70
     8
  0
DIMSTYLE
  2
BIGT
 70
     0
  3

  4

  5

  6
OPEN
  7
OPEN
 40
1.0
 41
2.0
 42
0.5
 43
2.5
 44
1.0
 45
0.0
 46
0.0
 47
0.0
 48
0.0
140
2.799999999999998
141
0.0
142
0.0
143
25.3999999999999986
144
1.0
145
0.0
146
1.0
147
1.0
 71
     0
 72
     0
 73
     0
 74
     0
 75
     0
 76
     0
 77
     3
 78
     8
170
     0
171
     2
172
     1
173
     1
174
     1
175
     0
176
     3
177
     3
178
    40
  0
DIMSTYLE
  2
AM_ISO
 70
     0
  3

  4
"
  5

  6

  7

 40
1.0
 41
3.5
 42
1.0
 43
10.0
 44
1.0
 45
0.0
 46
0.0
 47
0.1
 48
0.1
140
3.5
141
0.0
142
0.0
143
0.0393701
144
1.0
145
0.0
146
0.71
147
1.5
 71
     0
 72
     0
 73
     0
 74
     0
 75
     0
 76
     0
 77
     1
 78
     8
170
     0
171
     2
172
     1
173
     0
174
     0
175
     0
176
   256
177
   256
178
     2
  0
DIMSTYLE
  2
AM_ISO$3
 70
     0
  3

  4
"
  5

  6

  7

 40
1.0
 41
3.5
 42
1.0
 43
10.0
 44
1.0
 45
0.0
 46
0.0
 47
0.1
 48
0.1
140
3.5
141
0.0
142
0.0
143
0.0393701
144
1.0
145
0.0
146
0.71
147
1.5
 71
     0
 72
     0
 73
     0
 74
     1
 75
     0
 76
     0
 77
     1
 78
     8
170
     0
171
     2
172
     0
173
     0
174
     0
175
     0
176
   256
177
   256
178
     2
  0
DIMSTYLE
  2
AM_ISO$4
 70
     0
  3

  4
"
  5

  6

  7

 40
1.0
 41
3.5
 42
1.0
 43
10.0
 44
1.0
 45
0.0
 46
0.0
 47
0.1
 48
0.1
140
3.5
141
0.0
142
0.0
143
0.0393701
144
1.0
145
0.0
146
0.71
147
1.5
 71
     0
 72
     0
 73
     0
 74
     1
 75
     0
 76
     0
 77
     1
 78
     8
170
     0
171
     2
172
     0
173
     0
174
     0
175
     0
176
   256
177
   256
178
     2
  0
DIMSTYLE
  2
AM_ISO$6
 70
     0
  3

  4
"
  5

  6

  7

 40
1.0
 41
3.5
 42
1.0
 43
10.0
 44
1.0
 45
0.0
 46
0.0
 47
0.1
 48
0.1
140
3.5
141
0.0
142
0.0
143
0.0393701
144
1.0
145
0.0
146
0.71
147
1.5
 71
     0
 72
     0
 73
     0
 74
     0
 75
     0
 76
     0
 77
     0
 78
     8
170
     0
171
     2
172
     1
173
     0
174
     0
175
     0
176
   256
177
   256
178
     2
  0
DIMSTYLE
  2
AM_ISO$7
 70
     0
  3

  4
"
  5

  6

  7

 40
1.0
 41
3.5
 42
1.0
 43
10.0
 44
1.0
 45
0.0
 46
0.0
 47
0.1
 48
0.1
140
3.5
141
0.0
142
0.0
143
0.0393701
144
1.0
145
0.0
146
0.71
147
1.5
 71
     0
 72
     0
 73
     0
 74
     0
 75
     0
 76
     0
 77
     1
 78
     8
170
     0
171
     2
172
     1
173
     0
174
     0
175
     0
176
   256
177
   256
178
     2
  0
DIMSTYLE
  2
AM_ISO$SF
 70
     0
  3

  4
"
  5

  6

  7

 40
1.0
 41
3.5
 42
1.0
 43
10.0
 44
1.0
 45
0.0
 46
0.0
 47
0.1
 48
0.1
140
3.5
141
0.0
142
0.0
143
0.0393701
144
1.0
145
0.0
146
0.71
147
1.5
 71
     0
 72
     0
 73
     0
 74
     0
 75
     1
 76
     1
 77
     1
 78
     8
170
     0
171
     2
172
     1
173
     0
174
     0
175
     0
176
   256
177
   256
178
     2
  0
DIMSTYLE
  2
AM_ISO$SH
 70
     0
  3

  4
"
  5

  6
GENAXEH
  7

 40
1.0
 41
3.5
 42
1.0
 43
10.0
 44
1.0
 45
0.0
 46
0.0
 47
0.1
 48
0.1
140
3.5
141
0.0
142
0.0
143
0.0393701
144
2.0
145
0.0
146
0.71
147
1.5
 71
     0
 72
     0
 73
     0
 74
     0
 75
     1
 76
     1
 77
     1
 78
     8
170
     0
171
     2
172
     1
173
     1
174
     0
175
     0
176
   256
177
   256
178
     2
  0
ENDTAB
  0
ENDSEC
  0
SECTION
  2
BLOCKS
  0
BLOCK
  8
0
  2
$MODEL_SPACE
 70
     0
 10
0.0
 20
0.0
 30
0.0
  3
$MODEL_SPACE
  1

  0
ENDBLK
  5
1C
  8
0
  0
BLOCK
 67
     1
  8
0
  2
$PAPER_SPACE
 70
     0
 10
0.0
 20
0.0
 30
0.0
  3
$PAPER_SPACE
  1

  0
ENDBLK
  5
19
 67
     1
  8
0
  0
BLOCK
  8
0
  2
_OPEN
 70
     0
 10
0.0
 20
0.0
 30
0.0
  3
_OPEN
  1

  0
LINE
  5
595
  8
0
  6
BYBLOCK
 62
     0
 10
-1.0
 20
0.1666666666666666
 30
0.0
 11
0.0
 21
0.0
 31
0.0
  0
LINE
  5
596
  8
0
  6
BYBLOCK
 62
     0
 10
-1.0
 20
-0.1666666666666666
 30
0.0
 11
0.0
 21
0.0
 31
0.0
  0
LINE
  5
597
  8
0
  6
BYBLOCK
 62
     0
 10
0.0
 20
0.0
 30
0.0
 11
-1.0
 21
0.0
 31
0.0
  0
ENDBLK
  5
599
  8
0
  0
BLOCK
  8
0
  2
矢印なし
 70
     0
 10
0.0
 20
0.0
 30
0.0
  3
矢印なし
  1

  0
ENDBLK
  5
6E5
  8
0
  0
BLOCK
  8
0
  2
GENAXEH
 70
     0
 10
0.0
 20
0.0
 30
0.0
  3
GENAXEH
  1

  0
LINE
  5
101A
  8
0
 10
-1.0
 20
0.0
 30
0.0
 11
1.0
 21
0.0
 31
0.0
  0
ENDBLK
  5
101C
  8
0
  0
BLOCK
  8
0
  2
*U4
 70
     1
 10
0.0
 20
0.0
 30
0.0
  3
*U4
  1

  0
INSERT
  5
10F3
  8
251
  6
CONTINUOUS
  2
_OPEN
 10
82.2115854406569042
 20
13.9999999999998401
 30
0.0
 41
2.0
 42
2.0
 43
2.0
 50
240.0
  0
POLYLINE
  5
10F4
  8
251
  6
CONTINUOUS
 66
     1
 10
0.0
 20
0.0
 30
0.0
  0
VERTEX
  5
10F5
  8
251
  6
CONTINUOUS
 10
83.2115854406569042
 20
15.7320508075687204
 30
0.0
  0
VERTEX
  5
10F6
  8
251
  6
CONTINUOUS
 10
102.3775467269111061
 20
48.9284695312591822
 30
0.0
  0
SEQEND
  5
10F7
  8
251
  6
CONTINUOUS
  0
ENDBLK
  5
10F9
  8
0
  0
BLOCK
  8
0
  2
*U5
 70
     1
 10
0.0
 20
0.0
 30
0.0
  3
*U5
  1

  0
TEXT
  5
10FB
  8
251
 10
104.7775467269110976
 20
49.9284695312591609
 30
0.0
 40
2.799999999999998
  1
S50
  7
YOKO
  0
ENDBLK
  5
10FD
  8
0
  0
BLOCK
  8
0
  2
*U6
 70
     1
 10
0.0
 20
0.0
 30
0.0
  3
*U6
  1

  0
TEXT
  5
10FF
  8
250
 10
40.1833333333331311
 20
64.0000000000000142
 30
0.0
 40
2.799999999999998
  1
3.53
  0
ENDBLK
  5
1101
  8
0
  0
BLOCK
  8
0
  2
*U7
 70
     1
 10
0.0
 20
0.0
 30
0.0
  3
*U7
  1

  0
TEXT
  5
1103
  8
250
 10
104.0
 20
-7.2000000000007862
 30
0.0
 40
2.7999999999999989
  1
\U+2205
 50
90.0
  0
TEXT
  5
1104
  8
250
 10
104.0
 20
-4.666666666667453
 30
0.0
 40
2.799999999999998
  1
1.969
 50
90.0
  0
ENDBLK
  5
1106
  8
0
  0
ENDSEC
  0
SECTION
  2
ENTITIES
  0
INSERT
  5
6E6
  8
245
  2
矢印なし
 10
175.6238269664376901
 20
90.5512357169059783
 30
0.0
  0
LINE
  5
B37
  8
245
  6
CENTER2
 10
-102.5999999999999943
 20
0.0000000000000169
 30
0.0
 11
90.6999999999998465
 21
-0.0000000000000304
 31
0.0
1001
GRPNAME
1000
PASTMD0L
  0
LINE
  5
B38
  8
240
  6
CONTINUOUS
 10
0.0
 20
34.9250000000000114
 30
0.0
 11
-101.5999999999999943
 21
20.1083333297216917
 31
0.0
1001
GRPNAME
1000
PASTMD0L
  0
LINE
  5
B39
  8
240
  6
CONTINUOUS
 10
0.0
 20
-34.9250000000000114
 30
0.0
 11
-101.5999999999999943
 21
-20.1083333297217202
 31
0.0
1001
GRPNAME
1000
PASTMD0L
  0
LINE
  5
B3A
  8
240
  6
CONTINUOUS
 10
-101.5999999999999943
 20
20.1083333297216917
 30
0.0
 11
-101.5999999999999943
 21
-20.1083333297217202
 31
0.0
1001
GRPNAME
1000
PASTMD0L
  0
LINE
  5
B3B
  8
241
  6
CONTINUOUS
 10
7.5938332300000013
 20
49.2124999999999702
 30
0.0
 11
7.5938332300000022
 21
12.6999999999964697
 31
0.0
1001
GRPNAME
1000
PASTMD0L
  0
LINE
  5
B3C
  8
241
  6
CONTINUOUS
 10
9.2000000000000028
 20
45.6449999999999818
 30
0.0
 11
9.2000000000000028
 21
12.6999999999954696
 31
0.0
1001
GRPNAME
1000
PASTMD0L
  0
LINE
  5
B3D
  8
241
  6
CONTINUOUS
 10
13.0399999999999903
 20
45.6449999999999818
 30
0.0
 11
13.0399999999999903
 21
12.6999999999930804
 31
0.0
1001
GRPNAME
1000
PASTMD0L
  0
LINE
  5
B3E
  8
241
  6
CONTINUOUS
 10
14.6461667700000095
 20
49.2124999999999702
 30
0.0
 11
14.6461667700000095
 21
12.6999999999920803
 31
0.0
1001
GRPNAME
1000
PASTMD0L
  0
LINE
  5
B3F
  8
241
  6
CONTINUOUS
 10
1.5
 20
34.9250000000000114
 30
0.0
 11
1.5
 21
-34.9250000000000114
 31
0.0
1001
GRPNAME
1000
PASTMD0L
  0
LINE
  5
B40
  8
241
  6
CONTINUOUS
 10
9.2000000000000028
 20
-45.6450000000000102
 30
0.0
 11
9.2000000000000028
 21
-12.6999999999962601
 31
0.0
1001
GRPNAME
1000
PASTMD0L
  0
LINE
  5
B41
  8
241
  6
CONTINUOUS
 10
7.5938332300000013
 20
-49.2124999999999986
 30
0.0
 11
7.5938332299999969
 21
-12.6999999999969404
 31
0.0
1001
GRPNAME
1000
PASTMD0L
  0
LINE
  5
B42
  8
241
  6
CONTINUOUS
 10
13.0399999999999903
 20
-45.6450000000000102
 30
0.0
 11
13.0399999999999903
 21
-12.69999999999464
 31
0.0
1001
GRPNAME
1000
PASTMD0L
  0
LINE
  5
B43
  8
241
  6
CONTINUOUS
 10
14.6461667700000095
 20
-49.2124999999999986
 30
0.0
 11
14.6461667700000095
 21
-12.6999999999939597
 31
0.0
1001
GRPNAME
1000
PASTMD0L
  0
LINE
  5
B44
  8
240
  6
CONTINUOUS
 10
1.5
 20
-49.2124999999999986
 30
0.0
 11
1.5
 21
-34.9250000000000114
 31
0.0
1001
GRPNAME
1000
PASTMD0L
  0
LINE
  5
B45
  8
240
  6
CONTINUOUS
 10
19.0500000000000114
 20
-49.2124999999999986
 30
0.0
 11
19.0500000000000185
 21
-44.5010376910486087
 31
0.0
1001
GRPNAME
1000
PASTMD0L
  0
LINE
  5
B46
  8
240
  6
CONTINUOUS
 10
14.6461667700000095
 20
-49.2124999999999986
 30
0.0
 11
19.0500000000000114
 21
-49.2124999999999986
 31
0.0
1001
GRPNAME
1000
PASTMD0L
  0
LINE
  5
B47
  8
240
  6
CONTINUOUS
 10
1.5
 20
-49.2124999999999986
 30
0.0
 11
7.5938332300000013
 21
-49.2124999999999986
 31
0.0
1001
GRPNAME
1000
PASTMD0L
  0
LINE
  5
B48
  8
240
  6
CONTINUOUS
 10
9.2000000000000028
 20
-45.6450000000000102
 30
0.0
 11
13.0399999999999903
 21
-45.6450000000000102
 31
0.0
1001
GRPNAME
1000
PASTMD0L
  0
LINE
  5
B49
  8
240
  6
CONTINUOUS
 10
9.2000000000000028
 20
-46.4305375499999897
 30
0.0
 11
7.5938332300000013
 21
-49.2124999999999986
 31
0.0
1001
GRPNAME
1000
PASTMD0L
  0
LINE
  5
B4A
  8
240
  6
CONTINUOUS
 10
9.2000000000000028
 20
-45.6450000000000102
 30
0.0
 11
9.2000000000000028
 21
-46.4305375499999897
 31
0.0
1001
GRPNAME
1000
PASTMD0L
  0
LINE
  5
B4B
  8
240
  6
CONTINUOUS
 10
13.0399999999999903
 20
-46.4305375499999897
 30
0.0
 11
14.6461667700000095
 21
-49.2124999999999986
 31
0.0
1001
GRPNAME
1000
PASTMD0L
  0
LINE
  5
B4C
  8
240
  6
CONTINUOUS
 10
13.0399999999999903
 20
-45.6450000000000102
 30
0.0
 11
13.0399999999999903
 21
-46.4305375499999897
 31
0.0
1001
GRPNAME
1000
PASTMD0L
  0
LINE
  5
B4E
  8
241
  6
CONTINUOUS
 10
0.0
 20
-34.9250000000000114
 30
0.0
 11
0.0
 21
34.9250000000000114
 31
0.0
1001
GRPNAME
1000
PASTMD0L
  0
LINE
  5
B50
  8
240
  6
CONTINUOUS
 10
0.0
 20
-34.9250000000000114
 30
0.0
 11
1.5
 21
-34.9250000000000114
 31
0.0
  0
LINE
  5
B55
  8
240
  6
CONTINUOUS
 10
1.5
 20
49.2124999999999702
 30
0.0
 11
1.5
 21
34.9250000000000114
 31
0.0
1001
GRPNAME
1000
PASTMD0L
  0
LINE
  5
B56
  8
240
  6
CONTINUOUS
 10
19.0500000000000114
 20
49.2124999999999702
 30
0.0
 11
19.0500000000000114
 21
44.5010376910481398
 31
0.0
1001
GRPNAME
1000
PASTMD0L
  0
LINE
  5
B57
  8
240
  6
CONTINUOUS
 10
0.0
 20
34.9250000000000114
 30
0.0
 11
1.5
 21
34.9250000000000114
 31
0.0
  0
LINE
  5
B59
  8
240
  6
CONTINUOUS
 10
14.6461667700000095
 20
49.2124999999999702
 30
0.0
 11
19.0500000000000114
 21
49.2124999999999702
 31
0.0
1001
GRPNAME
1000
PASTMD0L
  0
LINE
  5
B5A
  8
240
  6
CONTINUOUS
 10
1.5
 20
49.2124999999999702
 30
0.0
 11
7.5938332300000013
 21
49.2124999999999702
 31
0.0
1001
GRPNAME
1000
PASTMD0L
  0
LINE
  5
B5B
  8
240
  6
CONTINUOUS
 10
9.2000000000000028
 20
45.6449999999999818
 30
0.0
 11
13.0399999999999903
 21
45.6449999999999818
 31
0.0
1001
GRPNAME
1000
PASTMD0L
  0
LINE
  5
B5C
  8
240
  6
CONTINUOUS
 10
9.2000000000000028
 20
45.6449999999999818
 30
0.0
 11
9.2000000000000028
 21
46.4305375499999897
 31
0.0
1001
GRPNAME
1000
PASTMD0L
  0
LINE
  5
B5D
  8
240
  6
CONTINUOUS
 10
9.2000000000000028
 20
46.4305375499999897
 30
0.0
 11
7.5938332300000013
 21
49.2124999999999702
 31
0.0
1001
GRPNAME
1000
PASTMD0L
  0
LINE
  5
B5E
  8
240
  6
CONTINUOUS
 10
13.0399999999999903
 20
45.6449999999999818
 30
0.0
 11
13.0399999999999903
 21
46.4305375499999897
 31
0.0
1001
GRPNAME
1000
PASTMD0L
  0
LINE
  5
B5F
  8
240
  6
CONTINUOUS
 10
13.0399999999999903
 20
46.4305375499999897
 30
0.0
 11
14.6461667700000095
 21
49.2124999999999702
 31
0.0
1001
GRPNAME
1000
PASTMD0L
  0
TEXT
  5
B60
  8
250
  6
CONTINUOUS
 10
-73.9885626086238517
 20
-37.3577389430146312
 30
0.0
 40
2.799999999999998
  1
BCV50Y
  7
YOKO
1001
ITEMNAME
1000
LNSP3
  0
LINE
  5
B61
  8
250
  6
CONTINUOUS
 10
-57.0612186589336901
 20
-38.3577389430146312
 30
0.0
 11
-75.0612186589336829
 21
-38.3577389430146312
 31
0.0
1001
ITEMNAME
1000
LNSP2
  0
LINE
  5
B62
  8
250
  6
CONTINUOUS
 10
-52.088904974520247
 20
-29.0818615630252886
 30
0.0
 11
-50.7999999989336999
 21
-27.5166666630146288
 31
0.0
  0
LINE
  5
B63
  8
250
  6
CONTINUOUS
 10
-51.5116036569175506
 20
-29.4152796686203608
 30
0.0
 11
-50.7999999989336999
 21
-27.5166666630146288
 31
0.0
  0
LINE
  5
B64
  8
250
  6
CONTINUOUS
 10
-50.7999999989336999
 20
-27.5166666630146288
 30
0.0
 11
-51.8002543157188811
 21
-29.2485706158228211
 31
0.0
  0
LINE
  5
B65
  8
250
  6
CONTINUOUS
 10
-51.8002543157188811
 20
-29.2485706158228211
 30
0.0
 11
-57.0612186589336901
 21
-38.3577389430146312
 31
0.0
1001
ACAD
1000
DSTYLE
1002
{
1070
     6
1000
OPEN
1070
    41
1040
2.0
1070
    42
1040
2.0
1070
    44
1040
2.0
1070
   140
1040
4.0
1070
   343
1005
0
1002
}
  0
LINE
  5
B66
  8
247
  6
CONTINUOUS
 10
5.4999999999999432
 20
-26.75
 30
0.0
 11
5.5
 21
-22.1153846156700489
 31
0.0
  0
LINE
  5
B67
  8
247
  6
CONTINUOUS
 10
3.0
 20
-25.9548934999879783
 30
0.0
 11
5.0999999999160073
 21
-26.5570588100573595
 31
0.0
  0
LINE
  5
B68
  8
247
  6
CONTINUOUS
 10
3.996153846113998
 20
-25.3251514035190404
 30
0.0
 11
3.996153846113998
 21
-26.24053601886704
 31
0.0
  0
ARC
  5
B69
  8
247
  6
CONTINUOUS
 10
3.3847190672940979
 20
-25.0872634019468101
 30
0.0
 40
0.3876715809326743
 50
72.9978896752921997
 51
172.9241662185135908
  0
ARC
  5
B6A
  8
247
  6
CONTINUOUS
 10
3.305223131028014
 20
-25.3824775568041296
 30
0.0
 40
0.693304796535877
 50
4.7429368522022113
 51
73.8492262732667513
1001
GENIUS_GENOBJ-N-FIL_13
1002
{
1000
OWNER
1000
GEN
1002
}
1001
GENIUS_GENODEF_13
1002
{
1000
HIER
1070
     0
1002
}
1002
{
1000
MANEDIT
1070
     0
1002
}
1002
{
1000
NOSEL
1070
     0
1002
}
1002
{
1000
BEHIND
1070
     0
1002
}
1002
{
1000
OTHER
1070
     0
1002
}
1002
{
1000
REACTOR
1002
}
  0
LINE
  5
B6B
  8
247
  6
CONTINUOUS
 10
5.0999999999160073
 20
-25.6416741947093705
 30
0.0
 11
5.0999999999160073
 21
-26.5570588100573595
 31
0.0
  0
LINE
  5
B6C
  8
247
  6
CONTINUOUS
 10
3.0
 20
-25.9548934999879783
 30
0.0
 11
3.0
 21
-25.0395088846399894
 31
0.0
  0
ARC
  5
B6D
  8
247
  6
CONTINUOUS
 10
4.3874169627678681
 20
-25.3783064762668609
 30
0.0
 40
0.394857301075386
 50
65.990941652528889
 51
172.2634434590690944
  0
ARC
  5
B6E
  8
247
  6
CONTINUOUS
 10
4.3912003273325659
 20
-25.7124466104269302
 30
0.0
 40
0.7123241612361686
 50
5.701985164259785
 51
77.2773384368220206
1001
GENIUS_GENOBJ-N-FIL_13
1002
{
1000
OWNER
1000
GEN
1002
}
1001
GENIUS_GENODEF_13
1002
{
1000
HIER
1070
     0
1002
}
1002
{
1000
MANEDIT
1070
     0
1002
}
1002
{
1000
NOSEL
1070
     0
1002
}
1002
{
1000
BEHIND
1070
     0
1002
}
1002
{
1000
OTHER
1070
     0
1002
}
1002
{
1000
REACTOR
1002
}
  0
LINE
  5
B6F
  8
247
  6
CONTINUOUS
 10
5.0999999999160073
 20
-24.6839818870633998
 30
0.0
 11
3.0
 21
-24.0818165769940116
 31
0.0
  0
LINE
  5
B70
  8
247
  6
CONTINUOUS
 10
3.0
 20
-22.5856627309079805
 30
0.0
 11
3.0
 21
-22.9816783643036011
 31
0.0
  0
LINE
  5
B71
  8
247
  6
CONTINUOUS
 10
5.0999999999160073
 20
-23.6087396539439816
 30
0.0
 11
5.0999999999160073
 21
-23.1779704231919901
 31
0.0
  0
ARC
  5
B72
  8
247
  6
CONTINUOUS
 10
4.4582995950833562
 20
-22.3818165770699693
 30
0.0
 40
1.576855057639547
 50
202.3594881415291127
 51
254.9932485428464872
  0
ARC
  5
B73
  8
247
  6
CONTINUOUS
 10
3.5658188585381332
 20
-22.8475113661332294
 30
0.0
 40
0.6234706797009447
 50
94.9945893190753168
 51
155.1663289573039037
1001
GENIUS_GENOBJ-N-FIL_13
1002
{
1000
OWNER
1000
GEN
1002
}
1001
GENIUS_GENODEF_13
1002
{
1000
HIER
1070
     0
1002
}
1002
{
1000
MANEDIT
1070
     0
1002
}
1002
{
1000
NOSEL
1070
     0
1002
}
1002
{
1000
BEHIND
1070
     0
1002
}
1002
{
1000
OTHER
1070
     0
1002
}
1002
{
1000
REACTOR
1002
}
  0
ARC
  5
B74
  8
247
  6
CONTINUOUS
 10
4.1621021219694381
 20
-23.4441839510328087
 30
0.0
 40
0.9749472149106982
 50
15.8460965557808002
 51
82.325137004169278
  0
ARC
  5
B75
  8
247
  6
CONTINUOUS
 10
4.3714704019710631
 20
-23.035211638772239
 30
0.0
 40
0.9271945638692008
 50
249.7136016704968995
 51
321.7887456564109243
1001
GENIUS_GENOBJ-N-FIL_13
1002
{
1000
OWNER
1000
GEN
1002
}
1001
GENIUS_GENODEF_13
1002
{
1000
HIER
1070
     0
1002
}
1002
{
1000
MANEDIT
1070
     0
1002
}
1002
{
1000
NOSEL
1070
     0
1002
}
1002
{
1000
BEHIND
1070
     0
1002
}
1002
{
1000
OTHER
1070
     0
1002
}
1002
{
1000
REACTOR
1002
}
  0
LINE
  5
B76
  8
247
  6
CONTINUOUS
 10
4.2923076922559726
 20
-22.9625858078159588
 30
0.0
 11
4.2923076922559726
 21
-22.4779704232199684
 31
0.0
  0
ARC
  5
B77
  8
247
  6
CONTINUOUS
 10
4.25
 20
-26.75
 30
0.0
 40
1.25
 50
180.0
 51
0.0
  0
LINE
  5
B78
  8
247
  6
CONTINUOUS
 10
3.0
 20
-26.75
 30
0.0
 11
3.0
 21
-26.3038461539140407
 31
0.0
  0
ARC
  5
B79
  8
247
  6
CONTINUOUS
 10
4.25
 20
-22.1153846156700489
 30
0.0
 40
1.25
 50
0.0
 51
180.0
  0
TEXT
  5
C22
  8
241
  6
CONTINUOUS
 10
-101.5999999999999943
 20
77.0000000000000142
 30
0.0
 40
5.0
  1
BCV50Y-S50-3.5
  7
YOKO
 11
-101.5999999999999943
 21
77.0000000000000142
 31
0.0
 73
     1
  0
LINE
  5
DE2
  8
241
  6
CONTINUOUS
 10
39.0500000000000966
 20
-33.7205953146755775
 30
0.0
 11
39.0500000000000966
 21
33.7619786856262394
 31
0.0
  0
LINE
  5
DE3
  8
240
  6
CONTINUOUS
 10
38.208787929288107
 20
-34.026771469120682
 30
0.0
 11
22.33989928337175
 21
-39.802574587119139
 31
0.0
  0
LINE
  5
DE4
  8
241
  6
CONTINUOUS
 10
28.6247839541754914
 20
12.6999999999833797
 30
0.0
 11
3.7000000000013689
 21
12.6999999999988908
 31
0.0
  0
LINE
  5
DE5
  8
241
  6
CONTINUOUS
 10
28.6247839541705389
 20
-12.6999999999880604
 30
0.0
 11
3.7000000000000002
 21
-12.69999999999858
 31
0.0
  0
ARC
  5
DE6
  8
240
  6
CONTINUOUS
 10
24.0500000000001286
 20
-44.5010376910486087
 30
0.0
 40
5.0
 50
109.9999999999964047
 51
180.0
  0
LINE
  5
DE7
  8
240
  6
CONTINUOUS
 10
89.7000000000001165
 20
-25.0000000000008207
 30
0.0
 11
39.9322185440634101
 21
-33.5687005288548974
 31
0.0
  0
POLYLINE
  8
241
  5
110E
  66
     1
 10
0.000000
 20
0.000000
 30
0.000000
  70
     8
  0
VERTEX
  8
241
  5
110F
 10
28.5258
 20
12.7530
 30
0.000000
  70
    32
  0
VERTEX
  8
241
  5
1110
 10
28.7893
 20
12.4690
 30
0.000000
  70
    32
  0
VERTEX
  8
241
  5
1111
 10
29.0465
 20
12.1861
 30
0.000000
  70
    32
  0
VERTEX
  8
241
  5
1112
 10
29.2976
 20
11.9042
 30
0.000000
  70
    32
  0
VERTEX
  8
241
  5
1113
 10
29.5425
 20
11.6234
 30
0.000000
  70
    32
  0
VERTEX
  8
241
  5
1114
 10
29.7813
 20
11.3436
 30
0.000000
  70
    32
  0
VERTEX
  8
241
  5
1115
 10
30.0141
 20
11.0647
 30
0.000000
  70
    32
  0
VERTEX
  8
241
  5
1116
 10
30.2409
 20
10.7869
 30
0.000000
  70
    32
  0
VERTEX
  8
241
  5
1117
 10
30.4616
 20
10.5099
 30
0.000000
  70
    32
  0
VERTEX
  8
241
  5
1118
 10
30.6765
 20
10.2338
 30
0.000000
  70
    32
  0
VERTEX
  8
241
  5
1119
 10
30.8854
 20
9.95861
 30
0.000000
  70
    32
  0
VERTEX
  8
241
  5
111A
 10
31.0884
 20
9.68425
 30
0.000000
  70
    32
  0
VERTEX
  8
241
  5
111B
 10
31.2857
 20
9.41073
 30
0.000000
  70
    32
  0
VERTEX
  8
241
  5
111C
 10
31.4771
 20
9.13799
 30
0.000000
  70
    32
  0
VERTEX
  8
241
  5
111D
 10
31.6627
 20
8.86603
 30
0.000000
  70
    32
  0
VERTEX
  8
241
  5
111E
 10
31.8427
 20
8.59482
 30
0.000000
  70
    32
  0
VERTEX
  8
241
  5
111F
 10
32.0169
 20
8.32433
 30
0.000000
  70
    32
  0
VERTEX
  8
241
  5
1120
 10
32.1854
 20
8.05455
 30
0.000000
  70
    32
  0
VERTEX
  8
241
  5
1121
 10
32.3483
 20
7.78543
 30
0.000000
  70
    32
  0
VERTEX
  8
241
  5
1122
 10
32.5056
 20
7.51698
 30
0.000000
  70
    32
  0
VERTEX
  8
241
  5
1123
 10
32.6573
 20
7.24914
 30
0.000000
  70
    32
  0
VERTEX
  8
241
  5
1124
 10
32.8034
 20
6.98192
 30
0.000000
  70
    32
  0
VERTEX
  8
241
  5
1125
 10
32.9440
 20
6.71528
 30
0.000000
  70
    32
  0
VERTEX
  8
241
  5
1126
 10
33.0790
 20
6.44919
 30
0.000000
  70
    32
  0
VERTEX
  8
241
  5
1127
 10
33.2086
 20
6.18364
 30
0.000000
  70
    32
  0
VERTEX
  8
241
  5
1128
 10
33.3326
 20
5.91861
 30
0.000000
  70
    32
  0
VERTEX
  8
241
  5
1129
 10
33.4513
 20
5.65407
 30
0.000000
  70
    32
  0
VERTEX
  8
241
  5
112A
 10
33.5644
 20
5.38999
 30
0.000000
  70
    32
  0
VERTEX
  8
241
  5
112B
 10
33.6722
 20
5.12637
 30
0.000000
  70
    32
  0
VERTEX
  8
241
  5
112C
 10
33.7746
 20
4.86316
 30
0.000000
  70
    32
  0
VERTEX
  8
241
  5
112D
 10
33.8716
 20
4.60036
 30
0.000000
  70
    32
  0
VERTEX
  8
241
  5
112E
 10
33.9632
 20
4.33794
 30
0.000000
  70
    32
  0
VERTEX
  8
241
  5
112F
 10
34.0494
 20
4.07588
 30
0.000000
  70
    32
  0
VERTEX
  8
241
  5
1130
 10
34.1304
 20
3.81415
 30
0.000000
  70
    32
  0
VERTEX
  8
241
  5
1131
 10
34.2060
 20
3.55274
 30
0.000000
  70
    32
  0
VERTEX
  8
241
  5
1132
 10
34.2762
 20
3.29163
 30
0.000000
  70
    32
  0
VERTEX
  8
241
  5
1133
 10
34.3412
 20
3.03078
 30
0.000000
  70
    32
  0
VERTEX
  8
241
  5
1134
 10
34.4009
 20
2.77019
 30
0.000000
  70
    32
  0
VERTEX
  8
241
  5
1135
 10
34.4553
 20
2.50982
 30
0.000000
  70
    32
  0
VERTEX
  8
241
  5
1136
 10
34.5045
 20
2.24966
 30
0.000000
  70
    32
  0
VERTEX
  8
241
  5
1137
 10
34.5484
 20
1.98969
 30
0.000000
  70
    32
  0
VERTEX
  8
241
  5
1138
 10
34.5870
 20
1.72989
 30
0.000000
  70
    32
  0
VERTEX
  8
241
  5
1139
 10
34.6204
 20
1.47023
 30
0.000000
  70
    32
  0
VERTEX
  8
241
  5
113A
 10
34.6485
 20
1.21069
 30
0.000000
  70
    32
  0
VERTEX
  8
241
  5
113B
 10
34.6714
 20
0.951255
 30
0.000000
  70
    32
  0
VERTEX
  8
241
  5
113C
 10
34.6890
 20
0.691901
 30
0.000000
  70
    32
  0
VERTEX
  8
241
  5
113D
 10
34.7014
 20
0.432607
 30
0.000000
  70
    32
  0
VERTEX
  8
241
  5
113E
 10
34.7086
 20
0.173353
 30
0.000000
  70
    32
  0
VERTEX
  8
241
  5
113F
 10
34.7106
 20
-0.0858826
 30
0.000000
  70
    32
  0
VERTEX
  8
241
  5
1140
 10
34.7073
 20
-0.345121
 30
0.000000
  70
    32
  0
VERTEX
  8
241
  5
1141
 10
34.6988
 20
-0.604383
 30
0.000000
  70
    32
  0
VERTEX
  8
241
  5
1142
 10
34.6851
 20
-0.863690
 30
0.000000
  70
    32
  0
VERTEX
  8
241
  5
1143
 10
34.6661
 20
-1.12306
 30
0.000000
  70
    32
  0
VERTEX
  8
241
  5
1144
 10
34.6419
 20
-1.38252
 30
0.000000
  70
    32
  0
VERTEX
  8
241
  5
1145
 10
34.6124
 20
-1.64209
 30
0.000000
  70
    32
  0
VERTEX
  8
241
  5
1146
 10
34.5777
 20
-1.90178
 30
0.000000
  70
    32
  0
VERTEX
  8
241
  5
1147
 10
34.5377
 20
-2.16163
 30
0.000000
  70
    32
  0
VERTEX
  8
241
  5
1148
 10
34.4925
 20
-2.42164
 30
0.000000
  70
    32
  0
VERTEX
  8
241
  5
1149
 10
34.4421
 20
-2.68185
 30
0.000000
  70
    32
  0
VERTEX
  8
241
  5
114A
 10
34.3863
 20
-2.94227
 30
0.000000
  70
    32
  0
VERTEX
  8
241
  5
114B
 10
34.3253
 20
-3.20293
 30
0.000000
  70
    32
  0
VERTEX
  8
241
  5
114C
 10
34.2589
 20
-3.46384
 30
0.000000
  70
    32
  0
VERTEX
  8
241
  5
114D
 10
34.1873
 20
-3.72503
 30
0.000000
  70
    32
  0
VERTEX
  8
241
  5
114E
 10
34.1104
 20
-3.98652
 30
0.000000
  70
    32
  0
VERTEX
  8
241
  5
114F
 10
34.0281
 20
-4.24833
 30
0.000000
  70
    32
  0
VERTEX
  8
241
  5
1150
 10
33.9405
 20
-4.51048
 30
0.000000
  70
    32
  0
VERTEX
  8
241
  5
1151
 10
33.8475
 20
-4.77300
 30
0.000000
  70
    32
  0
VERTEX
  8
241
  5
1152
 10
33.7491
 20
-5.03590
 30
0.000000
  70
    32
  0
VERTEX
  8
241
  5
1153
 10
33.6454
 20
-5.29920
 30
0.000000
  70
    32
  0
VERTEX
  8
241
  5
1154
 10
33.5363
 20
-5.56294
 30
0.000000
  70
    32
  0
VERTEX
  8
241
  5
1155
 10
33.4217
 20
-5.82713
 30
0.000000
  70
    32
  0
VERTEX
  8
241
  5
1156
 10
33.3017
 20
-6.09180
 30
0.000000
  70
    32
  0
VERTEX
  8
241
  5
1157
 10
33.1763
 20
-6.35696
 30
0.000000
  70
    32
  0
VERTEX
  8
241
  5
1158
 10
33.0453
 20
-6.62264
 30
0.000000
  70
    32
  0
VERTEX
  8
241
  5
1159
 10
32.9089
 20
-6.88887
 30
0.000000
  70
    32
  0
VERTEX
  8
241
  5
115A
 10
32.7669
 20
-7.15565
 30
0.000000
  70
    32
  0
VERTEX
  8
241
  5
115B
 10
32.6194
 20
-7.42303
 30
0.000000
  70
    32
  0
VERTEX
  8
241
  5
115C
 10
32.4663
 20
-7.69102
 30
0.000000
  70
    32
  0
VERTEX
  8
241
  5
115D
 10
32.3076
 20
-7.95964
 30
0.000000
  70
    32
  0
VERTEX
  8
241
  5
115E
 10
32.1432
 20
-8.22892
 30
0.000000
  70
    32
  0
VERTEX
  8
241
  5
115F
 10
31.9733
 20
-8.49888
 30
0.000000
  70
    32
  0
VERTEX
  8
241
  5
1160
 10
31.7976
 20
-8.76955
 30
0.000000
  70
    32
  0
VERTEX
  8
241
  5
1161
 10
31.6162
 20
-9.04095
 30
0.000000
  70
    32
  0
VERTEX
  8
241
  5
1162
 10
31.4291
 20
-9.31310
 30
0.000000
  70
    32
  0
VERTEX
  8
241
  5
1163
 10
31.2362
 20
-9.58604
 30
0.000000
  70
    32
  0
VERTEX
  8
241
  5
1164
 10
31.0375
 20
-9.85977
 30
0.000000
  70
    32
  0
VERTEX
  8
241
  5
1165
 10
30.8330
 20
-10.1343
 30
0.000000
  70
    32
  0
VERTEX
  8
241
  5
1166
 10
30.6226
 20
-10.4098
 30
0.000000
  70
    32
  0
VERTEX
  8
241
  5
1167
 10
30.4062
 20
-10.6861
 30
0.000000
  70
    32
  0
VERTEX
  8
241
  5
1168
 10
30.1840
 20
-10.9633
 30
0.000000
  70
    32
  0
VERTEX
  8
241
  5
1169
 10
29.9557
 20
-11.2414
 30
0.000000
  70
    32
  0
VERTEX
  8
241
  5
116A
 10
29.7214
 20
-11.5205
 30
0.000000
  70
    32
  0
VERTEX
  8
241
  5
116B
 10
29.4810
 20
-11.8006
 30
0.000000
  70
    32
  0
VERTEX
  8
241
  5
116C
 10
29.2345
 20
-12.0816
 30
0.000000
  70
    32
  0
VERTEX
  8
241
  5
116D
 10
28.9819
 20
-12.3638
 30
0.000000
  70
    32
  0
VERTEX
  8
241
  5
116E
 10
28.7231
 20
-12.6470
 30
0.000000
  70
    32
  0
SEQEND
  8
241
  5
116F
  0
ARC
  5
DE9
  8
240
  6
CONTINUOUS
 10
41.6289893625448073
 20
-43.4236976769797565
 30
0.0
 40
10.0
 50
99.7690444500724141
 51
109.9999999999979963
  0
LINE
  5
DEB
  8
240
  6
CONTINUOUS
 10
38.2087879292879293
 20
34.0267714691201704
 30
0.0
 11
22.3398992833716612
 21
39.8025745871186629
 31
0.0
  0
ARC
  5
DEC
  8
240
  6
CONTINUOUS
 10
24.0500000000000398
 20
44.5010376910481398
 30
0.0
 40
5.0
 50
180.0
 51
250.0000000000034959
  0
LINE
  5
DED
  8
240
  6
CONTINUOUS
 10
89.6999999999996049
 20
24.9999999999992006
 30
0.0
 11
39.9322185440631472
 21
33.5687005288532276
 31
0.0
  0
LINE
  5
E01
  8
241
  6
CONTINUOUS
 10
19.0500000000000114
 20
-44.5010376910486087
 30
0.0
 11
19.0500000000000114
 21
-12.6999999999920998
 31
0.0
  0
LINE
  5
E02
  8
241
  6
CONTINUOUS
 10
19.0500000000000114
 20
12.6999999999893394
 30
0.0
 11
19.0500000000000114
 21
44.5010376910481398
 31
0.0
  0
ARC
  5
E0B
  8
240
  6
CONTINUOUS
 10
41.6289893625448286
 20
43.4236976769797494
 30
0.0
 40
10.0
 50
250.0000000000019895
 51
260.2309555499275007
  0
LINE
  5
E1A
  8
240
  6
CONTINUOUS
 10
89.7000000000001165
 20
-25.0000000000008207
 30
0.0
 11
89.6999999999996049
 21
24.9999999999992006
 31
0.0
  0
LINE
  5
E6A
  8
243
 10
59.1999999999999105
 20
13.9999999999997993
 30
0.0
 11
89.699999999999676
 21
13.9999999999998597
 31
0.0
  0
LINE
  5
E6D
  8
243
 10
59.1999999999999034
 20
-13.9999999999998401
 30
0.0
 11
89.699999999999676
 21
-13.9999999999999201
 31
0.0
  0
INSERT
  5
E8B
  8
245
  2
*U4
 10
0.0
 20
0.0
 30
0.0
1001
ACAD
1000
DSTYLE
1002
{
1070
   140
1040
2.799999999999998
1002
}
  0
INSERT
  5
E8C
  8
245
  2
*U5
 10
0.0
 20
0.0
 30
0.0
  0
LINE
  5
E8D
  8
251
  6
CONTINUOUS
 10
102.3775467269111061
 20
48.9284695312591822
 30
0.0
 11
115.1775467269111033
 21
48.9284695312591822
 31
0.0
1001
ITEMNAME
1000
LNSP2
  0
LINE
  5
E8F
  8
250
  6
CONTINUOUS
 10
0.0
 20
35.4250000000000114
 30
0.0
 11
0.0000000000000018
 21
64.0
 31
0.0
  0
LINE
  5
E90
  8
250
  6
CONTINUOUS
 10
89.6999999999996049
 20
25.4999999999992006
 30
0.0
 11
89.6999999999996049
 21
64.0
 31
0.0
  0
LINE
  5
E91
  8
250
  6
CONTINUOUS
 10
2.0
 20
63.0
 30
0.0
 11
87.6999999999996049
 21
63.0
 31
0.0
  0
INSERT
  5
E92
  8
250
  6
CONTINUOUS
  2
_OPEN
 10
0.0000000000000017
 20
63.0
 30
0.0
 41
2.0
 42
2.0
 43
2.0
 50
180.0
  0
INSERT
  5
E93
  8
250
  6
CONTINUOUS
  2
_OPEN
 10
89.6999999999996049
 20
63.0
 30
0.0
 41
2.0
 42
2.0
 43
2.0
  0
INSERT
  5
E94
  8
245
  2
*U6
 10
0.0
 20
0.0
 30
0.0
  0
LINE
  5
E95
  8
250
  6
CONTINUOUS
 10
90.2000000000000739
 20
-25.0000000000008207
 30
0.0
 11
106.0
 21
-25.0000000000008207
 31
0.0
  0
LINE
  5
E96
  8
250
  6
CONTINUOUS
 10
90.1999999999996049
 20
24.9999999999992006
 30
0.0
 11
106.0
 21
24.9999999999992006
 31
0.0
  0
LINE
  5
E97
  8
250
  6
CONTINUOUS
 10
105.0
 20
-23.0000000000008207
 30
0.0
 11
105.0
 21
22.9999999999992006
 31
0.0
  0
INSERT
  5
E98
  8
250
  6
CONTINUOUS
  2
_OPEN
 10
105.0
 20
-25.0000000000008207
 30
0.0
 41
2.0
 42
2.0
 43
2.0
 50
270.0
  0
INSERT
  5
E99
  8
250
  6
CONTINUOUS
  2
_OPEN
 10
105.0
 20
24.9999999999992006
 30
0.0
 41
2.0
 42
2.0
 43
2.0
 50
90.0
  0
INSERT
  5
E9A
  8
245
  2
*U7
 10
0.0
 20
0.0
 30
0.0
  0
LINE
  5
F63
  8
245
  6
CENTER2
 10
75.6500000000012136
 20
5.9999999999999689
 30
0.0
 11
75.6500000000012136
 21
-6.0000000000000231
 31
0.0
  0
CIRCLE
  5
F64
  8
241
  6
CONTINUOUS
 10
75.6500000000010573
 20
-0.0000000000000266
 30
0.0
 40
5.0
  0
CIRCLE
  5
F65
  8
242
  6
CONTINUOUS
 10
75.6500000000010573
 20
-0.0000000000000266
 30
0.0
 40
4.5
  0
POLYLINE
  5
F66
  8
241
  6
CONTINUOUS
 66
     1
 10
0.0
 20
0.0
 30
0.0
 70
     1
  0
VERTEX
  5
1107
  8
241
  6
CONTINUOUS
 10
73.1500000000010573
 20
-1.4433756729740961
 30
0.0
  0
VERTEX
  5
1108
  8
241
  6
CONTINUOUS
 10
75.6500000000010573
 20
-2.886751345948166
 30
0.0
  0
VERTEX
  5
1109
  8
241
  6
CONTINUOUS
 10
78.1500000000010573
 20
-1.4433756729740961
 30
0.0
  0
VERTEX
  5
110A
  8
241
  6
CONTINUOUS
 10
78.1500000000010573
 20
1.443375672974041
 30
0.0
  0
VERTEX
  5
110B
  8
241
  6
CONTINUOUS
 10
75.6500000000010573
 20
2.886751345948114
 30
0.0
  0
VERTEX
  5
110C
  8
241
  6
CONTINUOUS
 10
73.1500000000010573
 20
1.443375672974041
 30
0.0
  0
SEQEND
  5
110D
  8
241
  6
CONTINUOUS
  0
LINE
  5
1041
  8
241
  6
CONTINUOUS
 10
1.5
 20
14.9000000000002597
 30
0.0
 11
3.7000000000013689
 21
12.6999999999988908
 31
0.0
1001
GENIUS_GENFIL_13
1070
     1
1040
10.0
1040
10.0
1040
2.2000000000000002
1040
45.0
1002
{
1002
}
1001
GENIUS_GENODEF_13
1002
{
1000
HIER
1070
     0
1002
}
1002
{
1000
MANEDIT
1070
     0
1002
}
1002
{
1000
NOSEL
1070
     0
1002
}
1002
{
1000
BEHIND
1070
     0
1002
}
1002
{
1000
OTHER
1070
     0
1002
}
1002
{
1000
REACTOR
1002
}
1001
GENIUS_GENOBJ-N-CHA_13
1002
{
1000
OWNER
1000
GEN
1002
}
  0
LINE
  5
1044
  8
241
  6
CONTINUOUS
 10
3.7000000000000002
 20
-12.69999999999858
 30
0.0
 11
1.5
 21
-14.9000000000004302
 31
0.0
1001
GRPNAME
1000
PASTMD0L
1001
GENIUS_GENFIL_13
1070
     1
1040
10.0
1040
10.0
1040
2.2000000000000002
1040
45.0
1002
{
1002
}
1001
GENIUS_GENOBJ-N-CHA_13
1002
{
1000
OWNER
1000
GEN
1002
}
1001
GENIUS_GENODEF_13
1002
{
1000
HIER
1070
     0
1002
}
1002
{
1000
MANEDIT
1070
     0
1002
}
1002
{
1000
NOSEL
1070
     0
1002
}
1002
{
1000
BEHIND
1070
     0
1002
}
1002
{
1000
OTHER
1070
     0
1002
}
1002
{
1000
REACTOR
1002
}
  0
VIEWPORT
  5
22
 67
     1
  8
0
 10
261.517699115044195
 20
148.5
 30
0.0
 40
523.0353982300885036
 41
297.0
 68
     1
 69
     1
1001
ACAD
1000
MVIEW
1002
{
1070
    16
1010
0.0
1020
0.0
1030
0.0
1010
0.0
1020
0.0
1030
1.0
1040
0.0
1040
297.0
1040
261.517699115044195
1040
148.5
1040
50.0
1040
0.0
1040
0.0
1070
     0
1070
   100
1070
     1
1070
     1
1070
     0
1070
     0
1070
     0
1070
     0
1040
0.0
1040
0.0
1040
0.0
1040
1.0
1040
1.0
1040
10.0
1040
10.0
1070
     0
1002
{
1002
}
1002
}
1001
GENIUS_GENODEF_13
1002
{
1000
HIER
1070
     0
1002
}
1002
{
1000
MANEDIT
1070
     0
1002
}
1002
{
1000
NOSEL
1070
     0
1002
}
1002
{
1000
BEHIND
1070
     0
1002
}
1002
{
1000
OTHER
1070
     0
1002
}
1002
{
1000
REACTOR
1002
}
1001
GENIUS_GENOBJ-N-SDF_13
1002
{
1000
OWNER
1000
GEN
1002
}
1001
GENIUS_GENSCREG_15
1000
PF
1040
1.0
1000
DF
1040
1.0
1000
MIN
1011
0.0
1021
0.0
1031
0.0
1021
0.0
1031
0.0
1000
MAX
1011
523.0353982300885036
1021
0.0
1031
0.0
1021
297.0
1031
0.0
1000
FLAGS
1070
     4
  0
ENDSEC
  0
EOF
