  0
SECTION
  2
HEADER
  9
$ACADVER
  1
AC1009
  9
$INSBASE
 10
0.0
 20
0.0
 30
0.0
  9
$EXTMIN
 10
-102.5999999999999943
 20
-49.2124999999999986
 30
0.0
  9
$EXTMAX
 10
152.399999999999693
 20
82.0000000000000568
 30
0.0
  9
$LIMMIN
 10
0.0
 20
0.0
  9
$LIMMAX
 10
297.0
 20
210.0
  9
$ORTHOMODE
 70
     1
  9
$REGENMODE
 70
     1
  9
$FILLMODE
 70
     1
  9
$QTEXTMODE
 70
     0
  9
$MIRRTEXT
 70
     1
  9
$DRAGMODE
 70
     2
  9
$LTSCALE
 40
10.0
  9
$OSMODE
 70
   807
  9
$ATTMODE
 70
     1
  9
$TEXTSIZE
 40
3.0
  9
$TRACEWID
 40
1.0
  9
$TEXTSTYLE
  7
YOKO
  9
$CLAYER
  8
240
  9
$CELTYPE
  6
BYLAYER
  9
$CECOLOR
 62
   256
  9
$DIMSCALE
 40
1.0
  9
$DIMASZ
 40
2.0
  9
$DIMEXO
 40
0.5
  9
$DIMDLI
 40
2.5
  9
$DIMRND
 40
0.0
  9
$DIMDLE
 40
0.0
  9
$DIMEXE
 40
1.0
  9
$DIMTP
 40
0.0
  9
$DIMTM
 40
0.0
  9
$DIMTXT
 40
2.799999999999998
  9
$DIMCEN
 40
0.0
  9
$DIMTSZ
 40
0.0
  9
$DIMTOL
 70
     0
  9
$DIMLIM
 70
     0
  9
$DIMTIH
 70
     0
  9
$DIMTOH
 70
     0
  9
$DIMSE1
 70
     0
  9
$DIMSE2
 70
     0
  9
$DIMTAD
 70
     3
  9
$DIMZIN
 70
     8
  9
$DIMBLK
  1

  9
$DIMASO
 70
     1
  9
$DIMSHO
 70
     1
  9
$DIMPOST
  1

  9
$DIMAPOST
  1

  9
$DIMALT
 70
     0
  9
$DIMALTD
 70
     2
  9
$DIMALTF
 40
25.3999999999999986
  9
$DIMLFAC
 40
1.0
  9
$DIMTOFL
 70
     1
  9
$DIMTVP
 40
0.0
  9
$DIMTIX
 70
     1
  9
$DIMSOXD
 70
     0
  9
$DIMSAH
 70
     1
  9
$DIMBLK1
  1
OPEN
  9
$DIMBLK2
  1
OPEN
  9
$DIMSTYLE
  2
BIGT
  9
$DIMCLRD
 70
     3
  9
$DIMCLRE
 70
     3
  9
$DIMCLRT
 70
    40
  9
$DIMTFAC
 40
1.0
  9
$DIMGAP
 40
1.0
  9
$LUNITS
 70
     2
  9
$LUPREC
 70
     2
  9
$SKETCHINC
 40
1.0
  9
$FILLETRAD
 40
1.0
  9
$AUNITS
 70
     0
  9
$AUPREC
 70
     3
  9
$MENU
  1
.
  9
$ELEVATION
 40
0.0
  9
$PELEVATION
 40
0.0
  9
$THICKNESS
 40
0.0
  9
$LIMCHECK
 70
     0
  9
$BLIPMODE
 70
     0
  9
$CHAMFERA
 40
10.0
  9
$CHAMFERB
 40
10.0
  9
$SKPOLY
 70
     0
  9
$TDCREATE
 40
2457760.3718171301297843
  9
$TDUPDATE
 40
2458172.6669444451108575
  9
$TDINDWG
 40
0.1549403125
  9
$TDUSRTIMER
 40
0.1549398495
  9
$USRTIMER
 70
     1
  9
$ANGBASE
 50
0.0
  9
$ANGDIR
 70
     0
  9
$PDMODE
 70
     0
  9
$PDSIZE
 40
-5.0
  9
$PLINEWID
 40
0.0
  9
$COORDS
 70
     1
  9
$SPLFRAME
 70
     0
  9
$SPLINETYPE
 70
     6
  9
$SPLINESEGS
 70
     8
  9
$ATTDIA
 70
     1
  9
$ATTREQ
 70
     1
  9
$HANDLING
 70
     1
  9
$HANDSEED
  5
1646
  9
$SURFTAB1
 70
     6
  9
$SURFTAB2
 70
     6
  9
$SURFTYPE
 70
     6
  9
$SURFU
 70
     6
  9
$SURFV
 70
     6
  9
$UCSNAME
  2

  9
$UCSORG
 10
0.0
 20
0.0
 30
0.0
  9
$UCSXDIR
 10
1.0
 20
0.0
 30
0.0
  9
$UCSYDIR
 10
0.0
 20
1.0
 30
0.0
  9
$PUCSNAME
  2

  9
$PUCSORG
 10
0.0
 20
0.0
 30
0.0
  9
$PUCSXDIR
 10
1.0
 20
0.0
 30
0.0
  9
$PUCSYDIR
 10
0.0
 20
1.0
 30
0.0
  9
$USERI1
 70
     1
  9
$USERI2
 70
     0
  9
$USERI3
 70
     0
  9
$USERI4
 70
     0
  9
$USERI5
 70
     0
  9
$USERR1
 40
0.0
  9
$USERR2
 40
0.0
  9
$USERR3
 40
0.0
  9
$USERR4
 40
0.0
  9
$USERR5
 40
0.0
  9
$WORLDVIEW
 70
     1
  9
$SHADEDGE
 70
     3
  9
$SHADEDIF
 70
    70
  9
$TILEMODE
 70
     1
  9
$MAXACTVP
 70
    16
  9
$PLIMCHECK
 70
     0
  9
$PEXTMIN
 10
1.0000000000000000E+20
 20
1.0000000000000000E+20
 30
1.0000000000000000E+20
  9
$PEXTMAX
 10
-1.0000000000000000E+20
 20
-1.0000000000000000E+20
 30
-1.0000000000000000E+20
  9
$PLIMMIN
 10
0.0
 20
0.0
  9
$PLIMMAX
 10
420.0
 20
297.0
  9
$UNITMODE
 70
     0
  9
$VISRETAIN
 70
     0
  9
$PLINEGEN
 70
     0
  9
$PSLTSCALE
 70
     1
  0
ENDSEC
  0
SECTION
  2
TABLES
  0
TABLE
  2
VPORT
 70
     1
  0
VPORT
  2
*ACTIVE
 70
     0
 10
0.0
 20
0.0
 11
1.0
 21
1.0
 12
58.5468125481058905
 22
10.8163752446713897
 13
0.0
 23
0.0
 14
7.0
 24
7.0
 15
7.0
 25
7.0
 16
0.0
 26
0.0
 36
1.0
 17
0.0
 27
0.0
 37
0.0
 40
214.6605136854867908
 41
2.0192076830732288
 42
50.0
 43
0.0
 44
0.0
 50
0.0
 51
0.0
 71
     0
 72
 20000
 73
     1
 74
     0
 75
     0
 76
     0
 77
     0
 78
     0
  0
ENDTAB
  0
TABLE
  2
LTYPE
 70
    15
  0
LTYPE
  2
CONTINUOUS
 70
     0
  3
Solid line
 72
    65
 73
     0
 40
0.0
  0
LTYPE
  2
CENTER2
 70
     0
  3
___ _ ___ _ ___ _ ___ _ ___ _ ___ _ ___ _ ___ _
 72
    65
 73
     4
 40
1.125
 49
0.75
 49
-0.125
 49
0.125
 49
-0.125
  0
LTYPE
  2
AM_ISO02W050
 70
     0
  3
__ __ __ __ __ __ __ __ __ __ __ __ __ __ __
 72
    65
 73
     2
 40
7.5
 49
6.0
 49
-1.5
  0
LTYPE
  2
AM_ISO08W050
 70
     0
  3
____ . ____ . ____ . ____ . ____ . ____ . ____
 72
    65
 73
     4
 40
18.0
 49
12.0
 49
-1.5
 49
3.0
 49
-1.5
  0
LTYPE
  2
AM_ISO09W050
 70
     0
  3
_____ . . _____ . . _____ . . ____ .. ____
 72
    65
 73
     6
 40
22.5
 49
12.0
 49
-1.5
 49
3.0
 49
-1.5
 49
3.0
 49
-1.5
  0
LTYPE
  2
AMCONSTR
 70
     0
  3
_______________________
 72
    65
 73
     2
 40
9999.0
 49
9999.0
 49
0.0
  0
LTYPE
  2
AM_ISO08W050X2
 70
     0
  3
__ . __ . __ . __ . __ . __
 72
    65
 73
     4
 40
9.0
 49
6.0
 49
-0.75
 49
1.5
 49
-0.75
  0
LTYPE
  2
AM_ISO02W050X2
 70
     0
  3
 _ _ _ _ _ _ _ _ _ _ _ _
 72
    65
 73
     2
 40
3.75
 49
3.0
 49
-0.75
  0
LTYPE
  2
AMZIGZAG
 70
     0
  3
/\/-/\/-/\/-/\/-/\/-/\/
 72
    65
 73
     2
 40
11.0000999999999998
 49
0.0001
 49
-11.0
  0
LTYPE
  2
ACISOWELD
 70
     0
  3
_ _ _ _ _
 72
    65
 73
     2
 40
2.0
 49
2.0
 49
-1.0
  0
LTYPE
  2
ACISOTGL
 70
     0
  3
_ _ _ _ _
 72
    65
 73
     2
 40
3.0
 49
2.0
 49
-1.0
  0
LTYPE
  2
ACISOTGB
 70
     0
  3
__ . . __ . .
 72
    65
 73
     6
 40
9.0
 49
4.0
 49
-1.0
 49
1.0
 49
-1.0
 49
1.0
 49
-1.0
  0
ENDTAB
  0
TABLE
  2
LAYER
 70
     6
  0
LAYER
  2
0
 70
     0
 62
     7
  6
CONTINUOUS
  0
LAYER
  2
240
 70
     0
 62
     4
  6
CONTINUOUS
  0
LAYER
  2
241
 70
     0
 62
   211
  6
CONTINUOUS
  0
LAYER
  2
245
 70
     0
 62
     2
  6
CENTER2
  0
LAYER
  2
247
 70
     0
 62
    60
  6
CONTINUOUS
  0
LAYER
  2
250
 70
     0
 62
     3
  6
CONTINUOUS
  0
ENDTAB
  0
TABLE
  2
STYLE
 70
     5
  0
STYLE
  2
STANDARD
 70
     0
 40
0.0
 41
1.0
 50
0.0
 71
     0
 42
3.0
  3
romans.shx
  4
BIGFONT.SHX
  0
STYLE
  2
YOKO
 70
     0
 40
0.0
 41
1.0
 50
0.0
 71
     0
 42
3.0
  3
romans.shx
  4
extfont.shx
  0
STYLE
  2

 70
     1
 40
0.0
 41
1.0
 50
0.0
 71
     0
 42
3.0
  3
genltshp.shx
  4

  0
STYLE
  2
ACISOGDT
 70
     0
 40
0.0
 41
1.0
 50
0.0
 71
     0
 42
3.0
  3
amgdt.shx
  4

  0
ENDTAB
  0
TABLE
  2
VIEW
 70
     0
  0
ENDTAB
  0
TABLE
  2
UCS
 70
     0
  0
ENDTAB
  0
TABLE
  2
APPID
 70
    25
  0
APPID
  2
ACAD
 70
     0
  0
APPID
  2
GLOBAL
 70
     0
  0
APPID
  2
DETAIL
 70
     0
  0
APPID
  2
GRPNAME
 70
     0
  0
APPID
  2
GPARA
 70
     0
  0
APPID
  2
DCO15
 70
     0
  0
APPID
  2
ITEMNAME
 70
     0
  0
APPID
  2
GRADE_0
 70
     0
  0
APPID
  2
ACAD_DSTYLE_DIMJAG
 70
     0
  0
APPID
  2
ACAD_DSTYLE_DIMTALN
 70
     0
  0
APPID
  2
ACAD_NAV_VCDISPLAY
 70
     0
  0
APPID
  2
ACAD_MLEADERVER
 70
     0
  0
APPID
  2
ACAD_DSTYLE_DIMBREAK
 70
     0
  0
APPID
  2
GENIUS_GENODEF_13
 70
     0
  0
APPID
  2
GENIUS_GENOBJ-N-FIL_13
 70
     0
  0
APPID
  2
ACAD_PSEXT
 70
     0
  0
APPID
  2
ACAD_EXEMPT_FROM_CAD_STANDARDS
 70
     0
  0
APPID
  2
MCAD_NO_VIS
 70
     0
  0
APPID
  2
ACAD_TEMP_GRAPHIC
 70
     0
  0
APPID
  2
ACATTRIBSERVICES
 70
     0
  0
APPID
  2
DESIGNERASSEMBLIES
 70
     0
  0
APPID
  2
GENIUS_GENSCREG_15
 70
     0
  0
APPID
  2
GENIUS_GENOBJ-N-SDF_13
 70
     0
  0
APPID
  2
GENIUS_GENFIL_13
 70
     0
  0
APPID
  2
GENIUS_GENOBJ-N-CHA_13
 70
     0
  0
ENDTAB
  0
TABLE
  2
DIMSTYLE
 70
     8
  0
DIMSTYLE
  2
BIGT
 70
     0
  3

  4

  5

  6
OPEN
  7
OPEN
 40
1.0
 41
2.0
 42
0.5
 43
2.5
 44
1.0
 45
0.0
 46
0.0
 47
0.0
 48
0.0
140
2.799999999999998
141
0.0
142
0.0
143
25.3999999999999986
144
1.0
145
0.0
146
1.0
147
1.0
 71
     0
 72
     0
 73
     0
 74
     0
 75
     0
 76
     0
 77
     3
 78
     8
170
     0
171
     2
172
     1
173
     1
174
     1
175
     0
176
     3
177
     3
178
    40
  0
DIMSTYLE
  2
AM_ISO
 70
     0
  3

  4
"
  5

  6

  7

 40
1.0
 41
3.5
 42
1.0
 43
10.0
 44
1.0
 45
0.0
 46
0.0
 47
0.1
 48
0.1
140
3.5
141
0.0
142
0.0
143
0.0393701
144
1.0
145
0.0
146
0.71
147
1.5
 71
     0
 72
     0
 73
     0
 74
     0
 75
     0
 76
     0
 77
     1
 78
     8
170
     0
171
     2
172
     1
173
     0
174
     0
175
     0
176
   256
177
   256
178
     2
  0
DIMSTYLE
  2
AM_ISO$3
 70
     0
  3

  4
"
  5

  6

  7

 40
1.0
 41
3.5
 42
1.0
 43
10.0
 44
1.0
 45
0.0
 46
0.0
 47
0.1
 48
0.1
140
3.5
141
0.0
142
0.0
143
0.0393701
144
1.0
145
0.0
146
0.71
147
1.5
 71
     0
 72
     0
 73
     0
 74
     1
 75
     0
 76
     0
 77
     1
 78
     8
170
     0
171
     2
172
     0
173
     0
174
     0
175
     0
176
   256
177
   256
178
     2
  0
DIMSTYLE
  2
AM_ISO$4
 70
     0
  3

  4
"
  5

  6

  7

 40
1.0
 41
3.5
 42
1.0
 43
10.0
 44
1.0
 45
0.0
 46
0.0
 47
0.1
 48
0.1
140
3.5
141
0.0
142
0.0
143
0.0393701
144
1.0
145
0.0
146
0.71
147
1.5
 71
     0
 72
     0
 73
     0
 74
     1
 75
     0
 76
     0
 77
     1
 78
     8
170
     0
171
     2
172
     0
173
     0
174
     0
175
     0
176
   256
177
   256
178
     2
  0
DIMSTYLE
  2
AM_ISO$6
 70
     0
  3

  4
"
  5

  6

  7

 40
1.0
 41
3.5
 42
1.0
 43
10.0
 44
1.0
 45
0.0
 46
0.0
 47
0.1
 48
0.1
140
3.5
141
0.0
142
0.0
143
0.0393701
144
1.0
145
0.0
146
0.71
147
1.5
 71
     0
 72
     0
 73
     0
 74
     0
 75
     0
 76
     0
 77
     0
 78
     8
170
     0
171
     2
172
     1
173
     0
174
     0
175
     0
176
   256
177
   256
178
     2
  0
DIMSTYLE
  2
AM_ISO$7
 70
     0
  3

  4
"
  5

  6

  7

 40
1.0
 41
3.5
 42
1.0
 43
10.0
 44
1.0
 45
0.0
 46
0.0
 47
0.1
 48
0.1
140
3.5
141
0.0
142
0.0
143
0.0393701
144
1.0
145
0.0
146
0.71
147
1.5
 71
     0
 72
     0
 73
     0
 74
     0
 75
     0
 76
     0
 77
     1
 78
     8
170
     0
171
     2
172
     1
173
     0
174
     0
175
     0
176
   256
177
   256
178
     2
  0
DIMSTYLE
  2
AM_ISO$SF
 70
     0
  3

  4
"
  5

  6

  7

 40
1.0
 41
3.5
 42
1.0
 43
10.0
 44
1.0
 45
0.0
 46
0.0
 47
0.1
 48
0.1
140
3.5
141
0.0
142
0.0
143
0.0393701
144
1.0
145
0.0
146
0.71
147
1.5
 71
     0
 72
     0
 73
     0
 74
     0
 75
     1
 76
     1
 77
     1
 78
     8
170
     0
171
     2
172
     1
173
     0
174
     0
175
     0
176
   256
177
   256
178
     2
  0
DIMSTYLE
  2
AM_ISO$SH
 70
     0
  3

  4
"
  5

  6
GENAXEH
  7

 40
1.0
 41
3.5
 42
1.0
 43
10.0
 44
1.0
 45
0.0
 46
0.0
 47
0.1
 48
0.1
140
3.5
141
0.0
142
0.0
143
0.0393701
144
2.0
145
0.0
146
0.71
147
1.5
 71
     0
 72
     0
 73
     0
 74
     0
 75
     1
 76
     1
 77
     1
 78
     8
170
     0
171
     2
172
     1
173
     1
174
     0
175
     0
176
   256
177
   256
178
     2
  0
ENDTAB
  0
ENDSEC
  0
SECTION
  2
BLOCKS
  0
BLOCK
  8
0
  2
$MODEL_SPACE
 70
     0
 10
0.0
 20
0.0
 30
0.0
  3
$MODEL_SPACE
  1

  0
ENDBLK
  5
1C
  8
0
  0
BLOCK
 67
     1
  8
0
  2
$PAPER_SPACE
 70
     0
 10
0.0
 20
0.0
 30
0.0
  3
$PAPER_SPACE
  1

  0
ENDBLK
  5
19
 67
     1
  8
0
  0
BLOCK
  8
0
  2
_OPEN
 70
     0
 10
0.0
 20
0.0
 30
0.0
  3
_OPEN
  1

  0
LINE
  5
595
  8
0
  6
BYBLOCK
 62
     0
 10
-1.0
 20
0.1666666666666666
 30
0.0
 11
0.0
 21
0.0
 31
0.0
  0
LINE
  5
596
  8
0
  6
BYBLOCK
 62
     0
 10
-1.0
 20
-0.1666666666666666
 30
0.0
 11
0.0
 21
0.0
 31
0.0
  0
LINE
  5
597
  8
0
  6
BYBLOCK
 62
     0
 10
0.0
 20
0.0
 30
0.0
 11
-1.0
 21
0.0
 31
0.0
  0
ENDBLK
  5
599
  8
0
  0
BLOCK
  8
0
  2
矢印なし
 70
     0
 10
0.0
 20
0.0
 30
0.0
  3
矢印なし
  1

  0
ENDBLK
  5
6E5
  8
0
  0
BLOCK
  8
0
  2
GENAXEH
 70
     0
 10
0.0
 20
0.0
 30
0.0
  3
GENAXEH
  1

  0
LINE
  5
130A
  8
0
 10
-1.0
 20
0.0
 30
0.0
 11
1.0
 21
0.0
 31
0.0
  0
ENDBLK
  5
130C
  8
0
  0
BLOCK
  8
0
  2
*U4
 70
     1
 10
0.0
 20
0.0
 30
0.0
  3
*U4
  1

  0
TEXT
  5
138E
  8
250
 10
150.399999999999693
 20
-7.2666666666666853
 30
0.0
 40
2.7999999999999989
  1
\U+2205
 50
90.0
  0
TEXT
  5
138F
  8
250
 10
150.399999999999693
 20
-4.733333333333352
 30
0.0
 40
2.799999999999998
  1
2.480
 50
90.0
  0
ENDBLK
  5
1391
  8
0
  0
BLOCK
  8
0
  2
*U5
 70
     1
 10
0.0
 20
0.0
 30
0.0
  3
*U5
  1

  0
INSERT
  5
1393
  8
250
  6
CONTINUOUS
  2
_OPEN
 10
127.1969721441373053
 20
31.4999999999999005
 30
0.0
 41
2.0
 42
2.0
 43
2.0
 50
239.999999999999801
  0
POLYLINE
  5
1394
  8
250
  6
CONTINUOUS
 66
     1
 10
0.0
 20
0.0
 30
0.0
  0
VERTEX
  5
1395
  8
250
  6
CONTINUOUS
 10
128.1969721441373053
 20
33.2320508075687826
 30
0.0
  0
VERTEX
  5
1396
  8
250
  6
CONTINUOUS
 10
137.2603222127590072
 20
48.9302336132043365
 30
0.0
  0
SEQEND
  5
1397
  8
250
  6
CONTINUOUS
  0
ENDBLK
  5
1399
  8
0
  0
BLOCK
  8
0
  2
*U6
 70
     1
 10
0.0
 20
0.0
 30
0.0
  3
*U6
  1

  0
TEXT
  5
139B
  8
250
 10
139.5269888794256019
 20
49.9302336132043365
 30
0.0
 40
2.799999999999998
  1
F63
  7
YOKO
  0
ENDBLK
  5
139D
  8
0
  0
BLOCK
  8
0
  2
*U7
 70
     1
 10
0.0
 20
0.0
 30
0.0
  3
*U7
  1

  0
TEXT
  5
139F
  8
250
 10
60.3833333333324376
 20
64.0000000000000142
 30
0.0
 40
2.799999999999998
  1
5.12
  0
ENDBLK
  5
13A1
  8
0
  0
ENDSEC
  0
SECTION
  2
ENTITIES
  0
INSERT
  5
6E6
  8
245
  2
矢印なし
 10
175.6238269664376901
 20
90.5512357169059783
 30
0.0
  0
LINE
  5
B37
  8
245
  6
CENTER2
 10
-102.5999999999999943
 20
0.0000000000000169
 30
0.0
 11
134.5999999999999091
 21
-0.0000000000000412
 31
0.0
1001
GRPNAME
1000
PASTMD0L
  0
LINE
  5
B38
  8
240
  6
CONTINUOUS
 10
0.0
 20
34.9250000000000114
 30
0.0
 11
-101.5999999999999943
 21
20.1083333297216917
 31
0.0
1001
GRPNAME
1000
PASTMD0L
  0
LINE
  5
B39
  8
240
  6
CONTINUOUS
 10
0.0
 20
-34.9250000000000114
 30
0.0
 11
-101.5999999999999943
 21
-20.1083333297217202
 31
0.0
1001
GRPNAME
1000
PASTMD0L
  0
LINE
  5
B3A
  8
240
  6
CONTINUOUS
 10
-101.5999999999999943
 20
20.1083333297216917
 30
0.0
 11
-101.5999999999999943
 21
-20.1083333297217202
 31
0.0
1001
GRPNAME
1000
PASTMD0L
  0
LINE
  5
B3B
  8
241
  6
CONTINUOUS
 10
7.5938332300000013
 20
49.2124999999999702
 30
0.0
 11
7.5938332300000022
 21
12.6999999999964697
 31
0.0
1001
GRPNAME
1000
PASTMD0L
  0
LINE
  5
B3C
  8
241
  6
CONTINUOUS
 10
9.2000000000000028
 20
45.6449999999999818
 30
0.0
 11
9.2000000000000028
 21
12.6999999999954696
 31
0.0
1001
GRPNAME
1000
PASTMD0L
  0
LINE
  5
B3D
  8
241
  6
CONTINUOUS
 10
13.0399999999999903
 20
45.6449999999999818
 30
0.0
 11
13.0399999999999903
 21
12.6999999999930804
 31
0.0
1001
GRPNAME
1000
PASTMD0L
  0
LINE
  5
B3E
  8
241
  6
CONTINUOUS
 10
14.6461667700000095
 20
49.2124999999999702
 30
0.0
 11
14.6461667700000095
 21
12.6999999999920803
 31
0.0
1001
GRPNAME
1000
PASTMD0L
  0
LINE
  5
B3F
  8
241
  6
CONTINUOUS
 10
1.5
 20
34.9250000000000114
 30
0.0
 11
1.5
 21
-34.9250000000000114
 31
0.0
1001
GRPNAME
1000
PASTMD0L
  0
LINE
  5
B40
  8
241
  6
CONTINUOUS
 10
9.2000000000000028
 20
-45.6450000000000102
 30
0.0
 11
9.2000000000000028
 21
-12.6999999999962601
 31
0.0
1001
GRPNAME
1000
PASTMD0L
  0
LINE
  5
B41
  8
241
  6
CONTINUOUS
 10
7.5938332300000013
 20
-49.2124999999999986
 30
0.0
 11
7.5938332299999969
 21
-12.6999999999969404
 31
0.0
1001
GRPNAME
1000
PASTMD0L
  0
LINE
  5
B42
  8
241
  6
CONTINUOUS
 10
13.0399999999999903
 20
-45.6450000000000102
 30
0.0
 11
13.0399999999999903
 21
-12.69999999999464
 31
0.0
1001
GRPNAME
1000
PASTMD0L
  0
LINE
  5
B43
  8
241
  6
CONTINUOUS
 10
14.6461667700000095
 20
-49.2124999999999986
 30
0.0
 11
14.6461667700000095
 21
-12.6999999999939597
 31
0.0
1001
GRPNAME
1000
PASTMD0L
  0
LINE
  5
B44
  8
240
  6
CONTINUOUS
 10
1.5
 20
-49.2124999999999986
 30
0.0
 11
1.5
 21
-34.9250000000000114
 31
0.0
1001
GRPNAME
1000
PASTMD0L
  0
LINE
  5
B45
  8
240
  6
CONTINUOUS
 10
19.0500000000000114
 20
-49.2124999999999986
 30
0.0
 11
19.0500000000000007
 21
-39.8448960668739502
 31
0.0
1001
GRPNAME
1000
PASTMD0L
  0
LINE
  5
B46
  8
240
  6
CONTINUOUS
 10
14.6461667700000095
 20
-49.2124999999999986
 30
0.0
 11
19.0500000000000114
 21
-49.2124999999999986
 31
0.0
1001
GRPNAME
1000
PASTMD0L
  0
LINE
  5
B47
  8
240
  6
CONTINUOUS
 10
1.5
 20
-49.2124999999999986
 30
0.0
 11
7.5938332300000013
 21
-49.2124999999999986
 31
0.0
1001
GRPNAME
1000
PASTMD0L
  0
LINE
  5
B48
  8
240
  6
CONTINUOUS
 10
9.2000000000000028
 20
-45.6450000000000102
 30
0.0
 11
13.0399999999999903
 21
-45.6450000000000102
 31
0.0
1001
GRPNAME
1000
PASTMD0L
  0
LINE
  5
B49
  8
240
  6
CONTINUOUS
 10
9.2000000000000028
 20
-46.4305375499999897
 30
0.0
 11
7.5938332300000013
 21
-49.2124999999999986
 31
0.0
1001
GRPNAME
1000
PASTMD0L
  0
LINE
  5
B4A
  8
240
  6
CONTINUOUS
 10
9.2000000000000028
 20
-45.6450000000000102
 30
0.0
 11
9.2000000000000028
 21
-46.4305375499999897
 31
0.0
1001
GRPNAME
1000
PASTMD0L
  0
LINE
  5
B4B
  8
240
  6
CONTINUOUS
 10
13.0399999999999903
 20
-46.4305375499999897
 30
0.0
 11
14.6461667700000095
 21
-49.2124999999999986
 31
0.0
1001
GRPNAME
1000
PASTMD0L
  0
LINE
  5
B4C
  8
240
  6
CONTINUOUS
 10
13.0399999999999903
 20
-45.6450000000000102
 30
0.0
 11
13.0399999999999903
 21
-46.4305375499999897
 31
0.0
1001
GRPNAME
1000
PASTMD0L
  0
LINE
  5
B4E
  8
241
  6
CONTINUOUS
 10
0.0
 20
-34.9250000000000114
 30
0.0
 11
0.0
 21
34.9250000000000114
 31
0.0
1001
GRPNAME
1000
PASTMD0L
  0
LINE
  5
B50
  8
240
  6
CONTINUOUS
 10
0.0
 20
-34.9250000000000114
 30
0.0
 11
1.5
 21
-34.9250000000000114
 31
0.0
  0
LINE
  5
B55
  8
240
  6
CONTINUOUS
 10
1.5
 20
49.2124999999999702
 30
0.0
 11
1.5
 21
34.9250000000000114
 31
0.0
1001
GRPNAME
1000
PASTMD0L
  0
LINE
  5
B56
  8
240
  6
CONTINUOUS
 10
19.0500000000000114
 20
49.2124999999999702
 30
0.0
 11
19.0500000000000114
 21
39.8448960668675483
 31
0.0
1001
GRPNAME
1000
PASTMD0L
  0
LINE
  5
B57
  8
240
  6
CONTINUOUS
 10
0.0
 20
34.9250000000000114
 30
0.0
 11
1.5
 21
34.9250000000000114
 31
0.0
  0
LINE
  5
B59
  8
240
  6
CONTINUOUS
 10
14.6461667700000095
 20
49.2124999999999702
 30
0.0
 11
19.0500000000000114
 21
49.2124999999999702
 31
0.0
1001
GRPNAME
1000
PASTMD0L
  0
LINE
  5
B5A
  8
240
  6
CONTINUOUS
 10
1.5
 20
49.2124999999999702
 30
0.0
 11
7.5938332300000013
 21
49.2124999999999702
 31
0.0
1001
GRPNAME
1000
PASTMD0L
  0
LINE
  5
B5B
  8
240
  6
CONTINUOUS
 10
9.2000000000000028
 20
45.6449999999999818
 30
0.0
 11
13.0399999999999903
 21
45.6449999999999818
 31
0.0
1001
GRPNAME
1000
PASTMD0L
  0
LINE
  5
B5C
  8
240
  6
CONTINUOUS
 10
9.2000000000000028
 20
45.6449999999999818
 30
0.0
 11
9.2000000000000028
 21
46.4305375499999897
 31
0.0
1001
GRPNAME
1000
PASTMD0L
  0
LINE
  5
B5D
  8
240
  6
CONTINUOUS
 10
9.2000000000000028
 20
46.4305375499999897
 30
0.0
 11
7.5938332300000013
 21
49.2124999999999702
 31
0.0
1001
GRPNAME
1000
PASTMD0L
  0
LINE
  5
B5E
  8
240
  6
CONTINUOUS
 10
13.0399999999999903
 20
45.6449999999999818
 30
0.0
 11
13.0399999999999903
 21
46.4305375499999897
 31
0.0
1001
GRPNAME
1000
PASTMD0L
  0
LINE
  5
B5F
  8
240
  6
CONTINUOUS
 10
13.0399999999999903
 20
46.4305375499999897
 30
0.0
 11
14.6461667700000095
 21
49.2124999999999702
 31
0.0
1001
GRPNAME
1000
PASTMD0L
  0
TEXT
  5
B60
  8
250
  6
CONTINUOUS
 10
-73.9885626086238517
 20
-37.3577389430146312
 30
0.0
 40
2.799999999999998
  1
BCV50Y
  7
YOKO
1001
ITEMNAME
1000
LNSP3
  0
LINE
  5
B61
  8
250
  6
CONTINUOUS
 10
-57.0612186589336901
 20
-38.3577389430146312
 30
0.0
 11
-75.0612186589336829
 21
-38.3577389430146312
 31
0.0
1001
ITEMNAME
1000
LNSP2
  0
LINE
  5
B62
  8
250
  6
CONTINUOUS
 10
-52.088904974520247
 20
-29.0818615630252886
 30
0.0
 11
-50.7999999989336999
 21
-27.5166666630146288
 31
0.0
  0
LINE
  5
B63
  8
250
  6
CONTINUOUS
 10
-51.5116036569175506
 20
-29.4152796686203608
 30
0.0
 11
-50.7999999989336999
 21
-27.5166666630146288
 31
0.0
  0
LINE
  5
B64
  8
250
  6
CONTINUOUS
 10
-50.7999999989336999
 20
-27.5166666630146288
 30
0.0
 11
-51.8002543157188811
 21
-29.2485706158228211
 31
0.0
  0
LINE
  5
B65
  8
250
  6
CONTINUOUS
 10
-51.8002543157188811
 20
-29.2485706158228211
 30
0.0
 11
-57.0612186589336901
 21
-38.3577389430146312
 31
0.0
1001
ACAD
1000
DSTYLE
1002
{
1070
     6
1000
OPEN
1070
    41
1040
2.0
1070
    42
1040
2.0
1070
    44
1040
2.0
1070
   140
1040
4.0
1070
   343
1005
0
1002
}
  0
LINE
  5
B66
  8
247
  6
CONTINUOUS
 10
5.4999999999999432
 20
-26.75
 30
0.0
 11
5.5
 21
-22.1153846156700489
 31
0.0
  0
LINE
  5
B67
  8
247
  6
CONTINUOUS
 10
3.0
 20
-25.9548934999879783
 30
0.0
 11
5.0999999999160073
 21
-26.5570588100573595
 31
0.0
  0
LINE
  5
B68
  8
247
  6
CONTINUOUS
 10
3.996153846113998
 20
-25.3251514035190404
 30
0.0
 11
3.996153846113998
 21
-26.24053601886704
 31
0.0
  0
ARC
  5
B69
  8
247
  6
CONTINUOUS
 10
3.3847190672940979
 20
-25.0872634019468101
 30
0.0
 40
0.3876715809326743
 50
72.9978896752921997
 51
172.9241662185135908
  0
ARC
  5
B6A
  8
247
  6
CONTINUOUS
 10
3.305223131028014
 20
-25.3824775568041296
 30
0.0
 40
0.693304796535877
 50
4.7429368522022113
 51
73.8492262732667513
1001
GENIUS_GENOBJ-N-FIL_13
1002
{
1000
OWNER
1000
GEN
1002
}
1001
GENIUS_GENODEF_13
1002
{
1000
HIER
1070
     0
1002
}
1002
{
1000
MANEDIT
1070
     0
1002
}
1002
{
1000
NOSEL
1070
     0
1002
}
1002
{
1000
BEHIND
1070
     0
1002
}
1002
{
1000
OTHER
1070
     0
1002
}
1002
{
1000
REACTOR
1002
}
  0
LINE
  5
B6B
  8
247
  6
CONTINUOUS
 10
5.0999999999160073
 20
-25.6416741947093705
 30
0.0
 11
5.0999999999160073
 21
-26.5570588100573595
 31
0.0
  0
LINE
  5
B6C
  8
247
  6
CONTINUOUS
 10
3.0
 20
-25.9548934999879783
 30
0.0
 11
3.0
 21
-25.0395088846399894
 31
0.0
  0
ARC
  5
B6D
  8
247
  6
CONTINUOUS
 10
4.3874169627678681
 20
-25.3783064762668609
 30
0.0
 40
0.394857301075386
 50
65.990941652528889
 51
172.2634434590690944
  0
ARC
  5
B6E
  8
247
  6
CONTINUOUS
 10
4.3912003273325659
 20
-25.7124466104269302
 30
0.0
 40
0.7123241612361686
 50
5.701985164259785
 51
77.2773384368220206
1001
GENIUS_GENOBJ-N-FIL_13
1002
{
1000
OWNER
1000
GEN
1002
}
1001
GENIUS_GENODEF_13
1002
{
1000
HIER
1070
     0
1002
}
1002
{
1000
MANEDIT
1070
     0
1002
}
1002
{
1000
NOSEL
1070
     0
1002
}
1002
{
1000
BEHIND
1070
     0
1002
}
1002
{
1000
OTHER
1070
     0
1002
}
1002
{
1000
REACTOR
1002
}
  0
LINE
  5
B6F
  8
247
  6
CONTINUOUS
 10
5.0999999999160073
 20
-24.6839818870633998
 30
0.0
 11
3.0
 21
-24.0818165769940116
 31
0.0
  0
LINE
  5
B70
  8
247
  6
CONTINUOUS
 10
3.0
 20
-22.5856627309079805
 30
0.0
 11
3.0
 21
-22.9816783643036011
 31
0.0
  0
LINE
  5
B71
  8
247
  6
CONTINUOUS
 10
5.0999999999160073
 20
-23.6087396539439816
 30
0.0
 11
5.0999999999160073
 21
-23.1779704231919901
 31
0.0
  0
ARC
  5
B72
  8
247
  6
CONTINUOUS
 10
4.4582995950833562
 20
-22.3818165770699693
 30
0.0
 40
1.576855057639547
 50
202.3594881415291127
 51
254.9932485428464872
  0
ARC
  5
B73
  8
247
  6
CONTINUOUS
 10
3.5658188585381332
 20
-22.8475113661332294
 30
0.0
 40
0.6234706797009447
 50
94.9945893190753168
 51
155.1663289573039037
1001
GENIUS_GENOBJ-N-FIL_13
1002
{
1000
OWNER
1000
GEN
1002
}
1001
GENIUS_GENODEF_13
1002
{
1000
HIER
1070
     0
1002
}
1002
{
1000
MANEDIT
1070
     0
1002
}
1002
{
1000
NOSEL
1070
     0
1002
}
1002
{
1000
BEHIND
1070
     0
1002
}
1002
{
1000
OTHER
1070
     0
1002
}
1002
{
1000
REACTOR
1002
}
  0
ARC
  5
B74
  8
247
  6
CONTINUOUS
 10
4.1621021219694381
 20
-23.4441839510328087
 30
0.0
 40
0.9749472149106982
 50
15.8460965557808002
 51
82.325137004169278
  0
ARC
  5
B75
  8
247
  6
CONTINUOUS
 10
4.3714704019710631
 20
-23.035211638772239
 30
0.0
 40
0.9271945638692008
 50
249.7136016704968995
 51
321.7887456564109243
1001
GENIUS_GENOBJ-N-FIL_13
1002
{
1000
OWNER
1000
GEN
1002
}
1001
GENIUS_GENODEF_13
1002
{
1000
HIER
1070
     0
1002
}
1002
{
1000
MANEDIT
1070
     0
1002
}
1002
{
1000
NOSEL
1070
     0
1002
}
1002
{
1000
BEHIND
1070
     0
1002
}
1002
{
1000
OTHER
1070
     0
1002
}
1002
{
1000
REACTOR
1002
}
  0
LINE
  5
B76
  8
247
  6
CONTINUOUS
 10
4.2923076922559726
 20
-22.9625858078159588
 30
0.0
 11
4.2923076922559726
 21
-22.4779704232199684
 31
0.0
  0
ARC
  5
B77
  8
247
  6
CONTINUOUS
 10
4.25
 20
-26.75
 30
0.0
 40
1.25
 50
180.0
 51
0.0
  0
LINE
  5
B78
  8
247
  6
CONTINUOUS
 10
3.0
 20
-26.75
 30
0.0
 11
3.0
 21
-26.3038461539140407
 31
0.0
  0
ARC
  5
B79
  8
247
  6
CONTINUOUS
 10
4.25
 20
-22.1153846156700489
 30
0.0
 40
1.25
 50
0.0
 51
180.0
  0
TEXT
  5
C22
  8
241
  6
CONTINUOUS
 10
-101.5999999999999943
 20
77.0000000000000142
 30
0.0
 40
5.0
  1
BCV50Y-F63-5.125
  7
YOKO
 11
-101.5999999999999943
 21
77.0000000000000142
 31
0.0
 73
     1
  0
LINE
  5
DE4
  8
241
  6
CONTINUOUS
 10
19.6259881478462397
 20
12.6999999999995499
 30
0.0
 11
3.7000000000000002
 21
12.7000000000001698
 31
0.0
  0
LINE
  5
DE5
  8
241
  6
CONTINUOUS
 10
19.6259902522138105
 20
-12.6999902237899391
 30
0.0
 11
3.6999999999996791
 21
-12.6999988134347603
 31
0.0
  0
LINE
  5
E01
  8
241
  6
CONTINUOUS
 10
19.0500000000000114
 20
-39.8448960668739502
 30
0.0
 11
19.0500000000000114
 21
-12.6999999999920998
 31
0.0
  0
LINE
  5
E02
  8
241
  6
CONTINUOUS
 10
19.0500000000000114
 20
12.6999999999893394
 30
0.0
 11
19.0500000000000114
 21
39.8448960668675483
 31
0.0
  0
POLYLINE
  8
241
  5
13A2
  66
     1
 10
0.000000
 20
0.000000
 30
0.000000
  70
     8
  0
VERTEX
  8
241
  5
13A3
 10
19.6260
 20
12.7000
 30
0.000000
  70
    32
  0
VERTEX
  8
241
  5
13A4
 10
19.6450
 20
12.6120
 30
0.000000
  70
    32
  0
VERTEX
  8
241
  5
13A5
 10
19.6641
 20
12.5240
 30
0.000000
  70
    32
  0
VERTEX
  8
241
  5
13A6
 10
19.6831
 20
12.4359
 30
0.000000
  70
    32
  0
VERTEX
  8
241
  5
13A7
 10
19.7022
 20
12.3479
 30
0.000000
  70
    32
  0
VERTEX
  8
241
  5
13A8
 10
19.7213
 20
12.2599
 30
0.000000
  70
    32
  0
VERTEX
  8
241
  5
13A9
 10
19.7403
 20
12.1719
 30
0.000000
  70
    32
  0
VERTEX
  8
241
  5
13AA
 10
19.7594
 20
12.0839
 30
0.000000
  70
    32
  0
VERTEX
  8
241
  5
13AB
 10
19.7784
 20
11.9959
 30
0.000000
  70
    32
  0
VERTEX
  8
241
  5
13AC
 10
19.7975
 20
11.9078
 30
0.000000
  70
    32
  0
VERTEX
  8
241
  5
13AD
 10
19.8166
 20
11.8198
 30
0.000000
  70
    32
  0
VERTEX
  8
241
  5
13AE
 10
19.8356
 20
11.7318
 30
0.000000
  70
    32
  0
VERTEX
  8
241
  5
13AF
 10
19.8547
 20
11.6438
 30
0.000000
  70
    32
  0
VERTEX
  8
241
  5
13B0
 10
19.8738
 20
11.5558
 30
0.000000
  70
    32
  0
VERTEX
  8
241
  5
13B1
 10
19.8929
 20
11.4677
 30
0.000000
  70
    32
  0
VERTEX
  8
241
  5
13B2
 10
19.9120
 20
11.3797
 30
0.000000
  70
    32
  0
VERTEX
  8
241
  5
13B3
 10
19.9311
 20
11.2917
 30
0.000000
  70
    32
  0
VERTEX
  8
241
  5
13B4
 10
19.9502
 20
11.2037
 30
0.000000
  70
    32
  0
VERTEX
  8
241
  5
13B5
 10
19.9693
 20
11.1157
 30
0.000000
  70
    32
  0
VERTEX
  8
241
  5
13B6
 10
19.9884
 20
11.0277
 30
0.000000
  70
    32
  0
VERTEX
  8
241
  5
13B7
 10
20.0075
 20
10.9396
 30
0.000000
  70
    32
  0
VERTEX
  8
241
  5
13B8
 10
20.0266
 20
10.8516
 30
0.000000
  70
    32
  0
VERTEX
  8
241
  5
13B9
 10
20.0457
 20
10.7636
 30
0.000000
  70
    32
  0
VERTEX
  8
241
  5
13BA
 10
20.0649
 20
10.6756
 30
0.000000
  70
    32
  0
VERTEX
  8
241
  5
13BB
 10
20.0840
 20
10.5876
 30
0.000000
  70
    32
  0
VERTEX
  8
241
  5
13BC
 10
20.1032
 20
10.4995
 30
0.000000
  70
    32
  0
VERTEX
  8
241
  5
13BD
 10
20.1223
 20
10.4115
 30
0.000000
  70
    32
  0
VERTEX
  8
241
  5
13BE
 10
20.1415
 20
10.3235
 30
0.000000
  70
    32
  0
VERTEX
  8
241
  5
13BF
 10
20.1607
 20
10.2355
 30
0.000000
  70
    32
  0
VERTEX
  8
241
  5
13C0
 10
20.1798
 20
10.1475
 30
0.000000
  70
    32
  0
VERTEX
  8
241
  5
13C1
 10
20.1990
 20
10.0594
 30
0.000000
  70
    32
  0
VERTEX
  8
241
  5
13C2
 10
20.2182
 20
9.97143
 30
0.000000
  70
    32
  0
VERTEX
  8
241
  5
13C3
 10
20.2375
 20
9.88341
 30
0.000000
  70
    32
  0
VERTEX
  8
241
  5
13C4
 10
20.2567
 20
9.79539
 30
0.000000
  70
    32
  0
VERTEX
  8
241
  5
13C5
 10
20.2759
 20
9.70737
 30
0.000000
  70
    32
  0
VERTEX
  8
241
  5
13C6
 10
20.2952
 20
9.61935
 30
0.000000
  70
    32
  0
VERTEX
  8
241
  5
13C7
 10
20.3144
 20
9.53133
 30
0.000000
  70
    32
  0
VERTEX
  8
241
  5
13C8
 10
20.3337
 20
9.44331
 30
0.000000
  70
    32
  0
VERTEX
  8
241
  5
13C9
 10
20.3530
 20
9.35529
 30
0.000000
  70
    32
  0
VERTEX
  8
241
  5
13CA
 10
20.3722
 20
9.26727
 30
0.000000
  70
    32
  0
VERTEX
  8
241
  5
13CB
 10
20.3916
 20
9.17925
 30
0.000000
  70
    32
  0
VERTEX
  8
241
  5
13CC
 10
20.4109
 20
9.09123
 30
0.000000
  70
    32
  0
VERTEX
  8
241
  5
13CD
 10
20.4302
 20
9.00321
 30
0.000000
  70
    32
  0
VERTEX
  8
241
  5
13CE
 10
20.4495
 20
8.91519
 30
0.000000
  70
    32
  0
VERTEX
  8
241
  5
13CF
 10
20.4689
 20
8.82716
 30
0.000000
  70
    32
  0
VERTEX
  8
241
  5
13D0
 10
20.4883
 20
8.73914
 30
0.000000
  70
    32
  0
VERTEX
  8
241
  5
13D1
 10
20.5077
 20
8.65112
 30
0.000000
  70
    32
  0
VERTEX
  8
241
  5
13D2
 10
20.5271
 20
8.56310
 30
0.000000
  70
    32
  0
VERTEX
  8
241
  5
13D3
 10
20.5465
 20
8.47508
 30
0.000000
  70
    32
  0
VERTEX
  8
241
  5
13D4
 10
20.5659
 20
8.38706
 30
0.000000
  70
    32
  0
VERTEX
  8
241
  5
13D5
 10
20.5854
 20
8.29904
 30
0.000000
  70
    32
  0
VERTEX
  8
241
  5
13D6
 10
20.6048
 20
8.21101
 30
0.000000
  70
    32
  0
VERTEX
  8
241
  5
13D7
 10
20.6243
 20
8.12299
 30
0.000000
  70
    32
  0
VERTEX
  8
241
  5
13D8
 10
20.6438
 20
8.03497
 30
0.000000
  70
    32
  0
VERTEX
  8
241
  5
13D9
 10
20.6633
 20
7.94695
 30
0.000000
  70
    32
  0
VERTEX
  8
241
  5
13DA
 10
20.6828
 20
7.85892
 30
0.000000
  70
    32
  0
VERTEX
  8
241
  5
13DB
 10
20.7024
 20
7.77090
 30
0.000000
  70
    32
  0
VERTEX
  8
241
  5
13DC
 10
20.7220
 20
7.68288
 30
0.000000
  70
    32
  0
VERTEX
  8
241
  5
13DD
 10
20.7415
 20
7.59485
 30
0.000000
  70
    32
  0
VERTEX
  8
241
  5
13DE
 10
20.7611
 20
7.50683
 30
0.000000
  70
    32
  0
VERTEX
  8
241
  5
13DF
 10
20.7808
 20
7.41881
 30
0.000000
  70
    32
  0
VERTEX
  8
241
  5
13E0
 10
20.8004
 20
7.33078
 30
0.000000
  70
    32
  0
VERTEX
  8
241
  5
13E1
 10
20.8201
 20
7.24276
 30
0.000000
  70
    32
  0
VERTEX
  8
241
  5
13E2
 10
20.8397
 20
7.15473
 30
0.000000
  70
    32
  0
VERTEX
  8
241
  5
13E3
 10
20.8594
 20
7.06671
 30
0.000000
  70
    32
  0
VERTEX
  8
241
  5
13E4
 10
20.8792
 20
6.97868
 30
0.000000
  70
    32
  0
VERTEX
  8
241
  5
13E5
 10
20.8989
 20
6.89066
 30
0.000000
  70
    32
  0
VERTEX
  8
241
  5
13E6
 10
20.9187
 20
6.80263
 30
0.000000
  70
    32
  0
VERTEX
  8
241
  5
13E7
 10
20.9385
 20
6.71461
 30
0.000000
  70
    32
  0
VERTEX
  8
241
  5
13E8
 10
20.9583
 20
6.62658
 30
0.000000
  70
    32
  0
VERTEX
  8
241
  5
13E9
 10
20.9781
 20
6.53856
 30
0.000000
  70
    32
  0
VERTEX
  8
241
  5
13EA
 10
20.9980
 20
6.45053
 30
0.000000
  70
    32
  0
VERTEX
  8
241
  5
13EB
 10
21.0178
 20
6.36250
 30
0.000000
  70
    32
  0
VERTEX
  8
241
  5
13EC
 10
21.0377
 20
6.27448
 30
0.000000
  70
    32
  0
VERTEX
  8
241
  5
13ED
 10
21.0576
 20
6.18644
 30
0.000000
  70
    32
  0
VERTEX
  8
241
  5
13EE
 10
21.0775
 20
6.09841
 30
0.000000
  70
    32
  0
VERTEX
  8
241
  5
13EF
 10
21.0974
 20
6.01037
 30
0.000000
  70
    32
  0
VERTEX
  8
241
  5
13F0
 10
21.1173
 20
5.92233
 30
0.000000
  70
    32
  0
VERTEX
  8
241
  5
13F1
 10
21.1371
 20
5.83428
 30
0.000000
  70
    32
  0
VERTEX
  8
241
  5
13F2
 10
21.1569
 20
5.74622
 30
0.000000
  70
    32
  0
VERTEX
  8
241
  5
13F3
 10
21.1767
 20
5.65815
 30
0.000000
  70
    32
  0
VERTEX
  8
241
  5
13F4
 10
21.1964
 20
5.57007
 30
0.000000
  70
    32
  0
VERTEX
  8
241
  5
13F5
 10
21.2160
 20
5.48197
 30
0.000000
  70
    32
  0
VERTEX
  8
241
  5
13F6
 10
21.2356
 20
5.39387
 30
0.000000
  70
    32
  0
VERTEX
  8
241
  5
13F7
 10
21.2551
 20
5.30575
 30
0.000000
  70
    32
  0
VERTEX
  8
241
  5
13F8
 10
21.2745
 20
5.21761
 30
0.000000
  70
    32
  0
VERTEX
  8
241
  5
13F9
 10
21.2938
 20
5.12946
 30
0.000000
  70
    32
  0
VERTEX
  8
241
  5
13FA
 10
21.3130
 20
5.04129
 30
0.000000
  70
    32
  0
VERTEX
  8
241
  5
13FB
 10
21.3321
 20
4.95310
 30
0.000000
  70
    32
  0
VERTEX
  8
241
  5
13FC
 10
21.3511
 20
4.86490
 30
0.000000
  70
    32
  0
VERTEX
  8
241
  5
13FD
 10
21.3699
 20
4.77667
 30
0.000000
  70
    32
  0
VERTEX
  8
241
  5
13FE
 10
21.3886
 20
4.68842
 30
0.000000
  70
    32
  0
VERTEX
  8
241
  5
13FF
 10
21.4072
 20
4.60014
 30
0.000000
  70
    32
  0
VERTEX
  8
241
  5
1400
 10
21.4256
 20
4.51184
 30
0.000000
  70
    32
  0
VERTEX
  8
241
  5
1401
 10
21.4438
 20
4.42351
 30
0.000000
  70
    32
  0
VERTEX
  8
241
  5
1402
 10
21.4619
 20
4.33516
 30
0.000000
  70
    32
  0
VERTEX
  8
241
  5
1403
 10
21.4798
 20
4.24678
 30
0.000000
  70
    32
  0
VERTEX
  8
241
  5
1404
 10
21.4975
 20
4.15837
 30
0.000000
  70
    32
  0
VERTEX
  8
241
  5
1405
 10
21.5150
 20
4.06993
 30
0.000000
  70
    32
  0
VERTEX
  8
241
  5
1406
 10
21.5323
 20
3.98145
 30
0.000000
  70
    32
  0
VERTEX
  8
241
  5
1407
 10
21.5494
 20
3.89295
 30
0.000000
  70
    32
  0
VERTEX
  8
241
  5
1408
 10
21.5663
 20
3.80441
 30
0.000000
  70
    32
  0
VERTEX
  8
241
  5
1409
 10
21.5829
 20
3.71583
 30
0.000000
  70
    32
  0
VERTEX
  8
241
  5
140A
 10
21.5993
 20
3.62722
 30
0.000000
  70
    32
  0
VERTEX
  8
241
  5
140B
 10
21.6154
 20
3.53857
 30
0.000000
  70
    32
  0
VERTEX
  8
241
  5
140C
 10
21.6313
 20
3.44988
 30
0.000000
  70
    32
  0
VERTEX
  8
241
  5
140D
 10
21.6470
 20
3.36115
 30
0.000000
  70
    32
  0
VERTEX
  8
241
  5
140E
 10
21.6623
 20
3.27238
 30
0.000000
  70
    32
  0
VERTEX
  8
241
  5
140F
 10
21.6774
 20
3.18357
 30
0.000000
  70
    32
  0
VERTEX
  8
241
  5
1410
 10
21.6921
 20
3.09472
 30
0.000000
  70
    32
  0
VERTEX
  8
241
  5
1411
 10
21.7066
 20
3.00581
 30
0.000000
  70
    32
  0
VERTEX
  8
241
  5
1412
 10
21.7208
 20
2.91687
 30
0.000000
  70
    32
  0
VERTEX
  8
241
  5
1413
 10
21.7346
 20
2.82788
 30
0.000000
  70
    32
  0
VERTEX
  8
241
  5
1414
 10
21.7482
 20
2.73883
 30
0.000000
  70
    32
  0
VERTEX
  8
241
  5
1415
 10
21.7614
 20
2.64974
 30
0.000000
  70
    32
  0
VERTEX
  8
241
  5
1416
 10
21.7742
 20
2.56060
 30
0.000000
  70
    32
  0
VERTEX
  8
241
  5
1417
 10
21.7867
 20
2.47141
 30
0.000000
  70
    32
  0
VERTEX
  8
241
  5
1418
 10
21.7989
 20
2.38216
 30
0.000000
  70
    32
  0
VERTEX
  8
241
  5
1419
 10
21.8106
 20
2.29286
 30
0.000000
  70
    32
  0
VERTEX
  8
241
  5
141A
 10
21.8220
 20
2.20351
 30
0.000000
  70
    32
  0
VERTEX
  8
241
  5
141B
 10
21.8330
 20
2.11409
 30
0.000000
  70
    32
  0
VERTEX
  8
241
  5
141C
 10
21.8437
 20
2.02462
 30
0.000000
  70
    32
  0
VERTEX
  8
241
  5
141D
 10
21.8539
 20
1.93510
 30
0.000000
  70
    32
  0
VERTEX
  8
241
  5
141E
 10
21.8637
 20
1.84551
 30
0.000000
  70
    32
  0
VERTEX
  8
241
  5
141F
 10
21.8731
 20
1.75587
 30
0.000000
  70
    32
  0
VERTEX
  8
241
  5
1420
 10
21.8821
 20
1.66618
 30
0.000000
  70
    32
  0
VERTEX
  8
241
  5
1421
 10
21.8906
 20
1.57643
 30
0.000000
  70
    32
  0
VERTEX
  8
241
  5
1422
 10
21.8988
 20
1.48664
 30
0.000000
  70
    32
  0
VERTEX
  8
241
  5
1423
 10
21.9065
 20
1.39681
 30
0.000000
  70
    32
  0
VERTEX
  8
241
  5
1424
 10
21.9137
 20
1.30693
 30
0.000000
  70
    32
  0
VERTEX
  8
241
  5
1425
 10
21.9205
 20
1.21701
 30
0.000000
  70
    32
  0
VERTEX
  8
241
  5
1426
 10
21.9268
 20
1.12706
 30
0.000000
  70
    32
  0
VERTEX
  8
241
  5
1427
 10
21.9327
 20
1.03708
 30
0.000000
  70
    32
  0
VERTEX
  8
241
  5
1428
 10
21.9382
 20
0.947063
 30
0.000000
  70
    32
  0
VERTEX
  8
241
  5
1429
 10
21.9431
 20
0.857020
 30
0.000000
  70
    32
  0
VERTEX
  8
241
  5
142A
 10
21.9476
 20
0.766952
 30
0.000000
  70
    32
  0
VERTEX
  8
241
  5
142B
 10
21.9516
 20
0.676861
 30
0.000000
  70
    32
  0
VERTEX
  8
241
  5
142C
 10
21.9551
 20
0.586751
 30
0.000000
  70
    32
  0
VERTEX
  8
241
  5
142D
 10
21.9582
 20
0.496624
 30
0.000000
  70
    32
  0
VERTEX
  8
241
  5
142E
 10
21.9607
 20
0.406483
 30
0.000000
  70
    32
  0
VERTEX
  8
241
  5
142F
 10
21.9627
 20
0.316330
 30
0.000000
  70
    32
  0
VERTEX
  8
241
  5
1430
 10
21.9642
 20
0.226169
 30
0.000000
  70
    32
  0
VERTEX
  8
241
  5
1431
 10
21.9653
 20
0.136002
 30
0.000000
  70
    32
  0
VERTEX
  8
241
  5
1432
 10
21.9657
 20
0.0458313
 30
0.000000
  70
    32
  0
VERTEX
  8
241
  5
1433
 10
21.9657
 20
-0.0443396
 30
0.000000
  70
    32
  0
VERTEX
  8
241
  5
1434
 10
21.9652
 20
-0.134509
 30
0.000000
  70
    32
  0
VERTEX
  8
241
  5
1435
 10
21.9641
 20
-0.224673
 30
0.000000
  70
    32
  0
VERTEX
  8
241
  5
1436
 10
21.9625
 20
-0.314832
 30
0.000000
  70
    32
  0
VERTEX
  8
241
  5
1437
 10
21.9604
 20
-0.404982
 30
0.000000
  70
    32
  0
VERTEX
  8
241
  5
1438
 10
21.9578
 20
-0.495121
 30
0.000000
  70
    32
  0
VERTEX
  8
241
  5
1439
 10
21.9547
 20
-0.585248
 30
0.000000
  70
    32
  0
VERTEX
  8
241
  5
143A
 10
21.9512
 20
-0.675360
 30
0.000000
  70
    32
  0
VERTEX
  8
241
  5
143B
 10
21.9471
 20
-0.765455
 30
0.000000
  70
    32
  0
VERTEX
  8
241
  5
143C
 10
21.9426
 20
-0.855530
 30
0.000000
  70
    32
  0
VERTEX
  8
241
  5
143D
 10
21.9376
 20
-0.945585
 30
0.000000
  70
    32
  0
VERTEX
  8
241
  5
143E
 10
21.9321
 20
-1.03562
 30
0.000000
  70
    32
  0
VERTEX
  8
241
  5
143F
 10
21.9262
 20
-1.12562
 30
0.000000
  70
    32
  0
VERTEX
  8
241
  5
1440
 10
21.9198
 20
-1.21560
 30
0.000000
  70
    32
  0
VERTEX
  8
241
  5
1441
 10
21.9130
 20
-1.30555
 30
0.000000
  70
    32
  0
VERTEX
  8
241
  5
1442
 10
21.9058
 20
-1.39546
 30
0.000000
  70
    32
  0
VERTEX
  8
241
  5
1443
 10
21.8981
 20
-1.48534
 30
0.000000
  70
    32
  0
VERTEX
  8
241
  5
1444
 10
21.8900
 20
-1.57519
 30
0.000000
  70
    32
  0
VERTEX
  8
241
  5
1445
 10
21.8815
 20
-1.66499
 30
0.000000
  70
    32
  0
VERTEX
  8
241
  5
1446
 10
21.8725
 20
-1.75476
 30
0.000000
  70
    32
  0
VERTEX
  8
241
  5
1447
 10
21.8632
 20
-1.84448
 30
0.000000
  70
    32
  0
VERTEX
  8
241
  5
1448
 10
21.8534
 20
-1.93416
 30
0.000000
  70
    32
  0
VERTEX
  8
241
  5
1449
 10
21.8432
 20
-2.02379
 30
0.000000
  70
    32
  0
VERTEX
  8
241
  5
144A
 10
21.8327
 20
-2.11337
 30
0.000000
  70
    32
  0
VERTEX
  8
241
  5
144B
 10
21.8218
 20
-2.20290
 30
0.000000
  70
    32
  0
VERTEX
  8
241
  5
144C
 10
21.8105
 20
-2.29238
 30
0.000000
  70
    32
  0
VERTEX
  8
241
  5
144D
 10
21.7988
 20
-2.38180
 30
0.000000
  70
    32
  0
VERTEX
  8
241
  5
144E
 10
21.7867
 20
-2.47116
 30
0.000000
  70
    32
  0
VERTEX
  8
241
  5
144F
 10
21.7743
 20
-2.56047
 30
0.000000
  70
    32
  0
VERTEX
  8
241
  5
1450
 10
21.7616
 20
-2.64971
 30
0.000000
  70
    32
  0
VERTEX
  8
241
  5
1451
 10
21.7485
 20
-2.73889
 30
0.000000
  70
    32
  0
VERTEX
  8
241
  5
1452
 10
21.7350
 20
-2.82801
 30
0.000000
  70
    32
  0
VERTEX
  8
241
  5
1453
 10
21.7213
 20
-2.91707
 30
0.000000
  70
    32
  0
VERTEX
  8
241
  5
1454
 10
21.7072
 20
-3.00607
 30
0.000000
  70
    32
  0
VERTEX
  8
241
  5
1455
 10
21.6928
 20
-3.09502
 30
0.000000
  70
    32
  0
VERTEX
  8
241
  5
1456
 10
21.6781
 20
-3.18392
 30
0.000000
  70
    32
  0
VERTEX
  8
241
  5
1457
 10
21.6631
 20
-3.27276
 30
0.000000
  70
    32
  0
VERTEX
  8
241
  5
1458
 10
21.6478
 20
-3.36156
 30
0.000000
  70
    32
  0
VERTEX
  8
241
  5
1459
 10
21.6322
 20
-3.45030
 30
0.000000
  70
    32
  0
VERTEX
  8
241
  5
145A
 10
21.6164
 20
-3.53899
 30
0.000000
  70
    32
  0
VERTEX
  8
241
  5
145B
 10
21.6003
 20
-3.62764
 30
0.000000
  70
    32
  0
VERTEX
  8
241
  5
145C
 10
21.5839
 20
-3.71625
 30
0.000000
  70
    32
  0
VERTEX
  8
241
  5
145D
 10
21.5674
 20
-3.80481
 30
0.000000
  70
    32
  0
VERTEX
  8
241
  5
145E
 10
21.5505
 20
-3.89332
 30
0.000000
  70
    32
  0
VERTEX
  8
241
  5
145F
 10
21.5335
 20
-3.98180
 30
0.000000
  70
    32
  0
VERTEX
  8
241
  5
1460
 10
21.5162
 20
-4.07024
 30
0.000000
  70
    32
  0
VERTEX
  8
241
  5
1461
 10
21.4987
 20
-4.15864
 30
0.000000
  70
    32
  0
VERTEX
  8
241
  5
1462
 10
21.4810
 20
-4.24701
 30
0.000000
  70
    32
  0
VERTEX
  8
241
  5
1463
 10
21.4631
 20
-4.33534
 30
0.000000
  70
    32
  0
VERTEX
  8
241
  5
1464
 10
21.4450
 20
-4.42363
 30
0.000000
  70
    32
  0
VERTEX
  8
241
  5
1465
 10
21.4268
 20
-4.51190
 30
0.000000
  70
    32
  0
VERTEX
  8
241
  5
1466
 10
21.4084
 20
-4.60013
 30
0.000000
  70
    32
  0
VERTEX
  8
241
  5
1467
 10
21.3898
 20
-4.68834
 30
0.000000
  70
    32
  0
VERTEX
  8
241
  5
1468
 10
21.3711
 20
-4.77652
 30
0.000000
  70
    32
  0
VERTEX
  8
241
  5
1469
 10
21.3522
 20
-4.86467
 30
0.000000
  70
    32
  0
VERTEX
  8
241
  5
146A
 10
21.3332
 20
-4.95280
 30
0.000000
  70
    32
  0
VERTEX
  8
241
  5
146B
 10
21.3140
 20
-5.04090
 30
0.000000
  70
    32
  0
VERTEX
  8
241
  5
146C
 10
21.2948
 20
-5.12899
 30
0.000000
  70
    32
  0
VERTEX
  8
241
  5
146D
 10
21.2754
 20
-5.21705
 30
0.000000
  70
    32
  0
VERTEX
  8
241
  5
146E
 10
21.2560
 20
-5.30510
 30
0.000000
  70
    32
  0
VERTEX
  8
241
  5
146F
 10
21.2364
 20
-5.39313
 30
0.000000
  70
    32
  0
VERTEX
  8
241
  5
1470
 10
21.2168
 20
-5.48114
 30
0.000000
  70
    32
  0
VERTEX
  8
241
  5
1471
 10
21.1970
 20
-5.56914
 30
0.000000
  70
    32
  0
VERTEX
  8
241
  5
1472
 10
21.1772
 20
-5.65713
 30
0.000000
  70
    32
  0
VERTEX
  8
241
  5
1473
 10
21.1574
 20
-5.74510
 30
0.000000
  70
    32
  0
VERTEX
  8
241
  5
1474
 10
21.1375
 20
-5.83307
 30
0.000000
  70
    32
  0
VERTEX
  8
241
  5
1475
 10
21.1176
 20
-5.92103
 30
0.000000
  70
    32
  0
VERTEX
  8
241
  5
1476
 10
21.0976
 20
-6.00898
 30
0.000000
  70
    32
  0
VERTEX
  8
241
  5
1477
 10
21.0776
 20
-6.09692
 30
0.000000
  70
    32
  0
VERTEX
  8
241
  5
1478
 10
21.0576
 20
-6.18487
 30
0.000000
  70
    32
  0
VERTEX
  8
241
  5
1479
 10
21.0375
 20
-6.27281
 30
0.000000
  70
    32
  0
VERTEX
  8
241
  5
147A
 10
21.0175
 20
-6.36075
 30
0.000000
  70
    32
  0
VERTEX
  8
241
  5
147B
 10
20.9975
 20
-6.44869
 30
0.000000
  70
    32
  0
VERTEX
  8
241
  5
147C
 10
20.9775
 20
-6.53663
 30
0.000000
  70
    32
  0
VERTEX
  8
241
  5
147D
 10
20.9575
 20
-6.62457
 30
0.000000
  70
    32
  0
VERTEX
  8
241
  5
147E
 10
20.9376
 20
-6.71252
 30
0.000000
  70
    32
  0
VERTEX
  8
241
  5
147F
 10
20.9176
 20
-6.80048
 30
0.000000
  70
    32
  0
VERTEX
  8
241
  5
1480
 10
20.8977
 20
-6.88844
 30
0.000000
  70
    32
  0
VERTEX
  8
241
  5
1481
 10
20.8779
 20
-6.97640
 30
0.000000
  70
    32
  0
VERTEX
  8
241
  5
1482
 10
20.8580
 20
-7.06437
 30
0.000000
  70
    32
  0
VERTEX
  8
241
  5
1483
 10
20.8382
 20
-7.15234
 30
0.000000
  70
    32
  0
VERTEX
  8
241
  5
1484
 10
20.8184
 20
-7.24032
 30
0.000000
  70
    32
  0
VERTEX
  8
241
  5
1485
 10
20.7987
 20
-7.32830
 30
0.000000
  70
    32
  0
VERTEX
  8
241
  5
1486
 10
20.7790
 20
-7.41628
 30
0.000000
  70
    32
  0
VERTEX
  8
241
  5
1487
 10
20.7592
 20
-7.50427
 30
0.000000
  70
    32
  0
VERTEX
  8
241
  5
1488
 10
20.7396
 20
-7.59226
 30
0.000000
  70
    32
  0
VERTEX
  8
241
  5
1489
 10
20.7199
 20
-7.68025
 30
0.000000
  70
    32
  0
VERTEX
  8
241
  5
148A
 10
20.7003
 20
-7.76825
 30
0.000000
  70
    32
  0
VERTEX
  8
241
  5
148B
 10
20.6807
 20
-7.85625
 30
0.000000
  70
    32
  0
VERTEX
  8
241
  5
148C
 10
20.6611
 20
-7.94426
 30
0.000000
  70
    32
  0
VERTEX
  8
241
  5
148D
 10
20.6415
 20
-8.03227
 30
0.000000
  70
    32
  0
VERTEX
  8
241
  5
148E
 10
20.6220
 20
-8.12028
 30
0.000000
  70
    32
  0
VERTEX
  8
241
  5
148F
 10
20.6024
 20
-8.20829
 30
0.000000
  70
    32
  0
VERTEX
  8
241
  5
1490
 10
20.5829
 20
-8.29631
 30
0.000000
  70
    32
  0
VERTEX
  8
241
  5
1491
 10
20.5635
 20
-8.38433
 30
0.000000
  70
    32
  0
VERTEX
  8
241
  5
1492
 10
20.5440
 20
-8.47236
 30
0.000000
  70
    32
  0
VERTEX
  8
241
  5
1493
 10
20.5246
 20
-8.56039
 30
0.000000
  70
    32
  0
VERTEX
  8
241
  5
1494
 10
20.5051
 20
-8.64842
 30
0.000000
  70
    32
  0
VERTEX
  8
241
  5
1495
 10
20.4857
 20
-8.73645
 30
0.000000
  70
    32
  0
VERTEX
  8
241
  5
1496
 10
20.4664
 20
-8.82449
 30
0.000000
  70
    32
  0
VERTEX
  8
241
  5
1497
 10
20.4470
 20
-8.91253
 30
0.000000
  70
    32
  0
VERTEX
  8
241
  5
1498
 10
20.4277
 20
-9.00057
 30
0.000000
  70
    32
  0
VERTEX
  8
241
  5
1499
 10
20.4083
 20
-9.08862
 30
0.000000
  70
    32
  0
VERTEX
  8
241
  5
149A
 10
20.3890
 20
-9.17666
 30
0.000000
  70
    32
  0
VERTEX
  8
241
  5
149B
 10
20.3697
 20
-9.26471
 30
0.000000
  70
    32
  0
VERTEX
  8
241
  5
149C
 10
20.3505
 20
-9.35277
 30
0.000000
  70
    32
  0
VERTEX
  8
241
  5
149D
 10
20.3312
 20
-9.44082
 30
0.000000
  70
    32
  0
VERTEX
  8
241
  5
149E
 10
20.3120
 20
-9.52888
 30
0.000000
  70
    32
  0
VERTEX
  8
241
  5
149F
 10
20.2927
 20
-9.61694
 30
0.000000
  70
    32
  0
VERTEX
  8
241
  5
14A0
 10
20.2735
 20
-9.70500
 30
0.000000
  70
    32
  0
VERTEX
  8
241
  5
14A1
 10
20.2543
 20
-9.79307
 30
0.000000
  70
    32
  0
VERTEX
  8
241
  5
14A2
 10
20.2351
 20
-9.88113
 30
0.000000
  70
    32
  0
VERTEX
  8
241
  5
14A3
 10
20.2160
 20
-9.96920
 30
0.000000
  70
    32
  0
VERTEX
  8
241
  5
14A4
 10
20.1968
 20
-10.0573
 30
0.000000
  70
    32
  0
VERTEX
  8
241
  5
14A5
 10
20.1777
 20
-10.1453
 30
0.000000
  70
    32
  0
VERTEX
  8
241
  5
14A6
 10
20.1585
 20
-10.2334
 30
0.000000
  70
    32
  0
VERTEX
  8
241
  5
14A7
 10
20.1394
 20
-10.3215
 30
0.000000
  70
    32
  0
VERTEX
  8
241
  5
14A8
 10
20.1203
 20
-10.4096
 30
0.000000
  70
    32
  0
VERTEX
  8
241
  5
14A9
 10
20.1012
 20
-10.4977
 30
0.000000
  70
    32
  0
VERTEX
  8
241
  5
14AA
 10
20.0821
 20
-10.5857
 30
0.000000
  70
    32
  0
VERTEX
  8
241
  5
14AB
 10
20.0630
 20
-10.6738
 30
0.000000
  70
    32
  0
VERTEX
  8
241
  5
14AC
 10
20.0439
 20
-10.7619
 30
0.000000
  70
    32
  0
VERTEX
  8
241
  5
14AD
 10
20.0249
 20
-10.8500
 30
0.000000
  70
    32
  0
VERTEX
  8
241
  5
14AE
 10
20.0058
 20
-10.9381
 30
0.000000
  70
    32
  0
VERTEX
  8
241
  5
14AF
 10
19.9868
 20
-11.0262
 30
0.000000
  70
    32
  0
VERTEX
  8
241
  5
14B0
 10
19.9677
 20
-11.1142
 30
0.000000
  70
    32
  0
VERTEX
  8
241
  5
14B1
 10
19.9487
 20
-11.2023
 30
0.000000
  70
    32
  0
VERTEX
  8
241
  5
14B2
 10
19.9297
 20
-11.2904
 30
0.000000
  70
    32
  0
VERTEX
  8
241
  5
14B3
 10
19.9107
 20
-11.3785
 30
0.000000
  70
    32
  0
VERTEX
  8
241
  5
14B4
 10
19.8917
 20
-11.4666
 30
0.000000
  70
    32
  0
VERTEX
  8
241
  5
14B5
 10
19.8727
 20
-11.5547
 30
0.000000
  70
    32
  0
VERTEX
  8
241
  5
14B6
 10
19.8537
 20
-11.6428
 30
0.000000
  70
    32
  0
VERTEX
  8
241
  5
14B7
 10
19.8347
 20
-11.7309
 30
0.000000
  70
    32
  0
VERTEX
  8
241
  5
14B8
 10
19.8157
 20
-11.8190
 30
0.000000
  70
    32
  0
VERTEX
  8
241
  5
14B9
 10
19.7967
 20
-11.9071
 30
0.000000
  70
    32
  0
VERTEX
  8
241
  5
14BA
 10
19.7777
 20
-11.9952
 30
0.000000
  70
    32
  0
VERTEX
  8
241
  5
14BB
 10
19.7588
 20
-12.0833
 30
0.000000
  70
    32
  0
VERTEX
  8
241
  5
14BC
 10
19.7398
 20
-12.1714
 30
0.000000
  70
    32
  0
VERTEX
  8
241
  5
14BD
 10
19.7208
 20
-12.2595
 30
0.000000
  70
    32
  0
VERTEX
  8
241
  5
14BE
 10
19.7019
 20
-12.3476
 30
0.000000
  70
    32
  0
VERTEX
  8
241
  5
14BF
 10
19.6829
 20
-12.4357
 30
0.000000
  70
    32
  0
VERTEX
  8
241
  5
14C0
 10
19.6639
 20
-12.5238
 30
0.000000
  70
    32
  0
VERTEX
  8
241
  5
14C1
 10
19.6450
 20
-12.6119
 30
0.000000
  70
    32
  0
VERTEX
  8
241
  5
14C2
 10
19.6260
 20
-12.7000
 30
0.000000
  70
    32
  0
SEQEND
  8
241
  5
14C3
  0
LINE
  5
1196
  8
240
  6
CONTINUOUS
 10
130.0999999999982037
 20
-31.4999999999999893
 30
0.0
 11
118.1000000002350987
 21
-31.5000000000000213
 31
0.0
  0
LINE
  5
1197
  8
240
  6
CONTINUOUS
 10
133.5999999999999091
 20
31.2324046599997516
 30
0.0
 11
133.5999999999999091
 21
-31.2407298800001882
 31
0.0
  0
LINE
  5
1198
  8
241
  6
CONTINUOUS
 10
130.0999999999999943
 20
31.2407298799997513
 30
0.0
 11
130.0999999999999943
 21
-31.2407298800002202
 31
0.0
  0
LINE
  5
1199
  8
241
  6
CONTINUOUS
 10
121.4866773951059002
 20
-30.9232921900001898
 30
0.0
 11
130.0999999999999943
 21
-14.0186947347642406
 31
0.0
  0
LINE
  5
119A
  8
241
  6
CONTINUOUS
 10
121.4866773951059002
 20
-30.9232921900001898
 30
0.0
 11
130.0999999999999943
 21
-30.9232921900002715
 31
0.0
  0
LINE
  5
119B
  8
240
  6
CONTINUOUS
 10
130.0999999999999943
 20
-31.2407298800002202
 30
0.0
 11
133.5999999999999091
 21
-31.2407298800001882
 31
0.0
  0
LINE
  5
119C
  8
240
  6
CONTINUOUS
 10
130.0999999999999943
 20
-31.24072988000027
 30
0.0
 11
130.0999999999982037
 21
-31.4999999999999893
 31
0.0
  0
LINE
  5
119D
  8
241
  6
CONTINUOUS
 10
130.0999999999999943
 20
-2.503966520000259
 30
0.0
 11
133.5999999999999091
 21
-2.503966520000259
 31
0.0
  0
LINE
  5
119E
  8
241
  6
CONTINUOUS
 10
130.0999999999999943
 20
2.496033479999737
 30
0.0
 11
133.5999999999999091
 21
2.496033479999737
 31
0.0
  0
LINE
  5
119F
  8
241
  6
CONTINUOUS
 10
121.4866773951059002
 20
30.9232921899997386
 30
0.0
 11
130.0999999999999943
 21
14.0186947347637592
 31
0.0
  0
LINE
  5
11A0
  8
241
  6
CONTINUOUS
 10
121.4866773951059002
 20
30.9232921899997386
 30
0.0
 11
130.0999999999999943
 21
30.9232921899997386
 31
0.0
  0
LINE
  5
11A1
  8
240
  6
CONTINUOUS
 10
130.0999999999999943
 20
31.2324046599997516
 30
0.0
 11
133.5999999999999091
 21
31.2324046599997516
 31
0.0
  0
LINE
  5
11A2
  8
240
  6
CONTINUOUS
 10
130.0999999999982037
 20
31.4999999999998899
 30
0.0
 11
118.1000000002293007
 21
31.4999999999999289
 31
0.0
  0
LINE
  5
11A3
  8
240
  6
CONTINUOUS
 10
130.0999999999999943
 20
31.2407298800001811
 30
0.0
 11
130.0999999999982037
 21
31.4999999999998899
 31
0.0
  0
LINE
  5
11A4
  8
250
  6
CONTINUOUS
 10
130.5999999999982037
 20
-31.4999999999999893
 30
0.0
 11
152.399999999999693
 21
-31.4999999999999893
 31
0.0
  0
LINE
  5
11A5
  8
250
  6
CONTINUOUS
 10
130.5999999999982037
 20
31.4999999999998899
 30
0.0
 11
152.399999999999693
 21
31.4999999999998899
 31
0.0
  0
LINE
  5
11A6
  8
250
  6
CONTINUOUS
 10
151.399999999999693
 20
-29.4999999999999787
 30
0.0
 11
151.399999999999693
 21
29.4999999999998792
 31
0.0
  0
INSERT
  5
11A7
  8
250
  6
CONTINUOUS
  2
_OPEN
 10
151.399999999999693
 20
-31.4999999999999893
 30
0.0
 41
2.0
 42
2.0
 43
2.0
 50
270.0
  0
INSERT
  5
11A8
  8
250
  6
CONTINUOUS
  2
_OPEN
 10
151.399999999999693
 20
31.4999999999998899
 30
0.0
 41
2.0
 42
2.0
 43
2.0
 50
90.0
  0
INSERT
  5
11A9
  8
240
  2
*U4
 10
0.0
 20
0.0
 30
0.0
  0
INSERT
  5
11AA
  8
240
  2
*U5
 10
0.0
 20
0.0
 30
0.0
1001
ACAD
1000
DSTYLE
1002
{
1070
    42
1040
0.5
1070
    44
1040
1.0
1070
   140
1040
2.799999999999998
1002
}
  0
INSERT
  5
11AB
  8
240
  2
*U6
 10
0.0
 20
0.0
 30
0.0
  0
LINE
  5
11AC
  8
250
  6
CONTINUOUS
 10
137.2603222127590072
 20
48.9302336132043365
 30
0.0
 11
149.6603222127590129
 21
48.9302336132043365
 31
0.0
1001
ITEMNAME
1000
LNSP2
  0
POLYLINE
  8
241
  5
14C4
  66
     1
 10
0.000000
 20
0.000000
 30
0.000000
  70
     8
  0
VERTEX
  8
241
  5
14C5
 10
125.976
 20
22.0930
 30
0.000000
  70
    32
  0
VERTEX
  8
241
  5
14C6
 10
125.926
 20
21.9861
 30
0.000000
  70
    32
  0
VERTEX
  8
241
  5
14C7
 10
125.876
 20
21.8792
 30
0.000000
  70
    32
  0
VERTEX
  8
241
  5
14C8
 10
125.826
 20
21.7723
 30
0.000000
  70
    32
  0
VERTEX
  8
241
  5
14C9
 10
125.777
 20
21.6654
 30
0.000000
  70
    32
  0
VERTEX
  8
241
  5
14CA
 10
125.727
 20
21.5584
 30
0.000000
  70
    32
  0
VERTEX
  8
241
  5
14CB
 10
125.677
 20
21.4514
 30
0.000000
  70
    32
  0
VERTEX
  8
241
  5
14CC
 10
125.628
 20
21.3443
 30
0.000000
  70
    32
  0
VERTEX
  8
241
  5
14CD
 10
125.578
 20
21.2372
 30
0.000000
  70
    32
  0
VERTEX
  8
241
  5
14CE
 10
125.529
 20
21.1300
 30
0.000000
  70
    32
  0
VERTEX
  8
241
  5
14CF
 10
125.480
 20
21.0227
 30
0.000000
  70
    32
  0
VERTEX
  8
241
  5
14D0
 10
125.432
 20
20.9153
 30
0.000000
  70
    32
  0
VERTEX
  8
241
  5
14D1
 10
125.383
 20
20.8079
 30
0.000000
  70
    32
  0
VERTEX
  8
241
  5
14D2
 10
125.335
 20
20.7003
 30
0.000000
  70
    32
  0
VERTEX
  8
241
  5
14D3
 10
125.288
 20
20.5927
 30
0.000000
  70
    32
  0
VERTEX
  8
241
  5
14D4
 10
125.240
 20
20.4849
 30
0.000000
  70
    32
  0
VERTEX
  8
241
  5
14D5
 10
125.193
 20
20.3770
 30
0.000000
  70
    32
  0
VERTEX
  8
241
  5
14D6
 10
125.147
 20
20.2689
 30
0.000000
  70
    32
  0
VERTEX
  8
241
  5
14D7
 10
125.100
 20
20.1607
 30
0.000000
  70
    32
  0
VERTEX
  8
241
  5
14D8
 10
125.055
 20
20.0524
 30
0.000000
  70
    32
  0
VERTEX
  8
241
  5
14D9
 10
125.010
 20
19.9439
 30
0.000000
  70
    32
  0
VERTEX
  8
241
  5
14DA
 10
124.965
 20
19.8352
 30
0.000000
  70
    32
  0
VERTEX
  8
241
  5
14DB
 10
124.921
 20
19.7264
 30
0.000000
  70
    32
  0
VERTEX
  8
241
  5
14DC
 10
124.877
 20
19.6173
 30
0.000000
  70
    32
  0
VERTEX
  8
241
  5
14DD
 10
124.834
 20
19.5081
 30
0.000000
  70
    32
  0
VERTEX
  8
241
  5
14DE
 10
124.791
 20
19.3987
 30
0.000000
  70
    32
  0
VERTEX
  8
241
  5
14DF
 10
124.750
 20
19.2890
 30
0.000000
  70
    32
  0
VERTEX
  8
241
  5
14E0
 10
124.708
 20
19.1791
 30
0.000000
  70
    32
  0
VERTEX
  8
241
  5
14E1
 10
124.668
 20
19.0690
 30
0.000000
  70
    32
  0
VERTEX
  8
241
  5
14E2
 10
124.628
 20
18.9587
 30
0.000000
  70
    32
  0
VERTEX
  8
241
  5
14E3
 10
124.589
 20
18.8481
 30
0.000000
  70
    32
  0
VERTEX
  8
241
  5
14E4
 10
124.551
 20
18.7373
 30
0.000000
  70
    32
  0
VERTEX
  8
241
  5
14E5
 10
124.513
 20
18.6262
 30
0.000000
  70
    32
  0
VERTEX
  8
241
  5
14E6
 10
124.476
 20
18.5148
 30
0.000000
  70
    32
  0
VERTEX
  8
241
  5
14E7
 10
124.440
 20
18.4032
 30
0.000000
  70
    32
  0
VERTEX
  8
241
  5
14E8
 10
124.405
 20
18.2913
 30
0.000000
  70
    32
  0
VERTEX
  8
241
  5
14E9
 10
124.371
 20
18.1792
 30
0.000000
  70
    32
  0
VERTEX
  8
241
  5
14EA
 10
124.337
 20
18.0669
 30
0.000000
  70
    32
  0
VERTEX
  8
241
  5
14EB
 10
124.304
 20
17.9543
 30
0.000000
  70
    32
  0
VERTEX
  8
241
  5
14EC
 10
124.271
 20
17.8414
 30
0.000000
  70
    32
  0
VERTEX
  8
241
  5
14ED
 10
124.240
 20
17.7284
 30
0.000000
  70
    32
  0
VERTEX
  8
241
  5
14EE
 10
124.209
 20
17.6152
 30
0.000000
  70
    32
  0
VERTEX
  8
241
  5
14EF
 10
124.178
 20
17.5017
 30
0.000000
  70
    32
  0
VERTEX
  8
241
  5
14F0
 10
124.149
 20
17.3880
 30
0.000000
  70
    32
  0
VERTEX
  8
241
  5
14F1
 10
124.120
 20
17.2741
 30
0.000000
  70
    32
  0
VERTEX
  8
241
  5
14F2
 10
124.092
 20
17.1601
 30
0.000000
  70
    32
  0
VERTEX
  8
241
  5
14F3
 10
124.064
 20
17.0458
 30
0.000000
  70
    32
  0
VERTEX
  8
241
  5
14F4
 10
124.037
 20
16.9314
 30
0.000000
  70
    32
  0
VERTEX
  8
241
  5
14F5
 10
124.010
 20
16.8168
 30
0.000000
  70
    32
  0
VERTEX
  8
241
  5
14F6
 10
123.984
 20
16.7020
 30
0.000000
  70
    32
  0
VERTEX
  8
241
  5
14F7
 10
123.959
 20
16.5870
 30
0.000000
  70
    32
  0
VERTEX
  8
241
  5
14F8
 10
123.934
 20
16.4719
 30
0.000000
  70
    32
  0
VERTEX
  8
241
  5
14F9
 10
123.910
 20
16.3566
 30
0.000000
  70
    32
  0
VERTEX
  8
241
  5
14FA
 10
123.886
 20
16.2412
 30
0.000000
  70
    32
  0
VERTEX
  8
241
  5
14FB
 10
123.863
 20
16.1256
 30
0.000000
  70
    32
  0
VERTEX
  8
241
  5
14FC
 10
123.841
 20
16.0099
 30
0.000000
  70
    32
  0
VERTEX
  8
241
  5
14FD
 10
123.819
 20
15.8941
 30
0.000000
  70
    32
  0
VERTEX
  8
241
  5
14FE
 10
123.797
 20
15.7781
 30
0.000000
  70
    32
  0
VERTEX
  8
241
  5
14FF
 10
123.776
 20
15.6621
 30
0.000000
  70
    32
  0
VERTEX
  8
241
  5
1500
 10
123.755
 20
15.5458
 30
0.000000
  70
    32
  0
VERTEX
  8
241
  5
1501
 10
123.735
 20
15.4295
 30
0.000000
  70
    32
  0
VERTEX
  8
241
  5
1502
 10
123.715
 20
15.3131
 30
0.000000
  70
    32
  0
VERTEX
  8
241
  5
1503
 10
123.696
 20
15.1966
 30
0.000000
  70
    32
  0
VERTEX
  8
241
  5
1504
 10
123.677
 20
15.0800
 30
0.000000
  70
    32
  0
VERTEX
  8
241
  5
1505
 10
123.659
 20
14.9633
 30
0.000000
  70
    32
  0
VERTEX
  8
241
  5
1506
 10
123.641
 20
14.8465
 30
0.000000
  70
    32
  0
VERTEX
  8
241
  5
1507
 10
123.623
 20
14.7296
 30
0.000000
  70
    32
  0
VERTEX
  8
241
  5
1508
 10
123.606
 20
14.6127
 30
0.000000
  70
    32
  0
VERTEX
  8
241
  5
1509
 10
123.589
 20
14.4957
 30
0.000000
  70
    32
  0
VERTEX
  8
241
  5
150A
 10
123.572
 20
14.3787
 30
0.000000
  70
    32
  0
VERTEX
  8
241
  5
150B
 10
123.556
 20
14.2615
 30
0.000000
  70
    32
  0
VERTEX
  8
241
  5
150C
 10
123.540
 20
14.1444
 30
0.000000
  70
    32
  0
VERTEX
  8
241
  5
150D
 10
123.525
 20
14.0272
 30
0.000000
  70
    32
  0
VERTEX
  8
241
  5
150E
 10
123.510
 20
13.9099
 30
0.000000
  70
    32
  0
VERTEX
  8
241
  5
150F
 10
123.495
 20
13.7927
 30
0.000000
  70
    32
  0
VERTEX
  8
241
  5
1510
 10
123.480
 20
13.6753
 30
0.000000
  70
    32
  0
VERTEX
  8
241
  5
1511
 10
123.466
 20
13.5580
 30
0.000000
  70
    32
  0
VERTEX
  8
241
  5
1512
 10
123.452
 20
13.4407
 30
0.000000
  70
    32
  0
VERTEX
  8
241
  5
1513
 10
123.438
 20
13.3233
 30
0.000000
  70
    32
  0
VERTEX
  8
241
  5
1514
 10
123.424
 20
13.2060
 30
0.000000
  70
    32
  0
VERTEX
  8
241
  5
1515
 10
123.411
 20
13.0886
 30
0.000000
  70
    32
  0
VERTEX
  8
241
  5
1516
 10
123.398
 20
12.9713
 30
0.000000
  70
    32
  0
VERTEX
  8
241
  5
1517
 10
123.385
 20
12.8539
 30
0.000000
  70
    32
  0
VERTEX
  8
241
  5
1518
 10
123.372
 20
12.7366
 30
0.000000
  70
    32
  0
VERTEX
  8
241
  5
1519
 10
123.360
 20
12.6193
 30
0.000000
  70
    32
  0
VERTEX
  8
241
  5
151A
 10
123.347
 20
12.5019
 30
0.000000
  70
    32
  0
VERTEX
  8
241
  5
151B
 10
123.335
 20
12.3846
 30
0.000000
  70
    32
  0
VERTEX
  8
241
  5
151C
 10
123.323
 20
12.2673
 30
0.000000
  70
    32
  0
VERTEX
  8
241
  5
151D
 10
123.312
 20
12.1500
 30
0.000000
  70
    32
  0
VERTEX
  8
241
  5
151E
 10
123.300
 20
12.0327
 30
0.000000
  70
    32
  0
VERTEX
  8
241
  5
151F
 10
123.289
 20
11.9154
 30
0.000000
  70
    32
  0
VERTEX
  8
241
  5
1520
 10
123.278
 20
11.7980
 30
0.000000
  70
    32
  0
VERTEX
  8
241
  5
1521
 10
123.267
 20
11.6807
 30
0.000000
  70
    32
  0
VERTEX
  8
241
  5
1522
 10
123.257
 20
11.5634
 30
0.000000
  70
    32
  0
VERTEX
  8
241
  5
1523
 10
123.246
 20
11.4461
 30
0.000000
  70
    32
  0
VERTEX
  8
241
  5
1524
 10
123.236
 20
11.3288
 30
0.000000
  70
    32
  0
VERTEX
  8
241
  5
1525
 10
123.226
 20
11.2116
 30
0.000000
  70
    32
  0
VERTEX
  8
241
  5
1526
 10
123.216
 20
11.0943
 30
0.000000
  70
    32
  0
VERTEX
  8
241
  5
1527
 10
123.206
 20
10.9770
 30
0.000000
  70
    32
  0
VERTEX
  8
241
  5
1528
 10
123.197
 20
10.8597
 30
0.000000
  70
    32
  0
VERTEX
  8
241
  5
1529
 10
123.187
 20
10.7424
 30
0.000000
  70
    32
  0
VERTEX
  8
241
  5
152A
 10
123.178
 20
10.6251
 30
0.000000
  70
    32
  0
VERTEX
  8
241
  5
152B
 10
123.169
 20
10.5078
 30
0.000000
  70
    32
  0
VERTEX
  8
241
  5
152C
 10
123.160
 20
10.3905
 30
0.000000
  70
    32
  0
VERTEX
  8
241
  5
152D
 10
123.152
 20
10.2732
 30
0.000000
  70
    32
  0
VERTEX
  8
241
  5
152E
 10
123.143
 20
10.1559
 30
0.000000
  70
    32
  0
VERTEX
  8
241
  5
152F
 10
123.135
 20
10.0386
 30
0.000000
  70
    32
  0
VERTEX
  8
241
  5
1530
 10
123.127
 20
9.92136
 30
0.000000
  70
    32
  0
VERTEX
  8
241
  5
1531
 10
123.119
 20
9.80406
 30
0.000000
  70
    32
  0
VERTEX
  8
241
  5
1532
 10
123.111
 20
9.68677
 30
0.000000
  70
    32
  0
VERTEX
  8
241
  5
1533
 10
123.103
 20
9.56947
 30
0.000000
  70
    32
  0
VERTEX
  8
241
  5
1534
 10
123.096
 20
9.45217
 30
0.000000
  70
    32
  0
VERTEX
  8
241
  5
1535
 10
123.088
 20
9.33487
 30
0.000000
  70
    32
  0
VERTEX
  8
241
  5
1536
 10
123.081
 20
9.21757
 30
0.000000
  70
    32
  0
VERTEX
  8
241
  5
1537
 10
123.074
 20
9.10026
 30
0.000000
  70
    32
  0
VERTEX
  8
241
  5
1538
 10
123.067
 20
8.98296
 30
0.000000
  70
    32
  0
VERTEX
  8
241
  5
1539
 10
123.060
 20
8.86564
 30
0.000000
  70
    32
  0
VERTEX
  8
241
  5
153A
 10
123.054
 20
8.74833
 30
0.000000
  70
    32
  0
VERTEX
  8
241
  5
153B
 10
123.047
 20
8.63101
 30
0.000000
  70
    32
  0
VERTEX
  8
241
  5
153C
 10
123.041
 20
8.51369
 30
0.000000
  70
    32
  0
VERTEX
  8
241
  5
153D
 10
123.035
 20
8.39636
 30
0.000000
  70
    32
  0
VERTEX
  8
241
  5
153E
 10
123.029
 20
8.27903
 30
0.000000
  70
    32
  0
VERTEX
  8
241
  5
153F
 10
123.023
 20
8.16169
 30
0.000000
  70
    32
  0
VERTEX
  8
241
  5
1540
 10
123.017
 20
8.04435
 30
0.000000
  70
    32
  0
VERTEX
  8
241
  5
1541
 10
123.011
 20
7.92700
 30
0.000000
  70
    32
  0
VERTEX
  8
241
  5
1542
 10
123.006
 20
7.80965
 30
0.000000
  70
    32
  0
VERTEX
  8
241
  5
1543
 10
123.000
 20
7.69229
 30
0.000000
  70
    32
  0
VERTEX
  8
241
  5
1544
 10
122.995
 20
7.57493
 30
0.000000
  70
    32
  0
VERTEX
  8
241
  5
1545
 10
122.990
 20
7.45756
 30
0.000000
  70
    32
  0
VERTEX
  8
241
  5
1546
 10
122.985
 20
7.34018
 30
0.000000
  70
    32
  0
VERTEX
  8
241
  5
1547
 10
122.980
 20
7.22280
 30
0.000000
  70
    32
  0
VERTEX
  8
241
  5
1548
 10
122.975
 20
7.10540
 30
0.000000
  70
    32
  0
VERTEX
  8
241
  5
1549
 10
122.970
 20
6.98801
 30
0.000000
  70
    32
  0
VERTEX
  8
241
  5
154A
 10
122.965
 20
6.87060
 30
0.000000
  70
    32
  0
VERTEX
  8
241
  5
154B
 10
122.961
 20
6.75319
 30
0.000000
  70
    32
  0
VERTEX
  8
241
  5
154C
 10
122.957
 20
6.63577
 30
0.000000
  70
    32
  0
VERTEX
  8
241
  5
154D
 10
122.952
 20
6.51834
 30
0.000000
  70
    32
  0
VERTEX
  8
241
  5
154E
 10
122.948
 20
6.40090
 30
0.000000
  70
    32
  0
VERTEX
  8
241
  5
154F
 10
122.944
 20
6.28345
 30
0.000000
  70
    32
  0
VERTEX
  8
241
  5
1550
 10
122.940
 20
6.16600
 30
0.000000
  70
    32
  0
VERTEX
  8
241
  5
1551
 10
122.936
 20
6.04853
 30
0.000000
  70
    32
  0
VERTEX
  8
241
  5
1552
 10
122.932
 20
5.93106
 30
0.000000
  70
    32
  0
VERTEX
  8
241
  5
1553
 10
122.929
 20
5.81358
 30
0.000000
  70
    32
  0
VERTEX
  8
241
  5
1554
 10
122.925
 20
5.69609
 30
0.000000
  70
    32
  0
VERTEX
  8
241
  5
1555
 10
122.921
 20
5.57859
 30
0.000000
  70
    32
  0
VERTEX
  8
241
  5
1556
 10
122.918
 20
5.46109
 30
0.000000
  70
    32
  0
VERTEX
  8
241
  5
1557
 10
122.915
 20
5.34358
 30
0.000000
  70
    32
  0
VERTEX
  8
241
  5
1558
 10
122.911
 20
5.22606
 30
0.000000
  70
    32
  0
VERTEX
  8
241
  5
1559
 10
122.908
 20
5.10853
 30
0.000000
  70
    32
  0
VERTEX
  8
241
  5
155A
 10
122.905
 20
4.99100
 30
0.000000
  70
    32
  0
VERTEX
  8
241
  5
155B
 10
122.902
 20
4.87346
 30
0.000000
  70
    32
  0
VERTEX
  8
241
  5
155C
 10
122.899
 20
4.75591
 30
0.000000
  70
    32
  0
VERTEX
  8
241
  5
155D
 10
122.897
 20
4.63836
 30
0.000000
  70
    32
  0
VERTEX
  8
241
  5
155E
 10
122.894
 20
4.52080
 30
0.000000
  70
    32
  0
VERTEX
  8
241
  5
155F
 10
122.891
 20
4.40323
 30
0.000000
  70
    32
  0
VERTEX
  8
241
  5
1560
 10
122.889
 20
4.28566
 30
0.000000
  70
    32
  0
VERTEX
  8
241
  5
1561
 10
122.886
 20
4.16809
 30
0.000000
  70
    32
  0
VERTEX
  8
241
  5
1562
 10
122.884
 20
4.05050
 30
0.000000
  70
    32
  0
VERTEX
  8
241
  5
1563
 10
122.882
 20
3.93292
 30
0.000000
  70
    32
  0
VERTEX
  8
241
  5
1564
 10
122.879
 20
3.81533
 30
0.000000
  70
    32
  0
VERTEX
  8
241
  5
1565
 10
122.877
 20
3.69773
 30
0.000000
  70
    32
  0
VERTEX
  8
241
  5
1566
 10
122.875
 20
3.58013
 30
0.000000
  70
    32
  0
VERTEX
  8
241
  5
1567
 10
122.873
 20
3.46252
 30
0.000000
  70
    32
  0
VERTEX
  8
241
  5
1568
 10
122.871
 20
3.34491
 30
0.000000
  70
    32
  0
VERTEX
  8
241
  5
1569
 10
122.869
 20
3.22730
 30
0.000000
  70
    32
  0
VERTEX
  8
241
  5
156A
 10
122.868
 20
3.10968
 30
0.000000
  70
    32
  0
VERTEX
  8
241
  5
156B
 10
122.866
 20
2.99206
 30
0.000000
  70
    32
  0
VERTEX
  8
241
  5
156C
 10
122.864
 20
2.87444
 30
0.000000
  70
    32
  0
VERTEX
  8
241
  5
156D
 10
122.863
 20
2.75681
 30
0.000000
  70
    32
  0
VERTEX
  8
241
  5
156E
 10
122.861
 20
2.63918
 30
0.000000
  70
    32
  0
VERTEX
  8
241
  5
156F
 10
122.860
 20
2.52154
 30
0.000000
  70
    32
  0
VERTEX
  8
241
  5
1570
 10
122.859
 20
2.40391
 30
0.000000
  70
    32
  0
VERTEX
  8
241
  5
1571
 10
122.858
 20
2.28627
 30
0.000000
  70
    32
  0
VERTEX
  8
241
  5
1572
 10
122.856
 20
2.16862
 30
0.000000
  70
    32
  0
VERTEX
  8
241
  5
1573
 10
122.855
 20
2.05098
 30
0.000000
  70
    32
  0
VERTEX
  8
241
  5
1574
 10
122.854
 20
1.93334
 30
0.000000
  70
    32
  0
VERTEX
  8
241
  5
1575
 10
122.853
 20
1.81569
 30
0.000000
  70
    32
  0
VERTEX
  8
241
  5
1576
 10
122.852
 20
1.69804
 30
0.000000
  70
    32
  0
VERTEX
  8
241
  5
1577
 10
122.852
 20
1.58039
 30
0.000000
  70
    32
  0
VERTEX
  8
241
  5
1578
 10
122.851
 20
1.46274
 30
0.000000
  70
    32
  0
VERTEX
  8
241
  5
1579
 10
122.850
 20
1.34509
 30
0.000000
  70
    32
  0
VERTEX
  8
241
  5
157A
 10
122.849
 20
1.22743
 30
0.000000
  70
    32
  0
VERTEX
  8
241
  5
157B
 10
122.849
 20
1.10978
 30
0.000000
  70
    32
  0
VERTEX
  8
241
  5
157C
 10
122.848
 20
0.992125
 30
0.000000
  70
    32
  0
VERTEX
  8
241
  5
157D
 10
122.848
 20
0.874470
 30
0.000000
  70
    32
  0
VERTEX
  8
241
  5
157E
 10
122.847
 20
0.756816
 30
0.000000
  70
    32
  0
VERTEX
  8
241
  5
157F
 10
122.847
 20
0.639162
 30
0.000000
  70
    32
  0
VERTEX
  8
241
  5
1580
 10
122.847
 20
0.521509
 30
0.000000
  70
    32
  0
VERTEX
  8
241
  5
1581
 10
122.847
 20
0.403855
 30
0.000000
  70
    32
  0
VERTEX
  8
241
  5
1582
 10
122.846
 20
0.286203
 30
0.000000
  70
    32
  0
VERTEX
  8
241
  5
1583
 10
122.846
 20
0.168552
 30
0.000000
  70
    32
  0
VERTEX
  8
241
  5
1584
 10
122.846
 20
0.0509016
 30
0.000000
  70
    32
  0
VERTEX
  8
241
  5
1585
 10
122.846
 20
-0.0667472
 30
0.000000
  70
    32
  0
VERTEX
  8
241
  5
1586
 10
122.846
 20
-0.184395
 30
0.000000
  70
    32
  0
VERTEX
  8
241
  5
1587
 10
122.846
 20
-0.302041
 30
0.000000
  70
    32
  0
VERTEX
  8
241
  5
1588
 10
122.847
 20
-0.419685
 30
0.000000
  70
    32
  0
VERTEX
  8
241
  5
1589
 10
122.847
 20
-0.537328
 30
0.000000
  70
    32
  0
VERTEX
  8
241
  5
158A
 10
122.847
 20
-0.654970
 30
0.000000
  70
    32
  0
VERTEX
  8
241
  5
158B
 10
122.847
 20
-0.772610
 30
0.000000
  70
    32
  0
VERTEX
  8
241
  5
158C
 10
122.848
 20
-0.890248
 30
0.000000
  70
    32
  0
VERTEX
  8
241
  5
158D
 10
122.848
 20
-1.00789
 30
0.000000
  70
    32
  0
VERTEX
  8
241
  5
158E
 10
122.849
 20
-1.12552
 30
0.000000
  70
    32
  0
VERTEX
  8
241
  5
158F
 10
122.849
 20
-1.24315
 30
0.000000
  70
    32
  0
VERTEX
  8
241
  5
1590
 10
122.850
 20
-1.36079
 30
0.000000
  70
    32
  0
VERTEX
  8
241
  5
1591
 10
122.851
 20
-1.47842
 30
0.000000
  70
    32
  0
VERTEX
  8
241
  5
1592
 10
122.851
 20
-1.59605
 30
0.000000
  70
    32
  0
VERTEX
  8
241
  5
1593
 10
122.852
 20
-1.71367
 30
0.000000
  70
    32
  0
VERTEX
  8
241
  5
1594
 10
122.853
 20
-1.83130
 30
0.000000
  70
    32
  0
VERTEX
  8
241
  5
1595
 10
122.854
 20
-1.94892
 30
0.000000
  70
    32
  0
VERTEX
  8
241
  5
1596
 10
122.855
 20
-2.06654
 30
0.000000
  70
    32
  0
VERTEX
  8
241
  5
1597
 10
122.856
 20
-2.18416
 30
0.000000
  70
    32
  0
VERTEX
  8
241
  5
1598
 10
122.857
 20
-2.30178
 30
0.000000
  70
    32
  0
VERTEX
  8
241
  5
1599
 10
122.858
 20
-2.41940
 30
0.000000
  70
    32
  0
VERTEX
  8
241
  5
159A
 10
122.860
 20
-2.53701
 30
0.000000
  70
    32
  0
VERTEX
  8
241
  5
159B
 10
122.861
 20
-2.65462
 30
0.000000
  70
    32
  0
VERTEX
  8
241
  5
159C
 10
122.863
 20
-2.77224
 30
0.000000
  70
    32
  0
VERTEX
  8
241
  5
159D
 10
122.864
 20
-2.88984
 30
0.000000
  70
    32
  0
VERTEX
  8
241
  5
159E
 10
122.866
 20
-3.00745
 30
0.000000
  70
    32
  0
VERTEX
  8
241
  5
159F
 10
122.867
 20
-3.12506
 30
0.000000
  70
    32
  0
VERTEX
  8
241
  5
15A0
 10
122.869
 20
-3.24266
 30
0.000000
  70
    32
  0
VERTEX
  8
241
  5
15A1
 10
122.871
 20
-3.36026
 30
0.000000
  70
    32
  0
VERTEX
  8
241
  5
15A2
 10
122.873
 20
-3.47786
 30
0.000000
  70
    32
  0
VERTEX
  8
241
  5
15A3
 10
122.875
 20
-3.59545
 30
0.000000
  70
    32
  0
VERTEX
  8
241
  5
15A4
 10
122.877
 20
-3.71305
 30
0.000000
  70
    32
  0
VERTEX
  8
241
  5
15A5
 10
122.879
 20
-3.83064
 30
0.000000
  70
    32
  0
VERTEX
  8
241
  5
15A6
 10
122.881
 20
-3.94823
 30
0.000000
  70
    32
  0
VERTEX
  8
241
  5
15A7
 10
122.884
 20
-4.06582
 30
0.000000
  70
    32
  0
VERTEX
  8
241
  5
15A8
 10
122.886
 20
-4.18341
 30
0.000000
  70
    32
  0
VERTEX
  8
241
  5
15A9
 10
122.889
 20
-4.30099
 30
0.000000
  70
    32
  0
VERTEX
  8
241
  5
15AA
 10
122.891
 20
-4.41857
 30
0.000000
  70
    32
  0
VERTEX
  8
241
  5
15AB
 10
122.894
 20
-4.53615
 30
0.000000
  70
    32
  0
VERTEX
  8
241
  5
15AC
 10
122.896
 20
-4.65373
 30
0.000000
  70
    32
  0
VERTEX
  8
241
  5
15AD
 10
122.899
 20
-4.77130
 30
0.000000
  70
    32
  0
VERTEX
  8
241
  5
15AE
 10
122.902
 20
-4.88887
 30
0.000000
  70
    32
  0
VERTEX
  8
241
  5
15AF
 10
122.905
 20
-5.00645
 30
0.000000
  70
    32
  0
VERTEX
  8
241
  5
15B0
 10
122.908
 20
-5.12401
 30
0.000000
  70
    32
  0
VERTEX
  8
241
  5
15B1
 10
122.912
 20
-5.24158
 30
0.000000
  70
    32
  0
VERTEX
  8
241
  5
15B2
 10
122.915
 20
-5.35914
 30
0.000000
  70
    32
  0
VERTEX
  8
241
  5
15B3
 10
122.918
 20
-5.47670
 30
0.000000
  70
    32
  0
VERTEX
  8
241
  5
15B4
 10
122.922
 20
-5.59426
 30
0.000000
  70
    32
  0
VERTEX
  8
241
  5
15B5
 10
122.925
 20
-5.71182
 30
0.000000
  70
    32
  0
VERTEX
  8
241
  5
15B6
 10
122.929
 20
-5.82937
 30
0.000000
  70
    32
  0
VERTEX
  8
241
  5
15B7
 10
122.933
 20
-5.94692
 30
0.000000
  70
    32
  0
VERTEX
  8
241
  5
15B8
 10
122.937
 20
-6.06447
 30
0.000000
  70
    32
  0
VERTEX
  8
241
  5
15B9
 10
122.940
 20
-6.18201
 30
0.000000
  70
    32
  0
VERTEX
  8
241
  5
15BA
 10
122.945
 20
-6.29956
 30
0.000000
  70
    32
  0
VERTEX
  8
241
  5
15BB
 10
122.949
 20
-6.41710
 30
0.000000
  70
    32
  0
VERTEX
  8
241
  5
15BC
 10
122.953
 20
-6.53463
 30
0.000000
  70
    32
  0
VERTEX
  8
241
  5
15BD
 10
122.957
 20
-6.65217
 30
0.000000
  70
    32
  0
VERTEX
  8
241
  5
15BE
 10
122.962
 20
-6.76970
 30
0.000000
  70
    32
  0
VERTEX
  8
241
  5
15BF
 10
122.966
 20
-6.88723
 30
0.000000
  70
    32
  0
VERTEX
  8
241
  5
15C0
 10
122.971
 20
-7.00476
 30
0.000000
  70
    32
  0
VERTEX
  8
241
  5
15C1
 10
122.976
 20
-7.12228
 30
0.000000
  70
    32
  0
VERTEX
  8
241
  5
15C2
 10
122.981
 20
-7.23980
 30
0.000000
  70
    32
  0
VERTEX
  8
241
  5
15C3
 10
122.986
 20
-7.35732
 30
0.000000
  70
    32
  0
VERTEX
  8
241
  5
15C4
 10
122.991
 20
-7.47484
 30
0.000000
  70
    32
  0
VERTEX
  8
241
  5
15C5
 10
122.996
 20
-7.59235
 30
0.000000
  70
    32
  0
VERTEX
  8
241
  5
15C6
 10
123.001
 20
-7.70986
 30
0.000000
  70
    32
  0
VERTEX
  8
241
  5
15C7
 10
123.007
 20
-7.82737
 30
0.000000
  70
    32
  0
VERTEX
  8
241
  5
15C8
 10
123.012
 20
-7.94487
 30
0.000000
  70
    32
  0
VERTEX
  8
241
  5
15C9
 10
123.018
 20
-8.06237
 30
0.000000
  70
    32
  0
VERTEX
  8
241
  5
15CA
 10
123.024
 20
-8.17987
 30
0.000000
  70
    32
  0
VERTEX
  8
241
  5
15CB
 10
123.030
 20
-8.29737
 30
0.000000
  70
    32
  0
VERTEX
  8
241
  5
15CC
 10
123.036
 20
-8.41486
 30
0.000000
  70
    32
  0
VERTEX
  8
241
  5
15CD
 10
123.042
 20
-8.53235
 30
0.000000
  70
    32
  0
VERTEX
  8
241
  5
15CE
 10
123.048
 20
-8.64984
 30
0.000000
  70
    32
  0
VERTEX
  8
241
  5
15CF
 10
123.054
 20
-8.76732
 30
0.000000
  70
    32
  0
VERTEX
  8
241
  5
15D0
 10
123.061
 20
-8.88480
 30
0.000000
  70
    32
  0
VERTEX
  8
241
  5
15D1
 10
123.067
 20
-9.00228
 30
0.000000
  70
    32
  0
VERTEX
  8
241
  5
15D2
 10
123.074
 20
-9.11975
 30
0.000000
  70
    32
  0
VERTEX
  8
241
  5
15D3
 10
123.081
 20
-9.23721
 30
0.000000
  70
    32
  0
VERTEX
  8
241
  5
15D4
 10
123.088
 20
-9.35467
 30
0.000000
  70
    32
  0
VERTEX
  8
241
  5
15D5
 10
123.095
 20
-9.47213
 30
0.000000
  70
    32
  0
VERTEX
  8
241
  5
15D6
 10
123.102
 20
-9.58957
 30
0.000000
  70
    32
  0
VERTEX
  8
241
  5
15D7
 10
123.110
 20
-9.70701
 30
0.000000
  70
    32
  0
VERTEX
  8
241
  5
15D8
 10
123.117
 20
-9.82444
 30
0.000000
  70
    32
  0
VERTEX
  8
241
  5
15D9
 10
123.125
 20
-9.94186
 30
0.000000
  70
    32
  0
VERTEX
  8
241
  5
15DA
 10
123.133
 20
-10.0593
 30
0.000000
  70
    32
  0
VERTEX
  8
241
  5
15DB
 10
123.141
 20
-10.1767
 30
0.000000
  70
    32
  0
VERTEX
  8
241
  5
15DC
 10
123.150
 20
-10.2940
 30
0.000000
  70
    32
  0
VERTEX
  8
241
  5
15DD
 10
123.158
 20
-10.4114
 30
0.000000
  70
    32
  0
VERTEX
  8
241
  5
15DE
 10
123.167
 20
-10.5288
 30
0.000000
  70
    32
  0
VERTEX
  8
241
  5
15DF
 10
123.175
 20
-10.6461
 30
0.000000
  70
    32
  0
VERTEX
  8
241
  5
15E0
 10
123.184
 20
-10.7634
 30
0.000000
  70
    32
  0
VERTEX
  8
241
  5
15E1
 10
123.194
 20
-10.8807
 30
0.000000
  70
    32
  0
VERTEX
  8
241
  5
15E2
 10
123.203
 20
-10.9980
 30
0.000000
  70
    32
  0
VERTEX
  8
241
  5
15E3
 10
123.213
 20
-11.1153
 30
0.000000
  70
    32
  0
VERTEX
  8
241
  5
15E4
 10
123.222
 20
-11.2326
 30
0.000000
  70
    32
  0
VERTEX
  8
241
  5
15E5
 10
123.232
 20
-11.3498
 30
0.000000
  70
    32
  0
VERTEX
  8
241
  5
15E6
 10
123.243
 20
-11.4670
 30
0.000000
  70
    32
  0
VERTEX
  8
241
  5
15E7
 10
123.253
 20
-11.5842
 30
0.000000
  70
    32
  0
VERTEX
  8
241
  5
15E8
 10
123.264
 20
-11.7014
 30
0.000000
  70
    32
  0
VERTEX
  8
241
  5
15E9
 10
123.275
 20
-11.8185
 30
0.000000
  70
    32
  0
VERTEX
  8
241
  5
15EA
 10
123.286
 20
-11.9357
 30
0.000000
  70
    32
  0
VERTEX
  8
241
  5
15EB
 10
123.297
 20
-12.0528
 30
0.000000
  70
    32
  0
VERTEX
  8
241
  5
15EC
 10
123.309
 20
-12.1698
 30
0.000000
  70
    32
  0
VERTEX
  8
241
  5
15ED
 10
123.321
 20
-12.2869
 30
0.000000
  70
    32
  0
VERTEX
  8
241
  5
15EE
 10
123.333
 20
-12.4039
 30
0.000000
  70
    32
  0
VERTEX
  8
241
  5
15EF
 10
123.345
 20
-12.5209
 30
0.000000
  70
    32
  0
VERTEX
  8
241
  5
15F0
 10
123.358
 20
-12.6379
 30
0.000000
  70
    32
  0
VERTEX
  8
241
  5
15F1
 10
123.371
 20
-12.7548
 30
0.000000
  70
    32
  0
VERTEX
  8
241
  5
15F2
 10
123.384
 20
-12.8717
 30
0.000000
  70
    32
  0
VERTEX
  8
241
  5
15F3
 10
123.398
 20
-12.9886
 30
0.000000
  70
    32
  0
VERTEX
  8
241
  5
15F4
 10
123.411
 20
-13.1055
 30
0.000000
  70
    32
  0
VERTEX
  8
241
  5
15F5
 10
123.426
 20
-13.2223
 30
0.000000
  70
    32
  0
VERTEX
  8
241
  5
15F6
 10
123.440
 20
-13.3391
 30
0.000000
  70
    32
  0
VERTEX
  8
241
  5
15F7
 10
123.454
 20
-13.4558
 30
0.000000
  70
    32
  0
VERTEX
  8
241
  5
15F8
 10
123.469
 20
-13.5725
 30
0.000000
  70
    32
  0
VERTEX
  8
241
  5
15F9
 10
123.485
 20
-13.6892
 30
0.000000
  70
    32
  0
VERTEX
  8
241
  5
15FA
 10
123.500
 20
-13.8059
 30
0.000000
  70
    32
  0
VERTEX
  8
241
  5
15FB
 10
123.516
 20
-13.9225
 30
0.000000
  70
    32
  0
VERTEX
  8
241
  5
15FC
 10
123.532
 20
-14.0391
 30
0.000000
  70
    32
  0
VERTEX
  8
241
  5
15FD
 10
123.549
 20
-14.1556
 30
0.000000
  70
    32
  0
VERTEX
  8
241
  5
15FE
 10
123.566
 20
-14.2721
 30
0.000000
  70
    32
  0
VERTEX
  8
241
  5
15FF
 10
123.583
 20
-14.3886
 30
0.000000
  70
    32
  0
VERTEX
  8
241
  5
1600
 10
123.600
 20
-14.5050
 30
0.000000
  70
    32
  0
VERTEX
  8
241
  5
1601
 10
123.618
 20
-14.6213
 30
0.000000
  70
    32
  0
VERTEX
  8
241
  5
1602
 10
123.636
 20
-14.7377
 30
0.000000
  70
    32
  0
VERTEX
  8
241
  5
1603
 10
123.655
 20
-14.8540
 30
0.000000
  70
    32
  0
VERTEX
  8
241
  5
1604
 10
123.674
 20
-14.9702
 30
0.000000
  70
    32
  0
VERTEX
  8
241
  5
1605
 10
123.693
 20
-15.0864
 30
0.000000
  70
    32
  0
VERTEX
  8
241
  5
1606
 10
123.713
 20
-15.2026
 30
0.000000
  70
    32
  0
VERTEX
  8
241
  5
1607
 10
123.732
 20
-15.3187
 30
0.000000
  70
    32
  0
VERTEX
  8
241
  5
1608
 10
123.753
 20
-15.4348
 30
0.000000
  70
    32
  0
VERTEX
  8
241
  5
1609
 10
123.774
 20
-15.5508
 30
0.000000
  70
    32
  0
VERTEX
  8
241
  5
160A
 10
123.795
 20
-15.6667
 30
0.000000
  70
    32
  0
VERTEX
  8
241
  5
160B
 10
123.816
 20
-15.7827
 30
0.000000
  70
    32
  0
VERTEX
  8
241
  5
160C
 10
123.838
 20
-15.8985
 30
0.000000
  70
    32
  0
VERTEX
  8
241
  5
160D
 10
123.860
 20
-16.0144
 30
0.000000
  70
    32
  0
VERTEX
  8
241
  5
160E
 10
123.883
 20
-16.1301
 30
0.000000
  70
    32
  0
VERTEX
  8
241
  5
160F
 10
123.906
 20
-16.2458
 30
0.000000
  70
    32
  0
VERTEX
  8
241
  5
1610
 10
123.930
 20
-16.3614
 30
0.000000
  70
    32
  0
VERTEX
  8
241
  5
1611
 10
123.953
 20
-16.4770
 30
0.000000
  70
    32
  0
VERTEX
  8
241
  5
1612
 10
123.978
 20
-16.5925
 30
0.000000
  70
    32
  0
VERTEX
  8
241
  5
1613
 10
124.003
 20
-16.7078
 30
0.000000
  70
    32
  0
VERTEX
  8
241
  5
1614
 10
124.028
 20
-16.8231
 30
0.000000
  70
    32
  0
VERTEX
  8
241
  5
1615
 10
124.054
 20
-16.9383
 30
0.000000
  70
    32
  0
VERTEX
  8
241
  5
1616
 10
124.080
 20
-17.0533
 30
0.000000
  70
    32
  0
VERTEX
  8
241
  5
1617
 10
124.107
 20
-17.1683
 30
0.000000
  70
    32
  0
VERTEX
  8
241
  5
1618
 10
124.134
 20
-17.2831
 30
0.000000
  70
    32
  0
VERTEX
  8
241
  5
1619
 10
124.162
 20
-17.3978
 30
0.000000
  70
    32
  0
VERTEX
  8
241
  5
161A
 10
124.190
 20
-17.5124
 30
0.000000
  70
    32
  0
VERTEX
  8
241
  5
161B
 10
124.219
 20
-17.6268
 30
0.000000
  70
    32
  0
VERTEX
  8
241
  5
161C
 10
124.248
 20
-17.7411
 30
0.000000
  70
    32
  0
VERTEX
  8
241
  5
161D
 10
124.278
 20
-17.8552
 30
0.000000
  70
    32
  0
VERTEX
  8
241
  5
161E
 10
124.308
 20
-17.9691
 30
0.000000
  70
    32
  0
VERTEX
  8
241
  5
161F
 10
124.339
 20
-18.0829
 30
0.000000
  70
    32
  0
VERTEX
  8
241
  5
1620
 10
124.371
 20
-18.1965
 30
0.000000
  70
    32
  0
VERTEX
  8
241
  5
1621
 10
124.403
 20
-18.3099
 30
0.000000
  70
    32
  0
VERTEX
  8
241
  5
1622
 10
124.436
 20
-18.4232
 30
0.000000
  70
    32
  0
VERTEX
  8
241
  5
1623
 10
124.469
 20
-18.5362
 30
0.000000
  70
    32
  0
VERTEX
  8
241
  5
1624
 10
124.503
 20
-18.6491
 30
0.000000
  70
    32
  0
VERTEX
  8
241
  5
1625
 10
124.538
 20
-18.7617
 30
0.000000
  70
    32
  0
VERTEX
  8
241
  5
1626
 10
124.573
 20
-18.8741
 30
0.000000
  70
    32
  0
VERTEX
  8
241
  5
1627
 10
124.609
 20
-18.9863
 30
0.000000
  70
    32
  0
VERTEX
  8
241
  5
1628
 10
124.645
 20
-19.0983
 30
0.000000
  70
    32
  0
VERTEX
  8
241
  5
1629
 10
124.683
 20
-19.2101
 30
0.000000
  70
    32
  0
VERTEX
  8
241
  5
162A
 10
124.720
 20
-19.3216
 30
0.000000
  70
    32
  0
VERTEX
  8
241
  5
162B
 10
124.759
 20
-19.4328
 30
0.000000
  70
    32
  0
VERTEX
  8
241
  5
162C
 10
124.798
 20
-19.5438
 30
0.000000
  70
    32
  0
VERTEX
  8
241
  5
162D
 10
124.838
 20
-19.6546
 30
0.000000
  70
    32
  0
VERTEX
  8
241
  5
162E
 10
124.879
 20
-19.7651
 30
0.000000
  70
    32
  0
VERTEX
  8
241
  5
162F
 10
124.920
 20
-19.8753
 30
0.000000
  70
    32
  0
VERTEX
  8
241
  5
1630
 10
124.962
 20
-19.9852
 30
0.000000
  70
    32
  0
VERTEX
  8
241
  5
1631
 10
125.005
 20
-20.0949
 30
0.000000
  70
    32
  0
VERTEX
  8
241
  5
1632
 10
125.049
 20
-20.2042
 30
0.000000
  70
    32
  0
VERTEX
  8
241
  5
1633
 10
125.093
 20
-20.3133
 30
0.000000
  70
    32
  0
VERTEX
  8
241
  5
1634
 10
125.138
 20
-20.4220
 30
0.000000
  70
    32
  0
VERTEX
  8
241
  5
1635
 10
125.184
 20
-20.5305
 30
0.000000
  70
    32
  0
VERTEX
  8
241
  5
1636
 10
125.230
 20
-20.6386
 30
0.000000
  70
    32
  0
VERTEX
  8
241
  5
1637
 10
125.278
 20
-20.7464
 30
0.000000
  70
    32
  0
VERTEX
  8
241
  5
1638
 10
125.326
 20
-20.8539
 30
0.000000
  70
    32
  0
VERTEX
  8
241
  5
1639
 10
125.375
 20
-20.9610
 30
0.000000
  70
    32
  0
VERTEX
  8
241
  5
163A
 10
125.425
 20
-21.0677
 30
0.000000
  70
    32
  0
VERTEX
  8
241
  5
163B
 10
125.476
 20
-21.1739
 30
0.000000
  70
    32
  0
VERTEX
  8
241
  5
163C
 10
125.528
 20
-21.2796
 30
0.000000
  70
    32
  0
VERTEX
  8
241
  5
163D
 10
125.581
 20
-21.3848
 30
0.000000
  70
    32
  0
VERTEX
  8
241
  5
163E
 10
125.635
 20
-21.4895
 30
0.000000
  70
    32
  0
VERTEX
  8
241
  5
163F
 10
125.690
 20
-21.5935
 30
0.000000
  70
    32
  0
VERTEX
  8
241
  5
1640
 10
125.746
 20
-21.6969
 30
0.000000
  70
    32
  0
VERTEX
  8
241
  5
1641
 10
125.803
 20
-21.7996
 30
0.000000
  70
    32
  0
VERTEX
  8
241
  5
1642
 10
125.862
 20
-21.9016
 30
0.000000
  70
    32
  0
VERTEX
  8
241
  5
1643
 10
125.922
 20
-22.0028
 30
0.000000
  70
    32
  0
VERTEX
  8
241
  5
1644
 10
125.983
 20
-22.1032
 30
0.000000
  70
    32
  0
SEQEND
  8
241
  5
1645
  0
ARC
  5
11B8
  8
240
  6
CONTINUOUS
 10
24.0500000000011802
 20
-39.8448960668739502
 30
0.0
 40
5.0
 50
91.8052126771348327
 51
180.0
  0
ARC
  5
11B9
  8
240
  6
CONTINUOUS
 10
24.0500000000011802
 20
39.8448960668675483
 30
0.0
 40
5.0
 50
180.0
 51
268.1947873228651815
  0
LINE
  5
11BA
  8
240
  6
CONTINUOUS
 10
118.1000000002293007
 20
31.4999999999999289
 30
0.0
 11
23.8734134120111605
 21
34.8299076510828201
 31
0.0
  0
LINE
  5
11BB
  8
240
  6
CONTINUOUS
 10
118.1000000002350987
 20
-31.5000000000000213
 30
0.0
 11
23.8734134120111285
 21
-34.829907651083083
 31
0.0
  0
LINE
  5
11E2
  8
250
  6
CONTINUOUS
 10
0.0
 20
35.4250000000000114
 30
0.0
 11
0.0000000000000018
 21
64.0
 31
0.0
  0
LINE
  5
11E3
  8
250
  6
CONTINUOUS
 10
130.0999999999982037
 20
31.9999999999998899
 30
0.0
 11
130.0999999999982037
 21
64.0
 31
0.0
  0
LINE
  5
11E4
  8
250
  6
CONTINUOUS
 10
2.0
 20
63.0
 30
0.0
 11
128.0999999999982037
 21
63.0
 31
0.0
  0
INSERT
  5
11E5
  8
250
  6
CONTINUOUS
  2
_OPEN
 10
0.0000000000000017
 20
63.0
 30
0.0
 41
2.0
 42
2.0
 43
2.0
 50
180.0
  0
INSERT
  5
11E6
  8
250
  6
CONTINUOUS
  2
_OPEN
 10
130.0999999999982037
 20
63.0
 30
0.0
 41
2.0
 42
2.0
 43
2.0
  0
INSERT
  5
11E7
  8
240
  2
*U7
 10
0.0
 20
0.0
 30
0.0
  0
LINE
  5
1331
  8
241
  6
CONTINUOUS
 10
3.7000000000000002
 20
12.7000000000001698
 30
0.0
 11
1.5
 21
14.9000000000003503
 31
0.0
1001
GRPNAME
1000
PASTMD0L
1001
GENIUS_GENFIL_13
1070
     1
1040
10.0
1040
10.0
1040
2.2000000000000002
1040
45.0
1002
{
1002
}
1001
GENIUS_GENODEF_13
1002
{
1000
HIER
1070
     0
1002
}
1002
{
1000
MANEDIT
1070
     0
1002
}
1002
{
1000
NOSEL
1070
     0
1002
}
1002
{
1000
BEHIND
1070
     0
1002
}
1002
{
1000
OTHER
1070
     0
1002
}
1002
{
1000
REACTOR
1002
}
1001
GENIUS_GENOBJ-N-CHA_13
1002
{
1000
OWNER
1000
GEN
1002
}
  0
LINE
  5
1334
  8
241
  6
CONTINUOUS
 10
3.6999999999996791
 20
-12.6999988134347603
 30
0.0
 11
1.5
 21
-14.9000011865652198
 31
0.0
1001
GRPNAME
1000
PASTMD0L
1001
GENIUS_GENFIL_13
1070
     1
1040
10.0
1040
10.0
1040
2.2000000000000002
1040
45.0
1002
{
1002
}
1001
GENIUS_GENODEF_13
1002
{
1000
HIER
1070
     0
1002
}
1002
{
1000
MANEDIT
1070
     0
1002
}
1002
{
1000
NOSEL
1070
     0
1002
}
1002
{
1000
BEHIND
1070
     0
1002
}
1002
{
1000
OTHER
1070
     0
1002
}
1002
{
1000
REACTOR
1002
}
1001
GENIUS_GENOBJ-N-CHA_13
1002
{
1000
OWNER
1000
GEN
1002
}
  0
VIEWPORT
  5
22
 67
     1
  8
0
 10
261.517699115044195
 20
148.5
 30
0.0
 40
523.0353982300885036
 41
297.0
 68
     1
 69
     1
1001
ACAD
1000
MVIEW
1002
{
1070
    16
1010
0.0
1020
0.0
1030
0.0
1010
0.0
1020
0.0
1030
1.0
1040
0.0
1040
297.0
1040
261.517699115044195
1040
148.5
1040
50.0
1040
0.0
1040
0.0
1070
     0
1070
   100
1070
     1
1070
     1
1070
     0
1070
     0
1070
     0
1070
     0
1040
0.0
1040
0.0
1040
0.0
1040
1.0
1040
1.0
1040
10.0
1040
10.0
1070
     0
1002
{
1002
}
1002
}
1001
GENIUS_GENOBJ-N-SDF_13
1002
{
1000
OWNER
1000
GEN
1002
}
1001
GENIUS_GENODEF_13
1002
{
1000
HIER
1070
     0
1002
}
1002
{
1000
MANEDIT
1070
     0
1002
}
1002
{
1000
NOSEL
1070
     0
1002
}
1002
{
1000
BEHIND
1070
     0
1002
}
1002
{
1000
OTHER
1070
     0
1002
}
1002
{
1000
REACTOR
1002
}
1001
GENIUS_GENSCREG_15
1000
PF
1040
1.0
1000
DF
1040
1.0
1000
MIN
1011
0.0
1021
0.0
1031
0.0
1021
0.0
1031
0.0
1000
MAX
1011
523.0353982300885036
1021
0.0
1031
0.0
1021
297.0
1031
0.0
1000
FLAGS
1070
     4
  0
ENDSEC
  0
EOF
