  0
SECTION
  2
HEADER
  9
$ACADVER
  1
AC1009
  9
$INSBASE
 10
0.0
 20
0.0
 30
0.0
  9
$EXTMIN
 10
-105.33411709504961
 20
-49.21250000000007
 30
0.0
  9
$EXTMAX
 10
188.999999999978
 20
82.0
 30
0.0
  9
$LIMMIN
 10
0.0
 20
0.0
  9
$LIMMAX
 10
297.0
 20
210.0
  9
$ORTHOMODE
 70
     0
  9
$REGENMODE
 70
     1
  9
$FILLMODE
 70
     1
  9
$QTEXTMODE
 70
     0
  9
$MIRRTEXT
 70
     1
  9
$DRAGMODE
 70
     2
  9
$LTSCALE
 40
10.0
  9
$OSMODE
 70
    37
  9
$ATTMODE
 70
     1
  9
$TEXTSIZE
 40
3.0
  9
$TRACEWID
 40
1.0
  9
$TEXTSTYLE
  7
YOKO
  9
$CLAYER
  8
240
  9
$CELTYPE
  6
BYLAYER
  9
$CECOLOR
 62
   256
  9
$DIMSCALE
 40
1.0
  9
$DIMASZ
 40
2.2299999999999991
  9
$DIMEXO
 40
0.5
  9
$DIMDLI
 40
7.0
  9
$DIMRND
 40
0.0
  9
$DIMDLE
 40
0.0
  9
$DIMEXE
 40
1.0
  9
$DIMTP
 40
0.0
  9
$DIMTM
 40
0.01
  9
$DIMTXT
 40
2.799999999999998
  9
$DIMCEN
 40
0.0
  9
$DIMTSZ
 40
0.0
  9
$DIMTOL
 70
     0
  9
$DIMLIM
 70
     0
  9
$DIMTIH
 70
     0
  9
$DIMTOH
 70
     0
  9
$DIMSE1
 70
     0
  9
$DIMSE2
 70
     0
  9
$DIMTAD
 70
     3
  9
$DIMZIN
 70
     9
  9
$DIMBLK
  1
OPEN
  9
$DIMASO
 70
     1
  9
$DIMSHO
 70
     1
  9
$DIMPOST
  1

  9
$DIMAPOST
  1

  9
$DIMALT
 70
     0
  9
$DIMALTD
 70
     2
  9
$DIMALTF
 40
25.399999999999999
  9
$DIMLFAC
 40
1.0
  9
$DIMTOFL
 70
     1
  9
$DIMTVP
 40
0.0
  9
$DIMTIX
 70
     1
  9
$DIMSOXD
 70
     0
  9
$DIMSAH
 70
     0
  9
$DIMBLK1
  1

  9
$DIMBLK2
  1

  9
$DIMSTYLE
  2
BIGT
  9
$DIMCLRD
 70
   256
  9
$DIMCLRE
 70
   256
  9
$DIMCLRT
 70
    40
  9
$DIMTFAC
 40
1.0
  9
$DIMGAP
 40
1.0
  9
$LUNITS
 70
     2
  9
$LUPREC
 70
     6
  9
$SKETCHINC
 40
1.0
  9
$FILLETRAD
 40
1.0
  9
$AUNITS
 70
     0
  9
$AUPREC
 70
     6
  9
$MENU
  1
.
  9
$ELEVATION
 40
0.0
  9
$PELEVATION
 40
0.0
  9
$THICKNESS
 40
0.0
  9
$LIMCHECK
 70
     0
  9
$BLIPMODE
 70
     0
  9
$CHAMFERA
 40
0.2
  9
$CHAMFERB
 40
0.2
  9
$SKPOLY
 70
     0
  9
$TDCREATE
 40
2458138.7355149998
  9
$TDUPDATE
 40
2458142.743469005
  9
$TDINDWG
 40
0.0071217708
  9
$TDUSRTIMER
 40
0.007121713
  9
$USRTIMER
 70
     1
  9
$ANGBASE
 50
0.0
  9
$ANGDIR
 70
     0
  9
$PDMODE
 70
     1
  9
$PDSIZE
 40
0.0
  9
$PLINEWID
 40
0.0
  9
$COORDS
 70
     1
  9
$SPLFRAME
 70
     0
  9
$SPLINETYPE
 70
     6
  9
$SPLINESEGS
 70
     4
  9
$ATTDIA
 70
     1
  9
$ATTREQ
 70
     1
  9
$HANDLING
 70
     1
  9
$HANDSEED
  5
5141
  9
$SURFTAB1
 70
     6
  9
$SURFTAB2
 70
     6
  9
$SURFTYPE
 70
     6
  9
$SURFU
 70
     6
  9
$SURFV
 70
     6
  9
$UCSNAME
  2

  9
$UCSORG
 10
0.0
 20
0.0
 30
0.0
  9
$UCSXDIR
 10
1.0
 20
0.0
 30
0.0
  9
$UCSYDIR
 10
0.0
 20
1.0
 30
0.0
  9
$PUCSNAME
  2

  9
$PUCSORG
 10
0.0
 20
0.0
 30
0.0
  9
$PUCSXDIR
 10
1.0
 20
0.0
 30
0.0
  9
$PUCSYDIR
 10
0.0
 20
1.0
 30
0.0
  9
$USERI1
 70
     1
  9
$USERI2
 70
     0
  9
$USERI3
 70
     0
  9
$USERI4
 70
     0
  9
$USERI5
 70
     0
  9
$USERR1
 40
0.0
  9
$USERR2
 40
0.0
  9
$USERR3
 40
0.0
  9
$USERR4
 40
0.0
  9
$USERR5
 40
0.0
  9
$WORLDVIEW
 70
     1
  9
$SHADEDGE
 70
     3
  9
$SHADEDIF
 70
    70
  9
$TILEMODE
 70
     1
  9
$MAXACTVP
 70
    16
  9
$PLIMCHECK
 70
     0
  9
$PEXTMIN
 10
1.0000000000000000E+020
 20
1.0000000000000000E+020
 30
1.0000000000000000E+020
  9
$PEXTMAX
 10
-1.0000000000000000E+020
 20
-1.0000000000000000E+020
 30
-1.0000000000000000E+020
  9
$PLIMMIN
 10
0.0
 20
0.0
  9
$PLIMMAX
 10
420.0
 20
297.0
  9
$UNITMODE
 70
     0
  9
$VISRETAIN
 70
     1
  9
$PLINEGEN
 70
     0
  9
$PSLTSCALE
 70
     1
  0
ENDSEC
  0
SECTION
  2
TABLES
  0
TABLE
  2
VPORT
 70
     1
  0
VPORT
  2
*ACTIVE
 70
     0
 10
0.0
 20
0.0
 11
1.0
 21
1.0
 12
50.375625291224708
 22
13.9711447719452
 13
0.0
 23
0.0
 14
7.0
 24
7.0
 15
7.0
 25
7.0
 16
0.0
 26
0.0
 36
1.0
 17
0.0
 27
0.0
 37
0.0
 40
193.09985420190219
 41
1.515499425947187
 42
50.0
 43
0.0
 44
0.0
 50
0.0
 51
0.0
 71
     0
 72
  2000
 73
     1
 74
     0
 75
     0
 76
     1
 77
     0
 78
     0
  0
ENDTAB
  0
TABLE
  2
LTYPE
 70
    20
  0
LTYPE
  2
CONTINUOUS
 70
     0
  3
Solid line
 72
    65
 73
     0
 40
0.0
  0
LTYPE
  2
CENTER2
 70
     0
  3
___ _ ___ _ ___ _ ___ _ ___ _ ___ _ ___ _ ___ _
 72
    65
 73
     4
 40
1.125
 49
0.75
 49
-0.125
 49
0.125
 49
-0.125
  0
LTYPE
  2
HIDDEN2
 70
     0
  3
_ _ _ _ _ _ _ _ _ _ _ _ _ _ _ _ _ _ _ _ _ _ _ _
 72
    65
 73
     2
 40
0.1875
 49
0.125
 49
-0.0625
  0
LTYPE
  2
AM_ISO02W050
 70
     0
  3
__ __ __ __ __ __ __ __ __ __ __ __ __ __ __
 72
    65
 73
     2
 40
7.5
 49
6.0
 49
-1.5
  0
LTYPE
  2
AMCONSTR
 70
     0
  3
_______________________
 72
    65
 73
     2
 40
9999.0
 49
9999.0
 49
0.0
  0
LTYPE
  2
ACISOWELD
 70
     0
  3
_ _ _ _ _
 72
    65
 73
     2
 40
2.0
 49
2.0
 49
-1.0
  0
LTYPE
  2
ACISOTGB
 70
     0
  3
__ . . __ . .
 72
    65
 73
     6
 40
9.0
 49
4.0
 49
-1.0
 49
1.0
 49
-1.0
 49
1.0
 49
-1.0
  0
LTYPE
  2
ACISOTGL
 70
     0
  3
_ _ _ _ _
 72
    65
 73
     2
 40
3.0
 49
2.0
 49
-1.0
  0
LTYPE
  2
AM_ISO08W050
 70
     0
  3
____ . ____ . ____ . ____ . ____ . ____ . ____
 72
    65
 73
     4
 40
18.0
 49
12.0
 49
-1.5
 49
3.0
 49
-1.5
  0
LTYPE
  2
AM_ISO09W050
 70
     0
  3
_____ . . _____ . . _____ . . ____ .. ____
 72
    65
 73
     6
 40
22.5
 49
12.0
 49
-1.5
 49
3.0
 49
-1.5
 49
3.0
 49
-1.5
  0
LTYPE
  2
AM_ISO08W050X2
 70
     0
  3
__ . __ . __ . __ . __ . __
 72
    65
 73
     4
 40
9.0
 49
6.0
 49
-0.75
 49
1.5
 49
-0.75
  0
LTYPE
  2
AM_ISO02W050X2
 70
     0
  3
 _ _ _ _ _ _ _ _ _ _ _ _
 72
    65
 73
     2
 40
3.75
 49
3.0
 49
-0.75
  0
LTYPE
  2
AMZIGZAG
 70
     0
  3
/\/-/\/-/\/-/\/-/\/-/\/
 72
    65
 73
     2
 40
11.0001
 49
0.0001
 49
-11.0
  0
LTYPE
  2
HIDDEN
 70
     0
  3
Hidden __ __ __ __ __ __ __ __ __ __ __ __ __ _
 72
    65
 73
     2
 40
0.375
 49
0.25
 49
-0.125
  0
LTYPE
  2
PHANTOM2
 70
     0
  3
Phantom (.5x) ___ _ _ ___ _ _ ___ _ _ ___ _ _
 72
    65
 73
     6
 40
1.25
 49
0.625
 49
-0.125
 49
0.125
 49
-0.125
 49
0.125
 49
-0.125
  0
LTYPE
  2
CENTER
 70
     0
  3
Center ____ _ ____ _ ____ _ ____ _ ____ _ ____
 72
    65
 73
     4
 40
2.0
 49
1.25
 49
-0.25
 49
0.25
 49
-0.25
  0
LTYPE
  2
AMZIGZAG2
 70
     0
  3
/\/-/\/-/\/-/\/-/\/-/\/
 72
    65
 73
     2
 40
0.4401
 49
0.0001
 49
-0.4400000000000001
  0
LTYPE
  2
ACANSTGB
 70
     0
  3
__ . . __ . .
 72
    65
 73
     6
 40
0.35433070866
 49
0.15748031496
 49
-0.03937007874
 49
0.03937007874
 49
-0.03937007874
 49
0.03937007874
 49
-0.03937007874
  0
LTYPE
  2
ACANSTGL
 70
     0
  3
_ _ _ _ _
 72
    65
 73
     2
 40
0.11811023622
 49
0.07874015748
 49
-0.03937007874
  0
ENDTAB
  0
TABLE
  2
LAYER
 70
    10
  0
LAYER
  2
0
 70
     0
 62
     7
  6
CONTINUOUS
  0
LAYER
  2
240
 70
     0
 62
     4
  6
CONTINUOUS
  0
LAYER
  2
DEFPOINTS
 70
     0
 62
     7
  6
CONTINUOUS
  0
LAYER
  2
245
 70
     0
 62
     2
  6
CENTER2
  0
LAYER
  2
241
 70
     0
 62
   211
  6
CONTINUOUS
  0
LAYER
  2
243
 70
     0
 62
   211
  6
HIDDEN2
  0
LAYER
  2
244
 70
     0
 62
     3
  6
HIDDEN2
  0
LAYER
  2
247
 70
     0
 62
    60
  6
CONTINUOUS
  0
LAYER
  2
250
 70
     0
 62
     3
  6
CONTINUOUS
  0
ENDTAB
  0
TABLE
  2
STYLE
 70
     7
  0
STYLE
  2
STANDARD
 70
     0
 40
0.0
 41
1.0
 50
0.0
 71
     0
 42
3.0
  3
romans.shx
  4
extfont.shx
  0
STYLE
  2
YOKO
 70
     0
 40
0.0
 41
1.0
 50
0.0
 71
     0
 42
3.0
  3
romans.shx
  4
extfont.shx
  0
STYLE
  2
ACISOGDT
 70
     0
 40
0.0
 41
1.0
 50
0.0
 71
     0
 42
3.0
  3
amgdt.shx
  4
extfont.shx
  0
STYLE
  2

 70
     1
 40
0.0
 41
1.0
 50
0.0
 71
     0
 42
3.0
  3
genltshp.shx
  4

  0
STYLE
  2
ACANSGDT
 70
     0
 40
0.0
 41
1.0
 50
0.0
 71
     0
 42
3.0
  3
amgdt.shx
  4

  0
ENDTAB
  0
TABLE
  2
VIEW
 70
     0
  0
ENDTAB
  0
TABLE
  2
UCS
 70
     0
  0
ENDTAB
  0
TABLE
  2
APPID
 70
    45
  0
APPID
  2
ACAD
 70
     0
  0
APPID
  2
ACADANNOTATIVE
 70
     0
  0
APPID
  2
GLOBAL
 70
     0
  0
APPID
  2
DETAIL
 70
     0
  0
APPID
  2
GRPNAME
 70
     0
  0
APPID
  2
GPARA
 70
     0
  0
APPID
  2
MCAD_NO_VIS
 70
     0
  0
APPID
  2
ACAD_TEMP_GRAPHIC
 70
     0
  0
APPID
  2
ACATTRIBSERVICES
 70
     0
  0
APPID
  2
GENIUS_GENSCREG_15
 70
     0
  0
APPID
  2
GENIUS_GENODEF_13
 70
     0
  0
APPID
  2
GENIUS_GENOBJ-N-SDF_13
 70
     0
  0
APPID
  2
GENIUS_GENREC_14
 70
     0
  0
APPID
  2
GENIUS_GENOBJ-N-REC_13
 70
     0
  0
APPID
  2
GENIUS_GENDIMSH_14
 70
     0
  0
APPID
  2
GENIUS_GENOBJ-N-DIM_13
 70
     0
  0
APPID
  2
GENIUS_GENDIM_13
 70
     0
  0
APPID
  2
GENIUS_GENDTOL_13
 70
     0
  0
APPID
  2
GENIUS_GENOLIS_13
 70
     0
  0
APPID
  2
GENIUS_GENOENT_13
 70
     0
  0
APPID
  2
GENIUS_GENOBJ-F-FEM_13
 70
     0
  0
APPID
  2
GENIUS_GENOREF_13
 70
     0
  0
APPID
  2
GENIUS_GEFFEM_13
 70
     0
  0
APPID
  2
GENIUS_GEFFEMP_13
 70
     0
  0
APPID
  2
AD_DRAW
 70
     0
  0
APPID
  2
DESIGNERASSEMBLIES
 70
     0
  0
APPID
  2
ACADM_DIM_EDIT
 70
     0
  0
APPID
  2
AMDT_DM_ADJ
 70
     0
  0
APPID
  2
ITEMNAME
 70
     0
  0
APPID
  2
GENIUS_GENOBJ-N-FIL_13
 70
     0
  0
APPID
  2
GENIUS_GENFIL_13
 70
     0
  0
APPID
  2
GENIUS_GENOBJ-N-CHA_13
 70
     0
  0
APPID
  2
ACAECLAYERSTANDARD
 70
     0
  0
APPID
  2
ACAD_NAV_VCDISPLAY
 70
     0
  0
APPID
  2
ACAD_DSTYLE_DIMJAG
 70
     0
  0
APPID
  2
ACAD_DSTYLE_DIMBREAK
 70
     0
  0
APPID
  2
ACAD_PSEXT
 70
     0
  0
APPID
  2
ACAD_EXEMPT_FROM_CAD_STANDARDS
 70
     0
  0
APPID
  2
ACAD_DSTYLE_DIMINSPECT
 70
     0
  0
APPID
  2
ACAD_MLEADERVER
 70
     0
  0
APPID
  2
ACAD_DSTYLE_DIMARC_LENGTH_
 70
     0
  0
APPID
  2
ACAD_DSTYLE_DIM_LINETYPE
 70
     0
  0
APPID
  2
ACAD_DSTYLE_DIM_EXT1_LINETYPE
 70
     0
  0
APPID
  2
ACAD_DSTYLE_DIM_EXT2_LINETYPE
 70
     0
  0
APPID
  2
ACAD_DSTYLE_DIMTALN
 70
     0
  0
ENDTAB
  0
TABLE
  2
DIMSTYLE
 70
    19
  0
DIMSTYLE
  2
STANDARD
 70
     0
  3

  4

  5

  6

  7

 40
1.0
 41
0.18
 42
0.0625
 43
0.38
 44
0.18
 45
0.0
 46
0.0
 47
0.0
 48
0.0
140
0.18
141
0.09
142
0.0
143
25.399999999999999
144
1.0
145
0.0
146
1.0
147
0.09
 71
     0
 72
     0
 73
     1
 74
     1
 75
     0
 76
     0
 77
     0
 78
     0
170
     0
171
     2
172
     0
173
     0
174
     0
175
     0
176
     0
177
     0
178
     0
  0
DIMSTYLE
  2
BIGT
 70
     0
  3

  4

  5

  6

  7

 40
1.0
 41
2.2299999999999991
 42
0.5
 43
7.0
 44
1.0
 45
0.0
 46
0.0
 47
0.0
 48
0.01
140
2.799999999999998
141
0.0
142
0.0
143
25.399999999999999
144
1.0
145
0.0
146
1.0
147
1.0
 71
     0
 72
     0
 73
     0
 74
     0
 75
     0
 76
     0
 77
     3
 78
     9
170
     0
171
     2
172
     1
173
     0
174
     1
175
     0
176
   256
177
   256
178
    40
  0
DIMSTYLE
  2
AM_ISO
 70
     0
  3

  4
"
  5

  6

  7

 40
1.0
 41
2.5
 42
1.0
 43
10.0
 44
1.0
 45
0.0
 46
0.0
 47
0.1
 48
0.1
140
3.5
141
0.0
142
0.0
143
0.0393701
144
1.0
145
0.0
146
0.71
147
1.5
 71
     0
 72
     0
 73
     0
 74
     0
 75
     0
 76
     0
 77
     1
 78
     8
170
     0
171
     2
172
     1
173
     0
174
     0
175
     0
176
   256
177
   256
178
     2
  0
DIMSTYLE
  2
AM_ISO$3
 70
     0
  3

  4
"
  5

  6

  7

 40
1.0
 41
2.5
 42
1.0
 43
10.0
 44
1.0
 45
0.0
 46
0.0
 47
0.1
 48
0.1
140
3.5
141
0.0
142
0.0
143
0.0393701
144
1.0
145
0.0
146
0.71
147
1.5
 71
     0
 72
     0
 73
     0
 74
     1
 75
     0
 76
     0
 77
     1
 78
     8
170
     0
171
     2
172
     0
173
     0
174
     0
175
     0
176
   256
177
   256
178
     2
  0
DIMSTYLE
  2
AM_ISO$4
 70
     0
  3

  4
"
  5

  6

  7

 40
1.0
 41
2.5
 42
1.0
 43
10.0
 44
1.0
 45
0.0
 46
0.0
 47
0.1
 48
0.1
140
3.5
141
0.0
142
0.0
143
0.0393701
144
1.0
145
0.0
146
0.71
147
1.5
 71
     0
 72
     0
 73
     0
 74
     1
 75
     0
 76
     0
 77
     1
 78
     8
170
     0
171
     2
172
     0
173
     0
174
     0
175
     0
176
   256
177
   256
178
     2
  0
DIMSTYLE
  2
AM_ISO$6
 70
     0
  3

  4
"
  5

  6

  7

 40
1.0
 41
2.5
 42
1.0
 43
10.0
 44
1.0
 45
0.0
 46
0.0
 47
0.1
 48
0.1
140
3.5
141
0.0
142
0.0
143
0.0393701
144
1.0
145
0.0
146
0.71
147
1.5
 71
     0
 72
     0
 73
     0
 74
     0
 75
     0
 76
     0
 77
     0
 78
     8
170
     0
171
     2
172
     1
173
     0
174
     0
175
     0
176
   256
177
   256
178
     2
  0
DIMSTYLE
  2
AM_ISO$7
 70
     0
  3

  4
"
  5

  6

  7

 40
1.0
 41
2.5
 42
1.0
 43
10.0
 44
1.0
 45
0.0
 46
0.0
 47
0.1
 48
0.1
140
5.0
141
0.0
142
0.0
143
0.0393701
144
1.0
145
0.0
146
0.71
147
1.5
 71
     0
 72
     0
 73
     0
 74
     0
 75
     0
 76
     0
 77
     1
 78
     8
170
     0
171
     2
172
     1
173
     0
174
     0
175
     0
176
   256
177
   256
178
     2
  0
DIMSTYLE
  2
AM_ISO$SF
 70
     0
  3

  4
"
  5

  6

  7

 40
1.0
 41
2.5
 42
1.0
 43
10.0
 44
1.0
 45
0.0
 46
0.0
 47
0.1
 48
0.1
140
3.5
141
0.0
142
0.0
143
0.0393701
144
1.0
145
0.0
146
0.71
147
1.5
 71
     0
 72
     0
 73
     0
 74
     0
 75
     1
 76
     1
 77
     1
 78
     8
170
     0
171
     2
172
     1
173
     0
174
     0
175
     0
176
   256
177
   256
178
     2
  0
DIMSTYLE
  2
AM_ISO$SH
 70
     0
  3

  4
"
  5

  6

  7

 40
1.0
 41
2.5
 42
1.0
 43
10.0
 44
1.0
 45
0.0
 46
0.0
 47
0.1
 48
0.1
140
3.5
141
0.0
142
0.0
143
0.0393701
144
2.0
145
0.0
146
0.71
147
1.5
 71
     0
 72
     0
 73
     0
 74
     0
 75
     1
 76
     1
 77
     1
 78
     8
170
     0
171
     2
172
     1
173
     1
174
     0
175
     0
176
   256
177
   256
178
     2
  0
DIMSTYLE
  2
AM_ANSI
 70
     0
  3

  4
mm
  5

  6

  7

 40
1.0
 41
0.12
 42
0.05
 43
0.5
 44
0.1
 45
0.0
 46
0.0
 47
0.1
 48
0.1
140
0.12
141
0.0
142
0.0
143
25.399999999999999
144
1.0
145
0.0
146
0.71
147
0.06
 71
     0
 72
     0
 73
     1
 74
     1
 75
     0
 76
     0
 77
     0
 78
     7
170
     0
171
     2
172
     0
173
     0
174
     0
175
     0
176
   256
177
   256
178
     2
  0
DIMSTYLE
  2
AM_ANSI$3
 70
     0
  3

  4
mm
  5

  6

  7

 40
1.0
 41
0.12
 42
0.05
 43
0.5
 44
0.1
 45
0.0
 46
0.0
 47
0.1
 48
0.1
140
0.12
141
0.0
142
0.0
143
25.399999999999999
144
1.0
145
0.0
146
0.71
147
0.06
 71
     0
 72
     0
 73
     1
 74
     1
 75
     0
 76
     0
 77
     0
 78
     7
170
     0
171
     2
172
     0
173
     0
174
     0
175
     0
176
   256
177
   256
178
     2
  0
DIMSTYLE
  2
AM_ANSI$4
 70
     0
  3

  4
mm
  5

  6

  7

 40
1.0
 41
0.12
 42
0.05
 43
0.5
 44
0.1
 45
0.0
 46
0.0
 47
0.1
 48
0.1
140
0.12
141
0.0
142
0.0
143
25.399999999999999
144
1.0
145
0.0
146
0.71
147
0.06
 71
     0
 72
     0
 73
     1
 74
     1
 75
     0
 76
     0
 77
     0
 78
     7
170
     0
171
     2
172
     0
173
     0
174
     0
175
     0
176
   256
177
   256
178
     2
  0
DIMSTYLE
  2
AM_ANSI$7
 70
     0
  3

  4
mm
  5

  6

  7

 40
1.0
 41
0.12
 42
0.05
 43
0.5
 44
0.1
 45
0.0
 46
0.0
 47
0.1
 48
0.1
140
0.12
141
0.0
142
0.0
143
25.399999999999999
144
1.0
145
0.0
146
0.71
147
0.06
 71
     0
 72
     0
 73
     1
 74
     1
 75
     0
 76
     0
 77
     0
 78
     7
170
     0
171
     2
172
     0
173
     0
174
     0
175
     0
176
   256
177
   256
178
     2
  0
DIMSTYLE
  2
AM_ANSI$SF
 70
     0
  3

  4
mm
  5

  6

  7

 40
1.0
 41
0.12
 42
0.05
 43
0.5
 44
0.1
 45
0.0
 46
0.0
 47
0.1
 48
0.1
140
0.12
141
0.0
142
0.0
143
25.399999999999999
144
1.0
145
0.0
146
0.71
147
0.06
 71
     0
 72
     0
 73
     1
 74
     1
 75
     1
 76
     1
 77
     0
 78
     7
170
     0
171
     2
172
     0
173
     0
174
     0
175
     0
176
   256
177
   256
178
     2
  0
DIMSTYLE
  2
AM_ANSI$SH
 70
     0
  3

  4
mm
  5

  6
GENAXEH
  7

 40
1.0
 41
0.12
 42
0.05
 43
0.5
 44
0.1
 45
0.0
 46
0.0
 47
0.1
 48
0.1
140
0.12
141
0.0
142
0.0
143
25.399999999999999
144
1.0
145
0.0
146
0.71
147
0.06
 71
     0
 72
     0
 73
     1
 74
     1
 75
     1
 76
     1
 77
     0
 78
     7
170
     0
171
     2
172
     0
173
     1
174
     0
175
     0
176
   256
177
   256
178
     2
  0
ENDTAB
  0
ENDSEC
  0
SECTION
  2
BLOCKS
  0
BLOCK
  8
0
  2
$MODEL_SPACE
 70
     0
 10
0.0
 20
0.0
 30
0.0
  3
$MODEL_SPACE
  1

  0
ENDBLK
  5
4FAD
  8
0
  0
BLOCK
 67
     1
  8
0
  2
$PAPER_SPACE
 70
     0
 10
0.0
 20
0.0
 30
0.0
  3
$PAPER_SPACE
  1

  0
ENDBLK
  5
4FA9
 67
     1
  8
0
  0
BLOCK
  8
0
  2
_OPEN
 70
     0
 10
0.0
 20
0.0
 30
0.0
  3
_OPEN
  1

  0
LINE
  5
3E1A
  8
0
  6
BYBLOCK
 62
     0
 10
-1.0
 20
0.1666666666666666
 30
0.0
 11
0.0
 21
0.0
 31
0.0
  0
LINE
  5
3E1B
  8
0
  6
BYBLOCK
 62
     0
 10
-1.0
 20
-0.1666666666666666
 30
0.0
 11
0.0
 21
0.0
 31
0.0
  0
LINE
  5
3E1C
  8
0
  6
BYBLOCK
 62
     0
 10
0.0
 20
0.0
 30
0.0
 11
-1.0
 21
0.0
 31
0.0
  0
ENDBLK
  5
3E1D
  8
0
  0
BLOCK
  8
0
  2
GENAXEH
 70
     0
 10
0.0
 20
0.0
 30
0.0
  3
GENAXEH
  1

  0
LINE
  5
3E45
  8
0
 10
-1.0
 20
0.0
 30
0.0
 11
1.0
 21
0.0
 31
0.0
  0
ENDBLK
  5
3E46
  8
0
  0
BLOCK
  8
0
  2
_ACMFILLEDHALF
 70
     0
 10
0.0
 20
0.0
 30
0.0
  3
_ACMFILLEDHALF
  1

  0
TRACE
  5
505E
  8
240
 62
     0
 10
-0.8
 20
0.0
 30
0.0
 11
-1.0
 21
0.166666666
 31
0.0
 12
0.0
 22
0.0
 32
0.0
 13
0.0
 23
0.0
 33
0.0
  0
LINE
  5
505F
  8
240
 62
     0
 10
-1.0
 20
0.0
 30
0.0
 11
-0.8
 21
0.0
 31
0.0
  0
ENDBLK
  5
505D
  8
0
  0
ENDSEC
  0
SECTION
  2
ENTITIES
  0
LINE
  5
42AB
  8
245
  6
CENTER2
 10
-105.33411709504961
 20
-0.0000000000000568
 30
0.0
 11
78.907998500481199
 21
0.0000000000000568
 31
0.0
1001
GRPNAME
1000
PASTMD09
  0
LINE
  5
42AE
  8
241
  6
CONTINUOUS
 10
1.5
 20
-34.910857157146502
 30
0.0
 11
1.5
 21
34.910857157146438
 31
0.0
1001
GRPNAME
1000
PASTMD09
  0
LINE
  5
42AF
  8
241
  6
CONTINUOUS
 10
14.64499999999998
 20
-49.21250000000007
 30
0.0
 11
14.64499999999998
 21
49.212500000000041
 31
0.0
1001
GRPNAME
1000
PASTMD09
  0
LINE
  5
42B0
  8
241
  6
CONTINUOUS
 10
13.040000000000081
 20
45.644999999999918
 30
0.0
 11
13.040000000000081
 21
-45.64500000000001
 31
0.0
1001
GRPNAME
1000
PASTMD09
  0
LINE
  5
42B1
  8
241
  6
CONTINUOUS
 10
9.1999999999999336
 20
45.644999999999918
 30
0.0
 11
9.1999999999999336
 21
-45.64500000000001
 31
0.0
1001
GRPNAME
1000
PASTMD09
  0
LINE
  5
42B2
  8
241
  6
CONTINUOUS
 10
7.5950000000000273
 20
-49.21250000000007
 30
0.0
 11
7.5950000000000273
 21
49.212500000000041
 31
0.0
1001
GRPNAME
1000
PASTMD09
  0
LINE
  5
42B3
  8
241
  6
CONTINUOUS
 10
0.0
 20
-34.92500000000004
 30
0.0
 11
0.0
 21
34.925000000000011
 31
0.0
1001
GRPNAME
1000
PASTMD09
  0
LINE
  5
42B4
  8
241
  6
CONTINUOUS
 10
19.050000000000072
 20
41.000000000000007
 30
0.0
 11
19.050000000000079
 21
-40.999999999999957
 31
0.0
1001
GRPNAME
1000
PASTMD09
  0
LINE
  5
42B5
  8
240
  6
CONTINUOUS
 10
1.5
 20
49.21249999999992
 30
0.0
 11
1.5
 21
34.924999999999962
 31
0.0
1001
GRPNAME
1000
PASTMD09
  0
LINE
  5
42B6
  8
240
  6
CONTINUOUS
 10
1.5
 20
-49.21250000000007
 30
0.0
 11
1.5
 21
-34.92500000000004
 31
0.0
1001
GRPNAME
1000
PASTMD09
  0
LINE
  5
42B7
  8
240
  6
CONTINUOUS
 10
1.5
 20
-49.21250000000007
 30
0.0
 11
7.5950000000000273
 21
-49.212499999999999
 31
0.0
1001
GRPNAME
1000
PASTMD09
  0
LINE
  5
42B8
  8
240
  6
CONTINUOUS
 10
1.5
 20
49.21249999999992
 30
0.0
 11
7.5950000000000273
 21
49.212500000000041
 31
0.0
1001
GRPNAME
1000
PASTMD09
  0
LINE
  5
42B9
  8
240
  6
CONTINUOUS
 10
13.03999999999996
 20
45.644999999999918
 30
0.0
 11
13.03999999999996
 21
46.432558453851861
 31
0.0
1001
GRPNAME
1000
PASTMD09
  0
LINE
  5
42BA
  8
240
  6
CONTINUOUS
 10
9.1999999999999336
 20
46.432558453851968
 30
0.0
 11
9.1999999999999336
 21
45.644999999999918
 31
0.0
1001
GRPNAME
1000
PASTMD09
  0
LINE
  5
42BB
  8
240
  6
CONTINUOUS
 10
7.5950000000000273
 20
49.212500000000041
 30
0.0
 11
9.1999999999999336
 21
46.432558453851968
 31
0.0
1001
GRPNAME
1000
PASTMD09
  0
LINE
  5
42BC
  8
240
  6
CONTINUOUS
 10
13.03999999999996
 20
46.432558453851861
 30
0.0
 11
14.64499999999998
 21
49.21249999999992
 31
0.0
1001
GRPNAME
1000
PASTMD09
  0
LINE
  5
42BD
  8
240
  6
CONTINUOUS
 10
13.040000000000081
 20
-46.432558453852067
 30
0.0
 11
14.64499999999998
 21
-49.212499999999999
 31
0.0
1001
GRPNAME
1000
PASTMD09
  0
LINE
  5
42BE
  8
240
  6
CONTINUOUS
 10
7.5950000000000273
 20
-49.212499999999999
 30
0.0
 11
9.1999999999999336
 21
-46.432558453852067
 31
0.0
1001
GRPNAME
1000
PASTMD09
  0
LINE
  5
42BF
  8
240
  6
CONTINUOUS
 10
9.1999999999999336
 20
-45.64500000000001
 30
0.0
 11
13.040000000000081
 21
-45.64500000000001
 31
0.0
1001
GRPNAME
1000
PASTMD09
  0
LINE
  5
42C0
  8
240
  6
CONTINUOUS
 10
9.1999999999999336
 20
45.644999999999918
 30
0.0
 11
13.03999999999996
 21
45.644999999999918
 31
0.0
1001
GRPNAME
1000
PASTMD09
  0
LINE
  5
42C1
  8
240
  6
CONTINUOUS
 10
19.050000000000072
 20
-49.21250000000007
 30
0.0
 11
14.64499999999998
 21
-49.212499999999999
 31
0.0
1001
GRPNAME
1000
PASTMD09
  0
LINE
  5
42C2
  8
240
  6
CONTINUOUS
 10
19.050000000000072
 20
49.21249999999992
 30
0.0
 11
14.64499999999998
 21
49.21249999999992
 31
0.0
1001
GRPNAME
1000
PASTMD09
  0
LINE
  5
42C3
  8
240
  6
CONTINUOUS
 10
19.050000000000072
 20
49.21249999999992
 30
0.0
 11
19.050000000000072
 21
41.000000000000007
 31
0.0
1001
GRPNAME
1000
PASTMD09
  0
LINE
  5
42C4
  8
240
  6
CONTINUOUS
 10
19.050000000000072
 20
-40.999999999999957
 30
0.0
 11
19.050000000000072
 21
-49.21250000000007
 31
0.0
1001
GRPNAME
1000
PASTMD09
  0
LINE
  5
42C5
  8
240
  6
CONTINUOUS
 10
9.1999999999999336
 20
-45.64500000000001
 30
0.0
 11
9.1999999999999336
 21
-46.432558453852067
 31
0.0
1001
GRPNAME
1000
PASTMD09
  0
LINE
  5
42C6
  8
240
  6
CONTINUOUS
 10
13.040000000000081
 20
-45.64500000000001
 30
0.0
 11
13.040000000000081
 21
-46.432558453852067
 31
0.0
1001
GRPNAME
1000
PASTMD09
  0
LINE
  5
42C7
  8
240
  6
CONTINUOUS
 10
-101.59999999999999
 20
20.108333333333231
 30
0.0
 11
0.0
 21
34.924999999999898
 31
0.0
1001
GRPNAME
1000
PASTMD09
  0
LINE
  5
42C8
  8
240
  6
CONTINUOUS
 10
-101.59999999999999
 20
20.108333333333292
 30
0.0
 11
-101.59999999999999
 21
-20.10833333333338
 31
0.0
1001
GRPNAME
1000
PASTMD09
  0
LINE
  5
42C9
  8
240
  6
CONTINUOUS
 10
-101.59999999999999
 20
-20.10833333333338
 30
0.0
 11
0.0
 21
-34.92500000000004
 31
0.0
1001
GRPNAME
1000
PASTMD09
  0
LINE
  5
42CC
  8
240
  6
CONTINUOUS
 10
0.0
 20
34.925000000000011
 30
0.0
 11
1.5
 21
34.924999999999962
 31
0.0
  0
LINE
  5
42CD
  8
240
  6
CONTINUOUS
 10
0.0
 20
-34.92500000000004
 30
0.0
 11
1.5
 21
-34.92500000000004
 31
0.0
  0
TEXT
  5
42CE
  8
250
  6
CONTINUOUS
 10
-72.79455199226706
 20
-37.357738943014681
 30
0.0
 40
2.799999999999998
  1
BCV50
  7
YOKO
1001
ITEMNAME
1000
LNSP3
  0
LINE
  5
42CF
  8
250
  6
CONTINUOUS
 10
-57.061218658933761
 20
-38.357738943014681
 30
0.0
 11
-75.06121865893374
 21
-38.357738943014681
 31
0.0
1001
ITEMNAME
1000
LNSP2
  0
LINE
  5
42D0
  8
250
  6
CONTINUOUS
 10
-52.08890497452029
 20
-29.081861563025338
 30
0.0
 11
-50.799999998933743
 21
-27.516666663014689
 31
0.0
  0
LINE
  5
42D1
  8
250
  6
CONTINUOUS
 10
-51.511603656917551
 20
-29.4152796686204
 30
0.0
 11
-50.799999998933743
 21
-27.516666663014689
 31
0.0
  0
LINE
  5
42D2
  8
250
  6
CONTINUOUS
 10
-50.799999998933743
 20
-27.516666663014689
 30
0.0
 11
-51.800254315718881
 21
-29.248570615822871
 31
0.0
  0
LINE
  5
42D3
  8
250
  6
CONTINUOUS
 10
-51.800254315718881
 20
-29.248570615822871
 30
0.0
 11
-57.061218658933761
 21
-38.357738943014681
 31
0.0
1001
ACAD
1000
DSTYLE
1002
{
1070
     6
1000
OPEN
1070
    41
1040
2.0
1070
    42
1040
2.0
1070
    44
1040
2.0
1070
   140
1040
4.0
1070
   343
1005
0
1002
}
  0
LINE
  5
42D4
  8
247
  6
CONTINUOUS
 10
5.4999999999999432
 20
-26.75
 30
0.0
 11
5.5
 21
-22.115384615670049
 31
0.0
  0
LINE
  5
42D5
  8
247
  6
CONTINUOUS
 10
3.0
 20
-25.954893499987978
 30
0.0
 11
5.0999999999160082
 21
-26.557058810057359
 31
0.0
  0
LINE
  5
42D6
  8
247
  6
CONTINUOUS
 10
3.996153846113998
 20
-25.32515140351904
 30
0.0
 11
3.996153846113998
 21
-26.24053601886704
 31
0.0
  0
ARC
  5
42D7
  8
247
  6
CONTINUOUS
 10
3.3847190672940992
 20
-25.08726340194681
 30
0.0
 40
0.3876715809326743
 50
72.997889675292214
 51
172.92416621851359
  0
ARC
  5
42D8
  8
247
  6
CONTINUOUS
 10
3.305223131028014
 20
-25.38247755680413
 30
0.0
 40
0.6933047965358768
 50
4.7429368522022122
 51
73.849226273266751
1001
GENIUS_GENOBJ-N-FIL_13
1002
{
1000
OWNER
1000
GEN
1002
}
1001
GENIUS_GENODEF_13
1002
{
1000
HIER
1070
     0
1002
}
1002
{
1000
MANEDIT
1070
     0
1002
}
1002
{
1000
NOSEL
1070
     0
1002
}
1002
{
1000
BEHIND
1070
     0
1002
}
1002
{
1000
OTHER
1070
     0
1002
}
1002
{
1000
REACTOR
1002
}
  0
LINE
  5
42D9
  8
247
  6
CONTINUOUS
 10
5.0999999999160082
 20
-25.64167419470937
 30
0.0
 11
5.0999999999160082
 21
-26.557058810057359
 31
0.0
  0
LINE
  5
42DA
  8
247
  6
CONTINUOUS
 10
3.0
 20
-25.954893499987978
 30
0.0
 11
3.0
 21
-25.039508884639989
 31
0.0
  0
ARC
  5
42DB
  8
247
  6
CONTINUOUS
 10
4.3874169627678707
 20
-25.378306476266861
 30
0.0
 40
0.394857301075386
 50
65.990941652528889
 51
172.26344345906909
  0
ARC
  5
42DC
  8
247
  6
CONTINUOUS
 10
4.3912003273325668
 20
-25.71244661042693
 30
0.0
 40
0.7123241612361686
 50
5.701985164259705
 51
77.277338436822006
1001
GENIUS_GENOBJ-N-FIL_13
1002
{
1000
OWNER
1000
GEN
1002
}
1001
GENIUS_GENODEF_13
1002
{
1000
HIER
1070
     0
1002
}
1002
{
1000
MANEDIT
1070
     0
1002
}
1002
{
1000
NOSEL
1070
     0
1002
}
1002
{
1000
BEHIND
1070
     0
1002
}
1002
{
1000
OTHER
1070
     0
1002
}
1002
{
1000
REACTOR
1002
}
  0
LINE
  5
42DD
  8
247
  6
CONTINUOUS
 10
5.0999999999160082
 20
-24.6839818870634
 30
0.0
 11
3.0
 21
-24.081816576994012
 31
0.0
  0
LINE
  5
42DE
  8
247
  6
CONTINUOUS
 10
3.0
 20
-22.58566273090798
 30
0.0
 11
3.0
 21
-22.981678364303601
 31
0.0
  0
LINE
  5
42DF
  8
247
  6
CONTINUOUS
 10
5.0999999999160082
 20
-23.608739653943982
 30
0.0
 11
5.0999999999160082
 21
-23.17797042319199
 31
0.0
  0
ARC
  5
42E0
  8
247
  6
CONTINUOUS
 10
4.4582995950833579
 20
-22.381816577069969
 30
0.0
 40
1.576855057639547
 50
202.35948814152911
 51
254.99324854284649
  0
ARC
  5
42E1
  8
247
  6
CONTINUOUS
 10
3.5658188585381341
 20
-22.847511366133229
 30
0.0
 40
0.6234706797009447
 50
94.994589319075317
 51
155.1663289573039
1001
GENIUS_GENOBJ-N-FIL_13
1002
{
1000
OWNER
1000
GEN
1002
}
1001
GENIUS_GENODEF_13
1002
{
1000
HIER
1070
     0
1002
}
1002
{
1000
MANEDIT
1070
     0
1002
}
1002
{
1000
NOSEL
1070
     0
1002
}
1002
{
1000
BEHIND
1070
     0
1002
}
1002
{
1000
OTHER
1070
     0
1002
}
1002
{
1000
REACTOR
1002
}
  0
ARC
  5
42E2
  8
247
  6
CONTINUOUS
 10
4.1621021219694381
 20
-23.444183951032809
 30
0.0
 40
0.9749472149106983
 50
15.8460965557808
 51
82.325137004169278
  0
ARC
  5
42E3
  8
247
  6
CONTINUOUS
 10
4.371470401971064
 20
-23.035211638772239
 30
0.0
 40
0.9271945638692009
 50
249.7136016704969
 51
321.78874565641053
1001
GENIUS_GENOBJ-N-FIL_13
1002
{
1000
OWNER
1000
GEN
1002
}
1001
GENIUS_GENODEF_13
1002
{
1000
HIER
1070
     0
1002
}
1002
{
1000
MANEDIT
1070
     0
1002
}
1002
{
1000
NOSEL
1070
     0
1002
}
1002
{
1000
BEHIND
1070
     0
1002
}
1002
{
1000
OTHER
1070
     0
1002
}
1002
{
1000
REACTOR
1002
}
  0
LINE
  5
42E4
  8
247
  6
CONTINUOUS
 10
4.2923076922559744
 20
-22.962585807815959
 30
0.0
 11
4.2923076922559744
 21
-22.477970423219968
 31
0.0
  0
ARC
  5
42E5
  8
247
  6
CONTINUOUS
 10
4.25
 20
-26.75
 30
0.0
 40
1.25
 50
180.0
 51
0.0
  0
LINE
  5
42E6
  8
247
  6
CONTINUOUS
 10
3.0
 20
-26.75
 30
0.0
 11
3.0
 21
-26.303846153914041
 31
0.0
  0
ARC
  5
42E7
  8
247
  6
CONTINUOUS
 10
4.25
 20
-22.115384615670049
 30
0.0
 40
1.25
 50
0.0
 51
180.0
  0
LINE
  5
4305
  8
240
  6
CONTINUOUS
 10
76.200000000000003
 20
40.000000000000007
 30
0.0
 11
76.200000000000003
 21
-39.999999999999979
 31
0.0
  0
LINE
  5
4306
  8
240
  6
CONTINUOUS
 10
20.050000000000072
 20
-39.999999999999979
 30
0.0
 11
76.200000000000003
 21
-39.999999999999979
 31
0.0
  0
LINE
  5
4308
  8
240
  6
CONTINUOUS
 10
76.200000000000003
 20
40.000000000000007
 30
0.0
 11
20.050000000000072
 21
40.000000000000007
 31
0.0
1001
GRPNAME
1000
PASTMD04
  0
LINE
  5
4309
  8
243
  6
HIDDEN2
 10
1.745714015968701
 20
35.299999999999663
 30
0.0
 11
31.800000000000772
 21
35.300000000000161
 31
0.0
  0
LINE
  5
430A
  8
243
  6
HIDDEN2
 10
1.80000000000001
 20
-37.20000000000001
 30
0.0
 11
31.800000000000409
 21
-37.199999999999832
 31
0.0
  0
LINE
  5
430B
  8
243
  6
HIDDEN2
 10
31.799999999999979
 20
-37.199999999999832
 30
0.0
 11
31.799999999999638
 21
-39.999999999999979
 31
0.0
  0
LINE
  5
430C
  8
243
  6
HIDDEN2
 10
31.800000000000772
 20
35.300000000000161
 30
0.0
 11
31.799999999999638
 21
40.000000000000007
 31
0.0
  0
ARC
  5
430D
  8
240
  6
CONTINUOUS
 10
20.050000000000072
 20
41.000000000000007
 30
0.0
 40
1.0
 50
180.0
 51
270.0
1001
GRPNAME
1000
PASTMD09
1001
GENIUS_GENOBJ-N-FIL_13
1002
{
1000
OWNER
1000
GEN
1002
}
1001
GENIUS_GENODEF_13
1002
{
1000
HIER
1070
     0
1002
}
1002
{
1000
MANEDIT
1070
     0
1002
}
1002
{
1000
NOSEL
1070
     0
1002
}
1002
{
1000
BEHIND
1070
     0
1002
}
1002
{
1000
OTHER
1070
     0
1002
}
1002
{
1000
REACTOR
1002
}
  0
ARC
  5
430F
  8
240
  6
CONTINUOUS
 10
20.050000000000072
 20
-40.999999999999957
 30
0.0
 40
1.0
 50
90.0
 51
180.0
1001
GRPNAME
1000
PASTMD09
1001
GENIUS_GENODEF_13
1002
{
1000
HIER
1070
     0
1002
}
1002
{
1000
MANEDIT
1070
     0
1002
}
1002
{
1000
NOSEL
1070
     0
1002
}
1002
{
1000
BEHIND
1070
     0
1002
}
1002
{
1000
OTHER
1070
     0
1002
}
1002
{
1000
REACTOR
1002
}
1001
GENIUS_GENOBJ-N-FIL_13
1002
{
1000
OWNER
1000
GEN
1002
}
  0
LINE
  5
482B
  8
243
  6
HIDDEN2
 10
-13.049999999999921
 20
-12.49999999999995
 30
0.0
 11
-13.049999999999921
 21
12.50000000000005
 31
0.0
  0
LINE
  5
482C
  8
243
  6
HIDDEN2
 10
-13.049999999999921
 20
12.50000000000005
 30
0.0
 11
-12.049999999999921
 21
13.50000000000005
 31
0.0
  0
LINE
  5
482D
  8
243
  6
HIDDEN2
 10
-12.049999999999921
 20
13.50000000000005
 30
0.0
 11
2.950000000000073
 21
13.50000000000005
 31
0.0
  0
LINE
  5
482E
  8
243
  6
HIDDEN2
 10
2.950000000000073
 20
-13.49999999999995
 30
0.0
 11
2.950000000000073
 21
-8.4999999999999503
 31
0.0
  0
LINE
  5
482F
  8
243
  6
HIDDEN2
 10
-12.049999999999921
 20
-13.49999999999995
 30
0.0
 11
2.950000000000073
 21
-13.49999999999995
 31
0.0
  0
LINE
  5
4830
  8
243
  6
HIDDEN2
 10
72.45000000000006
 20
10.00000000000005
 30
0.0
 11
73.950000000000102
 21
8.5000000000000497
 31
0.0
  0
LINE
  5
4831
  8
243
  6
HIDDEN2
 10
73.950000000000102
 20
-8.4999999999999503
 30
0.0
 11
73.950000000000102
 21
8.5000000000000497
 31
0.0
  0
LINE
  5
4832
  8
243
  6
HIDDEN2
 10
73.950000000000102
 20
-8.4999999999999503
 30
0.0
 11
72.45000000000006
 21
-9.9999999999999503
 31
0.0
  0
LINE
  5
4833
  8
243
  6
HIDDEN2
 10
35.450000000000131
 20
10.00000000000005
 30
0.0
 11
72.45000000000006
 21
10.00000000000005
 31
0.0
  0
LINE
  5
4834
  8
243
  6
HIDDEN2
 10
2.950000000000073
 20
8.5000000000000462
 30
0.0
 11
33.950000000000138
 21
8.5000000000000497
 31
0.0
  0
LINE
  5
4835
  8
243
  6
HIDDEN2
 10
2.950000000000073
 20
-8.4999999999999503
 30
0.0
 11
33.950000000000081
 21
-8.4999999999999503
 31
0.0
  0
LINE
  5
4836
  8
243
  6
HIDDEN2
 10
35.450000000000067
 20
-9.9999999999999503
 30
0.0
 11
33.950000000000081
 21
-8.4999999999999503
 31
0.0
  0
LINE
  5
4837
  8
243
  6
HIDDEN2
 10
35.450000000000067
 20
-9.9999999999999503
 30
0.0
 11
72.45000000000006
 21
-9.9999999999999503
 31
0.0
  0
LINE
  5
4838
  8
243
  6
HIDDEN2
 10
-2.0499999999999261
 20
4.000000000000048
 30
0.0
 11
73.950000000000102
 21
4.000000000000048
 31
0.0
  0
LINE
  5
483C
  8
243
  6
HIDDEN2
 10
-13.049999999999921
 20
4.041451884327377
 30
0.0
 11
-2.0499999999999261
 21
4.041451884327377
 31
0.0
  0
LINE
  5
483D
  8
243
  6
HIDDEN2
 10
-13.049999999999921
 20
8.0829037686547949
 30
0.0
 11
-2.0499999999999261
 21
8.0829037686547949
 31
0.0
  0
LINE
  5
483E
  8
244
  6
HIDDEN2
 10
34.450000000000131
 20
9.0000000000000497
 30
0.0
 11
73.450000000000102
 21
9.0000000000000497
 31
0.0
  0
LINE
  5
483F
  8
244
  6
HIDDEN2
 10
34.450000000000067
 20
-8.9999999999999503
 30
0.0
 11
73.450000000000102
 21
-8.9999999999999503
 31
0.0
  0
LINE
  5
4840
  8
243
  6
HIDDEN2
 10
35.450000000000067
 20
10.00000000000005
 30
0.0
 11
33.950000000000081
 21
8.5000000000000497
 31
0.0
  0
LINE
  5
4842
  8
243
  6
HIDDEN2
 10
76.199999999998113
 20
-25.574994960662199
 30
0.0
 11
28.199999999999999
 21
-24.375075590078129
 31
0.0
  0
LINE
  5
4843
  8
243
  6
HIDDEN2
 10
28.199999999999999
 20
28.37507559007663
 30
0.0
 11
76.19999977167609
 21
29.57499495495318
 31
0.0
  0
LINE
  5
4844
  8
243
  6
HIDDEN2
 10
-13.049999999999921
 20
-12.49999999999995
 30
0.0
 11
-12.049999999999921
 21
-13.49999999999995
 31
0.0
  0
LINE
  5
4845
  8
243
  6
HIDDEN2
 10
-2.0499999999999261
 20
-3.9999999999999489
 30
0.0
 11
73.950000000000102
 21
-3.999999999999948
 31
0.0
  0
LINE
  5
4848
  8
243
  6
HIDDEN2
 10
-2.0499999999999261
 20
8.0829037686547949
 30
0.0
 11
-2.0499999999999261
 21
-8.0829037686546954
 31
0.0
  0
LINE
  5
4849
  8
243
  6
HIDDEN2
 10
-13.049999999999921
 20
-4.0414518843272793
 30
0.0
 11
-2.0499999999999261
 21
-4.0414518843272793
 31
0.0
  0
LINE
  5
484A
  8
243
  6
HIDDEN2
 10
-13.049999999999921
 20
-8.0829037686546936
 30
0.0
 11
-2.0499999999999261
 21
-8.0829037686546936
 31
0.0
  0
LINE
  5
484B
  8
243
  6
HIDDEN2
 10
2.950000000000073
 20
8.5000000000000462
 30
0.0
 11
2.950000000000073
 21
13.50000000000005
 31
0.0
  0
TEXT
  5
484C
  8
241
  6
CONTINUOUS
 10
-105.0
 20
77.0
 30
0.0
 40
5.0
  1
BCV50Y-C8-3
  7
YOKO
 11
-105.0
 21
77.0
 31
0.0
 73
     1
  0
LINE
  5
4DBA
  8
250
  6
CONTINUOUS
 10
76.700000000000003
 20
40.000000000000007
 30
0.0
 11
99.000000000000057
 21
40.0
 31
0.0
  0
LINE
  5
4DBB
  8
250
  6
CONTINUOUS
 10
76.700000000000003
 20
-39.999999999999979
 30
0.0
 11
99.0
 21
-40.0
 31
0.0
  0
LINE
  5
4DBC
  8
250
  6
CONTINUOUS
 10
98.000000000000043
 20
37.770000000000017
 30
0.0
 11
98.0
 21
-37.769999999999989
 31
0.0
  0
LINE
  5
4DC0
  8
250
  6
CONTINUOUS
 10
0.0
 20
35.424999999999898
 30
0.0
 11
0.0000000000000018
 21
64.0
 31
0.0
  0
LINE
  5
4DC1
  8
250
  6
CONTINUOUS
 10
76.200000000000003
 20
40.500000000000007
 30
0.0
 11
76.200000000000003
 21
64.0
 31
0.0
  0
LINE
  5
4DC2
  8
250
  6
CONTINUOUS
 10
2.23
 20
63.0
 30
0.0
 11
73.969999999999985
 21
63.0
 31
0.0
  0
TEXT
  5
4DC6
  8
250
  6
CONTINUOUS
 10
32.762529495170973
 20
63.850599890761387
 30
0.0
 40
2.799999999999998
  1
3.00
  0
LINE
  5
4DC7
  8
250
  6
CONTINUOUS
 10
73.969999999999985
 20
63.37166666666667
 30
0.0
 11
76.200000000000003
 21
63.0
 31
0.0
  0
LINE
  5
4DC8
  8
250
  6
CONTINUOUS
 10
73.969999999999985
 20
62.62833333333333
 30
0.0
 11
76.200000000000003
 21
63.0
 31
0.0
  0
LINE
  5
4DC9
  8
250
  6
CONTINUOUS
 10
76.200000000000003
 20
63.0
 30
0.0
 11
73.969999999999985
 21
63.0
 31
0.0
  0
LINE
  5
4DCA
  8
250
  6
CONTINUOUS
 10
2.23
 20
62.62833333333333
 30
0.0
 11
0.0000000000000017
 21
63.0
 31
0.0
  0
LINE
  5
4DCB
  8
250
  6
CONTINUOUS
 10
2.23
 20
63.37166666666667
 30
0.0
 11
0.0000000000000017
 21
63.0
 31
0.0
  0
LINE
  5
4DCC
  8
250
  6
CONTINUOUS
 10
0.0000000000000017
 20
63.0
 30
0.0
 11
2.23
 21
63.0
 31
0.0
  0
TEXT
  5
4DCD
  8
250
  6
CONTINUOUS
 10
97.0
 20
-5.9333333333332998
 30
0.0
 40
2.799999999999998
  1
\U+22053.150
 50
90.0
  0
LINE
  5
4DCE
  8
250
  6
CONTINUOUS
 10
98.371666666666684
 20
-37.769999999999989
 30
0.0
 11
98.0
 21
-40.0
 31
0.0
  0
LINE
  5
4DCF
  8
250
  6
CONTINUOUS
 10
97.62833333333333
 20
-37.769999999999989
 30
0.0
 11
98.0
 21
-40.0
 31
0.0
  0
LINE
  5
4DD0
  8
250
  6
CONTINUOUS
 10
98.0
 20
-40.0
 30
0.0
 11
98.0
 21
-37.769999999999989
 31
0.0
  0
LINE
  5
4DD1
  8
250
  6
CONTINUOUS
 10
97.628333333333373
 20
37.770000000000017
 30
0.0
 11
98.000000000000043
 21
40.0
 31
0.0
  0
LINE
  5
4DD2
  8
250
  6
CONTINUOUS
 10
98.371666666666684
 20
37.770000000000017
 30
0.0
 11
98.000000000000043
 21
40.0
 31
0.0
  0
LINE
  5
4DD3
  8
250
  6
CONTINUOUS
 10
98.000000000000043
 20
40.0
 30
0.0
 11
98.000000000000043
 21
37.770000000000017
 31
0.0
  0
LINE
  5
50C1
  8
245
  6
CENTER2
 10
104.999999999978
 20
0.0
 30
0.0
 11
188.999999999978
 21
0.0
 31
0.0
1001
GRPNAME
1000
PASTMD1M
  0
LINE
  5
50C2
  8
245
  6
CENTER2
 10
120.5862251845588
 20
-15.24999999999795
 30
0.0
 11
173.4137748153974
 21
15.25000000002302
 31
0.0
1001
GRPNAME
1000
PASTMD1M
  0
LINE
  5
50C3
  8
245
  6
CENTER2
 10
120.58622518454681
 20
15.250000000002039
 30
0.0
 11
173.41377481540971
 21
-15.24999999997692
 31
0.0
1001
GRPNAME
1000
PASTMD1M
  0
CIRCLE
  5
50C4
  8
240
  6
CONTINUOUS
 10
146.999999999978
 20
0.0000000000125056
 30
0.0
 40
40.0
1001
GRPNAME
1000
PASTMD1O
  0
LINE
  5
50C5
  8
245
  6
CENTER2
 10
146.99999999996569
 20
42.000000000012498
 30
0.0
 11
146.99999999996569
 21
-41.999999999987487
 31
0.0
1001
GRPNAME
1000
PASTMD1M
  0
ARC
  5
50C6
  8
241
  6
CONTINUOUS
 10
160.94850204345801
 20
-8.0531714095825464
 30
0.0
 40
41.606321842775188
 50
122.8375988544005
 51
177.16240114560159
  0
ARC
  5
50C7
  8
241
  6
CONTINUOUS
 10
146.99999999996561
 20
13.91015371195436
 30
0.0
 40
15.58994491046173
 50
56.463578930772137
 51
123.5364210692278
  0
ARC
  5
50C8
  8
241
  6
CONTINUOUS
 10
146.99999999996569
 20
16.10634281922443
 30
0.0
 40
41.606321842775188
 50
242.83759885440429
 51
297.1624011456031
  0
ARC
  5
50C9
  8
241
  6
CONTINUOUS
 10
134.9534535148841
 20
-6.9550768559476523
 30
0.0
 40
15.58994491046173
 50
176.4635789307705
 51
243.5364210692322
  0
ARC
  5
50CA
  8
241
  6
CONTINUOUS
 10
133.05149795647341
 20
-8.0531714095826032
 30
0.0
 40
41.606321842775202
 50
2.8375988544016271
 51
57.162401145599517
  0
ARC
  5
50CB
  8
241
  6
CONTINUOUS
 10
159.04654648504749
 20
-6.9550768559474241
 30
0.0
 40
15.58994491046173
 50
296.46357893076782
 51
3.5364210692295108
  0
LINE
  5
50D8
  8
250
  6
CONTINUOUS
 10
78.343641513861783
 20
50.325208028300032
 30
0.0
 11
91.834309074122302
 21
50.325208028300032
 31
0.0
1001
ITEMNAME
1000
LNSP2
  0
TEXT
  5
50D9
  8
250
  6
CONTINUOUS
 10
83.405737645550929
 20
51.325208028300018
 30
0.0
 40
3.0
  1
C8
  7
YOKO
1001
ITEMNAME
1000
LNSP3
1001
ACAD
1000
MTEXTBEGIN
1070
    73
1070
     1
1070
    44
1040
1.0
1070
    74
1070
     0
1000
MTEXTEND
  0
LINE
  5
50DA
  8
250
  6
CONTINUOUS
 10
73.497379879283926
 20
41.93123665043931
 30
0.0
 11
78.343641513861783
 21
50.325208028300032
 31
0.0
1001
ACAD
1000
DSTYLE
1002
{
1070
     5
1000
OPEN
1070
    78
1070
     8
1070
   140
1040
3.0
1002
}
  0
LINE
  5
50DB
  8
250
  6
CONTINUOUS
 10
73.175507104210723
 20
42.117069983772652
 30
0.0
 11
72.382379879283931
 21
40.000000000000021
 31
0.0
  0
LINE
  5
50DC
  8
250
  6
CONTINUOUS
 10
73.819252654357143
 20
41.745403317105989
 30
0.0
 11
72.382379879283931
 21
40.000000000000021
 31
0.0
  0
LINE
  5
50DD
  8
250
  6
CONTINUOUS
 10
72.382379879283931
 20
40.000000000000021
 30
0.0
 11
73.497379879283926
 21
41.93123665043931
 31
0.0
  0
VIEWPORT
  5
22
 67
     1
  8
0
 10
261.51769911504419
 20
148.5
 30
0.0
 40
523.0353982300885
 41
297.0
 68
     1
 69
     1
1001
ACAD
1000
MVIEW
1002
{
1070
    16
1010
0.0
1020
0.0
1030
0.0
1010
0.0
1020
0.0
1030
1.0
1040
0.0
1040
297.0
1040
261.51769911504419
1040
148.5
1040
50.0
1040
0.0
1040
0.0
1070
     0
1070
   100
1070
     1
1070
     1
1070
     0
1070
     0
1070
     0
1070
     0
1040
0.0
1040
0.0
1040
0.0
1040
1.0
1040
1.0
1040
10.0
1040
10.0
1070
     0
1002
{
1002
}
1002
}
1001
GENIUS_GENODEF_13
1002
{
1000
HIER
1070
     0
1002
}
1002
{
1000
MANEDIT
1070
     0
1002
}
1002
{
1000
NOSEL
1070
     0
1002
}
1002
{
1000
BEHIND
1070
     0
1002
}
1002
{
1000
OTHER
1070
     0
1002
}
1002
{
1000
REACTOR
1002
}
1001
GENIUS_GENOBJ-N-SDF_13
1002
{
1000
OWNER
1000
GEN
1002
}
1001
GENIUS_GENSCREG_15
1000
PF
1040
1.0
1000
DF
1040
1.0
1000
MIN
1011
0.0
1021
0.0
1031
0.0
1021
0.0
1031
0.0
1000
MAX
1011
523.0353982300885
1021
0.0
1031
0.0
1021
297.0
1031
0.0
1000
FLAGS
1070
     4
  0
ENDSEC
  0
EOF
