  0
SECTION
  2
HEADER
  9
$ACADVER
  1
AC1009
  9
$INSBASE
 10
0.0
 20
0.0
 30
0.0
  9
$EXTMIN
 10
-105.3463944211574
 20
-49.220409934202848
 30
-0.0015258207003583
  9
$EXTMAX
 10
145.52921110151459
 20
82.015410687076397
 30
0.0000000349246037
  9
$LIMMIN
 10
0.0
 20
0.0
  9
$LIMMAX
 10
297.0
 20
210.0
  9
$ORTHOMODE
 70
     1
  9
$REGENMODE
 70
     1
  9
$FILLMODE
 70
     1
  9
$QTEXTMODE
 70
     0
  9
$MIRRTEXT
 70
     1
  9
$DRAGMODE
 70
     2
  9
$LTSCALE
 40
10.0
  9
$OSMODE
 70
    37
  9
$ATTMODE
 70
     1
  9
$TEXTSIZE
 40
3.0
  9
$TRACEWID
 40
1.0
  9
$TEXTSTYLE
  7
YOKO
  9
$CLAYER
  8
240
  9
$CELTYPE
  6
BYLAYER
  9
$CECOLOR
 62
   256
  9
$DIMSCALE
 40
1.0
  9
$DIMASZ
 40
2.2299999999999991
  9
$DIMEXO
 40
0.5
  9
$DIMDLI
 40
7.0
  9
$DIMRND
 40
0.0
  9
$DIMDLE
 40
0.0
  9
$DIMEXE
 40
1.0
  9
$DIMTP
 40
0.0
  9
$DIMTM
 40
0.01
  9
$DIMTXT
 40
2.799999999999998
  9
$DIMCEN
 40
0.0
  9
$DIMTSZ
 40
0.0
  9
$DIMTOL
 70
     0
  9
$DIMLIM
 70
     0
  9
$DIMTIH
 70
     0
  9
$DIMTOH
 70
     0
  9
$DIMSE1
 70
     0
  9
$DIMSE2
 70
     0
  9
$DIMTAD
 70
     3
  9
$DIMZIN
 70
     9
  9
$DIMBLK
  1
OPEN
  9
$DIMASO
 70
     1
  9
$DIMSHO
 70
     1
  9
$DIMPOST
  1

  9
$DIMAPOST
  1

  9
$DIMALT
 70
     0
  9
$DIMALTD
 70
     2
  9
$DIMALTF
 40
25.399999999999999
  9
$DIMLFAC
 40
1.0
  9
$DIMTOFL
 70
     1
  9
$DIMTVP
 40
0.0
  9
$DIMTIX
 70
     1
  9
$DIMSOXD
 70
     0
  9
$DIMSAH
 70
     0
  9
$DIMBLK1
  1

  9
$DIMBLK2
  1

  9
$DIMSTYLE
  2
BIGT
  9
$DIMCLRD
 70
   256
  9
$DIMCLRE
 70
   256
  9
$DIMCLRT
 70
    40
  9
$DIMTFAC
 40
1.0
  9
$DIMGAP
 40
1.0
  9
$LUNITS
 70
     2
  9
$LUPREC
 70
     6
  9
$SKETCHINC
 40
1.0
  9
$FILLETRAD
 40
1.0
  9
$AUNITS
 70
     0
  9
$AUPREC
 70
     6
  9
$MENU
  1
.
  9
$ELEVATION
 40
0.0
  9
$PELEVATION
 40
0.0
  9
$THICKNESS
 40
0.0
  9
$LIMCHECK
 70
     0
  9
$BLIPMODE
 70
     0
  9
$CHAMFERA
 40
0.2
  9
$CHAMFERB
 40
0.2
  9
$SKPOLY
 70
     0
  9
$TDCREATE
 40
2458138.7077918518
  9
$TDUPDATE
 40
2458151.4624340511
  9
$TDINDWG
 40
0.0111222454
  9
$TDUSRTIMER
 40
0.0111221875
  9
$USRTIMER
 70
     1
  9
$ANGBASE
 50
0.0
  9
$ANGDIR
 70
     0
  9
$PDMODE
 70
     1
  9
$PDSIZE
 40
0.0
  9
$PLINEWID
 40
0.0
  9
$COORDS
 70
     1
  9
$SPLFRAME
 70
     0
  9
$SPLINETYPE
 70
     6
  9
$SPLINESEGS
 70
     4
  9
$ATTDIA
 70
     1
  9
$ATTREQ
 70
     1
  9
$HANDLING
 70
     1
  9
$HANDSEED
  5
52BC
  9
$SURFTAB1
 70
     6
  9
$SURFTAB2
 70
     6
  9
$SURFTYPE
 70
     6
  9
$SURFU
 70
     6
  9
$SURFV
 70
     6
  9
$UCSNAME
  2

  9
$UCSORG
 10
0.0
 20
0.0
 30
0.0
  9
$UCSXDIR
 10
1.0
 20
0.0
 30
0.0
  9
$UCSYDIR
 10
0.0
 20
1.0
 30
0.0
  9
$PUCSNAME
  2

  9
$PUCSORG
 10
0.0
 20
0.0
 30
0.0
  9
$PUCSXDIR
 10
1.0
 20
0.0
 30
0.0
  9
$PUCSYDIR
 10
0.0
 20
1.0
 30
0.0
  9
$USERI1
 70
     1
  9
$USERI2
 70
     0
  9
$USERI3
 70
     0
  9
$USERI4
 70
     0
  9
$USERI5
 70
     0
  9
$USERR1
 40
0.0
  9
$USERR2
 40
0.0
  9
$USERR3
 40
0.0
  9
$USERR4
 40
0.0
  9
$USERR5
 40
0.0
  9
$WORLDVIEW
 70
     1
  9
$SHADEDGE
 70
     3
  9
$SHADEDIF
 70
    70
  9
$TILEMODE
 70
     1
  9
$MAXACTVP
 70
    16
  9
$PLIMCHECK
 70
     0
  9
$PEXTMIN
 10
1.0000000000000000E+020
 20
1.0000000000000000E+020
 30
1.0000000000000000E+020
  9
$PEXTMAX
 10
-1.0000000000000000E+020
 20
-1.0000000000000000E+020
 30
-1.0000000000000000E+020
  9
$PLIMMIN
 10
0.0
 20
0.0
  9
$PLIMMAX
 10
420.0
 20
297.0
  9
$UNITMODE
 70
     0
  9
$VISRETAIN
 70
     1
  9
$PLINEGEN
 70
     0
  9
$PSLTSCALE
 70
     1
  0
ENDSEC
  0
SECTION
  2
TABLES
  0
TABLE
  2
VPORT
 70
     1
  0
VPORT
  2
*ACTIVE
 70
     0
 10
0.0
 20
0.0
 11
1.0
 21
1.0
 12
20.091408340178589
 22
16.39750037643676
 13
0.0
 23
0.0
 14
7.0
 24
7.0
 15
7.0
 25
7.0
 16
0.0
 26
0.0
 36
1.0
 17
0.0
 27
0.0
 37
0.0
 40
153.758717619099
 41
1.6387559808612431
 42
50.0
 43
0.0
 44
0.0
 50
0.0
 51
0.0
 71
     0
 72
  2000
 73
     1
 74
     0
 75
     0
 76
     1
 77
     0
 78
     0
  0
ENDTAB
  0
TABLE
  2
LTYPE
 70
    20
  0
LTYPE
  2
CONTINUOUS
 70
     0
  3
Solid line
 72
    65
 73
     0
 40
0.0
  0
LTYPE
  2
CENTER2
 70
     0
  3
___ _ ___ _ ___ _ ___ _ ___ _ ___ _ ___ _ ___ _
 72
    65
 73
     4
 40
1.125
 49
0.75
 49
-0.125
 49
0.125
 49
-0.125
  0
LTYPE
  2
HIDDEN2
 70
     0
  3
_ _ _ _ _ _ _ _ _ _ _ _ _ _ _ _ _ _ _ _ _ _ _ _
 72
    65
 73
     2
 40
0.1875
 49
0.125
 49
-0.0625
  0
LTYPE
  2
AMCONSTR
 70
     0
  3
_______________________
 72
    65
 73
     2
 40
9999.0
 49
9999.0
 49
0.0
  0
LTYPE
  2
HIDDEN
 70
     0
  3
Hidden __ __ __ __ __ __ __ __ __ __ __ __ __ _
 72
    65
 73
     2
 40
0.375
 49
0.25
 49
-0.125
  0
LTYPE
  2
PHANTOM2
 70
     0
  3
Phantom (.5x) ___ _ _ ___ _ _ ___ _ _ ___ _ _
 72
    65
 73
     6
 40
1.25
 49
0.625
 49
-0.125
 49
0.125
 49
-0.125
 49
0.125
 49
-0.125
  0
LTYPE
  2
CENTER
 70
     0
  3
Center ____ _ ____ _ ____ _ ____ _ ____ _ ____
 72
    65
 73
     4
 40
2.0
 49
1.25
 49
-0.25
 49
0.25
 49
-0.25
  0
LTYPE
  2
AMZIGZAG2
 70
     0
  3
/\/-/\/-/\/-/\/-/\/-/\/
 72
    65
 73
     2
 40
0.4401
 49
0.0001
 49
-0.4400000000000002
  0
LTYPE
  2
ACANSTGB
 70
     0
  3
__ . . __ . .
 72
    65
 73
     6
 40
0.35433070866
 49
0.15748031496
 49
-0.03937007874
 49
0.03937007874
 49
-0.03937007874
 49
0.03937007874
 49
-0.03937007874
  0
LTYPE
  2
ACANSTGL
 70
     0
  3
_ _ _ _ _
 72
    65
 73
     2
 40
0.11811023622
 49
0.07874015748
 49
-0.03937007874
  0
ENDTAB
  0
TABLE
  2
LAYER
 70
    10
  0
LAYER
  2
0
 70
     0
 62
     7
  6
CONTINUOUS
  0
LAYER
  2
240
 70
     0
 62
     4
  6
CONTINUOUS
  0
LAYER
  2
DEFPOINTS
 70
     0
 62
     7
  6
CONTINUOUS
  0
LAYER
  2
245
 70
     0
 62
     2
  6
CENTER2
  0
LAYER
  2
241
 70
     0
 62
   211
  6
CONTINUOUS
  0
LAYER
  2
242
 70
     0
 62
     3
  6
CONTINUOUS
  0
LAYER
  2
243
 70
     0
 62
   211
  6
HIDDEN2
  0
LAYER
  2
244
 70
     0
 62
     3
  6
HIDDEN2
  0
LAYER
  2
247
 70
     0
 62
    60
  6
CONTINUOUS
  0
LAYER
  2
250
 70
     0
 62
     3
  6
CONTINUOUS
  0
ENDTAB
  0
TABLE
  2
STYLE
 70
     7
  0
STYLE
  2
STANDARD
 70
     0
 40
0.0
 41
1.0
 50
0.0
 71
     0
 42
3.0
  3
romans.shx
  4
extfont.shx
  0
STYLE
  2
YOKO
 70
     0
 40
0.0
 41
1.0
 50
0.0
 71
     0
 42
3.0
  3
romans.shx
  4
extfont.shx
  0
STYLE
  2
ACANSGDT
 70
     0
 40
0.0
 41
1.0
 50
0.0
 71
     0
 42
3.0
  3
amgdt.shx
  4

  0
ENDTAB
  0
TABLE
  2
VIEW
 70
     0
  0
ENDTAB
  0
TABLE
  2
UCS
 70
     0
  0
ENDTAB
  0
TABLE
  2
APPID
 70
    45
  0
APPID
  2
ACAD
 70
     0
  0
APPID
  2
ACADANNOTATIVE
 70
     0
  0
APPID
  2
GLOBAL
 70
     0
  0
APPID
  2
DETAIL
 70
     0
  0
APPID
  2
GRPNAME
 70
     0
  0
APPID
  2
GPARA
 70
     0
  0
APPID
  2
MCAD_NO_VIS
 70
     0
  0
APPID
  2
ACAD_TEMP_GRAPHIC
 70
     0
  0
APPID
  2
ACATTRIBSERVICES
 70
     0
  0
APPID
  2
GENIUS_GENSCREG_15
 70
     0
  0
APPID
  2
GENIUS_GENODEF_13
 70
     0
  0
APPID
  2
GENIUS_GENOBJ-N-SDF_13
 70
     0
  0
APPID
  2
GENIUS_GENREC_14
 70
     0
  0
APPID
  2
GENIUS_GENOBJ-N-REC_13
 70
     0
  0
APPID
  2
GENIUS_GENDIMSH_14
 70
     0
  0
APPID
  2
GENIUS_GENOBJ-N-DIM_13
 70
     0
  0
APPID
  2
GENIUS_GENDIM_13
 70
     0
  0
APPID
  2
GENIUS_GENDTOL_13
 70
     0
  0
APPID
  2
GENIUS_GENOLIS_13
 70
     0
  0
APPID
  2
GENIUS_GENOENT_13
 70
     0
  0
APPID
  2
GENIUS_GENOBJ-F-FEM_13
 70
     0
  0
APPID
  2
GENIUS_GENOREF_13
 70
     0
  0
APPID
  2
GENIUS_GEFFEM_13
 70
     0
  0
APPID
  2
GENIUS_GEFFEMP_13
 70
     0
  0
APPID
  2
AD_DRAW
 70
     0
  0
APPID
  2
DESIGNERASSEMBLIES
 70
     0
  0
APPID
  2
ACADM_DIM_EDIT
 70
     0
  0
APPID
  2
AMDT_DM_ADJ
 70
     0
  0
APPID
  2
ITEMNAME
 70
     0
  0
APPID
  2
GENIUS_GENOBJ-N-FIL_13
 70
     0
  0
APPID
  2
GENIUS_GENFIL_13
 70
     0
  0
APPID
  2
GENIUS_GENOBJ-N-CHA_13
 70
     0
  0
APPID
  2
ACAECLAYERSTANDARD
 70
     0
  0
APPID
  2
ACAD_NAV_VCDISPLAY
 70
     0
  0
APPID
  2
ACAD_DSTYLE_DIMJAG
 70
     0
  0
APPID
  2
ACAD_DSTYLE_DIMBREAK
 70
     0
  0
APPID
  2
ACAD_PSEXT
 70
     0
  0
APPID
  2
ACAD_DSTYLE_DIMINSPECT
 70
     0
  0
APPID
  2
ACAD_EXEMPT_FROM_CAD_STANDARDS
 70
     0
  0
APPID
  2
ACAD_MLEADERVER
 70
     0
  0
APPID
  2
ACAD_DSTYLE_DIMARC_LENGTH_
 70
     0
  0
APPID
  2
ACAD_DSTYLE_DIM_LINETYPE
 70
     0
  0
APPID
  2
ACAD_DSTYLE_DIM_EXT1_LINETYPE
 70
     0
  0
APPID
  2
ACAD_DSTYLE_DIM_EXT2_LINETYPE
 70
     0
  0
APPID
  2
ACAD_DSTYLE_DIMTALN
 70
     0
  0
ENDTAB
  0
TABLE
  2
DIMSTYLE
 70
    17
  0
DIMSTYLE
  2
STANDARD
 70
     0
  3

  4

  5

  6

  7

 40
1.0
 41
0.18
 42
0.0625
 43
0.38
 44
0.18
 45
0.0
 46
0.0
 47
0.0
 48
0.0
140
0.18
141
0.09
142
0.0
143
25.399999999999999
144
1.0
145
0.0
146
1.0
147
0.09
 71
     0
 72
     0
 73
     1
 74
     1
 75
     0
 76
     0
 77
     0
 78
     0
170
     0
171
     2
172
     0
173
     0
174
     0
175
     0
176
     0
177
     0
178
     0
  0
DIMSTYLE
  2
BIGT
 70
     0
  3

  4

  5

  6

  7

 40
1.0
 41
2.2299999999999991
 42
0.5
 43
7.0
 44
1.0
 45
0.0
 46
0.0
 47
0.0
 48
0.01
140
2.799999999999998
141
0.0
142
0.0
143
25.399999999999999
144
1.0
145
0.0
146
1.0
147
1.0
 71
     0
 72
     0
 73
     0
 74
     0
 75
     0
 76
     0
 77
     3
 78
     9
170
     0
171
     2
172
     1
173
     0
174
     1
175
     0
176
   256
177
   256
178
    40
  0
DIMSTYLE
  2
AM_ANSI
 70
     0
  3

  4
mm
  5

  6

  7

 40
1.0
 41
0.12
 42
0.05
 43
0.5
 44
0.1
 45
0.0
 46
0.0
 47
0.1
 48
0.1
140
0.12
141
0.0
142
0.0
143
25.399999999999999
144
1.0
145
0.0
146
0.71
147
0.06
 71
     0
 72
     0
 73
     1
 74
     1
 75
     0
 76
     0
 77
     0
 78
     7
170
     0
171
     2
172
     0
173
     0
174
     0
175
     0
176
   256
177
   256
178
     2
  0
DIMSTYLE
  2
AM_ANSI$3
 70
     0
  3

  4
mm
  5

  6

  7

 40
1.0
 41
0.12
 42
0.05
 43
0.5
 44
0.1
 45
0.0
 46
0.0
 47
0.1
 48
0.1
140
0.12
141
0.0
142
0.0
143
25.399999999999999
144
1.0
145
0.0
146
0.71
147
0.06
 71
     0
 72
     0
 73
     1
 74
     1
 75
     0
 76
     0
 77
     0
 78
     7
170
     0
171
     2
172
     0
173
     0
174
     0
175
     0
176
   256
177
   256
178
     2
  0
DIMSTYLE
  2
AM_ANSI$4
 70
     0
  3

  4
mm
  5

  6

  7

 40
1.0
 41
0.12
 42
0.05
 43
0.5
 44
0.1
 45
0.0
 46
0.0
 47
0.1
 48
0.1
140
0.12
141
0.0
142
0.0
143
25.399999999999999
144
1.0
145
0.0
146
0.71
147
0.06
 71
     0
 72
     0
 73
     1
 74
     1
 75
     0
 76
     0
 77
     0
 78
     7
170
     0
171
     2
172
     0
173
     0
174
     0
175
     0
176
   256
177
   256
178
     2
  0
DIMSTYLE
  2
AM_ANSI$7
 70
     0
  3

  4
mm
  5

  6

  7

 40
1.0
 41
0.12
 42
0.05
 43
0.5
 44
0.1
 45
0.0
 46
0.0
 47
0.1
 48
0.1
140
0.12
141
0.0
142
0.0
143
25.399999999999999
144
1.0
145
0.0
146
0.71
147
0.06
 71
     0
 72
     0
 73
     1
 74
     1
 75
     0
 76
     0
 77
     0
 78
     7
170
     0
171
     2
172
     0
173
     0
174
     0
175
     0
176
   256
177
   256
178
     2
  0
DIMSTYLE
  2
AM_ANSI$SF
 70
     0
  3

  4
mm
  5

  6

  7

 40
1.0
 41
0.12
 42
0.05
 43
0.5
 44
0.1
 45
0.0
 46
0.0
 47
0.1
 48
0.1
140
0.12
141
0.0
142
0.0
143
25.399999999999999
144
1.0
145
0.0
146
0.71
147
0.06
 71
     0
 72
     0
 73
     1
 74
     1
 75
     1
 76
     1
 77
     0
 78
     7
170
     0
171
     2
172
     0
173
     0
174
     0
175
     0
176
   256
177
   256
178
     2
  0
DIMSTYLE
  2
AM_ANSI$SH
 70
     0
  3

  4
mm
  5

  6

  7

 40
1.0
 41
0.12
 42
0.05
 43
0.5
 44
0.1
 45
0.0
 46
0.0
 47
0.1
 48
0.1
140
0.12
141
0.0
142
0.0
143
25.399999999999999
144
1.0
145
0.0
146
0.71
147
0.06
 71
     0
 72
     0
 73
     1
 74
     1
 75
     1
 76
     1
 77
     0
 78
     7
170
     0
171
     2
172
     0
173
     1
174
     0
175
     0
176
   256
177
   256
178
     2
  0
ENDTAB
  0
ENDSEC
  0
SECTION
  2
BLOCKS
  0
BLOCK
  8
0
  2
$MODEL_SPACE
 70
     0
 10
0.0
 20
0.0
 30
0.0
  3
$MODEL_SPACE
  1

  0
ENDBLK
  5
5183
  8
0
  0
BLOCK
 67
     1
  8
0
  2
$PAPER_SPACE
 70
     0
 10
0.0
 20
0.0
 30
0.0
  3
$PAPER_SPACE
  1

  0
ENDBLK
  5
517F
 67
     1
  8
0
  0
BLOCK
  8
0
  2
_OPEN
 70
     0
 10
0.0
 20
0.0
 30
0.0
  3
_OPEN
  1

  0
LINE
  5
3E1A
  8
0
  6
BYBLOCK
 62
     0
 10
-1.0
 20
0.1666666666666666
 30
0.0
 11
0.0
 21
0.0
 31
0.0
  0
LINE
  5
3E1B
  8
0
  6
BYBLOCK
 62
     0
 10
-1.0
 20
-0.1666666666666666
 30
0.0
 11
0.0
 21
0.0
 31
0.0
  0
LINE
  5
3E1C
  8
0
  6
BYBLOCK
 62
     0
 10
0.0
 20
0.0
 30
0.0
 11
-1.0
 21
0.0
 31
0.0
  0
ENDBLK
  5
3E1D
  8
0
  0
BLOCK
  8
0
  2
_ACMFILLEDHALF
 70
     0
 10
0.0
 20
0.0
 30
0.0
  3
_ACMFILLEDHALF
  1

  0
TRACE
  5
502E
  8
240
 62
     0
 10
-0.8
 20
0.0
 30
0.0
 11
-1.0
 21
0.166666666
 31
0.0
 12
0.0
 22
0.0
 32
0.0
 13
0.0
 23
0.0
 33
0.0
  0
LINE
  5
502F
  8
240
 62
     0
 10
-1.0
 20
0.0
 30
0.0
 11
-0.8
 21
0.0
 31
0.0
  0
ENDBLK
  5
502D
  8
0
  0
ENDSEC
  0
SECTION
  2
ENTITIES
  0
LINE
  5
4787
  8
243
  6
HIDDEN2
 10
-28.44999999999995
 20
-13.5
 30
0.0
 11
-29.44999999999995
 21
-12.5
 31
0.0
  0
LINE
  5
4788
  8
243
  6
HIDDEN2
 10
-29.44999999999995
 20
-12.5
 30
0.0
 11
-29.44999999999995
 21
12.5
 31
0.0
  0
LINE
  5
4789
  8
243
  6
HIDDEN2
 10
-29.44999999999995
 20
12.5
 30
0.0
 11
-28.44999999999995
 21
13.5
 31
0.0
  0
LINE
  5
478A
  8
243
  6
HIDDEN2
 10
-28.44999999999995
 20
13.5
 30
0.0
 11
-13.44999999999996
 21
13.5
 31
0.0
  0
LINE
  5
478B
  8
243
  6
HIDDEN2
 10
-13.44999999999996
 20
-13.5
 30
0.0
 11
-13.44999999999996
 21
-8.5
 31
0.0
  0
LINE
  5
478C
  8
243
  6
HIDDEN2
 10
-28.44999999999995
 20
-13.5
 30
0.0
 11
-13.44999999999996
 21
-13.5
 31
0.0
  0
LINE
  5
478D
  8
240
  6
CONTINUOUS
 10
56.050000000000068
 20
10.0
 30
0.0
 11
57.550000000000061
 21
8.5
 31
0.0
  0
LINE
  5
478E
  8
240
  6
CONTINUOUS
 10
57.550000000000061
 20
-8.5
 30
0.0
 11
57.550000000000061
 21
8.5
 31
0.0
  0
LINE
  5
478F
  8
240
  6
CONTINUOUS
 10
57.550000000000061
 20
-8.5
 30
0.0
 11
56.050000000000068
 21
-10.0
 31
0.0
  0
LINE
  5
4790
  8
240
  6
CONTINUOUS
 10
50.800000000000011
 20
10.0
 30
0.0
 11
56.050000000000068
 21
10.0
 31
0.0
  0
LINE
  5
4791
  8
243
  6
HIDDEN2
 10
17.550000000000072
 20
8.5
 30
0.0
 11
19.050000000000061
 21
10.0
 31
0.0
  0
LINE
  5
4792
  8
243
  6
HIDDEN2
 10
-13.44999999999996
 20
8.5
 30
0.0
 11
17.550000000000072
 21
8.5
 31
0.0
  0
LINE
  5
4793
  8
243
  6
HIDDEN2
 10
-13.44999999999996
 20
-8.5
 30
0.0
 11
17.550000000000072
 21
-8.5
 31
0.0
  0
LINE
  5
4794
  8
243
  6
HIDDEN2
 10
19.050000000000061
 20
-10.0
 30
0.0
 11
17.550000000000072
 21
-8.5
 31
0.0
  0
LINE
  5
4795
  8
243
  6
HIDDEN2
 10
19.050000000000061
 20
-10.0
 30
0.0
 11
50.800000000000011
 21
-10.0
 31
0.0
  0
LINE
  5
4796
  8
241
  6
CONTINUOUS
 10
56.050000000000068
 20
-10.0
 30
0.0
 11
56.050000000000068
 21
10.0
 31
0.0
  0
LINE
  5
4797
  8
242
  6
CONTINUOUS
 10
50.800000000000011
 20
9.0
 30
0.0
 11
57.050000000000068
 21
9.0
 31
0.0
  0
LINE
  5
4798
  8
244
  6
HIDDEN2
 10
18.050000000000061
 20
-9.0
 30
0.0
 11
50.800000000000011
 21
-9.0
 31
0.0
  0
LINE
  5
4799
  8
243
  6
HIDDEN2
 10
-13.44999999999996
 20
8.5
 30
0.0
 11
-13.44999999999996
 21
13.5
 31
0.0
  0
LINE
  5
479B
  8
243
  6
HIDDEN2
 10
12.80000000000005
 20
-19.7249230954402
 30
0.0
 11
50.800000000000011
 21
-20.6750065918194
 31
0.0
1001
GRPNAME
1000
PASTMD30
  0
LINE
  5
479C
  8
243
  6
HIDDEN2
 10
12.80000000000005
 20
22.524923095440219
 30
0.0
 11
50.800000000000011
 21
23.475006591819412
 31
0.0
1001
GRPNAME
1000
PASTMD30
  0
LINE
  5
479D
  8
240
  6
CONTINUOUS
 10
50.800000000000011
 20
-10.0
 30
0.0
 11
56.050000000000068
 21
-10.0
 31
0.0
  0
LINE
  5
479E
  8
243
  6
HIDDEN2
 10
19.050000000000061
 20
10.0
 30
0.0
 11
50.800000000000011
 21
10.0
 31
0.0
  0
LINE
  5
479F
  8
242
  6
CONTINUOUS
 10
50.800000000000011
 20
-9.0
 30
0.0
 11
57.050000000000068
 21
-9.0
 31
0.0
  0
LINE
  5
47A0
  8
244
  6
HIDDEN2
 10
18.050000000000061
 20
9.0
 30
0.0
 11
50.800000000000011
 21
9.0
 31
0.0
  0
LINE
  5
47A1
  8
241
  6
CONTINUOUS
 10
50.800000000000011
 20
-10.0
 30
0.0
 11
50.800000000000011
 21
10.0
 31
0.0
  0
TEXT
  5
47A3
  8
241
  6
CONTINUOUS
 10
-104.1999999999999
 20
77.0
 30
0.0
 40
5.0
  1
BCV50Y-C6-2
  7
YOKO
 11
-104.1999999999999
 21
77.0
 31
0.0
 73
     1
  0
LINE
  5
47A4
  8
243
  6
HIDDEN2
 10
-18.449999999999921
 20
4.0
 30
0.0
 11
57.050000000000047
 21
4.0
 31
0.0
  0
LINE
  5
47A6
  8
243
  6
HIDDEN2
 10
-29.44999999999995
 20
4.041451884327329
 30
0.0
 11
-18.449999999999921
 21
4.041451884327329
 31
0.0
  0
LINE
  5
47A7
  8
243
  6
HIDDEN2
 10
-29.44999999999995
 20
8.0829037686547451
 30
0.0
 11
-18.449999999999921
 21
8.0829037686547451
 31
0.0
  0
LINE
  5
47A8
  8
243
  6
HIDDEN2
 10
-18.449999999999921
 20
-4.0
 30
0.0
 11
57.050000000000047
 21
-4.0
 31
0.0
  0
LINE
  5
47AB
  8
243
  6
HIDDEN2
 10
-18.449999999999921
 20
8.0829037686547451
 30
0.0
 11
-18.449999999999921
 21
-8.0829037686547451
 31
0.0
  0
LINE
  5
47AC
  8
243
  6
HIDDEN2
 10
-29.44999999999995
 20
-4.041451884327329
 30
0.0
 11
-18.449999999999921
 21
-4.041451884327329
 31
0.0
  0
LINE
  5
47AD
  8
243
  6
HIDDEN2
 10
-29.44999999999995
 20
-8.0829037686547451
 30
0.0
 11
-18.449999999999921
 21
-8.0829037686547451
 31
0.0
  0
ARC
  5
4CB6
  8
240
  6
CONTINUOUS
 10
20.050000000000011
 20
35.925000000000068
 30
0.0
 40
1.0
 50
179.99999999228109
 51
269.99999999228282
1001
GRPNAME
1000
PASTMD0L
  0
LINE
  5
4CB7
  8
240
  6
CONTINUOUS
 10
50.800000000000011
 20
-10.0
 30
0.0
 11
50.800000000000011
 21
-31.5
 31
0.0
  0
LINE
  5
4CB8
  8
240
  6
CONTINUOUS
 10
20.050000000000011
 20
-34.925000000000011
 30
0.0
 11
35.000000000000149
 21
-34.925000000000011
 31
0.0
1001
GRPNAME
1000
PASTMD0L
  0
ARC
  5
4CB9
  8
240
  6
CONTINUOUS
 10
20.050000000000011
 20
-35.925000000000011
 30
0.0
 40
1.0
 50
89.999999997427068
 51
179.99999999742701
1001
GRPNAME
1000
PASTMD0L
  0
LINE
  5
4CBA
  8
240
  6
CONTINUOUS
 10
36.00000000000005
 20
-31.50000000000006
 30
0.0
 11
50.800000000000011
 21
-31.5
 31
0.0
  0
LINE
  5
4CBB
  8
240
  6
CONTINUOUS
 10
35.000000000000149
 20
-34.925000000000011
 30
0.0
 11
35.000000000000071
 21
-32.500000000000092
 31
0.0
  0
LINE
  5
4CBC
  8
240
  6
CONTINUOUS
 10
20.050000000000011
 20
34.925000000000068
 30
0.0
 11
35.000000000000149
 21
34.924999999999891
 31
0.0
1001
GRPNAME
1000
PASTMD0L
  0
LINE
  5
4CBD
  8
240
  6
CONTINUOUS
 10
36.000000000000071
 20
31.5
 30
0.0
 11
50.800000000000011
 21
31.5
 31
0.0
  0
LINE
  5
4CBE
  8
240
  6
CONTINUOUS
 10
35.000000000000149
 20
34.924999999999891
 30
0.0
 11
35.000000000000071
 21
32.500000000000028
 31
0.0
  0
LINE
  5
4CBF
  8
240
  6
CONTINUOUS
 10
50.799999999999997
 20
9.9999999999999982
 30
0.0
 11
50.800000000000011
 21
31.5
 31
0.0
  0
LINE
  5
4D01
  8
241
  6
CONTINUOUS
 10
1.499999999999998
 20
-34.910857157146502
 30
0.0
 11
1.499999999999998
 21
34.910857157146438
 31
0.0
1001
GRPNAME
1000
PASTMD09
  0
LINE
  5
4D02
  8
241
  6
CONTINUOUS
 10
14.64499999999998
 20
-49.21250000000007
 30
0.0
 11
14.64499999999998
 21
49.212500000000041
 31
0.0
1001
GRPNAME
1000
PASTMD09
  0
LINE
  5
4D03
  8
241
  6
CONTINUOUS
 10
13.040000000000081
 20
45.644999999999918
 30
0.0
 11
13.040000000000081
 21
-45.64500000000001
 31
0.0
1001
GRPNAME
1000
PASTMD09
  0
LINE
  5
4D04
  8
241
  6
CONTINUOUS
 10
9.1999999999999336
 20
45.644999999999918
 30
0.0
 11
9.1999999999999336
 21
-45.64500000000001
 31
0.0
1001
GRPNAME
1000
PASTMD09
  0
LINE
  5
4D05
  8
241
  6
CONTINUOUS
 10
7.5950000000000273
 20
-49.21250000000007
 30
0.0
 11
7.5950000000000273
 21
49.212500000000041
 31
0.0
1001
GRPNAME
1000
PASTMD09
  0
LINE
  5
4D06
  8
241
  6
CONTINUOUS
 10
-0.0000000000000004
 20
-34.92500000000004
 30
0.0
 11
-0.0000000000000004
 21
34.925000000000011
 31
0.0
1001
GRPNAME
1000
PASTMD09
  0
LINE
  5
4D07
  8
241
  6
CONTINUOUS
 10
19.050000000000079
 20
35.925000000000068
 30
0.0
 11
19.050000000000011
 21
-35.924999999955091
 31
0.0
1001
GRPNAME
1000
PASTMD09
  0
LINE
  5
4D08
  8
240
  6
CONTINUOUS
 10
1.499999999999998
 20
49.21249999999992
 30
0.0
 11
1.499999999999998
 21
34.924999999999962
 31
0.0
1001
GRPNAME
1000
PASTMD09
  0
LINE
  5
4D09
  8
240
  6
CONTINUOUS
 10
1.499999999999998
 20
-49.21250000000007
 30
0.0
 11
1.499999999999998
 21
-34.92500000000004
 31
0.0
1001
GRPNAME
1000
PASTMD09
  0
LINE
  5
4D0A
  8
240
  6
CONTINUOUS
 10
1.499999999999998
 20
-49.21250000000007
 30
0.0
 11
7.5950000000000273
 21
-49.212499999999999
 31
0.0
1001
GRPNAME
1000
PASTMD09
  0
LINE
  5
4D0B
  8
240
  6
CONTINUOUS
 10
1.499999999999998
 20
49.21249999999992
 30
0.0
 11
7.5950000000000273
 21
49.212500000000041
 31
0.0
1001
GRPNAME
1000
PASTMD09
  0
LINE
  5
4D0C
  8
240
  6
CONTINUOUS
 10
13.03999999999996
 20
45.644999999999918
 30
0.0
 11
13.03999999999996
 21
46.432558453851861
 31
0.0
1001
GRPNAME
1000
PASTMD09
  0
LINE
  5
4D0D
  8
240
  6
CONTINUOUS
 10
9.1999999999999336
 20
46.432558453851968
 30
0.0
 11
9.1999999999999336
 21
45.644999999999918
 31
0.0
1001
GRPNAME
1000
PASTMD09
  0
LINE
  5
4D0E
  8
240
  6
CONTINUOUS
 10
7.5950000000000273
 20
49.212500000000041
 30
0.0
 11
9.1999999999999336
 21
46.432558453851968
 31
0.0
1001
GRPNAME
1000
PASTMD09
  0
LINE
  5
4D0F
  8
240
  6
CONTINUOUS
 10
13.03999999999996
 20
46.432558453851861
 30
0.0
 11
14.64499999999998
 21
49.21249999999992
 31
0.0
1001
GRPNAME
1000
PASTMD09
  0
LINE
  5
4D10
  8
240
  6
CONTINUOUS
 10
13.040000000000081
 20
-46.432558453852067
 30
0.0
 11
14.64499999999998
 21
-49.212499999999999
 31
0.0
1001
GRPNAME
1000
PASTMD09
  0
LINE
  5
4D11
  8
240
  6
CONTINUOUS
 10
7.5950000000000273
 20
-49.212499999999999
 30
0.0
 11
9.1999999999999336
 21
-46.432558453852067
 31
0.0
1001
GRPNAME
1000
PASTMD09
  0
LINE
  5
4D12
  8
240
  6
CONTINUOUS
 10
9.1999999999999336
 20
-45.64500000000001
 30
0.0
 11
13.040000000000081
 21
-45.64500000000001
 31
0.0
1001
GRPNAME
1000
PASTMD09
  0
LINE
  5
4D13
  8
240
  6
CONTINUOUS
 10
9.1999999999999336
 20
45.644999999999918
 30
0.0
 11
13.03999999999996
 21
45.644999999999918
 31
0.0
1001
GRPNAME
1000
PASTMD09
  0
LINE
  5
4D14
  8
240
  6
CONTINUOUS
 10
19.050000000000072
 20
-49.21250000000007
 30
0.0
 11
14.64499999999998
 21
-49.212499999999999
 31
0.0
1001
GRPNAME
1000
PASTMD09
  0
LINE
  5
4D15
  8
240
  6
CONTINUOUS
 10
19.050000000000072
 20
49.21249999999992
 30
0.0
 11
14.64499999999998
 21
49.21249999999992
 31
0.0
1001
GRPNAME
1000
PASTMD09
  0
LINE
  5
4D16
  8
240
  6
CONTINUOUS
 10
19.050000000000072
 20
49.21249999999992
 30
0.0
 11
19.050000000000079
 21
35.925000000000068
 31
0.0
1001
GRPNAME
1000
PASTMD09
  0
LINE
  5
4D17
  8
240
  6
CONTINUOUS
 10
19.050000000000072
 20
-35.925000000000011
 30
0.0
 11
19.050000000000072
 21
-49.21250000000007
 31
0.0
1001
GRPNAME
1000
PASTMD09
  0
LINE
  5
4D18
  8
240
  6
CONTINUOUS
 10
9.1999999999999336
 20
-45.64500000000001
 30
0.0
 11
9.1999999999999336
 21
-46.432558453852067
 31
0.0
1001
GRPNAME
1000
PASTMD09
  0
LINE
  5
4D19
  8
240
  6
CONTINUOUS
 10
13.040000000000081
 20
-45.64500000000001
 30
0.0
 11
13.040000000000081
 21
-46.432558453852067
 31
0.0
1001
GRPNAME
1000
PASTMD09
  0
LINE
  5
4D1A
  8
240
  6
CONTINUOUS
 10
-101.59999999999999
 20
20.108333333333231
 30
0.0
 11
-0.0000000000000004
 21
34.924999999999898
 31
0.0
1001
GRPNAME
1000
PASTMD09
  0
LINE
  5
4D1B
  8
240
  6
CONTINUOUS
 10
-101.59999999999999
 20
20.108333333333292
 30
0.0
 11
-101.59999999999999
 21
-20.10833333333338
 31
0.0
1001
GRPNAME
1000
PASTMD09
  0
LINE
  5
4D1C
  8
240
  6
CONTINUOUS
 10
-101.59999999999999
 20
-20.10833333333338
 30
0.0
 11
-0.0000000000000004
 21
-34.92500000000004
 31
0.0
1001
GRPNAME
1000
PASTMD09
  0
LINE
  5
4D1D
  8
240
  6
CONTINUOUS
 10
-0.0000000000000004
 20
34.925000000000011
 30
0.0
 11
1.499999999999998
 21
34.924999999999962
 31
0.0
  0
LINE
  5
4D1E
  8
240
  6
CONTINUOUS
 10
-0.0000000000000004
 20
-34.92500000000004
 30
0.0
 11
1.499999999999998
 21
-34.92500000000004
 31
0.0
  0
TEXT
  5
4D1F
  8
250
  6
CONTINUOUS
 10
-72.79455199226706
 20
-37.357738943014681
 30
0.0
 40
2.799999999999998
  1
BCV50
  7
YOKO
1001
ITEMNAME
1000
LNSP3
  0
LINE
  5
4D20
  8
250
  6
CONTINUOUS
 10
-57.061218658933761
 20
-38.357738943014681
 30
0.0
 11
-75.06121865893374
 21
-38.357738943014681
 31
0.0
1001
ITEMNAME
1000
LNSP2
  0
LINE
  5
4D21
  8
250
  6
CONTINUOUS
 10
-52.08890497452029
 20
-29.081861563025338
 30
0.0
 11
-50.799999998933743
 21
-27.516666663014689
 31
0.0
  0
LINE
  5
4D22
  8
250
  6
CONTINUOUS
 10
-51.511603656917551
 20
-29.4152796686204
 30
0.0
 11
-50.799999998933743
 21
-27.516666663014689
 31
0.0
  0
LINE
  5
4D23
  8
250
  6
CONTINUOUS
 10
-50.799999998933743
 20
-27.516666663014689
 30
0.0
 11
-51.800254315718881
 21
-29.248570615822871
 31
0.0
  0
LINE
  5
4D24
  8
250
  6
CONTINUOUS
 10
-51.800254315718881
 20
-29.248570615822871
 30
0.0
 11
-57.061218658933761
 21
-38.357738943014681
 31
0.0
1001
ACAD
1000
DSTYLE
1002
{
1070
     6
1000
OPEN
1070
    41
1040
2.0
1070
    42
1040
2.0
1070
    44
1040
2.0
1070
   140
1040
4.0
1070
   343
1005
0
1002
}
  0
LINE
  5
4D25
  8
247
  6
CONTINUOUS
 10
5.4999999999999432
 20
-26.75
 30
0.0
 11
5.5
 21
-22.115384615670049
 31
0.0
  0
LINE
  5
4D26
  8
247
  6
CONTINUOUS
 10
2.9999999999999991
 20
-25.954893499987978
 30
0.0
 11
5.0999999999160082
 21
-26.557058810057359
 31
0.0
  0
LINE
  5
4D27
  8
247
  6
CONTINUOUS
 10
3.996153846113998
 20
-25.32515140351904
 30
0.0
 11
3.996153846113998
 21
-26.24053601886704
 31
0.0
  0
ARC
  5
4D28
  8
247
  6
CONTINUOUS
 10
3.3847190672940961
 20
-25.08726340194681
 30
0.0
 40
0.3876715809326743
 50
72.9978896752922
 51
172.92416621851359
  0
ARC
  5
4D29
  8
247
  6
CONTINUOUS
 10
3.3052231310280109
 20
-25.38247755680413
 30
0.0
 40
0.693304796535877
 50
4.7429368522022122
 51
73.849226273266751
1001
GENIUS_GENOBJ-N-FIL_13
1002
{
1000
OWNER
1000
GEN
1002
}
1001
GENIUS_GENODEF_13
1002
{
1000
HIER
1070
     0
1002
}
1002
{
1000
MANEDIT
1070
     0
1002
}
1002
{
1000
NOSEL
1070
     0
1002
}
1002
{
1000
BEHIND
1070
     0
1002
}
1002
{
1000
OTHER
1070
     0
1002
}
1002
{
1000
REACTOR
1002
}
  0
LINE
  5
4D2A
  8
247
  6
CONTINUOUS
 10
5.0999999999160082
 20
-25.64167419470937
 30
0.0
 11
5.0999999999160082
 21
-26.557058810057359
 31
0.0
  0
LINE
  5
4D2B
  8
247
  6
CONTINUOUS
 10
2.9999999999999991
 20
-25.954893499987978
 30
0.0
 11
2.9999999999999991
 21
-25.039508884639989
 31
0.0
  0
ARC
  5
4D2C
  8
247
  6
CONTINUOUS
 10
4.3874169627678707
 20
-25.378306476266861
 30
0.0
 40
0.394857301075386
 50
65.990941652528889
 51
172.26344345906909
  0
ARC
  5
4D2D
  8
247
  6
CONTINUOUS
 10
4.3912003273325659
 20
-25.71244661042693
 30
0.0
 40
0.7123241612361686
 50
5.701985164259705
 51
77.277338436822006
1001
GENIUS_GENOBJ-N-FIL_13
1002
{
1000
OWNER
1000
GEN
1002
}
1001
GENIUS_GENODEF_13
1002
{
1000
HIER
1070
     0
1002
}
1002
{
1000
MANEDIT
1070
     0
1002
}
1002
{
1000
NOSEL
1070
     0
1002
}
1002
{
1000
BEHIND
1070
     0
1002
}
1002
{
1000
OTHER
1070
     0
1002
}
1002
{
1000
REACTOR
1002
}
  0
LINE
  5
4D2E
  8
247
  6
CONTINUOUS
 10
5.0999999999160082
 20
-24.6839818870634
 30
0.0
 11
2.9999999999999991
 21
-24.081816576994012
 31
0.0
  0
LINE
  5
4D2F
  8
247
  6
CONTINUOUS
 10
2.9999999999999991
 20
-22.58566273090798
 30
0.0
 11
2.9999999999999991
 21
-22.981678364303601
 31
0.0
  0
LINE
  5
4D30
  8
247
  6
CONTINUOUS
 10
5.0999999999160082
 20
-23.608739653943982
 30
0.0
 11
5.0999999999160082
 21
-23.17797042319199
 31
0.0
  0
ARC
  5
4D31
  8
247
  6
CONTINUOUS
 10
4.458299595083357
 20
-22.381816577069969
 30
0.0
 40
1.576855057639547
 50
202.35948814152911
 51
254.99324854284649
  0
ARC
  5
4D32
  8
247
  6
CONTINUOUS
 10
3.5658188585381341
 20
-22.847511366133229
 30
0.0
 40
0.6234706797009447
 50
94.994589319075317
 51
155.1663289573039
1001
GENIUS_GENOBJ-N-FIL_13
1002
{
1000
OWNER
1000
GEN
1002
}
1001
GENIUS_GENODEF_13
1002
{
1000
HIER
1070
     0
1002
}
1002
{
1000
MANEDIT
1070
     0
1002
}
1002
{
1000
NOSEL
1070
     0
1002
}
1002
{
1000
BEHIND
1070
     0
1002
}
1002
{
1000
OTHER
1070
     0
1002
}
1002
{
1000
REACTOR
1002
}
  0
ARC
  5
4D33
  8
247
  6
CONTINUOUS
 10
4.1621021219694381
 20
-23.444183951032809
 30
0.0
 40
0.9749472149106983
 50
15.8460965557808
 51
82.325137004169278
  0
ARC
  5
4D34
  8
247
  6
CONTINUOUS
 10
4.3714704019710631
 20
-23.035211638772239
 30
0.0
 40
0.9271945638692009
 50
249.7136016704969
 51
321.78874565641053
1001
GENIUS_GENOBJ-N-FIL_13
1002
{
1000
OWNER
1000
GEN
1002
}
1001
GENIUS_GENODEF_13
1002
{
1000
HIER
1070
     0
1002
}
1002
{
1000
MANEDIT
1070
     0
1002
}
1002
{
1000
NOSEL
1070
     0
1002
}
1002
{
1000
BEHIND
1070
     0
1002
}
1002
{
1000
OTHER
1070
     0
1002
}
1002
{
1000
REACTOR
1002
}
  0
LINE
  5
4D35
  8
247
  6
CONTINUOUS
 10
4.2923076922559744
 20
-22.962585807815959
 30
0.0
 11
4.2923076922559744
 21
-22.477970423219968
 31
0.0
  0
ARC
  5
4D36
  8
247
  6
CONTINUOUS
 10
4.25
 20
-26.75
 30
0.0
 40
1.25
 50
180.0
 51
0.0
  0
LINE
  5
4D37
  8
247
  6
CONTINUOUS
 10
2.9999999999999991
 20
-26.75
 30
0.0
 11
2.9999999999999991
 21
-26.303846153914041
 31
0.0
  0
ARC
  5
4D38
  8
247
  6
CONTINUOUS
 10
4.25
 20
-22.115384615670049
 30
0.0
 40
1.25
 50
0.0
 51
180.0
  0
LINE
  5
4D3F
  8
245
  6
CENTER2
 10
-105.33411709504961
 20
-0.0000000000000568
 30
0.0
 11
59.120307816521397
 21
0.0000000000000568
 31
0.0
1001
GRPNAME
1000
PASTMD09
  0
ARC
  5
4D40
  8
240
  6
CONTINUOUS
 10
36.000000000000071
 20
-32.500000000000071
 30
0.0
 40
1.0
 50
90.000000000000213
 51
180.00000000000199
1001
GENIUS_GENODEF_13
1002
{
1000
HIER
1070
     0
1002
}
1002
{
1000
MANEDIT
1070
     0
1002
}
1002
{
1000
NOSEL
1070
     0
1002
}
1002
{
1000
BEHIND
1070
     0
1002
}
1002
{
1000
OTHER
1070
     0
1002
}
1002
{
1000
REACTOR
1002
}
1001
GENIUS_GENOBJ-N-FIL_13
1002
{
1000
OWNER
1000
GEN
1002
}
  0
ARC
  5
4D41
  8
240
  6
CONTINUOUS
 10
36.000000000000071
 20
32.5
 30
0.0
 40
1.0
 50
179.99999999999801
 51
270.0
1001
GENIUS_GENOBJ-N-FIL_13
1002
{
1000
OWNER
1000
GEN
1002
}
1001
GENIUS_GENODEF_13
1002
{
1000
HIER
1070
     0
1002
}
1002
{
1000
MANEDIT
1070
     0
1002
}
1002
{
1000
NOSEL
1070
     0
1002
}
1002
{
1000
BEHIND
1070
     0
1002
}
1002
{
1000
OTHER
1070
     0
1002
}
1002
{
1000
REACTOR
1002
}
  0
LINE
  5
4D48
  8
241
  6
CONTINUOUS
 10
35.00000000000005
 20
-32.500000000000092
 30
0.0
 11
35.000000000000071
 21
32.500000000000028
 31
0.0
  0
LINE
  5
4DC2
  8
250
  6
CONTINUOUS
 10
-0.0000000000000004
 20
35.425000000000011
 30
0.0
 11
0.0000000000000014
 21
64.0
 31
0.0
  0
LINE
  5
4DC3
  8
250
  6
CONTINUOUS
 10
50.800000000000011
 20
32.0
 30
0.0
 11
50.800000000000011
 21
64.0
 31
0.0
  0
LINE
  5
4DC4
  8
250
  6
CONTINUOUS
 10
2.2299999999999991
 20
63.0
 30
0.0
 11
48.570000000000007
 21
63.0
 31
0.0
  0
LINE
  5
4DC8
  8
250
  6
CONTINUOUS
 10
51.300000000000011
 20
31.5
 30
0.0
 11
71.0
 21
31.5
 31
0.0
  0
LINE
  5
4DC9
  8
250
  6
CONTINUOUS
 10
51.300000000000011
 20
-31.5
 30
0.0
 11
71.0
 21
-31.5
 31
0.0
  0
LINE
  5
4DCA
  8
250
  6
CONTINUOUS
 10
70.0
 20
29.269999999999989
 30
0.0
 11
70.0
 21
-29.27000000000001
 31
0.0
  0
TEXT
  5
4DCE
  8
250
  6
CONTINUOUS
 10
24.066666666666681
 20
64.000000000000014
 30
0.0
 40
2.799999999999998
  1
2.00
  0
LINE
  5
4DCF
  8
250
  6
CONTINUOUS
 10
48.570000000000007
 20
63.37166666666667
 30
0.0
 11
50.800000000000011
 21
63.0
 31
0.0
  0
LINE
  5
4DD0
  8
250
  6
CONTINUOUS
 10
48.570000000000007
 20
62.62833333333333
 30
0.0
 11
50.800000000000011
 21
63.0
 31
0.0
  0
LINE
  5
4DD1
  8
250
  6
CONTINUOUS
 10
50.800000000000011
 20
63.0
 30
0.0
 11
48.570000000000007
 21
63.0
 31
0.0
  0
LINE
  5
4DD2
  8
250
  6
CONTINUOUS
 10
2.2299999999999991
 20
62.62833333333333
 30
0.0
 11
0.0000000000000013
 21
63.0
 31
0.0
  0
LINE
  5
4DD3
  8
250
  6
CONTINUOUS
 10
2.2299999999999991
 20
63.37166666666667
 30
0.0
 11
0.0000000000000013
 21
63.0
 31
0.0
  0
LINE
  5
4DD4
  8
250
  6
CONTINUOUS
 10
0.0000000000000013
 20
63.0
 30
0.0
 11
2.2299999999999991
 21
63.0
 31
0.0
  0
TEXT
  5
4DD5
  8
250
  6
CONTINUOUS
 10
68.999999999999986
 20
-5.933333333333322
 30
0.0
 40
2.799999999999998
  1
\U+22052.480
 50
90.0
  0
LINE
  5
4DD6
  8
250
  6
CONTINUOUS
 10
70.37166666666667
 20
-29.27000000000001
 30
0.0
 11
70.0
 21
-31.5
 31
0.0
  0
LINE
  5
4DD7
  8
250
  6
CONTINUOUS
 10
69.62833333333333
 20
-29.27000000000001
 30
0.0
 11
70.0
 21
-31.5
 31
0.0
  0
LINE
  5
4DD8
  8
250
  6
CONTINUOUS
 10
70.0
 20
-31.5
 30
0.0
 11
70.0
 21
-29.27000000000001
 31
0.0
  0
LINE
  5
4DD9
  8
250
  6
CONTINUOUS
 10
69.62833333333333
 20
29.269999999999989
 30
0.0
 11
70.0
 21
31.5
 31
0.0
  0
LINE
  5
4DDA
  8
250
  6
CONTINUOUS
 10
70.37166666666667
 20
29.269999999999989
 30
0.0
 11
70.0
 21
31.5
 31
0.0
  0
LINE
  5
4DDB
  8
250
  6
CONTINUOUS
 10
70.0
 20
31.5
 30
0.0
 11
70.0
 21
29.269999999999989
 31
0.0
  0
LINE
  5
4E00
  8
243
  6
HIDDEN2
 10
1.8000000000000089
 20
-37.199999999999989
 30
0.0
 11
19.050000000000011
 21
-37.199999999999932
 31
0.0
  0
LINE
  5
4E01
  8
243
  6
HIDDEN2
 10
1.745714015968701
 20
35.29999999999967
 30
0.0
 11
19.269375250200401
 21
35.299999999999841
 31
0.0
  0
LINE
  5
5091
  8
245
  6
CENTER2
 10
90.868980147647022
 20
-12.19999999999823
 30
0.0
 11
133.13101985231799
 21
12.20000000001852
 31
0.0
1001
GRPNAME
1000
PASTMD12
  0
LINE
  5
5092
  8
245
  6
CENTER2
 10
90.868980147637487
 20
12.200000000001641
 30
0.0
 11
133.13101985232771
 21
-12.199999999981509
 31
0.0
1001
GRPNAME
1000
PASTMD12
  0
LINE
  5
5093
  8
245
  6
CENTER2
 10
78.499999999982535
 20
0.0
 30
0.0
 11
145.49999999998241
 21
0.0
 31
0.0
1001
GRPNAME
1000
PASTMD12
  0
CIRCLE
  5
5094
  8
240
  6
CONTINUOUS
 10
111.99999999998251
 20
0.0000000000101181
 30
0.0
 40
31.5
1001
GRPNAME
1000
PASTMD13
  0
LINE
  5
5095
  8
245
  6
CENTER2
 10
111.9999999999724
 20
33.500000000010132
 30
0.0
 11
111.9999999999724
 21
-33.499999999989882
 31
0.0
1001
GRPNAME
1000
PASTMD12
  0
ARC
  5
5096
  8
241
  6
CONTINUOUS
 10
121.68497202184599
 20
-5.5916212038344204
 30
0.0
 40
31.783260736238841
 50
122.5158116683013
 51
177.48418833200779
  0
ARC
  5
5097
  8
241
  6
CONTINUOUS
 10
111.9999999999723
 20
9.8076387966311511
 30
0.0
 40
13.592406514695121
 50
57.017071318645591
 51
122.98292868135439
  0
ARC
  5
5098
  8
241
  6
CONTINUOUS
 10
111.99999999988459
 20
11.183242407807761
 30
0.0
 40
31.783260736238841
 50
242.51581166830451
 51
297.48418833201112
  0
ARC
  5
5099
  8
241
  6
CONTINUOUS
 10
103.5063356509368
 20
-4.9038193983091931
 30
0.0
 40
13.592406514695121
 50
177.0170713186435
 51
242.9829286813584
  0
ARC
  5
509A
  8
241
  6
CONTINUOUS
 10
102.315027978164
 20
-5.591621203973375
 30
0.0
 40
31.783260736238841
 50
2.5158116683019101
 51
57.484188332005601
  0
ARC
  5
509B
  8
241
  6
CONTINUOUS
 10
120.4936643489856
 20
-4.9038193983220131
 30
0.0
 40
13.592406514695121
 50
297.01707131864163
 51
2.982928681353199
  0
LINE
  5
50A8
  8
250
  6
CONTINUOUS
 10
52.943641513861792
 20
41.825208028299997
 30
0.0
 11
66.434309074122311
 21
41.825208028299997
 31
0.0
1001
ITEMNAME
1000
LNSP2
  0
TEXT
  5
50A9
  8
250
  6
CONTINUOUS
 10
58.005737645550958
 20
42.825208028300011
 30
0.0
 40
3.0
  1
C6
  7
YOKO
1001
ITEMNAME
1000
LNSP3
1001
ACAD
1000
MTEXTBEGIN
1070
    73
1070
     1
1070
    44
1040
1.0
1070
    74
1070
     0
1000
MTEXTEND
  0
LINE
  5
50AA
  8
250
  6
CONTINUOUS
 10
48.097379879283928
 20
33.431236650439303
 30
0.0
 11
52.943641513861792
 21
41.825208028299997
 31
0.0
1001
ACAD
1000
DSTYLE
1002
{
1070
     5
1000
OPEN
1070
    78
1070
     8
1070
   140
1040
3.0
1002
}
  0
LINE
  5
50AB
  8
250
  6
CONTINUOUS
 10
47.775507104210732
 20
33.617069983772652
 30
0.0
 11
46.982379879283933
 21
31.500000000000011
 31
0.0
  0
LINE
  5
50AC
  8
250
  6
CONTINUOUS
 10
48.419252654357138
 20
33.245403317105982
 30
0.0
 11
46.982379879283933
 21
31.500000000000011
 31
0.0
  0
LINE
  5
50AD
  8
250
  6
CONTINUOUS
 10
46.982379879283933
 20
31.500000000000011
 30
0.0
 11
48.097379879283928
 21
33.431236650439303
 31
0.0
  0
VIEWPORT
  5
22
 67
     1
  8
0
 10
261.51769911504419
 20
148.5
 30
0.0
 40
523.0353982300885
 41
297.0
 68
     1
 69
     1
1001
ACAD
1000
MVIEW
1002
{
1070
    16
1010
0.0
1020
0.0
1030
0.0
1010
0.0
1020
0.0
1030
1.0
1040
0.0
1040
297.0
1040
261.51769911504419
1040
148.5
1040
50.0
1040
0.0
1040
0.0
1070
     0
1070
   100
1070
     1
1070
     1
1070
     0
1070
     0
1070
     0
1070
     0
1040
0.0
1040
0.0
1040
0.0
1040
1.0
1040
1.0
1040
10.0
1040
10.0
1070
     0
1002
{
1002
}
1002
}
1001
GENIUS_GENODEF_13
1002
{
1000
HIER
1070
     0
1002
}
1002
{
1000
MANEDIT
1070
     0
1002
}
1002
{
1000
NOSEL
1070
     0
1002
}
1002
{
1000
BEHIND
1070
     0
1002
}
1002
{
1000
OTHER
1070
     0
1002
}
1002
{
1000
REACTOR
1002
}
1001
GENIUS_GENOBJ-N-SDF_13
1002
{
1000
OWNER
1000
GEN
1002
}
1001
GENIUS_GENSCREG_15
1000
PF
1040
1.0
1000
DF
1040
1.0
1000
MIN
1011
0.0
1021
0.0
1031
0.0
1021
0.0
1031
0.0
1000
MAX
1011
523.0353982300885
1021
0.0
1031
0.0
1021
297.0
1031
0.0
1000
FLAGS
1070
     4
  0
ENDSEC
  0
EOF
