  0
SECTION
  2
HEADER
  9
$ACADVER
  1
AC1009
  9
$INSBASE
 10
0.0
 20
0.0
 30
0.0
  9
$EXTMIN
 10
-105.33411709504961
 20
-49.21250000000007
 30
0.0
  9
$EXTMAX
 10
117.9999999999855
 20
82.000000000000014
 30
0.0
  9
$LIMMIN
 10
0.0
 20
0.0
  9
$LIMMAX
 10
297.0
 20
210.0
  9
$ORTHOMODE
 70
     1
  9
$REGENMODE
 70
     1
  9
$FILLMODE
 70
     1
  9
$QTEXTMODE
 70
     0
  9
$MIRRTEXT
 70
     1
  9
$DRAGMODE
 70
     2
  9
$LTSCALE
 40
10.0
  9
$OSMODE
 70
    37
  9
$ATTMODE
 70
     1
  9
$TEXTSIZE
 40
3.0
  9
$TRACEWID
 40
1.0
  9
$TEXTSTYLE
  7
YOKO
  9
$CLAYER
  8
240
  9
$CELTYPE
  6
BYLAYER
  9
$CECOLOR
 62
   256
  9
$DIMSCALE
 40
1.0
  9
$DIMASZ
 40
2.2299999999999991
  9
$DIMEXO
 40
0.5
  9
$DIMDLI
 40
7.0
  9
$DIMRND
 40
0.0
  9
$DIMDLE
 40
0.0
  9
$DIMEXE
 40
1.0
  9
$DIMTP
 40
0.0
  9
$DIMTM
 40
0.01
  9
$DIMTXT
 40
2.799999999999998
  9
$DIMCEN
 40
0.0
  9
$DIMTSZ
 40
0.0
  9
$DIMTOL
 70
     0
  9
$DIMLIM
 70
     0
  9
$DIMTIH
 70
     0
  9
$DIMTOH
 70
     0
  9
$DIMSE1
 70
     0
  9
$DIMSE2
 70
     0
  9
$DIMTAD
 70
     3
  9
$DIMZIN
 70
     9
  9
$DIMBLK
  1
OPEN
  9
$DIMASO
 70
     1
  9
$DIMSHO
 70
     1
  9
$DIMPOST
  1

  9
$DIMAPOST
  1

  9
$DIMALT
 70
     0
  9
$DIMALTD
 70
     2
  9
$DIMALTF
 40
25.399999999999999
  9
$DIMLFAC
 40
1.0
  9
$DIMTOFL
 70
     1
  9
$DIMTVP
 40
0.0
  9
$DIMTIX
 70
     1
  9
$DIMSOXD
 70
     0
  9
$DIMSAH
 70
     0
  9
$DIMBLK1
  1

  9
$DIMBLK2
  1

  9
$DIMSTYLE
  2
BIGT
  9
$DIMCLRD
 70
   256
  9
$DIMCLRE
 70
   256
  9
$DIMCLRT
 70
    40
  9
$DIMTFAC
 40
1.0
  9
$DIMGAP
 40
1.0
  9
$LUNITS
 70
     2
  9
$LUPREC
 70
     6
  9
$SKETCHINC
 40
1.0
  9
$FILLETRAD
 40
0.0
  9
$AUNITS
 70
     0
  9
$AUPREC
 70
     6
  9
$MENU
  1
.
  9
$ELEVATION
 40
0.0
  9
$PELEVATION
 40
0.0
  9
$THICKNESS
 40
0.0
  9
$LIMCHECK
 70
     0
  9
$BLIPMODE
 70
     0
  9
$CHAMFERA
 40
0.2
  9
$CHAMFERB
 40
0.2
  9
$SKPOLY
 70
     0
  9
$TDCREATE
 40
2458138.7178003239
  9
$TDUPDATE
 40
2458142.7400043169
  9
$TDINDWG
 40
0.0195025
  9
$TDUSRTIMER
 40
0.0195024653
  9
$USRTIMER
 70
     1
  9
$ANGBASE
 50
0.0
  9
$ANGDIR
 70
     0
  9
$PDMODE
 70
     1
  9
$PDSIZE
 40
0.0
  9
$PLINEWID
 40
0.0
  9
$COORDS
 70
     1
  9
$SPLFRAME
 70
     0
  9
$SPLINETYPE
 70
     6
  9
$SPLINESEGS
 70
     4
  9
$ATTDIA
 70
     1
  9
$ATTREQ
 70
     1
  9
$HANDLING
 70
     1
  9
$HANDSEED
  5
5129
  9
$SURFTAB1
 70
     6
  9
$SURFTAB2
 70
     6
  9
$SURFTYPE
 70
     6
  9
$SURFU
 70
     6
  9
$SURFV
 70
     6
  9
$UCSNAME
  2

  9
$UCSORG
 10
0.0
 20
0.0
 30
0.0
  9
$UCSXDIR
 10
1.0
 20
0.0
 30
0.0
  9
$UCSYDIR
 10
0.0
 20
1.0
 30
0.0
  9
$PUCSNAME
  2

  9
$PUCSORG
 10
0.0
 20
0.0
 30
0.0
  9
$PUCSXDIR
 10
1.0
 20
0.0
 30
0.0
  9
$PUCSYDIR
 10
0.0
 20
1.0
 30
0.0
  9
$USERI1
 70
     1
  9
$USERI2
 70
     0
  9
$USERI3
 70
     0
  9
$USERI4
 70
     0
  9
$USERI5
 70
     0
  9
$USERR1
 40
0.0
  9
$USERR2
 40
0.0
  9
$USERR3
 40
0.0
  9
$USERR4
 40
0.0
  9
$USERR5
 40
0.0
  9
$WORLDVIEW
 70
     1
  9
$SHADEDGE
 70
     3
  9
$SHADEDIF
 70
    70
  9
$TILEMODE
 70
     1
  9
$MAXACTVP
 70
    16
  9
$PLIMCHECK
 70
     0
  9
$PEXTMIN
 10
1.0000000000000000E+020
 20
1.0000000000000000E+020
 30
1.0000000000000000E+020
  9
$PEXTMAX
 10
-1.0000000000000000E+020
 20
-1.0000000000000000E+020
 30
-1.0000000000000000E+020
  9
$PLIMMIN
 10
0.0
 20
0.0
  9
$PLIMMAX
 10
420.0
 20
297.0
  9
$UNITMODE
 70
     0
  9
$VISRETAIN
 70
     1
  9
$PLINEGEN
 70
     0
  9
$PSLTSCALE
 70
     1
  0
ENDSEC
  0
SECTION
  2
TABLES
  0
TABLE
  2
VPORT
 70
     1
  0
VPORT
  2
*ACTIVE
 70
     0
 10
0.0
 20
0.0
 11
1.0
 21
1.0
 12
18.28064955551946
 22
17.769918223687672
 13
0.0
 23
0.0
 14
7.0
 24
7.0
 15
7.0
 25
7.0
 16
0.0
 26
0.0
 36
1.0
 17
0.0
 27
0.0
 37
0.0
 40
199.83042594272919
 41
1.515499425947187
 42
50.0
 43
0.0
 44
0.0
 50
0.0
 51
0.0
 71
     0
 72
  2000
 73
     1
 74
     0
 75
     0
 76
     1
 77
     0
 78
     0
  0
ENDTAB
  0
TABLE
  2
LTYPE
 70
    19
  0
LTYPE
  2
CONTINUOUS
 70
     0
  3
Solid line
 72
    65
 73
     0
 40
0.0
  0
LTYPE
  2
CENTER2
 70
     0
  3
___ _ ___ _ ___ _ ___ _ ___ _ ___ _ ___ _ ___ _
 72
    65
 73
     4
 40
1.125
 49
0.75
 49
-0.125
 49
0.125
 49
-0.125
  0
LTYPE
  2
HIDDEN2
 70
     0
  3
_ _ _ _ _ _ _ _ _ _ _ _ _ _ _ _ _ _ _ _ _ _ _ _
 72
    65
 73
     2
 40
0.1875
 49
0.125
 49
-0.0625
  0
LTYPE
  2
AM_ISO02W050
 70
     0
  3
__ __ __ __ __ __ __ __ __ __ __ __ __ __ __
 72
    65
 73
     2
 40
7.5
 49
6.0
 49
-1.5
  0
LTYPE
  2
AMCONSTR
 70
     0
  3
_______________________
 72
    65
 73
     2
 40
9999.0
 49
9999.0
 49
0.0
  0
LTYPE
  2
ACISOWELD
 70
     0
  3
_ _ _ _ _
 72
    65
 73
     2
 40
2.0
 49
2.0
 49
-1.0
  0
LTYPE
  2
ACISOTGB
 70
     0
  3
__ . . __ . .
 72
    65
 73
     6
 40
9.0
 49
4.0
 49
-1.0
 49
1.0
 49
-1.0
 49
1.0
 49
-1.0
  0
LTYPE
  2
ACISOTGL
 70
     0
  3
_ _ _ _ _
 72
    65
 73
     2
 40
3.0
 49
2.0
 49
-1.0
  0
LTYPE
  2
AM_ISO08W050
 70
     0
  3
____ . ____ . ____ . ____ . ____ . ____ . ____
 72
    65
 73
     4
 40
18.0
 49
12.0
 49
-1.5
 49
3.0
 49
-1.5
  0
LTYPE
  2
AM_ISO09W050
 70
     0
  3
_____ . . _____ . . _____ . . ____ .. ____
 72
    65
 73
     6
 40
22.5
 49
12.0
 49
-1.5
 49
3.0
 49
-1.5
 49
3.0
 49
-1.5
  0
LTYPE
  2
AM_ISO08W050X2
 70
     0
  3
__ . __ . __ . __ . __ . __
 72
    65
 73
     4
 40
9.0
 49
6.0
 49
-0.75
 49
1.5
 49
-0.75
  0
LTYPE
  2
AM_ISO02W050X2
 70
     0
  3
 _ _ _ _ _ _ _ _ _ _ _ _
 72
    65
 73
     2
 40
3.75
 49
3.0
 49
-0.75
  0
LTYPE
  2
AMZIGZAG
 70
     0
  3
/\/-/\/-/\/-/\/-/\/-/\/
 72
    65
 73
     2
 40
11.0001
 49
0.0001
 49
-11.0
  0
LTYPE
  2
HIDDEN
 70
     0
  3
Hidden __ __ __ __ __ __ __ __ __ __ __ __ __ _
 72
    65
 73
     2
 40
0.375
 49
0.25
 49
-0.125
  0
LTYPE
  2
PHANTOM2
 70
     0
  3
Phantom (.5x) ___ _ _ ___ _ _ ___ _ _ ___ _ _
 72
    65
 73
     6
 40
1.25
 49
0.625
 49
-0.125
 49
0.125
 49
-0.125
 49
0.125
 49
-0.125
  0
LTYPE
  2
CENTER
 70
     0
  3
Center ____ _ ____ _ ____ _ ____ _ ____ _ ____
 72
    65
 73
     4
 40
2.0
 49
1.25
 49
-0.25
 49
0.25
 49
-0.25
  0
LTYPE
  2
AMZIGZAG2
 70
     0
  3
/\/-/\/-/\/-/\/-/\/-/\/
 72
    65
 73
     2
 40
0.4401
 49
0.0001
 49
-0.4400000000000001
  0
LTYPE
  2
ACANSTGB
 70
     0
  3
__ . . __ . .
 72
    65
 73
     6
 40
0.35433070866
 49
0.15748031496
 49
-0.03937007874
 49
0.03937007874
 49
-0.03937007874
 49
0.03937007874
 49
-0.03937007874
  0
LTYPE
  2
ACANSTGL
 70
     0
  3
_ _ _ _ _
 72
    65
 73
     2
 40
0.11811023622
 49
0.07874015748
 49
-0.03937007874
  0
ENDTAB
  0
TABLE
  2
LAYER
 70
    12
  0
LAYER
  2
0
 70
     0
 62
     7
  6
CONTINUOUS
  0
LAYER
  2
240
 70
     0
 62
     4
  6
CONTINUOUS
  0
LAYER
  2
DEFPOINTS
 70
     0
 62
     7
  6
CONTINUOUS
  0
LAYER
  2
245
 70
     0
 62
     2
  6
CENTER2
  0
LAYER
  2
241
 70
     0
 62
   211
  6
CONTINUOUS
  0
LAYER
  2
242
 70
     0
 62
     3
  6
CONTINUOUS
  0
LAYER
  2
243
 70
     0
 62
   211
  6
HIDDEN2
  0
LAYER
  2
244
 70
     0
 62
     3
  6
HIDDEN2
  0
LAYER
  2
247
 70
     0
 62
    60
  6
CONTINUOUS
  0
LAYER
  2
250
 70
     0
 62
     3
  6
CONTINUOUS
  0
ENDTAB
  0
TABLE
  2
STYLE
 70
     7
  0
STYLE
  2
STANDARD
 70
     0
 40
0.0
 41
1.0
 50
0.0
 71
     0
 42
3.0
  3
romans.shx
  4
extfont.shx
  0
STYLE
  2
YOKO
 70
     0
 40
0.0
 41
1.0
 50
0.0
 71
     0
 42
3.0
  3
romans.shx
  4
extfont.shx
  0
STYLE
  2
ACISOGDT
 70
     0
 40
0.0
 41
1.0
 50
0.0
 71
     0
 42
3.0
  3
amgdt.shx
  4
extfont.shx
  0
STYLE
  2

 70
     1
 40
0.0
 41
1.0
 50
0.0
 71
     0
 42
3.0
  3
genltshp.shx
  4

  0
STYLE
  2
ACANSGDT
 70
     0
 40
0.0
 41
1.0
 50
0.0
 71
     0
 42
3.0
  3
amgdt.shx
  4

  0
ENDTAB
  0
TABLE
  2
VIEW
 70
     0
  0
ENDTAB
  0
TABLE
  2
UCS
 70
     0
  0
ENDTAB
  0
TABLE
  2
APPID
 70
    45
  0
APPID
  2
ACAD
 70
     0
  0
APPID
  2
ACADANNOTATIVE
 70
     0
  0
APPID
  2
GLOBAL
 70
     0
  0
APPID
  2
DETAIL
 70
     0
  0
APPID
  2
GRPNAME
 70
     0
  0
APPID
  2
GPARA
 70
     0
  0
APPID
  2
MCAD_NO_VIS
 70
     0
  0
APPID
  2
ACAD_TEMP_GRAPHIC
 70
     0
  0
APPID
  2
ACATTRIBSERVICES
 70
     0
  0
APPID
  2
GENIUS_GENSCREG_15
 70
     0
  0
APPID
  2
GENIUS_GENODEF_13
 70
     0
  0
APPID
  2
GENIUS_GENOBJ-N-SDF_13
 70
     0
  0
APPID
  2
GENIUS_GENREC_14
 70
     0
  0
APPID
  2
GENIUS_GENOBJ-N-REC_13
 70
     0
  0
APPID
  2
GENIUS_GENDIMSH_14
 70
     0
  0
APPID
  2
GENIUS_GENOBJ-N-DIM_13
 70
     0
  0
APPID
  2
GENIUS_GENDIM_13
 70
     0
  0
APPID
  2
GENIUS_GENDTOL_13
 70
     0
  0
APPID
  2
GENIUS_GENOLIS_13
 70
     0
  0
APPID
  2
GENIUS_GENOENT_13
 70
     0
  0
APPID
  2
GENIUS_GENOBJ-F-FEM_13
 70
     0
  0
APPID
  2
GENIUS_GENOREF_13
 70
     0
  0
APPID
  2
GENIUS_GEFFEM_13
 70
     0
  0
APPID
  2
GENIUS_GEFFEMP_13
 70
     0
  0
APPID
  2
AD_DRAW
 70
     0
  0
APPID
  2
DESIGNERASSEMBLIES
 70
     0
  0
APPID
  2
ACADM_DIM_EDIT
 70
     0
  0
APPID
  2
AMDT_DM_ADJ
 70
     0
  0
APPID
  2
ITEMNAME
 70
     0
  0
APPID
  2
GENIUS_GENOBJ-N-FIL_13
 70
     0
  0
APPID
  2
GENIUS_GENFIL_13
 70
     0
  0
APPID
  2
GENIUS_GENOBJ-N-CHA_13
 70
     0
  0
APPID
  2
ACAECLAYERSTANDARD
 70
     0
  0
APPID
  2
ACAD_NAV_VCDISPLAY
 70
     0
  0
APPID
  2
ACAD_DSTYLE_DIMJAG
 70
     0
  0
APPID
  2
ACAD_DSTYLE_DIMBREAK
 70
     0
  0
APPID
  2
ACAD_PSEXT
 70
     0
  0
APPID
  2
ACAD_DSTYLE_DIMINSPECT
 70
     0
  0
APPID
  2
ACAD_EXEMPT_FROM_CAD_STANDARDS
 70
     0
  0
APPID
  2
ACAD_MLEADERVER
 70
     0
  0
APPID
  2
ACAD_DSTYLE_DIMARC_LENGTH_
 70
     0
  0
APPID
  2
ACAD_DSTYLE_DIM_LINETYPE
 70
     0
  0
APPID
  2
ACAD_DSTYLE_DIM_EXT1_LINETYPE
 70
     0
  0
APPID
  2
ACAD_DSTYLE_DIM_EXT2_LINETYPE
 70
     0
  0
APPID
  2
ACAD_DSTYLE_DIMTALN
 70
     0
  0
ENDTAB
  0
TABLE
  2
DIMSTYLE
 70
    19
  0
DIMSTYLE
  2
STANDARD
 70
     0
  3

  4

  5

  6

  7

 40
1.0
 41
0.18
 42
0.0625
 43
0.38
 44
0.18
 45
0.0
 46
0.0
 47
0.0
 48
0.0
140
0.18
141
0.09
142
0.0
143
25.399999999999999
144
1.0
145
0.0
146
1.0
147
0.09
 71
     0
 72
     0
 73
     1
 74
     1
 75
     0
 76
     0
 77
     0
 78
     0
170
     0
171
     2
172
     0
173
     0
174
     0
175
     0
176
     0
177
     0
178
     0
  0
DIMSTYLE
  2
BIGT
 70
     0
  3

  4

  5

  6

  7

 40
1.0
 41
2.2299999999999991
 42
0.5
 43
7.0
 44
1.0
 45
0.0
 46
0.0
 47
0.0
 48
0.01
140
2.799999999999998
141
0.0
142
0.0
143
25.399999999999999
144
1.0
145
0.0
146
1.0
147
1.0
 71
     0
 72
     0
 73
     0
 74
     0
 75
     0
 76
     0
 77
     3
 78
     9
170
     0
171
     2
172
     1
173
     0
174
     1
175
     0
176
   256
177
   256
178
    40
  0
DIMSTYLE
  2
AM_ISO
 70
     0
  3

  4
"
  5

  6

  7

 40
1.0
 41
2.5
 42
1.0
 43
10.0
 44
1.0
 45
0.0
 46
0.0
 47
0.1
 48
0.1
140
3.5
141
0.0
142
0.0
143
0.0393701
144
1.0
145
0.0
146
0.71
147
1.5
 71
     0
 72
     0
 73
     0
 74
     0
 75
     0
 76
     0
 77
     1
 78
     8
170
     0
171
     2
172
     1
173
     0
174
     0
175
     0
176
   256
177
   256
178
     2
  0
DIMSTYLE
  2
AM_ISO$3
 70
     0
  3

  4
"
  5

  6

  7

 40
1.0
 41
2.5
 42
1.0
 43
10.0
 44
1.0
 45
0.0
 46
0.0
 47
0.1
 48
0.1
140
3.5
141
0.0
142
0.0
143
0.0393701
144
1.0
145
0.0
146
0.71
147
1.5
 71
     0
 72
     0
 73
     0
 74
     1
 75
     0
 76
     0
 77
     1
 78
     8
170
     0
171
     2
172
     0
173
     0
174
     0
175
     0
176
   256
177
   256
178
     2
  0
DIMSTYLE
  2
AM_ISO$4
 70
     0
  3

  4
"
  5

  6

  7

 40
1.0
 41
2.5
 42
1.0
 43
10.0
 44
1.0
 45
0.0
 46
0.0
 47
0.1
 48
0.1
140
3.5
141
0.0
142
0.0
143
0.0393701
144
1.0
145
0.0
146
0.71
147
1.5
 71
     0
 72
     0
 73
     0
 74
     1
 75
     0
 76
     0
 77
     1
 78
     8
170
     0
171
     2
172
     0
173
     0
174
     0
175
     0
176
   256
177
   256
178
     2
  0
DIMSTYLE
  2
AM_ISO$6
 70
     0
  3

  4
"
  5

  6

  7

 40
1.0
 41
2.5
 42
1.0
 43
10.0
 44
1.0
 45
0.0
 46
0.0
 47
0.1
 48
0.1
140
3.5
141
0.0
142
0.0
143
0.0393701
144
1.0
145
0.0
146
0.71
147
1.5
 71
     0
 72
     0
 73
     0
 74
     0
 75
     0
 76
     0
 77
     0
 78
     8
170
     0
171
     2
172
     1
173
     0
174
     0
175
     0
176
   256
177
   256
178
     2
  0
DIMSTYLE
  2
AM_ISO$7
 70
     0
  3

  4
"
  5

  6

  7

 40
1.0
 41
2.5
 42
1.0
 43
10.0
 44
1.0
 45
0.0
 46
0.0
 47
0.1
 48
0.1
140
5.0
141
0.0
142
0.0
143
0.0393701
144
1.0
145
0.0
146
0.71
147
1.5
 71
     0
 72
     0
 73
     0
 74
     0
 75
     0
 76
     0
 77
     1
 78
     8
170
     0
171
     2
172
     1
173
     0
174
     0
175
     0
176
   256
177
   256
178
     2
  0
DIMSTYLE
  2
AM_ISO$SF
 70
     0
  3

  4
"
  5

  6

  7

 40
1.0
 41
2.5
 42
1.0
 43
10.0
 44
1.0
 45
0.0
 46
0.0
 47
0.1
 48
0.1
140
3.5
141
0.0
142
0.0
143
0.0393701
144
1.0
145
0.0
146
0.71
147
1.5
 71
     0
 72
     0
 73
     0
 74
     0
 75
     1
 76
     1
 77
     1
 78
     8
170
     0
171
     2
172
     1
173
     0
174
     0
175
     0
176
   256
177
   256
178
     2
  0
DIMSTYLE
  2
AM_ISO$SH
 70
     0
  3

  4
"
  5

  6

  7

 40
1.0
 41
2.5
 42
1.0
 43
10.0
 44
1.0
 45
0.0
 46
0.0
 47
0.1
 48
0.1
140
3.5
141
0.0
142
0.0
143
0.0393701
144
2.0
145
0.0
146
0.71
147
1.5
 71
     0
 72
     0
 73
     0
 74
     0
 75
     1
 76
     1
 77
     1
 78
     8
170
     0
171
     2
172
     1
173
     1
174
     0
175
     0
176
   256
177
   256
178
     2
  0
DIMSTYLE
  2
AM_ANSI
 70
     0
  3

  4
mm
  5

  6

  7

 40
1.0
 41
0.12
 42
0.05
 43
0.5
 44
0.1
 45
0.0
 46
0.0
 47
0.1
 48
0.1
140
0.12
141
0.0
142
0.0
143
25.399999999999999
144
1.0
145
0.0
146
0.71
147
0.06
 71
     0
 72
     0
 73
     1
 74
     1
 75
     0
 76
     0
 77
     0
 78
     7
170
     0
171
     2
172
     0
173
     0
174
     0
175
     0
176
   256
177
   256
178
     2
  0
DIMSTYLE
  2
AM_ANSI$3
 70
     0
  3

  4
mm
  5

  6

  7

 40
1.0
 41
0.12
 42
0.05
 43
0.5
 44
0.1
 45
0.0
 46
0.0
 47
0.1
 48
0.1
140
0.12
141
0.0
142
0.0
143
25.399999999999999
144
1.0
145
0.0
146
0.71
147
0.06
 71
     0
 72
     0
 73
     1
 74
     1
 75
     0
 76
     0
 77
     0
 78
     7
170
     0
171
     2
172
     0
173
     0
174
     0
175
     0
176
   256
177
   256
178
     2
  0
DIMSTYLE
  2
AM_ANSI$4
 70
     0
  3

  4
mm
  5

  6

  7

 40
1.0
 41
0.12
 42
0.05
 43
0.5
 44
0.1
 45
0.0
 46
0.0
 47
0.1
 48
0.1
140
0.12
141
0.0
142
0.0
143
25.399999999999999
144
1.0
145
0.0
146
0.71
147
0.06
 71
     0
 72
     0
 73
     1
 74
     1
 75
     0
 76
     0
 77
     0
 78
     7
170
     0
171
     2
172
     0
173
     0
174
     0
175
     0
176
   256
177
   256
178
     2
  0
DIMSTYLE
  2
AM_ANSI$7
 70
     0
  3

  4
mm
  5

  6

  7

 40
1.0
 41
0.12
 42
0.05
 43
0.5
 44
0.1
 45
0.0
 46
0.0
 47
0.1
 48
0.1
140
0.12
141
0.0
142
0.0
143
25.399999999999999
144
1.0
145
0.0
146
0.71
147
0.06
 71
     0
 72
     0
 73
     1
 74
     1
 75
     0
 76
     0
 77
     0
 78
     7
170
     0
171
     2
172
     0
173
     0
174
     0
175
     0
176
   256
177
   256
178
     2
  0
DIMSTYLE
  2
AM_ANSI$SF
 70
     0
  3

  4
mm
  5

  6

  7

 40
1.0
 41
0.12
 42
0.05
 43
0.5
 44
0.1
 45
0.0
 46
0.0
 47
0.1
 48
0.1
140
0.12
141
0.0
142
0.0
143
25.399999999999999
144
1.0
145
0.0
146
0.71
147
0.06
 71
     0
 72
     0
 73
     1
 74
     1
 75
     1
 76
     1
 77
     0
 78
     7
170
     0
171
     2
172
     0
173
     0
174
     0
175
     0
176
   256
177
   256
178
     2
  0
DIMSTYLE
  2
AM_ANSI$SH
 70
     0
  3

  4
mm
  5

  6
GENAXEH
  7

 40
1.0
 41
0.12
 42
0.05
 43
0.5
 44
0.1
 45
0.0
 46
0.0
 47
0.1
 48
0.1
140
0.12
141
0.0
142
0.0
143
25.399999999999999
144
1.0
145
0.0
146
0.71
147
0.06
 71
     0
 72
     0
 73
     1
 74
     1
 75
     1
 76
     1
 77
     0
 78
     7
170
     0
171
     2
172
     0
173
     1
174
     0
175
     0
176
   256
177
   256
178
     2
  0
ENDTAB
  0
ENDSEC
  0
SECTION
  2
BLOCKS
  0
BLOCK
  8
0
  2
$MODEL_SPACE
 70
     0
 10
0.0
 20
0.0
 30
0.0
  3
$MODEL_SPACE
  1

  0
ENDBLK
  5
4F90
  8
0
  0
BLOCK
 67
     1
  8
0
  2
$PAPER_SPACE
 70
     0
 10
0.0
 20
0.0
 30
0.0
  3
$PAPER_SPACE
  1

  0
ENDBLK
  5
4F8C
 67
     1
  8
0
  0
BLOCK
  8
0
  2
_OPEN
 70
     0
 10
0.0
 20
0.0
 30
0.0
  3
_OPEN
  1

  0
LINE
  5
3E1A
  8
0
  6
BYBLOCK
 62
     0
 10
-1.0
 20
0.1666666666666666
 30
0.0
 11
0.0
 21
0.0
 31
0.0
  0
LINE
  5
3E1B
  8
0
  6
BYBLOCK
 62
     0
 10
-1.0
 20
-0.1666666666666666
 30
0.0
 11
0.0
 21
0.0
 31
0.0
  0
LINE
  5
3E1C
  8
0
  6
BYBLOCK
 62
     0
 10
0.0
 20
0.0
 30
0.0
 11
-1.0
 21
0.0
 31
0.0
  0
ENDBLK
  5
3E1D
  8
0
  0
BLOCK
  8
0
  2
GENAXEH
 70
     0
 10
0.0
 20
0.0
 30
0.0
  3
GENAXEH
  1

  0
LINE
  5
3E45
  8
0
 10
-1.0
 20
0.0
 30
0.0
 11
1.0
 21
0.0
 31
0.0
  0
ENDBLK
  5
3E46
  8
0
  0
BLOCK
  8
0
  2
_ACMFILLEDHALF
 70
     0
 10
0.0
 20
0.0
 30
0.0
  3
_ACMFILLEDHALF
  1

  0
TRACE
  5
5042
  8
240
 62
     0
 10
-0.8
 20
0.0
 30
0.0
 11
-1.0
 21
0.166666666
 31
0.0
 12
0.0
 22
0.0
 32
0.0
 13
0.0
 23
0.0
 33
0.0
  0
LINE
  5
5043
  8
240
 62
     0
 10
-1.0
 20
0.0
 30
0.0
 11
-0.8
 21
0.0
 31
0.0
  0
ENDBLK
  5
5041
  8
0
  0
ENDSEC
  0
SECTION
  2
ENTITIES
  0
LINE
  5
42AB
  8
245
  6
CENTER2
 10
-105.33411709504961
 20
-0.0000000000000568
 30
0.0
 11
42.0
 21
0.0
 31
0.0
1001
GRPNAME
1000
PASTMD09
  0
LINE
  5
42AE
  8
241
  6
CONTINUOUS
 10
1.5
 20
-34.910857157146502
 30
0.0
 11
1.5
 21
34.910857157146438
 31
0.0
1001
GRPNAME
1000
PASTMD09
  0
LINE
  5
42AF
  8
241
  6
CONTINUOUS
 10
14.64499999999998
 20
-49.21250000000007
 30
0.0
 11
14.64499999999998
 21
49.212500000000041
 31
0.0
1001
GRPNAME
1000
PASTMD09
  0
LINE
  5
42B0
  8
241
  6
CONTINUOUS
 10
13.040000000000081
 20
45.644999999999918
 30
0.0
 11
13.040000000000081
 21
-45.64500000000001
 31
0.0
1001
GRPNAME
1000
PASTMD09
  0
LINE
  5
42B1
  8
241
  6
CONTINUOUS
 10
9.1999999999999336
 20
45.644999999999918
 30
0.0
 11
9.1999999999999336
 21
-45.64500000000001
 31
0.0
1001
GRPNAME
1000
PASTMD09
  0
LINE
  5
42B2
  8
241
  6
CONTINUOUS
 10
7.5950000000000273
 20
-49.21250000000007
 30
0.0
 11
7.5950000000000273
 21
49.212500000000041
 31
0.0
1001
GRPNAME
1000
PASTMD09
  0
LINE
  5
42B3
  8
241
  6
CONTINUOUS
 10
0.0
 20
-34.92500000000004
 30
0.0
 11
0.0
 21
34.925000000000011
 31
0.0
1001
GRPNAME
1000
PASTMD09
  0
LINE
  5
42B4
  8
241
  6
CONTINUOUS
 10
19.050000000000072
 20
35.925000000000011
 30
0.0
 11
19.050000000000072
 21
-35.925000000000033
 31
0.0
1001
GRPNAME
1000
PASTMD09
  0
LINE
  5
42B5
  8
240
  6
CONTINUOUS
 10
1.5
 20
49.21249999999992
 30
0.0
 11
1.5
 21
34.924999999999962
 31
0.0
1001
GRPNAME
1000
PASTMD09
  0
LINE
  5
42B6
  8
240
  6
CONTINUOUS
 10
1.5
 20
-49.21250000000007
 30
0.0
 11
1.5
 21
-34.92500000000004
 31
0.0
1001
GRPNAME
1000
PASTMD09
  0
LINE
  5
42B7
  8
240
  6
CONTINUOUS
 10
1.5
 20
-49.21250000000007
 30
0.0
 11
7.5950000000000273
 21
-49.212499999999999
 31
0.0
1001
GRPNAME
1000
PASTMD09
  0
LINE
  5
42B8
  8
240
  6
CONTINUOUS
 10
1.5
 20
49.21249999999992
 30
0.0
 11
7.5950000000000273
 21
49.212500000000041
 31
0.0
1001
GRPNAME
1000
PASTMD09
  0
LINE
  5
42B9
  8
240
  6
CONTINUOUS
 10
13.03999999999996
 20
45.644999999999918
 30
0.0
 11
13.03999999999996
 21
46.432558453851861
 31
0.0
1001
GRPNAME
1000
PASTMD09
  0
LINE
  5
42BA
  8
240
  6
CONTINUOUS
 10
9.1999999999999336
 20
46.432558453851968
 30
0.0
 11
9.1999999999999336
 21
45.644999999999918
 31
0.0
1001
GRPNAME
1000
PASTMD09
  0
LINE
  5
42BB
  8
240
  6
CONTINUOUS
 10
7.5950000000000273
 20
49.212500000000041
 30
0.0
 11
9.1999999999999336
 21
46.432558453851968
 31
0.0
1001
GRPNAME
1000
PASTMD09
  0
LINE
  5
42BC
  8
240
  6
CONTINUOUS
 10
13.03999999999996
 20
46.432558453851861
 30
0.0
 11
14.64499999999998
 21
49.21249999999992
 31
0.0
1001
GRPNAME
1000
PASTMD09
  0
LINE
  5
42BD
  8
240
  6
CONTINUOUS
 10
13.040000000000081
 20
-46.432558453852067
 30
0.0
 11
14.64499999999998
 21
-49.212499999999999
 31
0.0
1001
GRPNAME
1000
PASTMD09
  0
LINE
  5
42BE
  8
240
  6
CONTINUOUS
 10
7.5950000000000273
 20
-49.212499999999999
 30
0.0
 11
9.1999999999999336
 21
-46.432558453852067
 31
0.0
1001
GRPNAME
1000
PASTMD09
  0
LINE
  5
42BF
  8
240
  6
CONTINUOUS
 10
9.1999999999999336
 20
-45.64500000000001
 30
0.0
 11
13.040000000000081
 21
-45.64500000000001
 31
0.0
1001
GRPNAME
1000
PASTMD09
  0
LINE
  5
42C0
  8
240
  6
CONTINUOUS
 10
9.1999999999999336
 20
45.644999999999918
 30
0.0
 11
13.03999999999996
 21
45.644999999999918
 31
0.0
1001
GRPNAME
1000
PASTMD09
  0
LINE
  5
42C1
  8
240
  6
CONTINUOUS
 10
19.050000000000072
 20
-49.21250000000007
 30
0.0
 11
14.64499999999998
 21
-49.212499999999999
 31
0.0
1001
GRPNAME
1000
PASTMD09
  0
LINE
  5
42C2
  8
240
  6
CONTINUOUS
 10
19.050000000000072
 20
49.21249999999992
 30
0.0
 11
14.64499999999998
 21
49.21249999999992
 31
0.0
1001
GRPNAME
1000
PASTMD09
  0
LINE
  5
42C3
  8
240
  6
CONTINUOUS
 10
19.050000000000072
 20
49.21249999999992
 30
0.0
 11
19.050000000000072
 21
35.925000000000011
 31
0.0
1001
GRPNAME
1000
PASTMD09
  0
LINE
  5
42C4
  8
240
  6
CONTINUOUS
 10
19.050000000000072
 20
-35.925000000000033
 30
0.0
 11
19.050000000000072
 21
-49.21250000000007
 31
0.0
1001
GRPNAME
1000
PASTMD09
  0
LINE
  5
42C5
  8
240
  6
CONTINUOUS
 10
9.1999999999999336
 20
-45.64500000000001
 30
0.0
 11
9.1999999999999336
 21
-46.432558453852067
 31
0.0
1001
GRPNAME
1000
PASTMD09
  0
LINE
  5
42C6
  8
240
  6
CONTINUOUS
 10
13.040000000000081
 20
-45.64500000000001
 30
0.0
 11
13.040000000000081
 21
-46.432558453852067
 31
0.0
1001
GRPNAME
1000
PASTMD09
  0
LINE
  5
42C7
  8
240
  6
CONTINUOUS
 10
-101.59999999999999
 20
20.108333333333231
 30
0.0
 11
0.0
 21
34.924999999999898
 31
0.0
1001
GRPNAME
1000
PASTMD09
  0
LINE
  5
42C8
  8
240
  6
CONTINUOUS
 10
-101.59999999999999
 20
20.108333333333292
 30
0.0
 11
-101.59999999999999
 21
-20.10833333333338
 31
0.0
1001
GRPNAME
1000
PASTMD09
  0
LINE
  5
42C9
  8
240
  6
CONTINUOUS
 10
-101.59999999999999
 20
-20.10833333333338
 30
0.0
 11
0.0
 21
-34.92500000000004
 31
0.0
1001
GRPNAME
1000
PASTMD09
  0
LINE
  5
42CC
  8
240
  6
CONTINUOUS
 10
0.0
 20
34.925000000000011
 30
0.0
 11
1.5
 21
34.924999999999962
 31
0.0
  0
LINE
  5
42CD
  8
240
  6
CONTINUOUS
 10
0.0
 20
-34.92500000000004
 30
0.0
 11
1.5
 21
-34.92500000000004
 31
0.0
  0
TEXT
  5
42CE
  8
250
  6
CONTINUOUS
 10
-72.79455199226706
 20
-37.357738943014681
 30
0.0
 40
2.799999999999998
  1
BCV50
  7
YOKO
1001
ITEMNAME
1000
LNSP3
  0
LINE
  5
42CF
  8
250
  6
CONTINUOUS
 10
-57.061218658933761
 20
-38.357738943014681
 30
0.0
 11
-75.06121865893374
 21
-38.357738943014681
 31
0.0
1001
ITEMNAME
1000
LNSP2
  0
LINE
  5
42D0
  8
250
  6
CONTINUOUS
 10
-52.08890497452029
 20
-29.081861563025338
 30
0.0
 11
-50.799999998933743
 21
-27.516666663014689
 31
0.0
  0
LINE
  5
42D1
  8
250
  6
CONTINUOUS
 10
-51.511603656917551
 20
-29.4152796686204
 30
0.0
 11
-50.799999998933743
 21
-27.516666663014689
 31
0.0
  0
LINE
  5
42D2
  8
250
  6
CONTINUOUS
 10
-50.799999998933743
 20
-27.516666663014689
 30
0.0
 11
-51.800254315718881
 21
-29.248570615822871
 31
0.0
  0
LINE
  5
42D3
  8
250
  6
CONTINUOUS
 10
-51.800254315718881
 20
-29.248570615822871
 30
0.0
 11
-57.061218658933761
 21
-38.357738943014681
 31
0.0
1001
ACAD
1000
DSTYLE
1002
{
1070
     6
1000
OPEN
1070
    41
1040
2.0
1070
    42
1040
2.0
1070
    44
1040
2.0
1070
   140
1040
4.0
1070
   343
1005
0
1002
}
  0
LINE
  5
42D4
  8
247
  6
CONTINUOUS
 10
5.4999999999999432
 20
-26.75
 30
0.0
 11
5.5
 21
-22.115384615670049
 31
0.0
  0
LINE
  5
42D5
  8
247
  6
CONTINUOUS
 10
3.0
 20
-25.954893499987978
 30
0.0
 11
5.0999999999160082
 21
-26.557058810057359
 31
0.0
  0
LINE
  5
42D6
  8
247
  6
CONTINUOUS
 10
3.996153846113998
 20
-25.32515140351904
 30
0.0
 11
3.996153846113998
 21
-26.24053601886704
 31
0.0
  0
ARC
  5
42D7
  8
247
  6
CONTINUOUS
 10
3.3847190672940992
 20
-25.08726340194681
 30
0.0
 40
0.3876715809326743
 50
72.997889675292214
 51
172.92416621851359
  0
ARC
  5
42D8
  8
247
  6
CONTINUOUS
 10
3.305223131028014
 20
-25.38247755680413
 30
0.0
 40
0.6933047965358768
 50
4.7429368522022122
 51
73.849226273266751
1001
GENIUS_GENOBJ-N-FIL_13
1002
{
1000
OWNER
1000
GEN
1002
}
1001
GENIUS_GENODEF_13
1002
{
1000
HIER
1070
     0
1002
}
1002
{
1000
MANEDIT
1070
     0
1002
}
1002
{
1000
NOSEL
1070
     0
1002
}
1002
{
1000
BEHIND
1070
     0
1002
}
1002
{
1000
OTHER
1070
     0
1002
}
1002
{
1000
REACTOR
1002
}
  0
LINE
  5
42D9
  8
247
  6
CONTINUOUS
 10
5.0999999999160082
 20
-25.64167419470937
 30
0.0
 11
5.0999999999160082
 21
-26.557058810057359
 31
0.0
  0
LINE
  5
42DA
  8
247
  6
CONTINUOUS
 10
3.0
 20
-25.954893499987978
 30
0.0
 11
3.0
 21
-25.039508884639989
 31
0.0
  0
ARC
  5
42DB
  8
247
  6
CONTINUOUS
 10
4.3874169627678707
 20
-25.378306476266861
 30
0.0
 40
0.394857301075386
 50
65.990941652528889
 51
172.26344345906909
  0
ARC
  5
42DC
  8
247
  6
CONTINUOUS
 10
4.3912003273325668
 20
-25.71244661042693
 30
0.0
 40
0.7123241612361686
 50
5.701985164259705
 51
77.277338436822006
1001
GENIUS_GENOBJ-N-FIL_13
1002
{
1000
OWNER
1000
GEN
1002
}
1001
GENIUS_GENODEF_13
1002
{
1000
HIER
1070
     0
1002
}
1002
{
1000
MANEDIT
1070
     0
1002
}
1002
{
1000
NOSEL
1070
     0
1002
}
1002
{
1000
BEHIND
1070
     0
1002
}
1002
{
1000
OTHER
1070
     0
1002
}
1002
{
1000
REACTOR
1002
}
  0
LINE
  5
42DD
  8
247
  6
CONTINUOUS
 10
5.0999999999160082
 20
-24.6839818870634
 30
0.0
 11
3.0
 21
-24.081816576994012
 31
0.0
  0
LINE
  5
42DE
  8
247
  6
CONTINUOUS
 10
3.0
 20
-22.58566273090798
 30
0.0
 11
3.0
 21
-22.981678364303601
 31
0.0
  0
LINE
  5
42DF
  8
247
  6
CONTINUOUS
 10
5.0999999999160082
 20
-23.608739653943982
 30
0.0
 11
5.0999999999160082
 21
-23.17797042319199
 31
0.0
  0
ARC
  5
42E0
  8
247
  6
CONTINUOUS
 10
4.4582995950833579
 20
-22.381816577069969
 30
0.0
 40
1.576855057639547
 50
202.35948814152911
 51
254.99324854284649
  0
ARC
  5
42E1
  8
247
  6
CONTINUOUS
 10
3.5658188585381341
 20
-22.847511366133229
 30
0.0
 40
0.6234706797009447
 50
94.994589319075317
 51
155.1663289573039
1001
GENIUS_GENOBJ-N-FIL_13
1002
{
1000
OWNER
1000
GEN
1002
}
1001
GENIUS_GENODEF_13
1002
{
1000
HIER
1070
     0
1002
}
1002
{
1000
MANEDIT
1070
     0
1002
}
1002
{
1000
NOSEL
1070
     0
1002
}
1002
{
1000
BEHIND
1070
     0
1002
}
1002
{
1000
OTHER
1070
     0
1002
}
1002
{
1000
REACTOR
1002
}
  0
ARC
  5
42E2
  8
247
  6
CONTINUOUS
 10
4.1621021219694381
 20
-23.444183951032809
 30
0.0
 40
0.9749472149106983
 50
15.8460965557808
 51
82.325137004169278
  0
ARC
  5
42E3
  8
247
  6
CONTINUOUS
 10
4.371470401971064
 20
-23.035211638772239
 30
0.0
 40
0.9271945638692009
 50
249.7136016704969
 51
321.78874565641053
1001
GENIUS_GENOBJ-N-FIL_13
1002
{
1000
OWNER
1000
GEN
1002
}
1001
GENIUS_GENODEF_13
1002
{
1000
HIER
1070
     0
1002
}
1002
{
1000
MANEDIT
1070
     0
1002
}
1002
{
1000
NOSEL
1070
     0
1002
}
1002
{
1000
BEHIND
1070
     0
1002
}
1002
{
1000
OTHER
1070
     0
1002
}
1002
{
1000
REACTOR
1002
}
  0
LINE
  5
42E4
  8
247
  6
CONTINUOUS
 10
4.2923076922559744
 20
-22.962585807815959
 30
0.0
 11
4.2923076922559744
 21
-22.477970423219968
 31
0.0
  0
ARC
  5
42E5
  8
247
  6
CONTINUOUS
 10
4.25
 20
-26.75
 30
0.0
 40
1.25
 50
180.0
 51
0.0
  0
LINE
  5
42E6
  8
247
  6
CONTINUOUS
 10
3.0
 20
-26.75
 30
0.0
 11
3.0
 21
-26.303846153914041
 31
0.0
  0
ARC
  5
42E7
  8
247
  6
CONTINUOUS
 10
4.25
 20
-22.115384615670049
 30
0.0
 40
1.25
 50
0.0
 51
180.0
  0
LINE
  5
4313
  8
240
  6
CONTINUOUS
 10
38.100000000000023
 20
-25.000000000000021
 30
0.0
 11
38.100000000000023
 21
-8.0000000000000036
 31
0.0
  0
LINE
  5
4314
  8
240
  6
CONTINUOUS
 10
20.050000000000011
 20
-34.925000000000033
 30
0.0
 11
35.000000000000107
 21
-34.925000000000033
 31
0.0
1001
GRPNAME
1000
PASTMD0L
  0
ARC
  5
4315
  8
240
  6
CONTINUOUS
 10
20.050000000000011
 20
-35.925000000000033
 30
0.0
 40
1.0
 50
89.999999997427068
 51
179.99999999742701
1001
GRPNAME
1000
PASTMD0L
  0
LINE
  5
4316
  8
240
  6
CONTINUOUS
 10
35.000000000000107
 20
-34.925000000000033
 30
0.0
 11
35.000000000000107
 21
-26.000000000000011
 31
0.0
  0
LINE
  5
4317
  8
240
  6
CONTINUOUS
 10
36.000000000000121
 20
-25.000000000000021
 30
0.0
 11
38.100000000000023
 21
-25.000000000000021
 31
0.0
  0
ARC
  5
4318
  8
240
  6
CONTINUOUS
 10
36.000000000000121
 20
-26.000000000000011
 30
0.0
 40
1.0
 50
90.0
 51
180.0
  0
LINE
  5
4319
  8
240
  6
CONTINUOUS
 10
20.050000000000011
 20
34.925000000000047
 30
0.0
 11
34.999999999999893
 21
34.924999999999812
 31
0.0
1001
GRPNAME
1000
PASTMD0L
  0
LINE
  5
431A
  8
240
  6
CONTINUOUS
 10
34.999999999999893
 20
34.924999999999812
 30
0.0
 11
34.999999999999893
 21
25.999999999999989
 31
0.0
  0
LINE
  5
431B
  8
240
  6
CONTINUOUS
 10
35.999999999999893
 20
24.999999999999989
 30
0.0
 11
38.100000000000023
 21
24.999999999999989
 31
0.0
  0
ARC
  5
431C
  8
240
  6
CONTINUOUS
 10
35.999999999999893
 20
25.999999999999989
 30
0.0
 40
1.0
 50
180.0
 51
270.0
  0
LINE
  5
431D
  8
243
  6
HIDDEN2
 10
1.7999999999999821
 20
-37.20000000000006
 30
0.0
 11
19.049999999999969
 21
-37.20000000000001
 31
0.0
  0
LINE
  5
431E
  8
243
  6
HIDDEN2
 10
1.745714015968673
 20
35.299999999999599
 30
0.0
 11
19.269375250200401
 21
35.29999999999977
 31
0.0
  0
ARC
  5
431F
  8
240
  6
CONTINUOUS
 10
20.049999999999969
 20
35.925000000000011
 30
0.0
 40
1.0
 50
180.00000000257299
 51
270.00000000257302
1001
GRPNAME
1000
PASTMD0L
  0
LINE
  5
4320
  8
241
  6
CONTINUOUS
 10
35.000000000000107
 20
-26.000000000000011
 30
0.0
 11
34.999999999999893
 21
25.999999999999989
 31
0.0
  0
LINE
  5
483B
  8
243
  6
HIDDEN2
 10
-25.14999999999997
 20
-11.0
 30
0.0
 11
-26.14999999999997
 21
-10.0
 31
0.0
  0
LINE
  5
483C
  8
243
  6
HIDDEN2
 10
-26.14999999999997
 20
-10.0
 30
0.0
 11
-26.14999999999997
 21
9.9999999999999982
 31
0.0
  0
LINE
  5
483D
  8
243
  6
HIDDEN2
 10
-26.14999999999997
 20
9.9999999999999982
 30
0.0
 11
-25.14999999999997
 21
11.0
 31
0.0
  0
LINE
  5
483E
  8
243
  6
HIDDEN2
 10
-25.14999999999997
 20
11.0
 30
0.0
 11
-14.14999999999997
 21
11.0
 31
0.0
  0
LINE
  5
483F
  8
243
  6
HIDDEN2
 10
-14.14999999999997
 20
-11.0
 30
0.0
 11
-14.14999999999997
 21
-7.0
 31
0.0
  0
LINE
  5
4840
  8
243
  6
HIDDEN2
 10
-25.14999999999997
 20
-11.0
 30
0.0
 11
-14.14999999999997
 21
-11.0
 31
0.0
  0
LINE
  5
4841
  8
240
  6
CONTINUOUS
 10
41.850000000000009
 20
7.9999999999999982
 30
0.0
 11
42.850000000000009
 21
6.9999999999999982
 31
0.0
  0
LINE
  5
4842
  8
240
  6
CONTINUOUS
 10
42.850000000000009
 20
-7.0
 30
0.0
 11
42.850000000000009
 21
6.9999999999999982
 31
0.0
  0
LINE
  5
4843
  8
240
  6
CONTINUOUS
 10
42.850000000000009
 20
-7.0
 30
0.0
 11
41.850000000000009
 21
-8.0000000000000036
 31
0.0
  0
LINE
  5
4844
  8
243
  6
HIDDEN2
 10
8.8500000000000831
 20
7.9999999999999982
 30
0.0
 11
38.100000000000001
 21
7.9999999999999982
 31
0.0
  0
LINE
  5
4845
  8
243
  6
HIDDEN2
 10
7.8500000000000858
 20
6.9999999999999982
 30
0.0
 11
8.8500000000000831
 21
7.9999999999999982
 31
0.0
  0
LINE
  5
4846
  8
243
  6
HIDDEN2
 10
8.8500000000000831
 20
-8.0000000000000036
 30
0.0
 11
7.8500000000000858
 21
-7.0
 31
0.0
  0
LINE
  5
4847
  8
240
  6
CONTINUOUS
 10
38.100000000000001
 20
-8.0000000000000036
 30
0.0
 11
41.850000000000009
 21
-8.0000000000000036
 31
0.0
  0
LINE
  5
4848
  8
243
  6
HIDDEN2
 10
-14.14999999999997
 20
-7.0
 30
0.0
 11
7.8500000000000281
 21
-7.0
 31
0.0
  0
LINE
  5
4849
  8
243
  6
HIDDEN2
 10
-14.14999999999997
 20
6.9999999999999982
 30
0.0
 11
7.8500000000000858
 21
6.9999999999999982
 31
0.0
  0
LINE
  5
484A
  8
241
  6
CONTINUOUS
 10
41.850000000000009
 20
-8.0000000000000036
 30
0.0
 11
41.850000000000009
 21
7.9999999999999982
 31
0.0
  0
LINE
  5
484B
  8
243
  6
HIDDEN2
 10
-18.14999999999997
 20
2.7499999999999978
 30
0.0
 11
42.850000000000023
 21
2.7499999999999969
 31
0.0
  0
LINE
  5
484C
  8
243
  6
HIDDEN2
 10
-26.14999999999997
 20
5.7735026918962511
 30
0.0
 11
-18.14999999999997
 21
5.7735026918962511
 31
0.0
  0
LINE
  5
484D
  8
243
  6
HIDDEN2
 10
-26.14999999999997
 20
2.886751345948082
 30
0.0
 11
-18.14999999999997
 21
2.886751345948082
 31
0.0
  0
LINE
  5
4850
  8
242
  6
CONTINUOUS
 10
38.100000000000001
 20
-7.2500000000000009
 30
0.0
 11
42.600000000000009
 21
-7.2500000000000009
 31
0.0
  0
LINE
  5
4851
  8
244
  6
HIDDEN2
 10
8.1000000000000778
 20
7.2499999999999982
 30
0.0
 11
38.100000000000001
 21
7.2499999999999982
 31
0.0
  0
LINE
  5
4852
  8
243
  6
HIDDEN2
 10
-18.14999999999997
 20
-2.75
 30
0.0
 11
42.850000000000023
 21
-2.75
 31
0.0
  0
LINE
  5
4853
  8
243
  6
HIDDEN2
 10
-26.14999999999997
 20
-5.7735026918962546
 30
0.0
 11
-18.14999999999997
 21
-5.7735026918962546
 31
0.0
  0
LINE
  5
4854
  8
243
  6
HIDDEN2
 10
-26.14999999999997
 20
-2.8867513459480838
 30
0.0
 11
-18.14999999999997
 21
-2.8867513459480838
 31
0.0
  0
LINE
  5
4855
  8
243
  6
HIDDEN2
 10
-18.14999999999997
 20
5.7735026918962511
 30
0.0
 11
-18.14999999999997
 21
-5.7735026918962538
 31
0.0
  0
LINE
  5
4857
  8
243
  6
HIDDEN2
 10
-14.14999999999997
 20
6.9999999999999982
 30
0.0
 11
-14.14999999999997
 21
11.0
 31
0.0
  0
LINE
  5
4859
  8
241
  6
CONTINUOUS
 10
38.100000000000001
 20
7.9999999999999982
 30
0.0
 11
38.100000000000001
 21
-8.0000000000000036
 31
0.0
  0
LINE
  5
485B
  8
243
  6
HIDDEN2
 10
38.100000000000001
 20
18.682499437098041
 30
0.0
 11
8.099853629974465
 21
17.932546171478119
 31
0.0
1001
GRPNAME
1000
PASTMD0F
  0
LINE
  5
485C
  8
243
  6
HIDDEN2
 10
38.100000000000001
 20
-16.442554784446418
 30
0.0
 11
8.099853629974465
 21
-15.69248510189405
 31
0.0
  0
LINE
  5
485E
  8
243
  6
HIDDEN2
 10
8.8500000000000831
 20
-8.0000000000000036
 30
0.0
 11
38.100000000000001
 21
-8.0000000000000036
 31
0.0
  0
LINE
  5
485F
  8
240
  6
CONTINUOUS
 10
38.100000000000001
 20
7.9999999999999982
 30
0.0
 11
41.850000000000009
 21
7.9999999999999982
 31
0.0
  0
LINE
  5
4860
  8
242
  6
CONTINUOUS
 10
38.100000000000001
 20
7.2499999999999982
 30
0.0
 11
42.600000000000009
 21
7.2499999999999982
 31
0.0
  0
LINE
  5
4861
  8
244
  6
HIDDEN2
 10
8.1000000000000778
 20
-7.2500000000000009
 30
0.0
 11
38.100000000000001
 21
-7.2500000000000009
 31
0.0
  0
TEXT
  5
4862
  8
241
  6
CONTINUOUS
 10
-105.0
 20
77.0
 30
0.0
 40
5.0
  1
BCV50Y-C5-1.5
  7
YOKO
 11
-105.0
 21
77.0
 31
0.0
 73
     1
  0
LINE
  5
4DFB
  8
250
  6
CONTINUOUS
 10
0.0000000000007816
 20
35.425000000000011
 30
0.0
 11
0.0000000000007834
 21
64.0
 31
0.0
  0
LINE
  5
4DFC
  8
250
  6
CONTINUOUS
 10
38.100000000000023
 20
25.499999999999989
 30
0.0
 11
38.100000000000023
 21
64.0
 31
0.0
  0
LINE
  5
4DFD
  8
250
  6
CONTINUOUS
 10
2.230000000000782
 20
63.0
 30
0.0
 11
35.870000000000033
 21
63.0
 31
0.0
  0
LINE
  5
4E01
  8
250
  6
CONTINUOUS
 10
38.600000000000023
 20
24.999999999999989
 30
0.0
 11
57.000000000000007
 21
24.999999999999979
 31
0.0
  0
LINE
  5
4E02
  8
250
  6
CONTINUOUS
 10
38.600000000000023
 20
-25.000000000000021
 30
0.0
 11
57.0
 21
-25.000000000000021
 31
0.0
  0
LINE
  5
4E03
  8
250
  6
CONTINUOUS
 10
56.000000000000007
 20
22.769999999999971
 30
0.0
 11
56.0
 21
-22.770000000000021
 31
0.0
  0
TEXT
  5
4E07
  8
250
  6
CONTINUOUS
 10
55.0
 20
-7.2000000000000082
 30
0.0
 40
2.799999999999998
  1
\U+22051.969
 50
90.0
  0
LINE
  5
4E08
  8
250
  6
CONTINUOUS
 10
56.37166666666667
 20
-22.770000000000021
 30
0.0
 11
56.0
 21
-25.000000000000021
 31
0.0
  0
LINE
  5
4E09
  8
250
  6
CONTINUOUS
 10
55.62833333333333
 20
-22.770000000000021
 30
0.0
 11
56.0
 21
-25.000000000000021
 31
0.0
  0
LINE
  5
4E0A
  8
250
  6
CONTINUOUS
 10
56.0
 20
-25.000000000000021
 30
0.0
 11
56.0
 21
-22.770000000000021
 31
0.0
  0
LINE
  5
4E0B
  8
250
  6
CONTINUOUS
 10
55.62833333333333
 20
22.769999999999971
 30
0.0
 11
56.000000000000007
 21
24.999999999999979
 31
0.0
  0
LINE
  5
4E0C
  8
250
  6
CONTINUOUS
 10
56.371666666666691
 20
22.769999999999971
 30
0.0
 11
56.000000000000007
 21
24.999999999999979
 31
0.0
  0
LINE
  5
4E0D
  8
250
  6
CONTINUOUS
 10
56.000000000000007
 20
24.999999999999979
 30
0.0
 11
56.000000000000007
 21
22.769999999999971
 31
0.0
  0
TEXT
  5
4E0E
  8
250
  6
CONTINUOUS
 10
15.516666666667071
 20
64.000000000000014
 30
0.0
 40
2.799999999999998
  1
1.5
  0
LINE
  5
4E0F
  8
250
  6
CONTINUOUS
 10
35.870000000000033
 20
63.37166666666667
 30
0.0
 11
38.100000000000023
 21
63.0
 31
0.0
  0
LINE
  5
4E10
  8
250
  6
CONTINUOUS
 10
35.870000000000033
 20
62.62833333333333
 30
0.0
 11
38.100000000000023
 21
63.0
 31
0.0
  0
LINE
  5
4E11
  8
250
  6
CONTINUOUS
 10
38.100000000000023
 20
63.0
 30
0.0
 11
35.870000000000033
 21
63.0
 31
0.0
  0
LINE
  5
4E12
  8
250
  6
CONTINUOUS
 10
2.230000000000782
 20
62.62833333333333
 30
0.0
 11
0.0000000000007833
 21
63.0
 31
0.0
  0
LINE
  5
4E13
  8
250
  6
CONTINUOUS
 10
2.230000000000782
 20
63.37166666666667
 30
0.0
 11
0.0000000000007833
 21
63.0
 31
0.0
  0
LINE
  5
4E14
  8
250
  6
CONTINUOUS
 10
0.0000000000007833
 20
63.0
 30
0.0
 11
2.230000000000782
 21
63.0
 31
0.0
  0
LINE
  5
4E15
  8
240
  6
CONTINUOUS
 10
38.100000000000023
 20
7.9999999999999956
 30
0.0
 11
38.100000000000023
 21
24.999999999999989
 31
0.0
  0
LINE
  5
50A5
  8
245
  6
CENTER2
 10
63.999999999985562
 20
0.0
 30
0.0
 11
117.9999999999855
 21
0.0
 31
0.0
1001
GRPNAME
1000
PASTMD1L
  0
CIRCLE
  5
50A6
  8
240
  6
CONTINUOUS
 10
90.999999999985576
 20
0.0000000000081855
 30
0.0
 40
25.0
1001
GRPNAME
1000
PASTMD1N
  0
LINE
  5
50A7
  8
245
  6
CENTER2
 10
74.008581577738823
 20
-9.8099999999985243
 30
0.0
 11
107.9914184222323
 21
9.8100000000149521
 31
0.0
1001
GRPNAME
1000
PASTMD1L
  0
LINE
  5
50A8
  8
245
  6
CENTER2
 10
74.008581577731093
 20
9.810000000001537
 30
0.0
 11
107.9914184222402
 21
-9.8099999999849956
 31
0.0
1001
GRPNAME
1000
PASTMD1L
  0
LINE
  5
50A9
  8
245
  6
CENTER2
 10
90.99999999997749
 20
27.000000000008189
 30
0.0
 11
90.99999999997749
 21
-26.999999999991822
 31
0.0
1001
GRPNAME
1000
PASTMD1L
  0
ARC
  5
50AA
  8
241
  6
CONTINUOUS
 10
98.750482112418922
 20
-4.4747429339543876
 30
0.0
 40
25.329505201955872
 50
122.528981630243
 51
177.47101836974031
  0
ARC
  5
50AB
  8
241
  6
CONTINUOUS
 10
90.99999999997749
 20
7.8438131327865497
 30
0.0
 40
10.7762238198986
 50
56.995543074586919
 51
123.00445692541309
  0
ARC
  5
50AC
  8
241
  6
CONTINUOUS
 10
90.999999999956913
 20
8.9494858679336744
 30
0.0
 40
25.329505201955872
 50
242.52898163024409
 51
297.47101836974122
  0
ARC
  5
50AD
  8
241
  6
CONTINUOUS
 10
84.207058564437034
 20
-3.9219065663879462
 30
0.0
 40
10.7762238198986
 50
176.9955430745861
 51
243.0044569254145
  0
ARC
  5
50AE
  8
241
  6
CONTINUOUS
 10
83.249517887538204
 20
-4.474742933979285
 30
0.0
 40
25.329505201955861
 50
2.5289816302433441
 51
57.47101836974052
  0
ARC
  5
50AF
  8
241
  6
CONTINUOUS
 10
97.792941435499543
 20
-3.9219065663986039
 30
0.0
 40
10.7762238198986
 50
296.9955430745855
 51
3.004456925413892
  0
LINE
  5
50C0
  8
250
  6
CONTINUOUS
 10
42.288576675582469
 20
35.325208028300011
 30
0.0
 11
55.779244235842988
 21
35.325208028300011
 31
0.0
1001
ITEMNAME
1000
LNSP2
  0
TEXT
  5
50C1
  8
250
  6
CONTINUOUS
 10
47.350672807271629
 20
36.325208028300011
 30
0.0
 40
3.0
  1
C5
  7
YOKO
1001
ITEMNAME
1000
LNSP3
1001
ACAD
1000
MTEXTBEGIN
1070
    73
1070
     1
1070
    44
1040
1.0
1070
    74
1070
     0
1000
MTEXTEND
  0
LINE
  5
50C2
  8
250
  6
CONTINUOUS
 10
37.442315041004612
 20
26.931236650439288
 30
0.0
 11
42.288576675582469
 21
35.325208028300011
 31
0.0
1001
ACAD
1000
DSTYLE
1002
{
1070
     5
1000
OPEN
1070
    78
1070
     8
1070
   140
1040
3.0
1002
}
  0
LINE
  5
50C3
  8
250
  6
CONTINUOUS
 10
37.120442265931409
 20
27.11706998377263
 30
0.0
 11
36.327315041004617
 21
25.0
 31
0.0
  0
LINE
  5
50C4
  8
250
  6
CONTINUOUS
 10
37.764187816077829
 20
26.745403317105971
 30
0.0
 11
36.327315041004617
 21
25.0
 31
0.0
  0
LINE
  5
50C5
  8
250
  6
CONTINUOUS
 10
36.327315041004617
 20
25.0
 30
0.0
 11
37.442315041004612
 21
26.931236650439288
 31
0.0
  0
VIEWPORT
  5
22
 67
     1
  8
0
 10
261.51769911504419
 20
148.5
 30
0.0
 40
523.0353982300885
 41
297.0
 68
     1
 69
     1
1001
ACAD
1000
MVIEW
1002
{
1070
    16
1010
0.0
1020
0.0
1030
0.0
1010
0.0
1020
0.0
1030
1.0
1040
0.0
1040
297.0
1040
261.51769911504419
1040
148.5
1040
50.0
1040
0.0
1040
0.0
1070
     0
1070
   100
1070
     1
1070
     1
1070
     0
1070
     0
1070
     0
1070
     0
1040
0.0
1040
0.0
1040
0.0
1040
1.0
1040
1.0
1040
10.0
1040
10.0
1070
     0
1002
{
1002
}
1002
}
1001
GENIUS_GENODEF_13
1002
{
1000
HIER
1070
     0
1002
}
1002
{
1000
MANEDIT
1070
     0
1002
}
1002
{
1000
NOSEL
1070
     0
1002
}
1002
{
1000
BEHIND
1070
     0
1002
}
1002
{
1000
OTHER
1070
     0
1002
}
1002
{
1000
REACTOR
1002
}
1001
GENIUS_GENOBJ-N-SDF_13
1002
{
1000
OWNER
1000
GEN
1002
}
1001
GENIUS_GENSCREG_15
1000
PF
1040
1.0
1000
DF
1040
1.0
1000
MIN
1011
0.0
1021
0.0
1031
0.0
1021
0.0
1031
0.0
1000
MAX
1011
523.0353982300885
1021
0.0
1031
0.0
1021
297.0
1031
0.0
1000
FLAGS
1070
     4
  0
ENDSEC
  0
EOF
