  0
SECTION
  2
HEADER
  9
$ACADVER
  1
AC1009
  9
$INSBASE
 10
0.0
 20
0.0
 30
0.0
  9
$EXTMIN
 10
-103.5999999999999943
 20
-49.2124999999999986
 30
0.0
  9
$EXTMAX
 10
146.9999999999795079
 20
89.0
 30
0.0
  9
$LIMMIN
 10
0.0
 20
0.0
  9
$LIMMAX
 10
297.0
 20
210.0
  9
$ORTHOMODE
 70
     0
  9
$REGENMODE
 70
     1
  9
$FILLMODE
 70
     1
  9
$QTEXTMODE
 70
     0
  9
$MIRRTEXT
 70
     1
  9
$DRAGMODE
 70
     2
  9
$LTSCALE
 40
10.0
  9
$OSMODE
 70
   807
  9
$ATTMODE
 70
     1
  9
$TEXTSIZE
 40
3.0
  9
$TRACEWID
 40
1.0
  9
$TEXTSTYLE
  7
YOKO
  9
$CLAYER
  8
240
  9
$CELTYPE
  6
BYLAYER
  9
$CECOLOR
 62
   256
  9
$DIMSCALE
 40
1.0
  9
$DIMASZ
 40
2.2299999999999991
  9
$DIMEXO
 40
0.5
  9
$DIMDLI
 40
7.0
  9
$DIMRND
 40
0.0
  9
$DIMDLE
 40
0.0
  9
$DIMEXE
 40
1.0
  9
$DIMTP
 40
0.0
  9
$DIMTM
 40
0.01
  9
$DIMTXT
 40
2.7999999999999989
  9
$DIMCEN
 40
0.0
  9
$DIMTSZ
 40
0.0
  9
$DIMTOL
 70
     0
  9
$DIMLIM
 70
     0
  9
$DIMTIH
 70
     0
  9
$DIMTOH
 70
     0
  9
$DIMSE1
 70
     0
  9
$DIMSE2
 70
     0
  9
$DIMTAD
 70
     3
  9
$DIMZIN
 70
     9
  9
$DIMBLK
  1
OPEN
  9
$DIMASO
 70
     1
  9
$DIMSHO
 70
     1
  9
$DIMPOST
  1

  9
$DIMAPOST
  1

  9
$DIMALT
 70
     0
  9
$DIMALTD
 70
     2
  9
$DIMALTF
 40
25.3999999999999986
  9
$DIMLFAC
 40
1.0
  9
$DIMTOFL
 70
     1
  9
$DIMTVP
 40
0.0
  9
$DIMTIX
 70
     1
  9
$DIMSOXD
 70
     0
  9
$DIMSAH
 70
     0
  9
$DIMBLK1
  1

  9
$DIMBLK2
  1

  9
$DIMSTYLE
  2
BIGT
  9
$DIMCLRD
 70
   256
  9
$DIMCLRE
 70
   256
  9
$DIMCLRT
 70
    40
  9
$DIMTFAC
 40
1.0
  9
$DIMGAP
 40
1.0
  9
$LUNITS
 70
     2
  9
$LUPREC
 70
     3
  9
$SKETCHINC
 40
1.0
  9
$FILLETRAD
 40
0.0
  9
$AUNITS
 70
     0
  9
$AUPREC
 70
     3
  9
$MENU
  1
.
  9
$ELEVATION
 40
0.0
  9
$PELEVATION
 40
0.0
  9
$THICKNESS
 40
0.0
  9
$LIMCHECK
 70
     0
  9
$BLIPMODE
 70
     0
  9
$CHAMFERA
 40
0.25
  9
$CHAMFERB
 40
0.25
  9
$SKPOLY
 70
     0
  9
$TDCREATE
 40
2458177.7518518520519137
  9
$TDUPDATE
 40
2458178.6039120368659496
  9
$TDINDWG
 40
0.0238194444
  9
$TDUSRTIMER
 40
0.0238194444
  9
$USRTIMER
 70
     1
  9
$ANGBASE
 50
0.0
  9
$ANGDIR
 70
     0
  9
$PDMODE
 70
     1
  9
$PDSIZE
 40
0.0
  9
$PLINEWID
 40
0.0
  9
$COORDS
 70
     1
  9
$SPLFRAME
 70
     0
  9
$SPLINETYPE
 70
     6
  9
$SPLINESEGS
 70
     4
  9
$ATTDIA
 70
     1
  9
$ATTREQ
 70
     1
  9
$HANDLING
 70
     1
  9
$HANDSEED
  5
1C55
  9
$SURFTAB1
 70
     6
  9
$SURFTAB2
 70
     6
  9
$SURFTYPE
 70
     6
  9
$SURFU
 70
     6
  9
$SURFV
 70
     6
  9
$UCSNAME
  2

  9
$UCSORG
 10
0.0
 20
0.0
 30
0.0
  9
$UCSXDIR
 10
1.0
 20
0.0
 30
0.0
  9
$UCSYDIR
 10
0.0
 20
1.0
 30
0.0
  9
$PUCSNAME
  2

  9
$PUCSORG
 10
0.0
 20
0.0
 30
0.0
  9
$PUCSXDIR
 10
1.0
 20
0.0
 30
0.0
  9
$PUCSYDIR
 10
0.0
 20
1.0
 30
0.0
  9
$USERI1
 70
     1
  9
$USERI2
 70
     0
  9
$USERI3
 70
     0
  9
$USERI4
 70
     0
  9
$USERI5
 70
     0
  9
$USERR1
 40
0.0
  9
$USERR2
 40
0.0
  9
$USERR3
 40
0.0
  9
$USERR4
 40
0.0
  9
$USERR5
 40
0.0
  9
$WORLDVIEW
 70
     1
  9
$SHADEDGE
 70
     3
  9
$SHADEDIF
 70
    70
  9
$TILEMODE
 70
     1
  9
$MAXACTVP
 70
    16
  9
$PLIMCHECK
 70
     0
  9
$PEXTMIN
 10
1.0000000000000000E+20
 20
1.0000000000000000E+20
 30
1.0000000000000000E+20
  9
$PEXTMAX
 10
-1.0000000000000000E+20
 20
-1.0000000000000000E+20
 30
-1.0000000000000000E+20
  9
$PLIMMIN
 10
0.0
 20
0.0
  9
$PLIMMAX
 10
420.0
 20
297.0
  9
$UNITMODE
 70
     0
  9
$VISRETAIN
 70
     1
  9
$PLINEGEN
 70
     0
  9
$PSLTSCALE
 70
     1
  0
ENDSEC
  0
SECTION
  2
TABLES
  0
TABLE
  2
VPORT
 70
     1
  0
VPORT
  2
*ACTIVE
 70
     0
 10
0.0
 20
0.0
 11
1.0
 21
1.0
 12
18.898627969970299
 22
17.4376763632235416
 13
0.0
 23
0.0
 14
7.0
 24
7.0
 15
7.0
 25
7.0
 16
0.0
 26
0.0
 36
1.0
 17
0.0
 27
0.0
 37
0.0
 40
164.0685914705032076
 41
1.801569506726457
 42
50.0
 43
0.0
 44
0.0
 50
0.0
 51
0.0
 71
     0
 72
  2000
 73
     1
 74
     0
 75
     0
 76
     1
 77
     0
 78
     0
  0
ENDTAB
  0
TABLE
  2
LTYPE
 70
    16
  0
LTYPE
  2
CONTINUOUS
 70
     0
  3
Solid line
 72
    65
 73
     0
 40
0.0
  0
LTYPE
  2
CENTER2
 70
     0
  3
___ _ ___ _ ___ _ ___ _ ___ _ ___ _ ___ _ ___ _
 72
    65
 73
     4
 40
1.125
 49
0.75
 49
-0.125
 49
0.125
 49
-0.125
  0
LTYPE
  2
HIDDEN2
 70
     0
  3
_ _ _ _ _ _ _ _ _ _ _ _ _ _ _ _ _ _ _ _ _ _ _ _
 72
    65
 73
     2
 40
0.1875
 49
0.125
 49
-0.0625
  0
LTYPE
  2
PHANTOM2
 70
     0
  3
___ _ _ ___ _ _ ___ _ _ ___ _ _ ___ _ _ ___ _ _
 72
    65
 73
     6
 40
1.25
 49
0.625
 49
-0.125
 49
0.125
 49
-0.125
 49
0.125
 49
-0.125
  0
LTYPE
  2
CENTER
 70
     0
  3
____ _ ____ _ ____ _ ____ _ ____ _ ____ _ ____ 
 72
    65
 73
     4
 40
2.0
 49
1.25
 49
-0.25
 49
0.25
 49
-0.25
  0
LTYPE
  2
AM_ISO02W050
 70
     0
  3
__ __ __ __ __ __ __ __ __ __ __ __ __ __ __
 72
    65
 73
     2
 40
7.5
 49
6.0
 49
-1.5
  0
LTYPE
  2
AMCONSTR
 70
     0
  3
_______________________
 72
    65
 73
     2
 40
9999.0
 49
9999.0
 49
0.0
  0
LTYPE
  2
ACISOWELD
 70
     0
  3
_ _ _ _ _
 72
    65
 73
     2
 40
2.0
 49
2.0
 49
-1.0
  0
LTYPE
  2
ACISOTGB
 70
     0
  3
__ . . __ . .
 72
    65
 73
     6
 40
9.0
 49
4.0
 49
-1.0
 49
1.0
 49
-1.0
 49
1.0
 49
-1.0
  0
LTYPE
  2
ACISOTGL
 70
     0
  3
_ _ _ _ _
 72
    65
 73
     2
 40
3.0
 49
2.0
 49
-1.0
  0
LTYPE
  2
ACJISTGB
 70
     0
  3
__ . . __ . .
 72
    65
 73
     6
 40
9.0
 49
4.0
 49
-1.0
 49
1.0
 49
-1.0
 49
1.0
 49
-1.0
  0
LTYPE
  2
ACJISTGL
 70
     0
  3
_ _ _ _ _
 72
    65
 73
     2
 40
3.0
 49
2.0
 49
-1.0
  0
LTYPE
  2
HIDDEN
 70
     0
  3
Hidden __ __ __ __ __ __ __ __ __ __ __ __ __ _
 72
    65
 73
     2
 40
9.5249999999999986
 49
6.3499999999999988
 49
-3.1749999999999989
  0
LTYPE
  2
AMZIGZAG2
 70
     0
  3
/\/-/\/-/\/-/\/-/\/-/\/
 72
    65
 73
     2
 40
0.4401
 49
0.0001
 49
-0.4400000000000003
  0
LTYPE
  2
ACANSTGB
 70
     0
  3
__ . . __ . .
 72
    65
 73
     6
 40
0.35433070866
 49
0.15748031496
 49
-0.03937007874
 49
0.03937007874
 49
-0.03937007874
 49
0.03937007874
 49
-0.03937007874
  0
LTYPE
  2
ACANSTGL
 70
     0
  3
_ _ _ _ _
 72
    65
 73
     2
 40
0.11811023622
 49
0.07874015748
 49
-0.03937007874
  0
ENDTAB
  0
TABLE
  2
LAYER
 70
     9
  0
LAYER
  2
0
 70
     0
 62
     7
  6
CONTINUOUS
  0
LAYER
  2
DEFPOINTS
 70
     0
 62
     7
  6
CONTINUOUS
  0
LAYER
  2
245
 70
     0
 62
     2
  6
CENTER2
  0
LAYER
  2
240
 70
     0
 62
     4
  6
CONTINUOUS
  0
LAYER
  2
241
 70
     0
 62
   211
  6
CONTINUOUS
  0
LAYER
  2
242
 70
     0
 62
     3
  6
CONTINUOUS
  0
LAYER
  2
243
 70
     0
 62
   211
  6
HIDDEN2
  0
LAYER
  2
247
 70
     0
 62
    60
  6
CONTINUOUS
  0
LAYER
  2
250
 70
     0
 62
     3
  6
CONTINUOUS
  0
ENDTAB
  0
TABLE
  2
STYLE
 70
     7
  0
STYLE
  2
STANDARD
 70
     0
 40
0.0
 41
1.0
 50
0.0
 71
     0
 42
3.0
  3
romans.shx
  4
extfont.shx
  0
STYLE
  2
ACISOTS
 70
     0
 40
1.0
 41
1.0
 50
0.0
 71
     0
 42
3.0
  3
amgdt.shx
  4
extfont.shx
  0
STYLE
  2
ACISOGDT
 70
     0
 40
0.0
 41
1.0
 50
0.0
 71
     0
 42
3.0
  3
amgdt.shx
  4
extfont.shx
  0
STYLE
  2
ACJISTS
 70
     0
 40
1.0
 41
1.0
 50
0.0
 71
     0
 42
3.0
  3
amgdt.shx
  4
extfont.shx
  0
STYLE
  2
ACJISGDT
 70
     0
 40
0.0
 41
1.0
 50
0.0
 71
     0
 42
3.0
  3
amgdt.shx
  4
extfont.shx
  0
STYLE
  2
YOKO
 70
     0
 40
0.0
 41
1.0
 50
0.0
 71
     0
 42
3.0
  3
romans.shx
  4
extfont.shx
  0
STYLE
  2
ACANSGDT
 70
     0
 40
0.0
 41
1.0
 50
0.0
 71
     0
 42
3.0
  3
amgdt.shx
  4

  0
ENDTAB
  0
TABLE
  2
VIEW
 70
     0
  0
ENDTAB
  0
TABLE
  2
UCS
 70
     0
  0
ENDTAB
  0
TABLE
  2
APPID
 70
    38
  0
APPID
  2
ACAD
 70
     0
  0
APPID
  2
GLOBAL
 70
     0
  0
APPID
  2
DETAIL
 70
     0
  0
APPID
  2
GRPNAME
 70
     0
  0
APPID
  2
GPARA
 70
     0
  0
APPID
  2
MCAD_NO_VIS
 70
     0
  0
APPID
  2
ACAD_TEMP_GRAPHIC
 70
     0
  0
APPID
  2
ACATTRIBSERVICES
 70
     0
  0
APPID
  2
GENIUS_GENSCREG_15
 70
     0
  0
APPID
  2
GENIUS_GENODEF_13
 70
     0
  0
APPID
  2
GENIUS_GENOBJ-N-SDF_13
 70
     0
  0
APPID
  2
GENIUS_GENREC_14
 70
     0
  0
APPID
  2
GENIUS_GENOBJ-N-REC_13
 70
     0
  0
APPID
  2
GENIUS_GENDIMSH_14
 70
     0
  0
APPID
  2
GENIUS_GENOBJ-N-DIM_13
 70
     0
  0
APPID
  2
GENIUS_GENDIM_13
 70
     0
  0
APPID
  2
GENIUS_GENDTOL_13
 70
     0
  0
APPID
  2
GENIUS_GENOLIS_13
 70
     0
  0
APPID
  2
GENIUS_GENOENT_13
 70
     0
  0
APPID
  2
GENIUS_GENOBJ-F-FEM_13
 70
     0
  0
APPID
  2
GENIUS_GENOREF_13
 70
     0
  0
APPID
  2
GENIUS_GEFFEM_13
 70
     0
  0
APPID
  2
GENIUS_GEFFEMP_13
 70
     0
  0
APPID
  2
AD_DRAW
 70
     0
  0
APPID
  2
DESIGNERASSEMBLIES
 70
     0
  0
APPID
  2
ACADM_DIM_EDIT
 70
     0
  0
APPID
  2
AMDT_DM_ADJ
 70
     0
  0
APPID
  2
ACAD_NAV_VCDISPLAY
 70
     0
  0
APPID
  2
ITEMNAME
 70
     0
  0
APPID
  2
GENIUS_GENOBJ-N-FIL_13
 70
     0
  0
APPID
  2
ACAECLAYERSTANDARD
 70
     0
  0
APPID
  2
ACAD_DSTYLE_DIMJAG
 70
     0
  0
APPID
  2
ACAD_DSTYLE_DIMTALN
 70
     0
  0
APPID
  2
ACAD_DSTYLE_DIMBREAK
 70
     0
  0
APPID
  2
ACAD_DSTYLE_DIMINSPECT
 70
     0
  0
APPID
  2
ACADANNOMONITORALERTICONDI
 70
     0
  0
APPID
  2
ACAD_EXEMPT_FROM_CAD_STANDARDS
 70
     0
  0
APPID
  2
ACAD_MLEADERVER
 70
     0
  0
ENDTAB
  0
TABLE
  2
DIMSTYLE
 70
    29
  0
DIMSTYLE
  2
BIGT
 70
     0
  3

  4

  5
OPEN
  6

  7

 40
1.0
 41
2.2299999999999991
 42
0.5
 43
7.0
 44
1.0
 45
0.0
 46
0.0
 47
0.0
 48
0.01
140
2.7999999999999989
141
0.0
142
0.0
143
25.3999999999999986
144
1.0
145
0.0
146
1.0
147
1.0
 71
     0
 72
     0
 73
     0
 74
     0
 75
     0
 76
     0
 77
     3
 78
     9
170
     0
171
     2
172
     1
173
     0
174
     1
175
     0
176
   256
177
   256
178
    40
  0
DIMSTYLE
  2
AM_ISO
 70
     0
  3

  4
"
  5

  6

  7

 40
1.0
 41
2.5
 42
1.0
 43
10.0
 44
1.0
 45
0.0
 46
0.0
 47
0.1
 48
0.1
140
3.5
141
0.0
142
0.0
143
0.0393701
144
1.0
145
0.0
146
0.71
147
1.5
 71
     0
 72
     0
 73
     0
 74
     0
 75
     0
 76
     0
 77
     1
 78
     8
170
     0
171
     2
172
     1
173
     0
174
     0
175
     0
176
   256
177
   256
178
     2
  0
DIMSTYLE
  2
AM_ISO$3
 70
     0
  3

  4
"
  5

  6

  7

 40
1.0
 41
2.5
 42
1.0
 43
10.0
 44
1.0
 45
0.0
 46
0.0
 47
0.1
 48
0.1
140
3.5
141
0.0
142
0.0
143
0.0393701
144
1.0
145
0.0
146
0.71
147
1.5
 71
     0
 72
     0
 73
     0
 74
     1
 75
     0
 76
     0
 77
     1
 78
     8
170
     0
171
     2
172
     0
173
     0
174
     0
175
     0
176
   256
177
   256
178
     2
  0
DIMSTYLE
  2
AM_ISO$4
 70
     0
  3

  4
"
  5

  6

  7

 40
1.0
 41
2.5
 42
1.0
 43
10.0
 44
1.0
 45
0.0
 46
0.0
 47
0.1
 48
0.1
140
3.5
141
0.0
142
0.0
143
0.0393701
144
1.0
145
0.0
146
0.71
147
1.5
 71
     0
 72
     0
 73
     0
 74
     1
 75
     0
 76
     0
 77
     1
 78
     8
170
     0
171
     2
172
     0
173
     0
174
     0
175
     0
176
   256
177
   256
178
     2
  0
DIMSTYLE
  2
AM_ISO$6
 70
     0
  3

  4
"
  5

  6

  7

 40
1.0
 41
2.5
 42
1.0
 43
10.0
 44
1.0
 45
0.0
 46
0.0
 47
0.1
 48
0.1
140
3.5
141
0.0
142
0.0
143
0.0393701
144
1.0
145
0.0
146
0.71
147
1.5
 71
     0
 72
     0
 73
     0
 74
     0
 75
     0
 76
     0
 77
     0
 78
     8
170
     0
171
     2
172
     1
173
     0
174
     0
175
     0
176
   256
177
   256
178
     2
  0
DIMSTYLE
  2
AM_ISO$7
 70
     0
  3

  4
"
  5

  6

  7

 40
1.0
 41
2.5
 42
1.0
 43
10.0
 44
1.0
 45
0.0
 46
0.0
 47
0.1
 48
0.1
140
5.0
141
0.0
142
0.0
143
0.0393701
144
1.0
145
0.0
146
0.71
147
1.5
 71
     0
 72
     0
 73
     0
 74
     0
 75
     0
 76
     0
 77
     1
 78
     8
170
     0
171
     2
172
     1
173
     0
174
     0
175
     0
176
   256
177
   256
178
     2
  0
DIMSTYLE
  2
AM_ISO$SF
 70
     0
  3

  4
"
  5

  6

  7

 40
1.0
 41
2.5
 42
1.0
 43
10.0
 44
1.0
 45
0.0
 46
0.0
 47
0.1
 48
0.1
140
3.5
141
0.0
142
0.0
143
0.0393701
144
1.0
145
0.0
146
0.71
147
1.5
 71
     0
 72
     0
 73
     0
 74
     0
 75
     1
 76
     1
 77
     1
 78
     8
170
     0
171
     2
172
     1
173
     0
174
     0
175
     0
176
   256
177
   256
178
     2
  0
DIMSTYLE
  2
AM_ISO$SH
 70
     0
  3

  4
"
  5

  6
GENAXEH
  7

 40
1.0
 41
2.5
 42
1.0
 43
10.0
 44
1.0
 45
0.0
 46
0.0
 47
0.1
 48
0.1
140
3.5
141
0.0
142
0.0
143
0.0393701
144
2.0
145
0.0
146
0.71
147
1.5
 71
     0
 72
     0
 73
     0
 74
     0
 75
     1
 76
     1
 77
     1
 78
     8
170
     0
171
     2
172
     1
173
     1
174
     0
175
     0
176
   256
177
   256
178
     2
  0
DIMSTYLE
  2
BIGT$2
 70
     0
  3

  4

  5
OPEN
  6

  7

 40
1.0
 41
2.2299999999999991
 42
0.5
 43
7.0
 44
1.0
 45
0.0
 46
0.0
 47
0.0
 48
0.01
140
2.7999999999999989
141
0.0
142
0.0
143
25.3999999999999986
144
1.0
145
0.0
146
1.0
147
1.0
 71
     0
 72
     0
 73
     0
 74
     0
 75
     0
 76
     0
 77
     3
 78
     9
170
     0
171
     2
172
     1
173
     0
174
     0
175
     0
176
   256
177
   256
178
    40
  0
DIMSTYLE
  2
BIGT$3
 70
     0
  3

  4

  5
OPEN
  6

  7

 40
1.0
 41
2.2299999999999991
 42
0.5
 43
2.5
 44
1.0
 45
0.0
 46
0.0
 47
0.0
 48
0.01
140
2.7999999999999989
141
0.0
142
0.0
143
25.3999999999999986
144
1.0
145
0.0
146
1.0
147
1.0
 71
     0
 72
     0
 73
     0
 74
     0
 75
     0
 76
     0
 77
     3
 78
     9
170
     0
171
     2
172
     1
173
     0
174
     0
175
     0
176
   256
177
   256
178
    40
  0
DIMSTYLE
  2
BIGT$7
 70
     0
  3

  4

  5
OPEN
  6

  7

 40
0.0
 41
2.2299999999999991
 42
0.5
 43
7.0
 44
1.0
 45
0.0
 46
0.0
 47
0.0
 48
0.01
140
2.7999999999999989
141
0.0
142
0.0
143
25.3999999999999986
144
1.0
145
0.0
146
1.0
147
1.0
 71
     0
 72
     0
 73
     0
 74
     0
 75
     0
 76
     0
 77
     3
 78
     9
170
     0
171
     2
172
     0
173
     0
174
     0
175
     0
176
   256
177
   256
178
    40
  0
DIMSTYLE
  2
BIGT$6
 70
     0
  3

  4

  5
OPEN
  6

  7

 40
1.0
 41
2.2299999999999991
 42
0.5
 43
2.5
 44
1.0
 45
0.0
 46
0.0
 47
0.0
 48
0.01
140
2.7999999999999989
141
0.0
142
0.0
143
25.3999999999999986
144
1.0
145
0.0
146
1.0
147
1.0
 71
     0
 72
     0
 73
     0
 74
     0
 75
     0
 76
     0
 77
     3
 78
     9
170
     0
171
     2
172
     1
173
     0
174
     0
175
     0
176
   256
177
   256
178
    40
  0
DIMSTYLE
  2
BIGT$0
 70
     0
  3

  4

  5
OPEN
  6

  7

 40
1.0
 41
2.2299999999999991
 42
0.5
 43
7.0
 44
1.0
 45
0.0
 46
0.0
 47
0.0
 48
0.01
140
2.7999999999999989
141
0.0
142
0.0
143
25.3999999999999986
144
1.0
145
0.0
146
1.0
147
1.0
 71
     0
 72
     0
 73
     0
 74
     0
 75
     0
 76
     0
 77
     3
 78
     9
170
     0
171
     2
172
     1
173
     0
174
     0
175
     0
176
   256
177
   256
178
    40
  0
DIMSTYLE
  2
BIGT$4
 70
     0
  3

  4

  5
OPEN
  6

  7

 40
1.0
 41
2.2299999999999991
 42
0.5
 43
2.5
 44
1.0
 45
0.0
 46
0.0
 47
0.0
 48
0.01
140
2.7999999999999989
141
0.0
142
0.0
143
25.3999999999999986
144
1.0
145
0.0
146
1.0
147
1.0
 71
     0
 72
     0
 73
     0
 74
     0
 75
     0
 76
     0
 77
     3
 78
     9
170
     0
171
     2
172
     1
173
     0
174
     0
175
     0
176
   256
177
   256
178
    40
  0
DIMSTYLE
  2
BIGT$SH
 70
     0
  3

  4

  5
OPEN
  6

  7

 40
1.0
 41
2.2299999999999991
 42
0.5
 43
7.0
 44
1.0
 45
0.0
 46
0.0
 47
0.0
 48
0.0
140
2.7999999999999989
141
0.0
142
0.0
143
25.3999999999999986
144
1.0
145
0.0
146
1.0
147
1.0
 71
     0
 72
     0
 73
     0
 74
     0
 75
     0
 76
     0
 77
     3
 78
     9
170
     0
171
     2
172
     1
173
     0
174
     0
175
     0
176
   256
177
   256
178
    40
  0
DIMSTYLE
  2
BIGT$SF
 70
     0
  3

  4

  5
OPEN
  6

  7

 40
1.0
 41
2.2299999999999991
 42
0.5
 43
7.0
 44
1.0
 45
0.0
 46
0.0
 47
0.0
 48
0.0
140
2.7999999999999989
141
0.0
142
0.0
143
25.3999999999999986
144
1.0
145
0.0
146
1.0
147
1.0
 71
     0
 72
     0
 73
     0
 74
     0
 75
     0
 76
     0
 77
     3
 78
     9
170
     0
171
     2
172
     1
173
     0
174
     0
175
     0
176
   256
177
   256
178
    40
  0
DIMSTYLE
  2
TECHNICAL_OSAKA
 70
     0
  3

  4
"
  5
OPEN30
  6

  7

 40
1.0
 41
2.5
 42
1.0
 43
10.0
 44
1.0
 45
0.0
 46
0.0
 47
0.1
 48
0.1
140
2.7999999999999989
141
0.0
142
0.0
143
0.0393701
144
1.0
145
0.0
146
0.71
147
1.5
 71
     0
 72
     0
 73
     0
 74
     0
 75
     0
 76
     0
 77
     3
 78
     8
170
     0
171
     2
172
     1
173
     0
174
     0
175
     0
176
   256
177
   256
178
    40
  0
DIMSTYLE
  2
TECHNICAL_OSAKA$3
 70
     0
  3

  4
"
  5
OPEN30
  6

  7

 40
1.0
 41
2.5
 42
1.0
 43
10.0
 44
1.0
 45
0.0
 46
0.0
 47
0.1
 48
0.1
140
2.7999999999999989
141
0.0
142
0.0
143
0.0393701
144
1.0
145
0.0
146
0.71
147
1.5
 71
     0
 72
     0
 73
     0
 74
     1
 75
     0
 76
     0
 77
     3
 78
     8
170
     0
171
     2
172
     0
173
     0
174
     0
175
     0
176
   256
177
   256
178
    40
  0
DIMSTYLE
  2
TECHNICAL_OSAKA$4
 70
     0
  3

  4
"
  5
OPEN30
  6

  7

 40
1.0
 41
2.5
 42
1.0
 43
10.0
 44
1.0
 45
0.0
 46
0.0
 47
0.1
 48
0.1
140
2.7999999999999989
141
0.0
142
0.0
143
0.0393701
144
1.0
145
0.0
146
0.71
147
1.5
 71
     0
 72
     0
 73
     0
 74
     1
 75
     0
 76
     0
 77
     3
 78
     8
170
     0
171
     2
172
     0
173
     0
174
     0
175
     0
176
   256
177
   256
178
    40
  0
DIMSTYLE
  2
TECHNICAL_OSAKA$6
 70
     0
  3

  4
"
  5
OPEN30
  6

  7

 40
1.0
 41
2.5
 42
1.0
 43
10.0
 44
1.0
 45
0.0
 46
0.0
 47
0.1
 48
0.1
140
2.7999999999999989
141
0.0
142
0.0
143
0.0393701
144
1.0
145
0.0
146
0.71
147
1.5
 71
     0
 72
     0
 73
     0
 74
     0
 75
     0
 76
     0
 77
     0
 78
     8
170
     0
171
     2
172
     1
173
     0
174
     0
175
     0
176
   256
177
   256
178
    40
  0
DIMSTYLE
  2
TECHNICAL_OSAKA$7
 70
     0
  3

  4
"
  5
OPEN30
  6

  7

 40
1.0
 41
2.5
 42
1.0
 43
10.0
 44
1.0
 45
0.0
 46
0.0
 47
0.1
 48
0.1
140
2.7999999999999989
141
0.0
142
0.0
143
0.0393701
144
1.0
145
0.0
146
0.71
147
1.5
 71
     0
 72
     0
 73
     0
 74
     0
 75
     0
 76
     0
 77
     3
 78
     8
170
     0
171
     2
172
     1
173
     0
174
     0
175
     0
176
   256
177
   256
178
    40
  0
DIMSTYLE
  2
TECHNICAL_OSAKA$SF
 70
     0
  3

  4
"
  5
OPEN30
  6
OPEN30
  7
OPEN30
 40
1.0
 41
2.5
 42
1.0
 43
10.0
 44
1.0
 45
0.0
 46
0.0
 47
0.1
 48
0.1
140
3.5
141
0.0
142
0.0
143
0.0393701
144
1.0
145
0.0
146
0.71
147
1.5
 71
     0
 72
     0
 73
     0
 74
     0
 75
     1
 76
     1
 77
     3
 78
     8
170
     0
171
     2
172
     1
173
     0
174
     0
175
     0
176
   256
177
   256
178
    40
  0
DIMSTYLE
  2
TECHNICAL_OSAKA$SH
 70
     0
  3

  4
"
  5
OPEN30
  6
GENAXEH
  7
OPEN30
 40
1.0
 41
2.5
 42
1.0
 43
10.0
 44
1.0
 45
0.0
 46
0.0
 47
0.1
 48
0.1
140
3.5
141
0.0
142
0.0
143
0.0393701
144
2.0
145
0.0
146
0.71
147
1.5
 71
     0
 72
     0
 73
     0
 74
     0
 75
     1
 76
     1
 77
     3
 78
     8
170
     0
171
     2
172
     1
173
     1
174
     0
175
     0
176
   256
177
   256
178
    40
  0
DIMSTYLE
  2
AM_ANSI
 70
     0
  3

  4
mm
  5

  6

  7

 40
1.0
 41
0.12
 42
0.05
 43
0.5
 44
0.1
 45
0.0
 46
0.0
 47
0.1
 48
0.1
140
0.12
141
0.0
142
0.0
143
25.3999999999999986
144
1.0
145
0.0
146
0.71
147
0.06
 71
     0
 72
     0
 73
     1
 74
     1
 75
     0
 76
     0
 77
     0
 78
     7
170
     0
171
     2
172
     0
173
     0
174
     0
175
     0
176
   256
177
   256
178
     2
  0
DIMSTYLE
  2
AM_ANSI$3
 70
     0
  3

  4
mm
  5

  6

  7

 40
1.0
 41
0.12
 42
0.05
 43
0.5
 44
0.1
 45
0.0
 46
0.0
 47
0.1
 48
0.1
140
0.12
141
0.0
142
0.0
143
25.3999999999999986
144
1.0
145
0.0
146
0.71
147
0.06
 71
     0
 72
     0
 73
     1
 74
     1
 75
     0
 76
     0
 77
     0
 78
     7
170
     0
171
     2
172
     0
173
     0
174
     0
175
     0
176
   256
177
   256
178
     2
  0
DIMSTYLE
  2
AM_ANSI$4
 70
     0
  3

  4
mm
  5

  6

  7

 40
1.0
 41
0.12
 42
0.05
 43
0.5
 44
0.1
 45
0.0
 46
0.0
 47
0.1
 48
0.1
140
0.12
141
0.0
142
0.0
143
25.3999999999999986
144
1.0
145
0.0
146
0.71
147
0.06
 71
     0
 72
     0
 73
     1
 74
     1
 75
     0
 76
     0
 77
     0
 78
     7
170
     0
171
     2
172
     0
173
     0
174
     0
175
     0
176
   256
177
   256
178
     2
  0
DIMSTYLE
  2
AM_ANSI$7
 70
     0
  3

  4
mm
  5

  6

  7

 40
1.0
 41
0.12
 42
0.05
 43
0.5
 44
0.1
 45
0.0
 46
0.0
 47
0.1
 48
0.1
140
0.12
141
0.0
142
0.0
143
25.3999999999999986
144
1.0
145
0.0
146
0.71
147
0.06
 71
     0
 72
     0
 73
     1
 74
     1
 75
     0
 76
     0
 77
     0
 78
     7
170
     0
171
     2
172
     0
173
     0
174
     0
175
     0
176
   256
177
   256
178
     2
  0
DIMSTYLE
  2
AM_ANSI$SF
 70
     0
  3

  4
mm
  5

  6

  7

 40
1.0
 41
0.12
 42
0.05
 43
0.5
 44
0.1
 45
0.0
 46
0.0
 47
0.1
 48
0.1
140
0.12
141
0.0
142
0.0
143
25.3999999999999986
144
1.0
145
0.0
146
0.71
147
0.06
 71
     0
 72
     0
 73
     1
 74
     1
 75
     1
 76
     1
 77
     0
 78
     7
170
     0
171
     2
172
     0
173
     0
174
     0
175
     0
176
   256
177
   256
178
     2
  0
DIMSTYLE
  2
AM_ANSI$SH
 70
     0
  3

  4
mm
  5

  6

  7

 40
1.0
 41
0.12
 42
0.05
 43
0.5
 44
0.1
 45
0.0
 46
0.0
 47
0.1
 48
0.1
140
0.12
141
0.0
142
0.0
143
25.3999999999999986
144
1.0
145
0.0
146
0.71
147
0.06
 71
     0
 72
     0
 73
     1
 74
     1
 75
     1
 76
     1
 77
     0
 78
     7
170
     0
171
     2
172
     0
173
     1
174
     0
175
     0
176
   256
177
   256
178
     2
  0
ENDTAB
  0
ENDSEC
  0
SECTION
  2
BLOCKS
  0
BLOCK
  8
0
  2
$MODEL_SPACE
 70
     0
 10
0.0
 20
0.0
 30
0.0
  3
$MODEL_SPACE
  1

  0
ENDBLK
  5
1C
  8
0
  0
BLOCK
 67
     1
  8
0
  2
$PAPER_SPACE
 70
     0
 10
0.0
 20
0.0
 30
0.0
  3
$PAPER_SPACE
  1

  0
ENDBLK
  5
19
 67
     1
  8
0
  0
BLOCK
  8
0
  2
_OPEN
 70
     0
 10
0.0
 20
0.0
 30
0.0
  3
_OPEN
  1

  0
LINE
  5
595
  8
0
  6
BYBLOCK
 62
     0
 10
-1.0
 20
0.1666666666666666
 30
0.0
 11
0.0
 21
0.0
 31
0.0
  0
LINE
  5
596
  8
0
  6
BYBLOCK
 62
     0
 10
-1.0
 20
-0.1666666666666666
 30
0.0
 11
0.0
 21
0.0
 31
0.0
  0
LINE
  5
597
  8
0
  6
BYBLOCK
 62
     0
 10
0.0
 20
0.0
 30
0.0
 11
-1.0
 21
0.0
 31
0.0
  0
ENDBLK
  5
599
  8
0
  0
BLOCK
  8
0
  2
GENAXEH
 70
     0
 10
0.0
 20
0.0
 30
0.0
  3
GENAXEH
  1

  0
LINE
  5
6E8
  8
0
 10
-1.0
 20
0.0
 30
0.0
 11
1.0
 21
0.0
 31
0.0
  0
ENDBLK
  5
6EA
  8
0
  0
BLOCK
  8
0
  2
_OPEN30
 70
     0
 10
0.0
 20
0.0
 30
0.0
  3
_OPEN30
  1

  0
LINE
  5
E8F
  8
0
  6
BYBLOCK
 62
     0
 10
-1.0
 20
0.26794919
 30
0.0
 11
0.0
 21
0.0
 31
0.0
  0
LINE
  5
E90
  8
0
  6
BYBLOCK
 62
     0
 10
0.0
 20
0.0
 30
0.0
 11
-1.0
 21
-0.26794919
 31
0.0
  0
LINE
  5
E91
  8
0
  6
BYBLOCK
 62
     0
 10
0.0
 20
0.0
 30
0.0
 11
-1.0
 21
0.0
 31
0.0
  0
ENDBLK
  5
E93
  8
0
  0
BLOCK
  8
0
  2
_ACMOPEN15
 70
     0
 10
0.0
 20
0.0
 30
0.0
  3
_ACMOPEN15
  1

  0
LINE
  5
1359
  8
245
 62
     0
 10
-1.0
 20
0.0
 30
0.0
 11
0.0
 21
0.0
 31
0.0
  0
LINE
  5
135A
  8
245
 62
     0
 10
-1.0
 20
-0.131652497
 30
0.0
 11
0.0
 21
0.0
 31
0.0
  0
LINE
  5
135B
  8
245
 62
     0
 10
0.0
 20
0.0
 30
0.0
 11
-1.0
 21
0.131652497
 31
0.0
  0
ENDBLK
  5
1358
  8
0
  0
ENDSEC
  0
SECTION
  2
ENTITIES
  0
LINE
  5
1404
  8
245
  6
CENTER2
 10
-103.5999999999999943
 20
0.0
 30
0.0
 11
128.7777666503370995
 21
0.0
 31
0.0
1001
GRPNAME
1000
PASTMD0L
  0
LINE
  5
1405
  8
240
  6
CONTINUOUS
 10
0.0
 20
34.9250000000000114
 30
0.0
 11
-101.5999999999999943
 21
20.1083333297216917
 31
0.0
1001
GRPNAME
1000
PASTMD0L
  0
LINE
  5
1406
  8
240
  6
CONTINUOUS
 10
0.0
 20
-34.9250000000000114
 30
0.0
 11
-101.5999999999999943
 21
-20.1083333297217202
 31
0.0
1001
GRPNAME
1000
PASTMD0L
  0
LINE
  5
1407
  8
240
  6
CONTINUOUS
 10
-101.5999999999999943
 20
20.1083333297216917
 30
0.0
 11
-101.5999999999999943
 21
-20.1083333297217202
 31
0.0
1001
GRPNAME
1000
PASTMD0L
  0
LINE
  5
1408
  8
241
  6
CONTINUOUS
 10
7.5938332300000013
 20
49.2124999999999702
 30
0.0
 11
7.5938332300000013
 21
12.6999999999964803
 31
0.0
1001
GRPNAME
1000
PASTMD0L
  0
LINE
  5
1409
  8
241
  6
CONTINUOUS
 10
9.2000000000000028
 20
45.6449999999999818
 30
0.0
 11
9.2000000000000028
 21
12.6999999999954802
 31
0.0
1001
GRPNAME
1000
PASTMD0L
  0
LINE
  5
140A
  8
241
  6
CONTINUOUS
 10
13.0399999999999903
 20
45.6449999999999818
 30
0.0
 11
13.0399999999999903
 21
12.6999999999930893
 31
0.0
1001
GRPNAME
1000
PASTMD0L
  0
LINE
  5
140B
  8
241
  6
CONTINUOUS
 10
14.6461667700000007
 20
49.2124999999999702
 30
0.0
 11
14.6461667700000007
 21
12.6999999999920892
 31
0.0
1001
GRPNAME
1000
PASTMD0L
  0
LINE
  5
140C
  8
241
  6
CONTINUOUS
 10
1.5
 20
34.9250000000000114
 30
0.0
 11
1.5
 21
-34.9250000000000114
 31
0.0
1001
GRPNAME
1000
PASTMD0L
  0
LINE
  5
140D
  8
241
  6
CONTINUOUS
 10
9.1999999999999993
 20
-12.6999999999962405
 30
0.0
 11
9.2000000000000028
 21
-45.6450000000000031
 31
0.0
1001
GRPNAME
1000
PASTMD0L
  0
LINE
  5
140E
  8
241
  6
CONTINUOUS
 10
7.5938332300000013
 20
-49.2124999999999986
 30
0.0
 11
7.5938332300000004
 21
-12.6999999999969209
 31
0.0
1001
GRPNAME
1000
PASTMD0L
  0
LINE
  5
140F
  8
241
  6
CONTINUOUS
 10
13.0399999999999903
 20
-45.6450000000000031
 30
0.0
 11
13.0399999999999903
 21
-12.6999999999946294
 31
0.0
1001
GRPNAME
1000
PASTMD0L
  0
LINE
  5
1410
  8
241
  6
CONTINUOUS
 10
14.6461667700000007
 20
-49.2124999999999986
 30
0.0
 11
14.6461667700000007
 21
-12.6999999999939508
 31
0.0
1001
GRPNAME
1000
PASTMD0L
  0
LINE
  5
1411
  8
240
  6
CONTINUOUS
 10
1.5
 20
-49.2124999999999986
 30
0.0
 11
1.5
 21
-34.9250000000000114
 31
0.0
1001
GRPNAME
1000
PASTMD0L
  0
LINE
  5
1412
  8
240
  6
CONTINUOUS
 10
19.0500000000000114
 20
-49.2124999999999986
 30
0.0
 11
19.0500000000001712
 21
-42.280533563296153
 31
0.0
1001
GRPNAME
1000
PASTMD0L
  0
LINE
  5
1413
  8
240
  6
CONTINUOUS
 10
14.6461667700000007
 20
-49.2124999999999986
 30
0.0
 11
19.0500000000000114
 21
-49.2124999999999986
 31
0.0
1001
GRPNAME
1000
PASTMD0L
  0
LINE
  5
1414
  8
240
  6
CONTINUOUS
 10
1.5
 20
-49.2124999999999986
 30
0.0
 11
7.5938332300000013
 21
-49.2124999999999986
 31
0.0
1001
GRPNAME
1000
PASTMD0L
  0
LINE
  5
1415
  8
240
  6
CONTINUOUS
 10
9.2000000000000028
 20
-45.6450000000000031
 30
0.0
 11
13.0399999999999903
 21
-45.6450000000000031
 31
0.0
1001
GRPNAME
1000
PASTMD0L
  0
LINE
  5
1416
  8
240
  6
CONTINUOUS
 10
9.2000000000000028
 20
-46.4305375499999897
 30
0.0
 11
7.5938332300000013
 21
-49.2124999999999986
 31
0.0
1001
GRPNAME
1000
PASTMD0L
  0
LINE
  5
1417
  8
240
  6
CONTINUOUS
 10
9.2000000000000028
 20
-45.6450000000000031
 30
0.0
 11
9.2000000000000028
 21
-46.4305375499999897
 31
0.0
1001
GRPNAME
1000
PASTMD0L
  0
LINE
  5
1418
  8
240
  6
CONTINUOUS
 10
13.0399999999999903
 20
-46.4305375499999897
 30
0.0
 11
14.6461667700000007
 21
-49.2124999999999986
 31
0.0
1001
GRPNAME
1000
PASTMD0L
  0
LINE
  5
1419
  8
240
  6
CONTINUOUS
 10
13.0399999999999903
 20
-45.6450000000000031
 30
0.0
 11
13.0399999999999903
 21
-46.4305375499999897
 31
0.0
1001
GRPNAME
1000
PASTMD0L
  0
LINE
  5
141A
  8
241
  6
CONTINUOUS
 10
0.0
 20
-34.9250000000000114
 30
0.0
 11
0.0
 21
34.9250000000000114
 31
0.0
1001
GRPNAME
1000
PASTMD0L
  0
LINE
  5
141B
  8
240
  6
CONTINUOUS
 10
0.0
 20
-34.9250000000000114
 30
0.0
 11
1.5
 21
-34.9250000000000114
 31
0.0
  0
LINE
  5
141C
  8
240
  6
CONTINUOUS
 10
1.5
 20
49.2124999999999702
 30
0.0
 11
1.5
 21
34.9250000000000114
 31
0.0
1001
GRPNAME
1000
PASTMD0L
  0
LINE
  5
141D
  8
240
  6
CONTINUOUS
 10
19.0500000000000114
 20
49.2124999999999702
 30
0.0
 11
19.0500000000000611
 21
42.2805335632962098
 31
0.0
1001
GRPNAME
1000
PASTMD0L
  0
LINE
  5
141E
  8
240
  6
CONTINUOUS
 10
0.0
 20
34.9250000000000114
 30
0.0
 11
1.5
 21
34.9250000000000114
 31
0.0
  0
LINE
  5
141F
  8
240
  6
CONTINUOUS
 10
14.6461667700000007
 20
49.2124999999999702
 30
0.0
 11
19.0500000000000114
 21
49.2124999999999702
 31
0.0
1001
GRPNAME
1000
PASTMD0L
  0
LINE
  5
1420
  8
240
  6
CONTINUOUS
 10
1.5
 20
49.2124999999999702
 30
0.0
 11
7.5938332300000013
 21
49.2124999999999702
 31
0.0
1001
GRPNAME
1000
PASTMD0L
  0
LINE
  5
1421
  8
240
  6
CONTINUOUS
 10
9.2000000000000028
 20
45.6449999999999818
 30
0.0
 11
13.0399999999999903
 21
45.6449999999999818
 31
0.0
1001
GRPNAME
1000
PASTMD0L
  0
LINE
  5
1422
  8
240
  6
CONTINUOUS
 10
9.2000000000000028
 20
45.6449999999999818
 30
0.0
 11
9.2000000000000028
 21
46.4305375499999897
 31
0.0
1001
GRPNAME
1000
PASTMD0L
  0
LINE
  5
1423
  8
240
  6
CONTINUOUS
 10
9.2000000000000028
 20
46.4305375499999897
 30
0.0
 11
7.5938332300000013
 21
49.2124999999999702
 31
0.0
1001
GRPNAME
1000
PASTMD0L
  0
LINE
  5
1424
  8
240
  6
CONTINUOUS
 10
13.0399999999999903
 20
45.6449999999999818
 30
0.0
 11
13.0399999999999903
 21
46.4305375499999897
 31
0.0
1001
GRPNAME
1000
PASTMD0L
  0
LINE
  5
1425
  8
240
  6
CONTINUOUS
 10
13.0399999999999903
 20
46.4305375499999897
 30
0.0
 11
14.6461667700000007
 21
49.2124999999999702
 31
0.0
1001
GRPNAME
1000
PASTMD0L
  0
TEXT
  5
1426
  8
250
  6
CONTINUOUS
 10
-73.8675778919675849
 20
-37.357738943014617
 30
0.0
 40
2.799999999999998
  1
BCV50Y
  7
YOKO
1001
ITEMNAME
1000
LNSP3
  0
LINE
  5
1427
  8
250
  6
CONTINUOUS
 10
-57.0612186589336901
 20
-38.3577389430146312
 30
0.0
 11
-75.0612186589336829
 21
-38.3577389430146312
 31
0.0
1001
ITEMNAME
1000
LNSP2
  0
LINE
  5
1428
  8
250
  6
CONTINUOUS
 10
-52.088904974520247
 20
-29.0818615630252886
 30
0.0
 11
-50.7999999989336928
 21
-27.5166666630146288
 31
0.0
  0
LINE
  5
1429
  8
250
  6
CONTINUOUS
 10
-51.5116036569175506
 20
-29.4152796686203608
 30
0.0
 11
-50.7999999989336928
 21
-27.5166666630146288
 31
0.0
  0
LINE
  5
142A
  8
250
  6
CONTINUOUS
 10
-50.7999999989336928
 20
-27.5166666630146288
 30
0.0
 11
-51.8002543157188811
 21
-29.2485706158228211
 31
0.0
  0
LINE
  5
142B
  8
250
  6
CONTINUOUS
 10
-51.8002543157188811
 20
-29.2485706158228211
 30
0.0
 11
-57.0612186589336901
 21
-38.3577389430146312
 31
0.0
1001
ACAD
1000
DSTYLE
1002
{
1070
     6
1000
OPEN
1070
    41
1040
2.0
1070
    42
1040
2.0
1070
    44
1040
2.0
1070
   140
1040
4.0
1070
   343
1005
0
1002
}
  0
LINE
  5
142C
  8
247
  6
CONTINUOUS
 10
5.4999999999999432
 20
-26.75
 30
0.0
 11
5.5
 21
-22.1153846156700489
 31
0.0
  0
LINE
  5
142D
  8
247
  6
CONTINUOUS
 10
3.0
 20
-25.9548934999879783
 30
0.0
 11
5.0999999999160082
 21
-26.5570588100573595
 31
0.0
  0
LINE
  5
142E
  8
247
  6
CONTINUOUS
 10
3.996153846113998
 20
-25.3251514035190404
 30
0.0
 11
3.996153846113998
 21
-26.24053601886704
 31
0.0
  0
ARC
  5
142F
  8
247
  6
CONTINUOUS
 10
3.3847190672940992
 20
-25.0872634019468101
 30
0.0
 40
0.3876715809326743
 50
72.9978896752921997
 51
172.9241662185135908
  0
ARC
  5
1430
  8
247
  6
CONTINUOUS
 10
3.305223131028014
 20
-25.3824775568041296
 30
0.0
 40
0.693304796535877
 50
4.7429368522022122
 51
73.8492262732667513
1001
GENIUS_GENOBJ-N-FIL_13
1002
{
1000
OWNER
1000
GEN
1002
}
1001
GENIUS_GENODEF_13
1002
{
1000
HIER
1070
     0
1002
}
1002
{
1000
MANEDIT
1070
     0
1002
}
1002
{
1000
NOSEL
1070
     0
1002
}
1002
{
1000
BEHIND
1070
     0
1002
}
1002
{
1000
OTHER
1070
     0
1002
}
1002
{
1000
REACTOR
1002
}
  0
LINE
  5
1431
  8
247
  6
CONTINUOUS
 10
5.0999999999160082
 20
-25.6416741947093705
 30
0.0
 11
5.0999999999160082
 21
-26.5570588100573595
 31
0.0
  0
LINE
  5
1432
  8
247
  6
CONTINUOUS
 10
3.0
 20
-25.9548934999879783
 30
0.0
 11
3.0
 21
-25.0395088846399894
 31
0.0
  0
ARC
  5
1433
  8
247
  6
CONTINUOUS
 10
4.3874169627678707
 20
-25.3783064762668609
 30
0.0
 40
0.394857301075386
 50
65.990941652528889
 51
172.2634434590690944
  0
ARC
  5
1434
  8
247
  6
CONTINUOUS
 10
4.3912003273325659
 20
-25.7124466104269302
 30
0.0
 40
0.7123241612361686
 50
5.701985164259785
 51
77.2773384368220064
1001
GENIUS_GENOBJ-N-FIL_13
1002
{
1000
OWNER
1000
GEN
1002
}
1001
GENIUS_GENODEF_13
1002
{
1000
HIER
1070
     0
1002
}
1002
{
1000
MANEDIT
1070
     0
1002
}
1002
{
1000
NOSEL
1070
     0
1002
}
1002
{
1000
BEHIND
1070
     0
1002
}
1002
{
1000
OTHER
1070
     0
1002
}
1002
{
1000
REACTOR
1002
}
  0
LINE
  5
1435
  8
247
  6
CONTINUOUS
 10
5.0999999999160082
 20
-24.6839818870633998
 30
0.0
 11
3.0
 21
-24.0818165769940116
 31
0.0
  0
LINE
  5
1436
  8
247
  6
CONTINUOUS
 10
3.0
 20
-22.5856627309079805
 30
0.0
 11
3.0
 21
-22.9816783643036011
 31
0.0
  0
LINE
  5
1437
  8
247
  6
CONTINUOUS
 10
5.0999999999160082
 20
-23.6087396539439816
 30
0.0
 11
5.0999999999160082
 21
-23.1779704231919901
 31
0.0
  0
ARC
  5
1438
  8
247
  6
CONTINUOUS
 10
4.458299595083357
 20
-22.3818165770699693
 30
0.0
 40
1.576855057639547
 50
202.3594881415291127
 51
254.9932485428464872
  0
ARC
  5
1439
  8
247
  6
CONTINUOUS
 10
3.5658188585381341
 20
-22.8475113661332294
 30
0.0
 40
0.6234706797009447
 50
94.9945893190753168
 51
155.1663289573039037
1001
GENIUS_GENOBJ-N-FIL_13
1002
{
1000
OWNER
1000
GEN
1002
}
1001
GENIUS_GENODEF_13
1002
{
1000
HIER
1070
     0
1002
}
1002
{
1000
MANEDIT
1070
     0
1002
}
1002
{
1000
NOSEL
1070
     0
1002
}
1002
{
1000
BEHIND
1070
     0
1002
}
1002
{
1000
OTHER
1070
     0
1002
}
1002
{
1000
REACTOR
1002
}
  0
ARC
  5
143A
  8
247
  6
CONTINUOUS
 10
4.1621021219694381
 20
-23.4441839510328016
 30
0.0
 40
0.9749472149106981
 50
15.8460965557808002
 51
82.325137004169278
  0
ARC
  5
143B
  8
247
  6
CONTINUOUS
 10
4.3714704019710631
 20
-23.035211638772239
 30
0.0
 40
0.9271945638692008
 50
249.7136016704968995
 51
321.7887456564109243
1001
GENIUS_GENOBJ-N-FIL_13
1002
{
1000
OWNER
1000
GEN
1002
}
1001
GENIUS_GENODEF_13
1002
{
1000
HIER
1070
     0
1002
}
1002
{
1000
MANEDIT
1070
     0
1002
}
1002
{
1000
NOSEL
1070
     0
1002
}
1002
{
1000
BEHIND
1070
     0
1002
}
1002
{
1000
OTHER
1070
     0
1002
}
1002
{
1000
REACTOR
1002
}
  0
LINE
  5
143C
  8
247
  6
CONTINUOUS
 10
4.2923076922559744
 20
-22.9625858078159588
 30
0.0
 11
4.2923076922559744
 21
-22.4779704232199684
 31
0.0
  0
ARC
  5
143D
  8
247
  6
CONTINUOUS
 10
4.25
 20
-26.75
 30
0.0
 40
1.25
 50
180.0
 51
0.0
  0
LINE
  5
143E
  8
247
  6
CONTINUOUS
 10
3.0
 20
-26.75
 30
0.0
 11
3.0
 21
-26.3038461539140407
 31
0.0
  0
ARC
  5
143F
  8
247
  6
CONTINUOUS
 10
4.25
 20
-22.1153846156700489
 30
0.0
 40
1.25
 50
0.0
 51
180.0
  0
LINE
  5
1440
  8
241
  6
CONTINUOUS
 10
19.0500000000000114
 20
-42.2805335632962382
 30
0.0
 11
19.0500000000000114
 21
-12.6999999999920892
 31
0.0
  0
LINE
  5
1441
  8
241
  6
CONTINUOUS
 10
19.0500000000000114
 20
12.69999999998935
 30
0.0
 11
3.700000000003171
 21
12.6999999999989104
 31
0.0
  0
LINE
  5
1442
  8
241
  6
CONTINUOUS
 10
19.0500000000000114
 20
-12.6999999999920892
 30
0.0
 11
3.7000000000030568
 21
-12.6999999999985693
 31
0.0
  0
LINE
  5
1443
  8
241
  6
CONTINUOUS
 10
3.7000000000030568
 20
-12.6999999999985693
 30
0.0
 11
1.5000000000001119
 21
-14.8999999999995207
 31
0.0
  0
LINE
  5
1444
  8
241
  6
CONTINUOUS
 10
3.700000000003171
 20
12.6999999999989104
 30
0.0
 11
1.5000000000001701
 21
14.89999999999986
 31
0.0
  0
LINE
  5
1488
  8
243
  6
HIDDEN2
 10
126.9999999999770068
 20
19.0500000000008392
 30
0.0
 11
37.0000000001609806
 21
19.0499999999972793
 31
0.0
  0
LINE
  5
148D
  8
241
  6
CONTINUOUS
 10
59.3660254039486901
 20
-40.0000000000067573
 30
0.0
 11
59.366025403949152
 21
39.9999999999972218
 31
0.0
  0
LINE
  5
148E
  8
241
  6
CONTINUOUS
 10
57.6339745963889527
 20
-40.0000000000048885
 30
0.0
 11
57.6339745963892014
 21
39.9999999999972431
 31
0.0
  0
LINE
  5
148F
  8
241
  6
CONTINUOUS
 10
62.6339745963865724
 20
-40.0000000000048885
 30
0.0
 11
62.6339745963867927
 21
39.9999999999972005
 31
0.0
  0
LINE
  5
1491
  8
240
  6
CONTINUOUS
 10
22.9999999999986287
 20
-39.999999999997442
 30
0.0
 11
121.9089653437868037
 21
-39.9999999999968594
 31
0.0
  0
LINE
  5
1492
  8
240
  6
CONTINUOUS
 10
22.9999999999986287
 20
-39.999999999997442
 30
0.0
 11
19.0500000000000114
 21
-42.2805335632962382
 31
0.0
  0
LINE
  5
1496
  8
241
  6
CONTINUOUS
 10
96.3660254039465514
 20
-40.0000000000067573
 30
0.0
 11
96.3660254039470345
 21
39.9999999999970086
 31
0.0
  0
LINE
  5
1497
  8
241
  6
CONTINUOUS
 10
94.6339745963867927
 20
-40.0000000000048885
 30
0.0
 11
94.6339745963870342
 21
39.9999999999970086
 31
0.0
  0
LINE
  5
1498
  8
241
  6
CONTINUOUS
 10
89.6339745963891659
 20
-40.0000000000048885
 30
0.0
 11
89.6339745963894217
 21
39.9999999999970512
 31
0.0
  0
LINE
  5
1499
  8
241
  6
CONTINUOUS
 10
91.3660254039489246
 20
-40.0000000000067573
 30
0.0
 11
91.3660254039493935
 21
39.999999999997037
 31
0.0
  0
LINE
  5
149B
  8
241
  6
CONTINUOUS
 10
121.9089653438097969
 20
39.9999999999968594
 30
0.0
 11
121.9089653438096974
 21
-39.9999999999968523
 31
0.0
  0
LINE
  5
149C
  8
240
  6
CONTINUOUS
 10
126.9999999999770068
 20
20.9999999999951186
 30
0.0
 11
126.9999999999767937
 21
-20.9999999999959783
 31
0.0
  0
LINE
  5
149D
  8
241
  6
CONTINUOUS
 10
64.3660254039462956
 20
-40.0000000000067573
 30
0.0
 11
64.3660254039467645
 21
39.9999999999971934
 31
0.0
  0
LINE
  5
149F
  8
240
  6
CONTINUOUS
 10
126.9999999999767937
 20
-20.9999999999959783
 30
0.0
 11
121.9089653437868037
 21
-39.9999999999968594
 31
0.0
  0
LINE
  5
14A4
  8
243
  6
HIDDEN2
 10
126.9999999999767937
 20
-19.0500000000008392
 30
0.0
 11
37.0000000001609806
 21
-19.0499999999972793
 31
0.0
  0
LINE
  5
14A5
  8
240
  6
CONTINUOUS
 10
22.9999999999986287
 20
39.999999999997442
 30
0.0
 11
121.9089653437868037
 21
39.9999999999968594
 31
0.0
  0
LINE
  5
14A6
  8
240
  6
CONTINUOUS
 10
22.9999999999986287
 20
39.999999999997442
 30
0.0
 11
19.0500000000000114
 21
42.2805335632962382
 31
0.0
  0
LINE
  5
14A8
  8
240
  6
CONTINUOUS
 10
126.9999999999770068
 20
20.9999999999951186
 30
0.0
 11
121.9089653437868037
 21
39.9999999999968594
 31
0.0
  0
LINE
  5
14BC
  8
241
  6
CONTINUOUS
 10
109.0000000001608953
 20
4.6188021499999987
 30
0.0
 11
113.0000000001607958
 21
2.3094010800000002
 31
0.0
  0
LINE
  5
14BD
  8
241
  6
CONTINUOUS
 10
113.0000000001607958
 20
-2.3094010800000002
 30
0.0
 11
109.0000000001608953
 21
-4.6188021499999987
 31
0.0
  0
CIRCLE
  5
14BE
  8
242
  6
CONTINUOUS
 10
109.0000000001608953
 20
0.0
 30
0.0
 40
7.25
  0
CIRCLE
  5
14BF
  8
241
  6
CONTINUOUS
 10
109.0000000001608953
 20
0.0
 30
0.0
 40
8.0
  0
LINE
  5
14C0
  8
241
  6
CONTINUOUS
 10
105.0000000001607958
 20
-2.3094010800000002
 30
0.0
 11
105.0000000001607958
 21
2.3094010800000002
 31
0.0
  0
LINE
  5
14C1
  8
245
  6
CENTER2
 10
109.0000000001608953
 20
9.0
 30
0.0
 11
109.0000000001608953
 21
-9.0
 31
0.0
  0
LINE
  5
14C2
  8
241
  6
CONTINUOUS
 10
109.0000000001608953
 20
-4.6188021499999987
 30
0.0
 11
105.0000000001607958
 21
-2.3094010800000002
 31
0.0
  0
LINE
  5
14C3
  8
241
  6
CONTINUOUS
 10
105.0000000001607958
 20
2.3094010800000002
 30
0.0
 11
109.0000000001608953
 21
4.6188021499999987
 31
0.0
  0
LINE
  5
14C4
  8
241
  6
CONTINUOUS
 10
113.0000000001607958
 20
2.3094010800000002
 30
0.0
 11
113.0000000001607958
 21
-2.3094010800000002
 31
0.0
  0
LINE
  5
14D3
  8
241
  6
CONTINUOUS
 10
77.0000000001612079
 20
4.6188021499999987
 30
0.0
 11
81.0000000001612079
 21
2.3094010800000002
 31
0.0
  0
LINE
  5
14D4
  8
241
  6
CONTINUOUS
 10
81.0000000001612079
 20
-2.3094010800000002
 30
0.0
 11
77.0000000001612079
 21
-4.6188021499999987
 31
0.0
  0
CIRCLE
  5
14D5
  8
242
  6
CONTINUOUS
 10
77.0000000001612079
 20
0.0
 30
0.0
 40
7.25
  0
CIRCLE
  5
14D6
  8
241
  6
CONTINUOUS
 10
77.0000000001612079
 20
0.0
 30
0.0
 40
8.0
  0
LINE
  5
14D7
  8
241
  6
CONTINUOUS
 10
73.0000000001612079
 20
-2.3094010800000002
 30
0.0
 11
73.0000000001612079
 21
2.3094010800000002
 31
0.0
  0
LINE
  5
14D8
  8
245
  6
CENTER2
 10
77.0000000001612079
 20
9.0
 30
0.0
 11
77.0000000001612079
 21
-9.0
 31
0.0
  0
LINE
  5
14D9
  8
241
  6
CONTINUOUS
 10
77.0000000001612079
 20
-4.6188021499999987
 30
0.0
 11
73.0000000001612079
 21
-2.3094010800000002
 31
0.0
  0
LINE
  5
14DA
  8
241
  6
CONTINUOUS
 10
73.0000000001612079
 20
2.3094010800000002
 30
0.0
 11
77.0000000001612079
 21
4.6188021499999987
 31
0.0
  0
LINE
  5
14DB
  8
241
  6
CONTINUOUS
 10
81.0000000001612079
 20
2.3094010800000002
 30
0.0
 11
81.0000000001612079
 21
-2.3094010800000002
 31
0.0
  0
LINE
  5
14EA
  8
241
  6
CONTINUOUS
 10
45.0000000001609806
 20
4.6188021499999987
 30
0.0
 11
49.0000000001609806
 21
2.3094010800000002
 31
0.0
  0
LINE
  5
14EB
  8
241
  6
CONTINUOUS
 10
49.0000000001609806
 20
-2.3094010800000002
 30
0.0
 11
45.0000000001609806
 21
-4.6188021499999987
 31
0.0
  0
CIRCLE
  5
14EC
  8
242
  6
CONTINUOUS
 10
45.0000000001609806
 20
0.0
 30
0.0
 40
7.25
  0
CIRCLE
  5
14ED
  8
241
  6
CONTINUOUS
 10
45.0000000001609806
 20
0.0
 30
0.0
 40
8.0
  0
LINE
  5
14EE
  8
241
  6
CONTINUOUS
 10
41.0000000001609735
 20
-2.3094010800000002
 30
0.0
 11
41.0000000001609735
 21
2.3094010800000002
 31
0.0
  0
LINE
  5
14EF
  8
245
  6
CENTER2
 10
45.0000000001609806
 20
9.0
 30
0.0
 11
45.0000000001609806
 21
-9.0
 31
0.0
  0
LINE
  5
14F0
  8
241
  6
CONTINUOUS
 10
45.0000000001609806
 20
-4.6188021499999987
 30
0.0
 11
41.0000000001609735
 21
-2.3094010800000002
 31
0.0
  0
LINE
  5
14F1
  8
241
  6
CONTINUOUS
 10
41.0000000001609735
 20
2.3094010800000002
 30
0.0
 11
45.0000000001609806
 21
4.6188021499999987
 31
0.0
  0
LINE
  5
14F2
  8
241
  6
CONTINUOUS
 10
49.0000000001609806
 20
2.3094010800000002
 30
0.0
 11
49.0000000001609806
 21
-2.3094010800000002
 31
0.0
  0
LINE
  5
1502
  8
241
  6
CONTINUOUS
 10
22.9999999999986287
 20
-39.9999999999974989
 30
0.0
 11
22.9999999999986287
 21
-11.5539728616949802
 31
0.0
  0
ARC
  5
152B
  8
241
  6
CONTINUOUS
 10
17.5065555555662407
 20
-0.0000000000013687
 30
0.0
 40
12.7934444444339395
 50
263.0707643980380226
 51
96.92923560193897
  0
LINE
  5
152C
  8
241
  6
CONTINUOUS
 10
19.0500000000000114
 20
12.69999999998935
 30
0.0
 11
19.0500000000000114
 21
42.2805335632962382
 31
0.0
  0
LINE
  5
152D
  8
241
  6
CONTINUOUS
 10
22.9999999999986287
 20
11.5539728616922392
 30
0.0
 11
22.9999999999986287
 21
39.999999999997442
 31
0.0
  0
TEXT
  5
1537
  8
241
  6
CONTINUOUS
 10
-98.0
 20
84.0
 30
0.0
 40
5.0
  1
BCV50Y-BSL1.500-5
  7
YOKO
  0
LINE
  5
1AE8
  8
250
  6
CONTINUOUS
 10
126.9999999999767937
 20
21.4999999999959783
 30
0.0
 11
126.9999999999767937
 21
71.0
 31
0.0
  0
LINE
  5
1AE9
  8
250
  6
CONTINUOUS
 10
0.0
 20
35.4249999999999972
 30
0.0
 11
0.0000000000000022
 21
71.0
 31
0.0
  0
LINE
  5
1AEA
  8
250
  6
CONTINUOUS
 10
124.7699999999768039
 20
70.0
 30
0.0
 11
2.2300000000000022
 21
70.0
 31
0.0
  0
LINE
  5
1AEE
  8
250
  6
CONTINUOUS
 10
124.7699999999768039
 20
70.3716666666666697
 30
0.0
 11
126.9999999999767937
 21
70.0
 31
0.0
  0
LINE
  5
1AEF
  8
250
  6
CONTINUOUS
 10
124.7699999999768039
 20
69.6283333333333303
 30
0.0
 11
126.9999999999767937
 21
70.0
 31
0.0
  0
LINE
  5
1AF0
  8
250
  6
CONTINUOUS
 10
126.9999999999767937
 20
70.0
 30
0.0
 11
124.7699999999768039
 21
70.0
 31
0.0
  0
LINE
  5
1AF1
  8
250
  6
CONTINUOUS
 10
126.9999999999770068
 20
21.1050425072376413
 30
0.0
 11
126.9999999999770068
 21
63.9999999999999929
 31
0.0
  0
LINE
  5
1AF2
  8
250
  6
CONTINUOUS
 10
28.9999997803595306
 20
20.0500000000007184
 30
0.0
 11
28.9999997803595413
 21
63.9999999999999929
 31
0.0
  0
LINE
  5
1AF3
  8
250
  6
CONTINUOUS
 10
124.7699999999770029
 20
62.9999999999999929
 30
0.0
 11
31.2299997803595417
 21
62.9999999999999929
 31
0.0
  0
LINE
  5
1AF7
  8
250
  6
CONTINUOUS
 10
124.7699999999770029
 20
63.3716666666666626
 30
0.0
 11
126.9999999999770068
 21
62.9999999999999929
 31
0.0
  0
LINE
  5
1AF8
  8
250
  6
CONTINUOUS
 10
124.7699999999770029
 20
62.6283333333333303
 30
0.0
 11
126.9999999999770068
 21
62.9999999999999929
 31
0.0
  0
LINE
  5
1AF9
  8
250
  6
CONTINUOUS
 10
126.9999999999770068
 20
62.9999999999999929
 30
0.0
 11
124.7699999999770029
 21
62.9999999999999929
 31
0.0
  0
LINE
  5
1AFA
  8
250
  6
CONTINUOUS
 10
2.2300000000000022
 20
69.6283333333333303
 30
0.0
 11
0.0000000000000021
 21
70.0
 31
0.0
  0
LINE
  5
1AFB
  8
250
  6
CONTINUOUS
 10
2.2300000000000022
 20
70.3716666666666697
 30
0.0
 11
0.0000000000000021
 21
70.0
 31
0.0
  0
LINE
  5
1AFC
  8
250
  6
CONTINUOUS
 10
0.0000000000000021
 20
70.0
 30
0.0
 11
2.2300000000000022
 21
70.0
 31
0.0
  0
LINE
  5
1AFD
  8
250
  6
CONTINUOUS
 10
31.2299997803595417
 20
62.6283333333333303
 30
0.0
 11
28.9999997803595413
 21
62.9999999999999929
 31
0.0
  0
LINE
  5
1AFE
  8
250
  6
CONTINUOUS
 10
31.2299997803595417
 20
63.3716666666666626
 30
0.0
 11
28.9999997803595413
 21
62.9999999999999929
 31
0.0
  0
LINE
  5
1AFF
  8
250
  6
CONTINUOUS
 10
28.9999997803595413
 20
62.9999999999999929
 30
0.0
 11
31.2299997803595417
 21
62.9999999999999929
 31
0.0
  0
TEXT
  5
1B00
  8
250
  6
CONTINUOUS
 10
58.8333333333217396
 20
71.0000000000000142
 30
0.0
 40
2.7999999999999989
  1
5.00
  0
TEXT
  5
1B01
  8
250
  6
CONTINUOUS
 10
66.3999998901682744
 20
65.2000000000000028
 30
0.0
 40
2.7999999999999989
  1
(max.3.85)
  0
LINE
  5
1B02
  8
250
  6
CONTINUOUS
 10
122.4089653437868037
 20
-39.9999999999968665
 30
0.0
 11
146.9999999999795079
 21
-39.9999999999968665
 31
0.0
  0
LINE
  5
1B03
  8
250
  6
CONTINUOUS
 10
122.4089653438097969
 20
39.9999999999110116
 30
0.0
 11
146.9999999999795079
 21
39.9999999999110187
 31
0.0
  0
LINE
  5
1B04
  8
250
  6
CONTINUOUS
 10
145.9999999999795079
 20
-37.7699999999968696
 30
0.0
 11
145.9999999999795079
 21
37.7699999999110219
 31
0.0
  0
LINE
  5
1B08
  8
250
  6
CONTINUOUS
 10
127.4999999999767937
 20
19.0500000000008392
 30
0.0
 11
139.9999999999789964
 21
19.0500000000008392
 31
0.0
  0
LINE
  5
1B09
  8
250
  6
CONTINUOUS
 10
127.4999999999770068
 20
-19.0500000000008392
 30
0.0
 11
139.9999999999789964
 21
-19.0500000000008392
 31
0.0
  0
LINE
  5
1B0A
  8
250
  6
CONTINUOUS
 10
138.9999999999789964
 20
16.8200000000008387
 30
0.0
 11
138.9999999999789964
 21
-16.8200000000008387
 31
0.0
  0
LINE
  5
1B0E
  8
250
  6
CONTINUOUS
 10
145.6283333333128098
 20
37.7699999999110219
 30
0.0
 11
145.9999999999795079
 21
39.9999999999110187
 31
0.0
  0
LINE
  5
1B0F
  8
250
  6
CONTINUOUS
 10
146.3716666666462061
 20
37.7699999999110219
 30
0.0
 11
145.9999999999795079
 21
39.9999999999110187
 31
0.0
  0
LINE
  5
1B10
  8
250
  6
CONTINUOUS
 10
145.9999999999795079
 20
39.9999999999110187
 30
0.0
 11
145.9999999999795079
 21
37.7699999999110219
 31
0.0
  0
LINE
  5
1B11
  8
250
  6
CONTINUOUS
 10
146.3716666666462061
 20
-37.7699999999968696
 30
0.0
 11
145.9999999999795079
 21
-39.9999999999968665
 31
0.0
  0
LINE
  5
1B12
  8
250
  6
CONTINUOUS
 10
145.6283333333128098
 20
-37.7699999999968696
 30
0.0
 11
145.9999999999795079
 21
-39.9999999999968665
 31
0.0
  0
LINE
  5
1B13
  8
250
  6
CONTINUOUS
 10
145.9999999999795079
 20
-39.9999999999968665
 30
0.0
 11
145.9999999999795079
 21
-37.7699999999968696
 31
0.0
  0
LINE
  5
1B14
  8
250
  6
CONTINUOUS
 10
138.6283333333122982
 20
16.8200000000008387
 30
0.0
 11
138.9999999999789964
 21
19.0500000000008392
 31
0.0
  0
LINE
  5
1B15
  8
250
  6
CONTINUOUS
 10
139.3716666666456945
 20
16.8200000000008387
 30
0.0
 11
138.9999999999789964
 21
19.0500000000008392
 31
0.0
  0
LINE
  5
1B16
  8
250
  6
CONTINUOUS
 10
138.9999999999789964
 20
19.0500000000008392
 30
0.0
 11
138.9999999999789964
 21
16.8200000000008387
 31
0.0
  0
LINE
  5
1B17
  8
250
  6
CONTINUOUS
 10
139.3716666666456945
 20
-16.8200000000008387
 30
0.0
 11
138.9999999999789964
 21
-19.0500000000008392
 31
0.0
  0
LINE
  5
1B18
  8
250
  6
CONTINUOUS
 10
138.6283333333122982
 20
-16.8200000000008387
 30
0.0
 11
138.9999999999789964
 21
-19.0500000000008392
 31
0.0
  0
LINE
  5
1B19
  8
250
  6
CONTINUOUS
 10
138.9999999999789964
 20
-19.0500000000008392
 30
0.0
 11
138.9999999999789964
 21
-16.8200000000008387
 31
0.0
  0
TEXT
  5
1B1A
  8
250
  6
CONTINUOUS
 10
137.9999999999789964
 20
-7.2666666666667039
 30
0.0
 40
2.7999999999999989
  1
\U+22051.500
 50
90.0
  0
TEXT
  5
1B1B
  8
250
  6
CONTINUOUS
 10
144.9999999999795079
 20
-7.266666666709634
 30
0.0
 40
2.7999999999999989
  1
\U+22053.150
 50
90.0
  0
VIEWPORT
  5
22
 67
     1
  8
0
 10
261.517699115044195
 20
148.5
 30
0.0
 40
523.0353982300885036
 41
297.0
 68
     1
 69
     1
1001
ACAD
1000
MVIEW
1002
{
1070
    16
1010
0.0
1020
0.0
1030
0.0
1010
0.0
1020
0.0
1030
1.0
1040
0.0
1040
297.0
1040
261.517699115044195
1040
148.5
1040
50.0
1040
0.0
1040
0.0
1070
     0
1070
   100
1070
     1
1070
     1
1070
     0
1070
     0
1070
     0
1070
     0
1040
0.0
1040
0.0
1040
0.0
1040
1.0
1040
1.0
1040
10.0
1040
10.0
1070
     0
1002
{
1002
}
1002
}
1001
GENIUS_GENODEF_13
1002
{
1000
HIER
1070
     0
1002
}
1002
{
1000
MANEDIT
1070
     0
1002
}
1002
{
1000
NOSEL
1070
     0
1002
}
1002
{
1000
BEHIND
1070
     0
1002
}
1002
{
1000
OTHER
1070
     0
1002
}
1002
{
1000
REACTOR
1002
}
1001
GENIUS_GENOBJ-N-SDF_13
1002
{
1000
OWNER
1000
GEN
1002
}
1001
GENIUS_GENSCREG_15
1000
PF
1040
1.0
1000
DF
1040
1.0
1000
MIN
1011
0.0
1021
0.0
1031
0.0
1021
0.0
1031
0.0
1000
MAX
1011
523.0353982300885036
1021
0.0
1031
0.0
1021
297.0
1031
0.0
1000
FLAGS
1070
     4
  0
ENDSEC
  0
EOF
