  0
SECTION
  2
HEADER
  9
$ACADVER
  1
AC1009
  9
$INSBASE
 10
0.0
 20
0.0
 30
0.0
  9
$EXTMIN
 10
-104.0476190476189942
 20
-78.0
 30
0.0
  9
$EXTMAX
 10
346.0000000000011937
 20
96.0
 30
0.0
  9
$LIMMIN
 10
0.0
 20
0.0
  9
$LIMMAX
 10
297.0
 20
210.0
  9
$ORTHOMODE
 70
     0
  9
$REGENMODE
 70
     1
  9
$FILLMODE
 70
     1
  9
$QTEXTMODE
 70
     0
  9
$MIRRTEXT
 70
     1
  9
$DRAGMODE
 70
     2
  9
$LTSCALE
 40
10.0
  9
$OSMODE
 70
   807
  9
$ATTMODE
 70
     1
  9
$TEXTSIZE
 40
3.0
  9
$TRACEWID
 40
1.0
  9
$TEXTSTYLE
  7
YOKO
  9
$CLAYER
  8
240
  9
$CELTYPE
  6
BYLAYER
  9
$CECOLOR
 62
   256
  9
$DIMSCALE
 40
1.0
  9
$DIMASZ
 40
2.2299999999999991
  9
$DIMEXO
 40
0.5
  9
$DIMDLI
 40
7.0
  9
$DIMRND
 40
0.0
  9
$DIMDLE
 40
0.0
  9
$DIMEXE
 40
1.0
  9
$DIMTP
 40
0.0
  9
$DIMTM
 40
0.01
  9
$DIMTXT
 40
2.7999999999999989
  9
$DIMCEN
 40
0.0
  9
$DIMTSZ
 40
0.0
  9
$DIMTOL
 70
     0
  9
$DIMLIM
 70
     0
  9
$DIMTIH
 70
     0
  9
$DIMTOH
 70
     0
  9
$DIMSE1
 70
     0
  9
$DIMSE2
 70
     0
  9
$DIMTAD
 70
     3
  9
$DIMZIN
 70
     9
  9
$DIMBLK
  1
OPEN
  9
$DIMASO
 70
     1
  9
$DIMSHO
 70
     1
  9
$DIMPOST
  1

  9
$DIMAPOST
  1

  9
$DIMALT
 70
     0
  9
$DIMALTD
 70
     2
  9
$DIMALTF
 40
25.3999999999999986
  9
$DIMLFAC
 40
1.0
  9
$DIMTOFL
 70
     1
  9
$DIMTVP
 40
0.0
  9
$DIMTIX
 70
     1
  9
$DIMSOXD
 70
     0
  9
$DIMSAH
 70
     0
  9
$DIMBLK1
  1

  9
$DIMBLK2
  1

  9
$DIMSTYLE
  2
BIGT
  9
$DIMCLRD
 70
   256
  9
$DIMCLRE
 70
   256
  9
$DIMCLRT
 70
    40
  9
$DIMTFAC
 40
1.0
  9
$DIMGAP
 40
1.0
  9
$LUNITS
 70
     2
  9
$LUPREC
 70
     3
  9
$SKETCHINC
 40
1.0
  9
$FILLETRAD
 40
0.0
  9
$AUNITS
 70
     0
  9
$AUPREC
 70
     3
  9
$MENU
  1
.
  9
$ELEVATION
 40
0.0
  9
$PELEVATION
 40
0.0
  9
$THICKNESS
 40
0.0
  9
$LIMCHECK
 70
     0
  9
$BLIPMODE
 70
     0
  9
$CHAMFERA
 40
0.25
  9
$CHAMFERB
 40
0.25
  9
$SKPOLY
 70
     0
  9
$TDCREATE
 40
2458180.583865740802139
  9
$TDUPDATE
 40
2458184.6480671297758818
  9
$TDINDWG
 40
0.0246180556
  9
$TDUSRTIMER
 40
0.0246180556
  9
$USRTIMER
 70
     1
  9
$ANGBASE
 50
0.0
  9
$ANGDIR
 70
     0
  9
$PDMODE
 70
     1
  9
$PDSIZE
 40
0.0
  9
$PLINEWID
 40
0.0
  9
$COORDS
 70
     1
  9
$SPLFRAME
 70
     0
  9
$SPLINETYPE
 70
     6
  9
$SPLINESEGS
 70
     4
  9
$ATTDIA
 70
     1
  9
$ATTREQ
 70
     1
  9
$HANDLING
 70
     1
  9
$HANDSEED
  5
1FD8
  9
$SURFTAB1
 70
     6
  9
$SURFTAB2
 70
     6
  9
$SURFTYPE
 70
     6
  9
$SURFU
 70
     6
  9
$SURFV
 70
     6
  9
$UCSNAME
  2

  9
$UCSORG
 10
0.0
 20
0.0
 30
0.0
  9
$UCSXDIR
 10
1.0
 20
0.0
 30
0.0
  9
$UCSYDIR
 10
0.0
 20
1.0
 30
0.0
  9
$PUCSNAME
  2

  9
$PUCSORG
 10
0.0
 20
0.0
 30
0.0
  9
$PUCSXDIR
 10
1.0
 20
0.0
 30
0.0
  9
$PUCSYDIR
 10
0.0
 20
1.0
 30
0.0
  9
$USERI1
 70
     1
  9
$USERI2
 70
     0
  9
$USERI3
 70
     0
  9
$USERI4
 70
     0
  9
$USERI5
 70
     0
  9
$USERR1
 40
0.0
  9
$USERR2
 40
0.0
  9
$USERR3
 40
0.0
  9
$USERR4
 40
0.0
  9
$USERR5
 40
0.0
  9
$WORLDVIEW
 70
     1
  9
$SHADEDGE
 70
     3
  9
$SHADEDIF
 70
    70
  9
$TILEMODE
 70
     1
  9
$MAXACTVP
 70
    16
  9
$PLIMCHECK
 70
     0
  9
$PEXTMIN
 10
1.0000000000000000E+20
 20
1.0000000000000000E+20
 30
1.0000000000000000E+20
  9
$PEXTMAX
 10
-1.0000000000000000E+20
 20
-1.0000000000000000E+20
 30
-1.0000000000000000E+20
  9
$PLIMMIN
 10
0.0
 20
0.0
  9
$PLIMMAX
 10
420.0
 20
297.0
  9
$UNITMODE
 70
     0
  9
$VISRETAIN
 70
     1
  9
$PLINEGEN
 70
     0
  9
$PSLTSCALE
 70
     1
  0
ENDSEC
  0
SECTION
  2
TABLES
  0
TABLE
  2
VPORT
 70
     1
  0
VPORT
  2
*ACTIVE
 70
     0
 10
0.0
 20
0.0
 11
1.0
 21
1.0
 12
121.169211869068306
 22
-1.637047742195505
 13
0.0
 23
0.0
 14
7.0
 24
7.0
 15
7.0
 25
7.0
 16
0.0
 26
0.0
 36
1.0
 17
0.0
 27
0.0
 37
0.0
 40
271.442222599474178
 41
1.8592342342342341
 42
50.0
 43
0.0
 44
0.0
 50
0.0
 51
0.0
 71
     0
 72
  2000
 73
     1
 74
     0
 75
     0
 76
     1
 77
     0
 78
     0
  0
ENDTAB
  0
TABLE
  2
LTYPE
 70
    16
  0
LTYPE
  2
CONTINUOUS
 70
     0
  3
Solid line
 72
    65
 73
     0
 40
0.0
  0
LTYPE
  2
CENTER2
 70
     0
  3
___ _ ___ _ ___ _ ___ _ ___ _ ___ _ ___ _ ___ _
 72
    65
 73
     4
 40
1.125
 49
0.75
 49
-0.125
 49
0.125
 49
-0.125
  0
LTYPE
  2
HIDDEN2
 70
     0
  3
_ _ _ _ _ _ _ _ _ _ _ _ _ _ _ _ _ _ _ _ _ _ _ _
 72
    65
 73
     2
 40
0.1875
 49
0.125
 49
-0.0625
  0
LTYPE
  2
PHANTOM2
 70
     0
  3
___ _ _ ___ _ _ ___ _ _ ___ _ _ ___ _ _ ___ _ _
 72
    65
 73
     6
 40
1.25
 49
0.625
 49
-0.125
 49
0.125
 49
-0.125
 49
0.125
 49
-0.125
  0
LTYPE
  2
CENTER
 70
     0
  3
____ _ ____ _ ____ _ ____ _ ____ _ ____ _ ____ 
 72
    65
 73
     4
 40
2.0
 49
1.25
 49
-0.25
 49
0.25
 49
-0.25
  0
LTYPE
  2
AM_ISO02W050
 70
     0
  3
__ __ __ __ __ __ __ __ __ __ __ __ __ __ __
 72
    65
 73
     2
 40
7.5
 49
6.0
 49
-1.5
  0
LTYPE
  2
AMCONSTR
 70
     0
  3
_______________________
 72
    65
 73
     2
 40
9999.0
 49
9999.0
 49
0.0
  0
LTYPE
  2
ACISOWELD
 70
     0
  3
_ _ _ _ _
 72
    65
 73
     2
 40
2.0
 49
2.0
 49
-1.0
  0
LTYPE
  2
ACISOTGB
 70
     0
  3
__ . . __ . .
 72
    65
 73
     6
 40
9.0
 49
4.0
 49
-1.0
 49
1.0
 49
-1.0
 49
1.0
 49
-1.0
  0
LTYPE
  2
ACISOTGL
 70
     0
  3
_ _ _ _ _
 72
    65
 73
     2
 40
3.0
 49
2.0
 49
-1.0
  0
LTYPE
  2
ACJISTGB
 70
     0
  3
__ . . __ . .
 72
    65
 73
     6
 40
9.0
 49
4.0
 49
-1.0
 49
1.0
 49
-1.0
 49
1.0
 49
-1.0
  0
LTYPE
  2
ACJISTGL
 70
     0
  3
_ _ _ _ _
 72
    65
 73
     2
 40
3.0
 49
2.0
 49
-1.0
  0
LTYPE
  2
HIDDEN
 70
     0
  3
Hidden __ __ __ __ __ __ __ __ __ __ __ __ __ _
 72
    65
 73
     2
 40
9.5249999999999986
 49
6.3499999999999988
 49
-3.1749999999999989
  0
LTYPE
  2
AMZIGZAG2
 70
     0
  3
/\/-/\/-/\/-/\/-/\/-/\/
 72
    65
 73
     2
 40
0.4401
 49
0.0001
 49
-0.4400000000000003
  0
LTYPE
  2
ACANSTGB
 70
     0
  3
__ . . __ . .
 72
    65
 73
     6
 40
0.35433070866
 49
0.15748031496
 49
-0.03937007874
 49
0.03937007874
 49
-0.03937007874
 49
0.03937007874
 49
-0.03937007874
  0
LTYPE
  2
ACANSTGL
 70
     0
  3
_ _ _ _ _
 72
    65
 73
     2
 40
0.11811023622
 49
0.07874015748
 49
-0.03937007874
  0
ENDTAB
  0
TABLE
  2
LAYER
 70
    10
  0
LAYER
  2
0
 70
     0
 62
     7
  6
CONTINUOUS
  0
LAYER
  2
DEFPOINTS
 70
     0
 62
     7
  6
CONTINUOUS
  0
LAYER
  2
245
 70
     0
 62
     2
  6
CENTER2
  0
LAYER
  2
240
 70
     0
 62
     4
  6
CONTINUOUS
  0
LAYER
  2
241
 70
     0
 62
   211
  6
CONTINUOUS
  0
LAYER
  2
242
 70
     0
 62
     3
  6
CONTINUOUS
  0
LAYER
  2
247
 70
     0
 62
    60
  6
CONTINUOUS
  0
LAYER
  2
250
 70
     0
 62
     3
  6
CONTINUOUS
  0
LAYER
  2
246
 70
     0
 62
     3
  6
PHANTOM2
  0
LAYER
  2
243
 70
     0
 62
   211
  6
HIDDEN2
  0
ENDTAB
  0
TABLE
  2
STYLE
 70
     7
  0
STYLE
  2
STANDARD
 70
     0
 40
0.0
 41
1.0
 50
0.0
 71
     0
 42
3.0
  3
romans.shx
  4
extfont.shx
  0
STYLE
  2
ACISOTS
 70
     0
 40
1.0
 41
1.0
 50
0.0
 71
     0
 42
3.0
  3
amgdt.shx
  4
extfont.shx
  0
STYLE
  2
ACISOGDT
 70
     0
 40
0.0
 41
1.0
 50
0.0
 71
     0
 42
3.0
  3
amgdt.shx
  4
extfont.shx
  0
STYLE
  2
ACJISTS
 70
     0
 40
1.0
 41
1.0
 50
0.0
 71
     0
 42
3.0
  3
amgdt.shx
  4
extfont.shx
  0
STYLE
  2
ACJISGDT
 70
     0
 40
0.0
 41
1.0
 50
0.0
 71
     0
 42
3.0
  3
amgdt.shx
  4
extfont.shx
  0
STYLE
  2
YOKO
 70
     0
 40
0.0
 41
1.0
 50
0.0
 71
     0
 42
3.0
  3
romans.shx
  4
extfont.shx
  0
STYLE
  2
ACANSGDT
 70
     0
 40
0.0
 41
1.0
 50
0.0
 71
     0
 42
3.0
  3
amgdt.shx
  4

  0
ENDTAB
  0
TABLE
  2
VIEW
 70
     0
  0
ENDTAB
  0
TABLE
  2
UCS
 70
     0
  0
ENDTAB
  0
TABLE
  2
APPID
 70
    41
  0
APPID
  2
ACAD
 70
     0
  0
APPID
  2
GLOBAL
 70
     0
  0
APPID
  2
DETAIL
 70
     0
  0
APPID
  2
GRPNAME
 70
     0
  0
APPID
  2
GPARA
 70
     0
  0
APPID
  2
MCAD_NO_VIS
 70
     0
  0
APPID
  2
ACAD_TEMP_GRAPHIC
 70
     0
  0
APPID
  2
ACATTRIBSERVICES
 70
     0
  0
APPID
  2
GENIUS_GENSCREG_15
 70
     0
  0
APPID
  2
GENIUS_GENODEF_13
 70
     0
  0
APPID
  2
GENIUS_GENOBJ-N-SDF_13
 70
     0
  0
APPID
  2
GENIUS_GENREC_14
 70
     0
  0
APPID
  2
GENIUS_GENOBJ-N-REC_13
 70
     0
  0
APPID
  2
GENIUS_GENDIMSH_14
 70
     0
  0
APPID
  2
GENIUS_GENOBJ-N-DIM_13
 70
     0
  0
APPID
  2
GENIUS_GENDIM_13
 70
     0
  0
APPID
  2
GENIUS_GENDTOL_13
 70
     0
  0
APPID
  2
GENIUS_GENOLIS_13
 70
     0
  0
APPID
  2
GENIUS_GENOENT_13
 70
     0
  0
APPID
  2
GENIUS_GENOBJ-F-FEM_13
 70
     0
  0
APPID
  2
GENIUS_GENOREF_13
 70
     0
  0
APPID
  2
GENIUS_GEFFEM_13
 70
     0
  0
APPID
  2
GENIUS_GEFFEMP_13
 70
     0
  0
APPID
  2
AD_DRAW
 70
     0
  0
APPID
  2
DESIGNERASSEMBLIES
 70
     0
  0
APPID
  2
ACADM_DIM_EDIT
 70
     0
  0
APPID
  2
AMDT_DM_ADJ
 70
     0
  0
APPID
  2
ACAD_NAV_VCDISPLAY
 70
     0
  0
APPID
  2
ITEMNAME
 70
     0
  0
APPID
  2
GENIUS_GENOBJ-N-FIL_13
 70
     0
  0
APPID
  2
ACAECLAYERSTANDARD
 70
     0
  0
APPID
  2
GRADE_0
 70
     0
  0
APPID
  2
ACAD_DSTYLE_DIMJAG
 70
     0
  0
APPID
  2
ACAD_DSTYLE_DIMTALN
 70
     0
  0
APPID
  2
ACAD_DSTYLE_DIMBREAK
 70
     0
  0
APPID
  2
ACAD_PSEXT
 70
     0
  0
APPID
  2
ACAD_EXEMPT_FROM_CAD_STANDARDS
 70
     0
  0
APPID
  2
ACAD_DSTYLE_DIMINSPECT
 70
     0
  0
APPID
  2
ACADANNOMONITORALERTICONDI
 70
     0
  0
APPID
  2
ACAD_DSTYLE_DIMRADIAL_EXTENSION
 70
     0
  0
APPID
  2
ACAD_MLEADERVER
 70
     0
  0
ENDTAB
  0
TABLE
  2
DIMSTYLE
 70
    29
  0
DIMSTYLE
  2
BIGT
 70
     0
  3

  4

  5
OPEN
  6

  7

 40
1.0
 41
2.2299999999999991
 42
0.5
 43
7.0
 44
1.0
 45
0.0
 46
0.0
 47
0.0
 48
0.01
140
2.7999999999999989
141
0.0
142
0.0
143
25.3999999999999986
144
1.0
145
0.0
146
1.0
147
1.0
 71
     0
 72
     0
 73
     0
 74
     0
 75
     0
 76
     0
 77
     3
 78
     9
170
     0
171
     2
172
     1
173
     0
174
     1
175
     0
176
   256
177
   256
178
    40
  0
DIMSTYLE
  2
AM_ISO
 70
     0
  3

  4
"
  5

  6

  7

 40
1.0
 41
2.5
 42
1.0
 43
10.0
 44
1.0
 45
0.0
 46
0.0
 47
0.1
 48
0.1
140
3.5
141
0.0
142
0.0
143
0.0393701
144
1.0
145
0.0
146
0.71
147
1.5
 71
     0
 72
     0
 73
     0
 74
     0
 75
     0
 76
     0
 77
     1
 78
     8
170
     0
171
     2
172
     1
173
     0
174
     0
175
     0
176
   256
177
   256
178
     2
  0
DIMSTYLE
  2
AM_ISO$3
 70
     0
  3

  4
"
  5

  6

  7

 40
1.0
 41
2.5
 42
1.0
 43
10.0
 44
1.0
 45
0.0
 46
0.0
 47
0.1
 48
0.1
140
3.5
141
0.0
142
0.0
143
0.0393701
144
1.0
145
0.0
146
0.71
147
1.5
 71
     0
 72
     0
 73
     0
 74
     1
 75
     0
 76
     0
 77
     1
 78
     8
170
     0
171
     2
172
     0
173
     0
174
     0
175
     0
176
   256
177
   256
178
     2
  0
DIMSTYLE
  2
AM_ISO$4
 70
     0
  3

  4
"
  5

  6

  7

 40
1.0
 41
2.5
 42
1.0
 43
10.0
 44
1.0
 45
0.0
 46
0.0
 47
0.1
 48
0.1
140
3.5
141
0.0
142
0.0
143
0.0393701
144
1.0
145
0.0
146
0.71
147
1.5
 71
     0
 72
     0
 73
     0
 74
     1
 75
     0
 76
     0
 77
     1
 78
     8
170
     0
171
     2
172
     0
173
     0
174
     0
175
     0
176
   256
177
   256
178
     2
  0
DIMSTYLE
  2
AM_ISO$6
 70
     0
  3

  4
"
  5

  6

  7

 40
1.0
 41
2.5
 42
1.0
 43
10.0
 44
1.0
 45
0.0
 46
0.0
 47
0.1
 48
0.1
140
3.5
141
0.0
142
0.0
143
0.0393701
144
1.0
145
0.0
146
0.71
147
1.5
 71
     0
 72
     0
 73
     0
 74
     0
 75
     0
 76
     0
 77
     0
 78
     8
170
     0
171
     2
172
     1
173
     0
174
     0
175
     0
176
   256
177
   256
178
     2
  0
DIMSTYLE
  2
AM_ISO$7
 70
     0
  3

  4
"
  5

  6

  7

 40
1.0
 41
2.5
 42
1.0
 43
10.0
 44
1.0
 45
0.0
 46
0.0
 47
0.1
 48
0.1
140
5.0
141
0.0
142
0.0
143
0.0393701
144
1.0
145
0.0
146
0.71
147
1.5
 71
     0
 72
     0
 73
     0
 74
     0
 75
     0
 76
     0
 77
     1
 78
     8
170
     0
171
     2
172
     1
173
     0
174
     0
175
     0
176
   256
177
   256
178
     2
  0
DIMSTYLE
  2
AM_ISO$SF
 70
     0
  3

  4
"
  5

  6

  7

 40
1.0
 41
2.5
 42
1.0
 43
10.0
 44
1.0
 45
0.0
 46
0.0
 47
0.1
 48
0.1
140
3.5
141
0.0
142
0.0
143
0.0393701
144
1.0
145
0.0
146
0.71
147
1.5
 71
     0
 72
     0
 73
     0
 74
     0
 75
     1
 76
     1
 77
     1
 78
     8
170
     0
171
     2
172
     1
173
     0
174
     0
175
     0
176
   256
177
   256
178
     2
  0
DIMSTYLE
  2
AM_ISO$SH
 70
     0
  3

  4
"
  5

  6
GENAXEH
  7

 40
1.0
 41
2.5
 42
1.0
 43
10.0
 44
1.0
 45
0.0
 46
0.0
 47
0.1
 48
0.1
140
3.5
141
0.0
142
0.0
143
0.0393701
144
2.0
145
0.0
146
0.71
147
1.5
 71
     0
 72
     0
 73
     0
 74
     0
 75
     1
 76
     1
 77
     1
 78
     8
170
     0
171
     2
172
     1
173
     1
174
     0
175
     0
176
   256
177
   256
178
     2
  0
DIMSTYLE
  2
BIGT$2
 70
     0
  3

  4

  5
OPEN
  6

  7

 40
1.0
 41
2.2299999999999991
 42
0.5
 43
7.0
 44
1.0
 45
0.0
 46
0.0
 47
0.0
 48
0.01
140
2.7999999999999989
141
0.0
142
0.0
143
25.3999999999999986
144
1.0
145
0.0
146
1.0
147
1.0
 71
     0
 72
     0
 73
     0
 74
     0
 75
     0
 76
     0
 77
     3
 78
     9
170
     0
171
     2
172
     1
173
     0
174
     0
175
     0
176
   256
177
   256
178
    40
  0
DIMSTYLE
  2
BIGT$3
 70
     0
  3

  4

  5
OPEN
  6

  7

 40
1.0
 41
2.2299999999999991
 42
0.5
 43
2.5
 44
1.0
 45
0.0
 46
0.0
 47
0.0
 48
0.01
140
2.7999999999999989
141
0.0
142
0.0
143
25.3999999999999986
144
1.0
145
0.0
146
1.0
147
1.0
 71
     0
 72
     0
 73
     0
 74
     0
 75
     0
 76
     0
 77
     3
 78
     9
170
     0
171
     2
172
     1
173
     0
174
     0
175
     0
176
   256
177
   256
178
    40
  0
DIMSTYLE
  2
BIGT$7
 70
     0
  3

  4

  5
OPEN
  6

  7

 40
0.0
 41
2.2299999999999991
 42
0.5
 43
7.0
 44
1.0
 45
0.0
 46
0.0
 47
0.0
 48
0.01
140
2.7999999999999989
141
0.0
142
0.0
143
25.3999999999999986
144
1.0
145
0.0
146
1.0
147
1.0
 71
     0
 72
     0
 73
     0
 74
     0
 75
     0
 76
     0
 77
     3
 78
     9
170
     0
171
     2
172
     0
173
     0
174
     0
175
     0
176
   256
177
   256
178
    40
  0
DIMSTYLE
  2
BIGT$6
 70
     0
  3

  4

  5
OPEN
  6

  7

 40
1.0
 41
2.2299999999999991
 42
0.5
 43
2.5
 44
1.0
 45
0.0
 46
0.0
 47
0.0
 48
0.01
140
2.7999999999999989
141
0.0
142
0.0
143
25.3999999999999986
144
1.0
145
0.0
146
1.0
147
1.0
 71
     0
 72
     0
 73
     0
 74
     0
 75
     0
 76
     0
 77
     3
 78
     9
170
     0
171
     2
172
     1
173
     0
174
     0
175
     0
176
   256
177
   256
178
    40
  0
DIMSTYLE
  2
BIGT$0
 70
     0
  3

  4

  5
OPEN
  6

  7

 40
1.0
 41
2.2299999999999991
 42
0.5
 43
7.0
 44
1.0
 45
0.0
 46
0.0
 47
0.0
 48
0.01
140
2.7999999999999989
141
0.0
142
0.0
143
25.3999999999999986
144
1.0
145
0.0
146
1.0
147
1.0
 71
     0
 72
     0
 73
     0
 74
     0
 75
     0
 76
     0
 77
     3
 78
     9
170
     0
171
     2
172
     1
173
     0
174
     0
175
     0
176
   256
177
   256
178
    40
  0
DIMSTYLE
  2
BIGT$4
 70
     0
  3

  4

  5
OPEN
  6

  7

 40
1.0
 41
2.2299999999999991
 42
0.5
 43
2.5
 44
1.0
 45
0.0
 46
0.0
 47
0.0
 48
0.01
140
2.7999999999999989
141
0.0
142
0.0
143
25.3999999999999986
144
1.0
145
0.0
146
1.0
147
1.0
 71
     0
 72
     0
 73
     0
 74
     0
 75
     0
 76
     0
 77
     3
 78
     9
170
     0
171
     2
172
     1
173
     0
174
     0
175
     0
176
   256
177
   256
178
    40
  0
DIMSTYLE
  2
BIGT$SH
 70
     0
  3

  4

  5
OPEN
  6

  7

 40
1.0
 41
2.2299999999999991
 42
0.5
 43
7.0
 44
1.0
 45
0.0
 46
0.0
 47
0.0
 48
0.0
140
2.7999999999999989
141
0.0
142
0.0
143
25.3999999999999986
144
1.0
145
0.0
146
1.0
147
1.0
 71
     0
 72
     0
 73
     0
 74
     0
 75
     0
 76
     0
 77
     3
 78
     9
170
     0
171
     2
172
     1
173
     0
174
     0
175
     0
176
   256
177
   256
178
    40
  0
DIMSTYLE
  2
BIGT$SF
 70
     0
  3

  4

  5
OPEN
  6

  7

 40
1.0
 41
2.2299999999999991
 42
0.5
 43
7.0
 44
1.0
 45
0.0
 46
0.0
 47
0.0
 48
0.0
140
2.7999999999999989
141
0.0
142
0.0
143
25.3999999999999986
144
1.0
145
0.0
146
1.0
147
1.0
 71
     0
 72
     0
 73
     0
 74
     0
 75
     0
 76
     0
 77
     3
 78
     9
170
     0
171
     2
172
     1
173
     0
174
     0
175
     0
176
   256
177
   256
178
    40
  0
DIMSTYLE
  2
TECHNICAL_OSAKA
 70
     0
  3

  4
"
  5
OPEN30
  6

  7

 40
1.0
 41
2.5
 42
1.0
 43
10.0
 44
1.0
 45
0.0
 46
0.0
 47
0.1
 48
0.1
140
2.7999999999999989
141
0.0
142
0.0
143
0.0393701
144
1.0
145
0.0
146
0.71
147
1.5
 71
     0
 72
     0
 73
     0
 74
     0
 75
     0
 76
     0
 77
     3
 78
     8
170
     0
171
     2
172
     1
173
     0
174
     0
175
     0
176
   256
177
   256
178
    40
  0
DIMSTYLE
  2
TECHNICAL_OSAKA$3
 70
     0
  3

  4
"
  5
OPEN30
  6

  7

 40
1.0
 41
2.5
 42
1.0
 43
10.0
 44
1.0
 45
0.0
 46
0.0
 47
0.1
 48
0.1
140
2.7999999999999989
141
0.0
142
0.0
143
0.0393701
144
1.0
145
0.0
146
0.71
147
1.5
 71
     0
 72
     0
 73
     0
 74
     1
 75
     0
 76
     0
 77
     3
 78
     8
170
     0
171
     2
172
     0
173
     0
174
     0
175
     0
176
   256
177
   256
178
    40
  0
DIMSTYLE
  2
TECHNICAL_OSAKA$4
 70
     0
  3

  4
"
  5
OPEN30
  6

  7

 40
1.0
 41
2.5
 42
1.0
 43
10.0
 44
1.0
 45
0.0
 46
0.0
 47
0.1
 48
0.1
140
2.7999999999999989
141
0.0
142
0.0
143
0.0393701
144
1.0
145
0.0
146
0.71
147
1.5
 71
     0
 72
     0
 73
     0
 74
     1
 75
     0
 76
     0
 77
     3
 78
     8
170
     0
171
     2
172
     0
173
     0
174
     0
175
     0
176
   256
177
   256
178
    40
  0
DIMSTYLE
  2
TECHNICAL_OSAKA$6
 70
     0
  3

  4
"
  5
OPEN30
  6

  7

 40
1.0
 41
2.5
 42
1.0
 43
10.0
 44
1.0
 45
0.0
 46
0.0
 47
0.1
 48
0.1
140
2.7999999999999989
141
0.0
142
0.0
143
0.0393701
144
1.0
145
0.0
146
0.71
147
1.5
 71
     0
 72
     0
 73
     0
 74
     0
 75
     0
 76
     0
 77
     0
 78
     8
170
     0
171
     2
172
     1
173
     0
174
     0
175
     0
176
   256
177
   256
178
    40
  0
DIMSTYLE
  2
TECHNICAL_OSAKA$7
 70
     0
  3

  4
"
  5
OPEN30
  6

  7

 40
1.0
 41
2.5
 42
1.0
 43
10.0
 44
1.0
 45
0.0
 46
0.0
 47
0.1
 48
0.1
140
2.7999999999999989
141
0.0
142
0.0
143
0.0393701
144
1.0
145
0.0
146
0.71
147
1.5
 71
     0
 72
     0
 73
     0
 74
     0
 75
     0
 76
     0
 77
     3
 78
     8
170
     0
171
     2
172
     1
173
     0
174
     0
175
     0
176
   256
177
   256
178
    40
  0
DIMSTYLE
  2
TECHNICAL_OSAKA$SF
 70
     0
  3

  4
"
  5
OPEN30
  6
OPEN30
  7
OPEN30
 40
1.0
 41
2.5
 42
1.0
 43
10.0
 44
1.0
 45
0.0
 46
0.0
 47
0.1
 48
0.1
140
3.5
141
0.0
142
0.0
143
0.0393701
144
1.0
145
0.0
146
0.71
147
1.5
 71
     0
 72
     0
 73
     0
 74
     0
 75
     1
 76
     1
 77
     3
 78
     8
170
     0
171
     2
172
     1
173
     0
174
     0
175
     0
176
   256
177
   256
178
    40
  0
DIMSTYLE
  2
TECHNICAL_OSAKA$SH
 70
     0
  3

  4
"
  5
OPEN30
  6
GENAXEH
  7
OPEN30
 40
1.0
 41
2.5
 42
1.0
 43
10.0
 44
1.0
 45
0.0
 46
0.0
 47
0.1
 48
0.1
140
3.5
141
0.0
142
0.0
143
0.0393701
144
2.0
145
0.0
146
0.71
147
1.5
 71
     0
 72
     0
 73
     0
 74
     0
 75
     1
 76
     1
 77
     3
 78
     8
170
     0
171
     2
172
     1
173
     1
174
     0
175
     0
176
   256
177
   256
178
    40
  0
DIMSTYLE
  2
AM_ANSI
 70
     0
  3

  4
mm
  5

  6

  7

 40
1.0
 41
0.12
 42
0.05
 43
0.5
 44
0.1
 45
0.0
 46
0.0
 47
0.1
 48
0.1
140
0.12
141
0.0
142
0.0
143
25.3999999999999986
144
1.0
145
0.0
146
0.71
147
0.06
 71
     0
 72
     0
 73
     1
 74
     1
 75
     0
 76
     0
 77
     0
 78
     7
170
     0
171
     2
172
     0
173
     0
174
     0
175
     0
176
   256
177
   256
178
     2
  0
DIMSTYLE
  2
AM_ANSI$3
 70
     0
  3

  4
mm
  5

  6

  7

 40
1.0
 41
0.12
 42
0.05
 43
0.5
 44
0.1
 45
0.0
 46
0.0
 47
0.1
 48
0.1
140
0.12
141
0.0
142
0.0
143
25.3999999999999986
144
1.0
145
0.0
146
0.71
147
0.06
 71
     0
 72
     0
 73
     1
 74
     1
 75
     0
 76
     0
 77
     0
 78
     7
170
     0
171
     2
172
     0
173
     0
174
     0
175
     0
176
   256
177
   256
178
     2
  0
DIMSTYLE
  2
AM_ANSI$4
 70
     0
  3

  4
mm
  5

  6

  7

 40
1.0
 41
0.12
 42
0.05
 43
0.5
 44
0.1
 45
0.0
 46
0.0
 47
0.1
 48
0.1
140
0.12
141
0.0
142
0.0
143
25.3999999999999986
144
1.0
145
0.0
146
0.71
147
0.06
 71
     0
 72
     0
 73
     1
 74
     1
 75
     0
 76
     0
 77
     0
 78
     7
170
     0
171
     2
172
     0
173
     0
174
     0
175
     0
176
   256
177
   256
178
     2
  0
DIMSTYLE
  2
AM_ANSI$7
 70
     0
  3

  4
mm
  5

  6

  7

 40
1.0
 41
0.12
 42
0.05
 43
0.5
 44
0.1
 45
0.0
 46
0.0
 47
0.1
 48
0.1
140
0.12
141
0.0
142
0.0
143
25.3999999999999986
144
1.0
145
0.0
146
0.71
147
0.06
 71
     0
 72
     0
 73
     1
 74
     1
 75
     0
 76
     0
 77
     0
 78
     7
170
     0
171
     2
172
     0
173
     0
174
     0
175
     0
176
   256
177
   256
178
     2
  0
DIMSTYLE
  2
AM_ANSI$SF
 70
     0
  3

  4
mm
  5

  6

  7

 40
1.0
 41
0.12
 42
0.05
 43
0.5
 44
0.1
 45
0.0
 46
0.0
 47
0.1
 48
0.1
140
0.12
141
0.0
142
0.0
143
25.3999999999999986
144
1.0
145
0.0
146
0.71
147
0.06
 71
     0
 72
     0
 73
     1
 74
     1
 75
     1
 76
     1
 77
     0
 78
     7
170
     0
171
     2
172
     0
173
     0
174
     0
175
     0
176
   256
177
   256
178
     2
  0
DIMSTYLE
  2
AM_ANSI$SH
 70
     0
  3

  4
mm
  5

  6

  7

 40
1.0
 41
0.12
 42
0.05
 43
0.5
 44
0.1
 45
0.0
 46
0.0
 47
0.1
 48
0.1
140
0.12
141
0.0
142
0.0
143
25.3999999999999986
144
1.0
145
0.0
146
0.71
147
0.06
 71
     0
 72
     0
 73
     1
 74
     1
 75
     1
 76
     1
 77
     0
 78
     7
170
     0
171
     2
172
     0
173
     1
174
     0
175
     0
176
   256
177
   256
178
     2
  0
ENDTAB
  0
ENDSEC
  0
SECTION
  2
BLOCKS
  0
BLOCK
  8
0
  2
$MODEL_SPACE
 70
     0
 10
0.0
 20
0.0
 30
0.0
  3
$MODEL_SPACE
  1

  0
ENDBLK
  5
1C
  8
0
  0
BLOCK
 67
     1
  8
0
  2
$PAPER_SPACE
 70
     0
 10
0.0
 20
0.0
 30
0.0
  3
$PAPER_SPACE
  1

  0
ENDBLK
  5
19
 67
     1
  8
0
  0
BLOCK
  8
0
  2
_OPEN
 70
     0
 10
0.0
 20
0.0
 30
0.0
  3
_OPEN
  1

  0
LINE
  5
595
  8
0
  6
BYBLOCK
 62
     0
 10
-1.0
 20
0.1666666666666666
 30
0.0
 11
0.0
 21
0.0
 31
0.0
  0
LINE
  5
596
  8
0
  6
BYBLOCK
 62
     0
 10
-1.0
 20
-0.1666666666666666
 30
0.0
 11
0.0
 21
0.0
 31
0.0
  0
LINE
  5
597
  8
0
  6
BYBLOCK
 62
     0
 10
0.0
 20
0.0
 30
0.0
 11
-1.0
 21
0.0
 31
0.0
  0
ENDBLK
  5
599
  8
0
  0
BLOCK
  8
0
  2
GENAXEH
 70
     0
 10
0.0
 20
0.0
 30
0.0
  3
GENAXEH
  1

  0
LINE
  5
6E8
  8
0
 10
-1.0
 20
0.0
 30
0.0
 11
1.0
 21
0.0
 31
0.0
  0
ENDBLK
  5
6EA
  8
0
  0
BLOCK
  8
0
  2
_OPEN30
 70
     0
 10
0.0
 20
0.0
 30
0.0
  3
_OPEN30
  1

  0
LINE
  5
E8F
  8
0
  6
BYBLOCK
 62
     0
 10
-1.0
 20
0.26794919
 30
0.0
 11
0.0
 21
0.0
 31
0.0
  0
LINE
  5
E90
  8
0
  6
BYBLOCK
 62
     0
 10
0.0
 20
0.0
 30
0.0
 11
-1.0
 21
-0.26794919
 31
0.0
  0
LINE
  5
E91
  8
0
  6
BYBLOCK
 62
     0
 10
0.0
 20
0.0
 30
0.0
 11
-1.0
 21
0.0
 31
0.0
  0
ENDBLK
  5
E93
  8
0
  0
BLOCK
  8
0
  2
_ACMOPEN15
 70
     0
 10
0.0
 20
0.0
 30
0.0
  3
_ACMOPEN15
  1

  0
LINE
  5
1359
  8
245
 62
     0
 10
-1.0
 20
0.0
 30
0.0
 11
0.0
 21
0.0
 31
0.0
  0
LINE
  5
135A
  8
245
 62
     0
 10
-1.0
 20
-0.131652497
 30
0.0
 11
0.0
 21
0.0
 31
0.0
  0
LINE
  5
135B
  8
245
 62
     0
 10
0.0
 20
0.0
 30
0.0
 11
-1.0
 21
0.131652497
 31
0.0
  0
ENDBLK
  5
1358
  8
0
  0
ENDSEC
  0
SECTION
  2
ENTITIES
  0
LINE
  5
1404
  8
245
  6
CENTER2
 10
-103.5999999999999943
 20
0.0
 30
0.0
 11
129.1190678608732014
 21
0.0
 31
0.0
1001
GRPNAME
1000
PASTMD0L
  0
LINE
  5
1405
  8
240
  6
CONTINUOUS
 10
0.0
 20
34.9250000000000114
 30
0.0
 11
-101.5999999999999943
 21
20.1083333297216917
 31
0.0
1001
GRPNAME
1000
PASTMD0L
  0
LINE
  5
1406
  8
240
  6
CONTINUOUS
 10
0.0
 20
-34.9250000000000114
 30
0.0
 11
-101.5999999999999943
 21
-20.1083333297217202
 31
0.0
1001
GRPNAME
1000
PASTMD0L
  0
LINE
  5
1407
  8
240
  6
CONTINUOUS
 10
-101.5999999999999943
 20
20.1083333297216917
 30
0.0
 11
-101.5999999999999943
 21
-20.1083333297217202
 31
0.0
1001
GRPNAME
1000
PASTMD0L
  0
LINE
  5
1408
  8
241
  6
CONTINUOUS
 10
7.5938332300000013
 20
49.2124999999999702
 30
0.0
 11
7.5938332300000013
 21
12.6999999999964803
 31
0.0
1001
GRPNAME
1000
PASTMD0L
  0
LINE
  5
1409
  8
241
  6
CONTINUOUS
 10
9.2000000000000028
 20
45.6449999999999818
 30
0.0
 11
9.2000000000000028
 21
12.6999999999954802
 31
0.0
1001
GRPNAME
1000
PASTMD0L
  0
LINE
  5
140A
  8
241
  6
CONTINUOUS
 10
13.0399999999999903
 20
45.6449999999999818
 30
0.0
 11
13.0399999999999903
 21
12.6999999999930893
 31
0.0
1001
GRPNAME
1000
PASTMD0L
  0
LINE
  5
140B
  8
241
  6
CONTINUOUS
 10
14.6461667700000007
 20
49.2124999999999702
 30
0.0
 11
14.6461667700000007
 21
12.6999999999920892
 31
0.0
1001
GRPNAME
1000
PASTMD0L
  0
LINE
  5
140C
  8
241
  6
CONTINUOUS
 10
1.5
 20
34.9250000000000114
 30
0.0
 11
1.5
 21
-34.9250000000000114
 31
0.0
1001
GRPNAME
1000
PASTMD0L
  0
LINE
  5
140D
  8
241
  6
CONTINUOUS
 10
9.1999999999999993
 20
-12.6999999999962405
 30
0.0
 11
9.2000000000000028
 21
-45.6450000000000031
 31
0.0
1001
GRPNAME
1000
PASTMD0L
  0
LINE
  5
140E
  8
241
  6
CONTINUOUS
 10
7.5938332300000013
 20
-49.2124999999999986
 30
0.0
 11
7.5938332300000004
 21
-12.6999999999969209
 31
0.0
1001
GRPNAME
1000
PASTMD0L
  0
LINE
  5
140F
  8
241
  6
CONTINUOUS
 10
13.0399999999999903
 20
-45.6450000000000031
 30
0.0
 11
13.0399999999999903
 21
-12.6999999999946294
 31
0.0
1001
GRPNAME
1000
PASTMD0L
  0
LINE
  5
1410
  8
241
  6
CONTINUOUS
 10
14.6461667700000007
 20
-49.2124999999999986
 30
0.0
 11
14.6461667700000007
 21
-12.6999999999939508
 31
0.0
1001
GRPNAME
1000
PASTMD0L
  0
LINE
  5
1411
  8
240
  6
CONTINUOUS
 10
1.5
 20
-49.2124999999999986
 30
0.0
 11
1.5
 21
-34.9250000000000114
 31
0.0
1001
GRPNAME
1000
PASTMD0L
  0
LINE
  5
1412
  8
240
  6
CONTINUOUS
 10
19.0500000000000114
 20
-49.2124999999999986
 30
0.0
 11
19.0500000000001108
 21
-44.9999999999997584
 31
0.0
1001
GRPNAME
1000
PASTMD0L
  0
LINE
  5
1413
  8
240
  6
CONTINUOUS
 10
14.6461667700000007
 20
-49.2124999999999986
 30
0.0
 11
19.0500000000000114
 21
-49.2124999999999986
 31
0.0
1001
GRPNAME
1000
PASTMD0L
  0
LINE
  5
1414
  8
240
  6
CONTINUOUS
 10
1.5
 20
-49.2124999999999986
 30
0.0
 11
7.5938332300000013
 21
-49.2124999999999986
 31
0.0
1001
GRPNAME
1000
PASTMD0L
  0
LINE
  5
1415
  8
240
  6
CONTINUOUS
 10
9.2000000000000028
 20
-45.6450000000000031
 30
0.0
 11
13.0399999999999903
 21
-45.6450000000000031
 31
0.0
1001
GRPNAME
1000
PASTMD0L
  0
LINE
  5
1416
  8
240
  6
CONTINUOUS
 10
9.2000000000000028
 20
-46.4305375499999897
 30
0.0
 11
7.5938332300000013
 21
-49.2124999999999986
 31
0.0
1001
GRPNAME
1000
PASTMD0L
  0
LINE
  5
1417
  8
240
  6
CONTINUOUS
 10
9.2000000000000028
 20
-45.6450000000000031
 30
0.0
 11
9.2000000000000028
 21
-46.4305375499999897
 31
0.0
1001
GRPNAME
1000
PASTMD0L
  0
LINE
  5
1418
  8
240
  6
CONTINUOUS
 10
13.0399999999999903
 20
-46.4305375499999897
 30
0.0
 11
14.6461667700000007
 21
-49.2124999999999986
 31
0.0
1001
GRPNAME
1000
PASTMD0L
  0
LINE
  5
1419
  8
240
  6
CONTINUOUS
 10
13.0399999999999903
 20
-45.6450000000000031
 30
0.0
 11
13.0399999999999903
 21
-46.4305375499999897
 31
0.0
1001
GRPNAME
1000
PASTMD0L
  0
LINE
  5
141A
  8
241
  6
CONTINUOUS
 10
0.0
 20
-34.9250000000000114
 30
0.0
 11
0.0
 21
34.9250000000000114
 31
0.0
1001
GRPNAME
1000
PASTMD0L
  0
LINE
  5
141B
  8
240
  6
CONTINUOUS
 10
0.0
 20
-34.9250000000000114
 30
0.0
 11
1.5
 21
-34.9250000000000114
 31
0.0
  0
LINE
  5
141C
  8
240
  6
CONTINUOUS
 10
1.5
 20
49.2124999999999702
 30
0.0
 11
1.5
 21
34.9250000000000114
 31
0.0
1001
GRPNAME
1000
PASTMD0L
  0
LINE
  5
141D
  8
240
  6
CONTINUOUS
 10
19.0500000000000114
 20
49.2124999999999702
 30
0.0
 11
19.0500000000000398
 21
45.0000000000004476
 31
0.0
1001
GRPNAME
1000
PASTMD0L
  0
LINE
  5
141E
  8
240
  6
CONTINUOUS
 10
0.0
 20
34.9250000000000114
 30
0.0
 11
1.5
 21
34.9250000000000114
 31
0.0
  0
LINE
  5
141F
  8
240
  6
CONTINUOUS
 10
14.6461667700000007
 20
49.2124999999999702
 30
0.0
 11
19.0500000000000114
 21
49.2124999999999702
 31
0.0
1001
GRPNAME
1000
PASTMD0L
  0
LINE
  5
1420
  8
240
  6
CONTINUOUS
 10
1.5
 20
49.2124999999999702
 30
0.0
 11
7.5938332300000013
 21
49.2124999999999702
 31
0.0
1001
GRPNAME
1000
PASTMD0L
  0
LINE
  5
1421
  8
240
  6
CONTINUOUS
 10
9.2000000000000028
 20
45.6449999999999818
 30
0.0
 11
13.0399999999999903
 21
45.6449999999999818
 31
0.0
1001
GRPNAME
1000
PASTMD0L
  0
LINE
  5
1422
  8
240
  6
CONTINUOUS
 10
9.2000000000000028
 20
45.6449999999999818
 30
0.0
 11
9.2000000000000028
 21
46.4305375499999897
 31
0.0
1001
GRPNAME
1000
PASTMD0L
  0
LINE
  5
1423
  8
240
  6
CONTINUOUS
 10
9.2000000000000028
 20
46.4305375499999897
 30
0.0
 11
7.5938332300000013
 21
49.2124999999999702
 31
0.0
1001
GRPNAME
1000
PASTMD0L
  0
LINE
  5
1424
  8
240
  6
CONTINUOUS
 10
13.0399999999999903
 20
45.6449999999999818
 30
0.0
 11
13.0399999999999903
 21
46.4305375499999897
 31
0.0
1001
GRPNAME
1000
PASTMD0L
  0
LINE
  5
1425
  8
240
  6
CONTINUOUS
 10
13.0399999999999903
 20
46.4305375499999897
 30
0.0
 11
14.6461667700000007
 21
49.2124999999999702
 31
0.0
1001
GRPNAME
1000
PASTMD0L
  0
TEXT
  5
1426
  8
250
  6
CONTINUOUS
 10
-73.8675778919675849
 20
-37.357738943014617
 30
0.0
 40
2.799999999999998
  1
BCV50Y
  7
YOKO
1001
ITEMNAME
1000
LNSP3
  0
LINE
  5
1427
  8
250
  6
CONTINUOUS
 10
-57.0612186589336901
 20
-38.3577389430146312
 30
0.0
 11
-75.0612186589336829
 21
-38.3577389430146312
 31
0.0
1001
ITEMNAME
1000
LNSP2
  0
LINE
  5
1428
  8
250
  6
CONTINUOUS
 10
-52.088904974520247
 20
-29.0818615630252886
 30
0.0
 11
-50.7999999989336928
 21
-27.5166666630146288
 31
0.0
  0
LINE
  5
1429
  8
250
  6
CONTINUOUS
 10
-51.5116036569175506
 20
-29.4152796686203608
 30
0.0
 11
-50.7999999989336928
 21
-27.5166666630146288
 31
0.0
  0
LINE
  5
142A
  8
250
  6
CONTINUOUS
 10
-50.7999999989336928
 20
-27.5166666630146288
 30
0.0
 11
-51.8002543157188811
 21
-29.2485706158228211
 31
0.0
  0
LINE
  5
142B
  8
250
  6
CONTINUOUS
 10
-51.8002543157188811
 20
-29.2485706158228211
 30
0.0
 11
-57.0612186589336901
 21
-38.3577389430146312
 31
0.0
1001
ACAD
1000
DSTYLE
1002
{
1070
     6
1000
OPEN
1070
    41
1040
2.0
1070
    42
1040
2.0
1070
    44
1040
2.0
1070
   140
1040
4.0
1070
   343
1005
0
1002
}
  0
LINE
  5
142C
  8
247
  6
CONTINUOUS
 10
5.4999999999999432
 20
-26.75
 30
0.0
 11
5.5
 21
-22.1153846156700489
 31
0.0
  0
LINE
  5
142D
  8
247
  6
CONTINUOUS
 10
3.0
 20
-25.9548934999879783
 30
0.0
 11
5.0999999999160082
 21
-26.5570588100573595
 31
0.0
  0
LINE
  5
142E
  8
247
  6
CONTINUOUS
 10
3.996153846113998
 20
-25.3251514035190404
 30
0.0
 11
3.996153846113998
 21
-26.24053601886704
 31
0.0
  0
ARC
  5
142F
  8
247
  6
CONTINUOUS
 10
3.3847190672940992
 20
-25.0872634019468101
 30
0.0
 40
0.3876715809326743
 50
72.997889675292214
 51
172.9241662185135908
  0
ARC
  5
1430
  8
247
  6
CONTINUOUS
 10
3.305223131028014
 20
-25.3824775568041296
 30
0.0
 40
0.6933047965358772
 50
4.7429368522022122
 51
73.8492262732667513
1001
GENIUS_GENOBJ-N-FIL_13
1002
{
1000
OWNER
1000
GEN
1002
}
1001
GENIUS_GENODEF_13
1002
{
1000
HIER
1070
     0
1002
}
1002
{
1000
MANEDIT
1070
     0
1002
}
1002
{
1000
NOSEL
1070
     0
1002
}
1002
{
1000
BEHIND
1070
     0
1002
}
1002
{
1000
OTHER
1070
     0
1002
}
1002
{
1000
REACTOR
1002
}
  0
LINE
  5
1431
  8
247
  6
CONTINUOUS
 10
5.0999999999160082
 20
-25.6416741947093705
 30
0.0
 11
5.0999999999160082
 21
-26.5570588100573595
 31
0.0
  0
LINE
  5
1432
  8
247
  6
CONTINUOUS
 10
3.0
 20
-25.9548934999879783
 30
0.0
 11
3.0
 21
-25.0395088846399894
 31
0.0
  0
ARC
  5
1433
  8
247
  6
CONTINUOUS
 10
4.3874169627678707
 20
-25.3783064762668609
 30
0.0
 40
0.394857301075386
 50
65.990941652528889
 51
172.2634434590690944
  0
ARC
  5
1434
  8
247
  6
CONTINUOUS
 10
4.391200327332565
 20
-25.7124466104269302
 30
0.0
 40
0.7123241612361686
 50
5.701985164259785
 51
77.2773384368220064
1001
GENIUS_GENOBJ-N-FIL_13
1002
{
1000
OWNER
1000
GEN
1002
}
1001
GENIUS_GENODEF_13
1002
{
1000
HIER
1070
     0
1002
}
1002
{
1000
MANEDIT
1070
     0
1002
}
1002
{
1000
NOSEL
1070
     0
1002
}
1002
{
1000
BEHIND
1070
     0
1002
}
1002
{
1000
OTHER
1070
     0
1002
}
1002
{
1000
REACTOR
1002
}
  0
LINE
  5
1435
  8
247
  6
CONTINUOUS
 10
5.0999999999160082
 20
-24.6839818870633998
 30
0.0
 11
3.0
 21
-24.0818165769940116
 31
0.0
  0
LINE
  5
1436
  8
247
  6
CONTINUOUS
 10
3.0
 20
-22.5856627309079805
 30
0.0
 11
3.0
 21
-22.9816783643036011
 31
0.0
  0
LINE
  5
1437
  8
247
  6
CONTINUOUS
 10
5.0999999999160082
 20
-23.6087396539439816
 30
0.0
 11
5.0999999999160082
 21
-23.1779704231919901
 31
0.0
  0
ARC
  5
1438
  8
247
  6
CONTINUOUS
 10
4.4582995950833562
 20
-22.3818165770699693
 30
0.0
 40
1.576855057639547
 50
202.3594881415291127
 51
254.9932485428464872
  0
ARC
  5
1439
  8
247
  6
CONTINUOUS
 10
3.5658188585381341
 20
-22.8475113661332294
 30
0.0
 40
0.6234706797009447
 50
94.9945893190753168
 51
155.1663289573039037
1001
GENIUS_GENOBJ-N-FIL_13
1002
{
1000
OWNER
1000
GEN
1002
}
1001
GENIUS_GENODEF_13
1002
{
1000
HIER
1070
     0
1002
}
1002
{
1000
MANEDIT
1070
     0
1002
}
1002
{
1000
NOSEL
1070
     0
1002
}
1002
{
1000
BEHIND
1070
     0
1002
}
1002
{
1000
OTHER
1070
     0
1002
}
1002
{
1000
REACTOR
1002
}
  0
ARC
  5
143A
  8
247
  6
CONTINUOUS
 10
4.1621021219694381
 20
-23.4441839510328016
 30
0.0
 40
0.974947214910698
 50
15.8460965557808002
 51
82.325137004169278
  0
ARC
  5
143B
  8
247
  6
CONTINUOUS
 10
4.3714704019710631
 20
-23.035211638772239
 30
0.0
 40
0.9271945638692008
 50
249.7136016704968995
 51
321.7887456564109243
1001
GENIUS_GENOBJ-N-FIL_13
1002
{
1000
OWNER
1000
GEN
1002
}
1001
GENIUS_GENODEF_13
1002
{
1000
HIER
1070
     0
1002
}
1002
{
1000
MANEDIT
1070
     0
1002
}
1002
{
1000
NOSEL
1070
     0
1002
}
1002
{
1000
BEHIND
1070
     0
1002
}
1002
{
1000
OTHER
1070
     0
1002
}
1002
{
1000
REACTOR
1002
}
  0
LINE
  5
143C
  8
247
  6
CONTINUOUS
 10
4.2923076922559744
 20
-22.9625858078159588
 30
0.0
 11
4.2923076922559744
 21
-22.4779704232199684
 31
0.0
  0
ARC
  5
143D
  8
247
  6
CONTINUOUS
 10
4.25
 20
-26.75
 30
0.0
 40
1.25
 50
180.0
 51
0.0
  0
LINE
  5
143E
  8
247
  6
CONTINUOUS
 10
3.0
 20
-26.75
 30
0.0
 11
3.0
 21
-26.3038461539140407
 31
0.0
  0
ARC
  5
143F
  8
247
  6
CONTINUOUS
 10
4.25
 20
-22.1153846156700489
 30
0.0
 40
1.25
 50
0.0
 51
180.0
  0
LINE
  5
1440
  8
241
  6
CONTINUOUS
 10
19.0500000000000114
 20
-44.9999999999997584
 30
0.0
 11
19.0500000000000114
 21
-12.6999999999920892
 31
0.0
  0
LINE
  5
1441
  8
241
  6
CONTINUOUS
 10
19.0500000000000114
 20
12.69999999998935
 30
0.0
 11
3.700000000003171
 21
12.6999999999989104
 31
0.0
  0
LINE
  5
1442
  8
241
  6
CONTINUOUS
 10
19.0500000000000114
 20
-12.6999999999920892
 30
0.0
 11
3.700000000003056
 21
-12.6999999999985693
 31
0.0
  0
LINE
  5
1443
  8
241
  6
CONTINUOUS
 10
3.700000000003056
 20
-12.6999999999985693
 30
0.0
 11
1.500000000000111
 21
-14.8999999999995207
 31
0.0
  0
LINE
  5
1444
  8
241
  6
CONTINUOUS
 10
3.700000000003171
 20
12.6999999999989104
 30
0.0
 11
1.5000000000001701
 21
14.89999999999986
 31
0.0
  0
LINE
  5
1516
  8
240
  6
CONTINUOUS
 10
19.0500000000000291
 20
45.0000000000004476
 30
0.0
 11
127.000000000000199
 21
45.0000000000003268
 31
0.0
  0
LINE
  5
151C
  8
245
  6
CENTER2
 10
51.1071478435640714
 20
29.0000000000004583
 30
0.0
 11
121.9869621524997001
 21
29.0000000000003411
 31
0.0
  0
LINE
  5
151D
  8
243
  6
HIDDEN2
 10
126.7999999999999972
 20
13.2500000000002292
 30
0.0
 11
42.0000000000002274
 21
13.2500000000003393
 31
0.0
  0
LINE
  5
151E
  8
240
  6
CONTINUOUS
 10
101.1720409991216059
 20
-39.2106965702040497
 30
0.0
 11
34.9999999999993108
 21
-44.9999999999997726
 31
0.0
  0
LINE
  5
151F
  8
241
  6
CONTINUOUS
 10
33.0000000000079581
 20
-44.9999999999998792
 30
0.0
 11
33.0000000000082991
 21
45.0000000000002274
 31
0.0
  0
LINE
  5
1520
  8
241
  6
CONTINUOUS
 10
34.7141428428527732
 20
-44.9999999999997726
 30
0.0
 11
34.7141428428531071
 21
45.0000000000003411
 31
0.0
  0
LINE
  5
1522
  8
240
  6
CONTINUOUS
 10
19.0500000000001108
 20
-44.9999999999997584
 30
0.0
 11
34.9999999999993108
 21
-44.9999999999997726
 31
0.0
  0
LINE
  5
152B
  8
243
  6
HIDDEN2
 10
42.0000000000002274
 20
13.2500000000003393
 30
0.0
 11
42.0000000000003268
 21
45.0000000000004476
 31
0.0
  0
LINE
  5
1537
  8
240
  6
CONTINUOUS
 10
126.9999999999999005
 20
-15.0294372515224897
 30
0.0
 11
127.000000000000199
 21
45.0000000000003268
 31
0.0
  0
ARC
  5
153A
  8
240
  6
CONTINUOUS
 10
99.428926144168372
 20
-19.286802608369161
 30
0.0
 40
20.0
 50
274.9999999999997726
 51
315.0
  0
ARC
  5
153E
  8
240
  6
CONTINUOUS
 10
114.9999999999999005
 20
-15.0294372515223795
 30
0.0
 40
12.0
 50
315.0
 51
0.0
  0
LINE
  5
153F
  8
240
  6
CONTINUOUS
 10
123.4852813742383972
 20
-23.51471862576091
 30
0.0
 11
113.5710617678992946
 21
-33.4289382321001085
 31
0.0
  0
ARC
  5
1566
  8
241
  6
CONTINUOUS
 10
19.1000000000000192
 20
0.0000000000000284
 30
0.0
 40
12.6999999999997009
 50
269.9999823999074806
 51
90.0
  0
LINE
  5
15EE
  8
241
  6
CONTINUOUS
 10
19.0500000000000007
 20
12.69999999998935
 30
0.0
 11
19.0500000000000114
 21
45.0000000000004476
 31
0.0
  0
ARC
  5
1714
  8
246
  6
PHANTOM2
 10
280.0000000000014211
 20
-0.0000000000019327
 30
0.0
 40
63.9999999999998792
 50
32.6423790958519291
 51
327.3576209041552829
  0
LINE
  5
1715
  8
245
  6
CENTER2
 10
280.0000000000005116
 20
65.9999999999979536
 30
0.0
 11
280.0000000000014211
 21
-66.000000000001819
 31
0.0
  0
LINE
  5
1717
  8
241
  6
CONTINUOUS
 10
256.8290651030241065
 20
-38.5760000000020682
 30
0.0
 11
330.2125132983255185
 21
-38.5760000000020682
 31
0.0
  0
LINE
  5
1718
  8
241
  6
CONTINUOUS
 10
239.6887112585087038
 20
-20.00000000000216
 30
0.0
 11
340.7947366142839769
 21
-20.0000000000012506
 31
0.0
  0
LINE
  5
171D
  8
240
  6
CONTINUOUS
 10
280.0000000000009095
 20
44.9999999999987423
 30
0.0
 11
313.4813380855673017
 21
44.9999999999987423
 31
0.0
  0
LINE
  5
171E
  8
240
  6
CONTINUOUS
 10
280.0000000000009095
 20
-45.0000000000012506
 30
0.0
 11
313.4813380855680975
 21
-45.0000000000012506
 31
0.0
  0
LINE
  5
171F
  8
245
  6
CENTER2
 10
346.0000000000011937
 20
-0.0000000000011369
 30
0.0
 11
214.0000000000013927
 21
-0.0000000000025011
 31
0.0
  0
ARC
  5
1726
  8
240
  6
CONTINUOUS
 10
280.0000000000009095
 20
-0.0000000000012506
 30
0.0
 40
45.0
 50
90.0000176000957026
 51
270.0
  0
LINE
  5
1727
  8
241
  6
CONTINUOUS
 10
311.7500000000001137
 20
13.2499999999982894
 30
0.0
 11
311.7500000000002274
 21
44.9999999999987494
 31
0.0
  0
LINE
  5
174C
  8
241
  6
CONTINUOUS
 10
311.7500000000001137
 20
13.2499999999982894
 30
0.0
 11
280.0000000000007958
 21
13.2499999999982894
 31
0.0
  0
ARC
  5
174D
  8
241
  6
CONTINUOUS
 10
256.0000000000011937
 20
7.4461524227050404
 30
0.0
 40
7.9495399805384821
 50
168.7281791448916977
 51
11.2718208551082704
  0
POLYLINE
  5
174E
  8
241
  6
CONTINUOUS
 10
263.7962005880260676
 20
8.9999999999984652
 30
0.0
 66
     1
 70
     8
  0
VERTEX
  8
241
  5
1ED4
 10
263.796
 20
9.00000
 30
0.000000
  70
    32
  0
VERTEX
  8
241
  5
1ED5
 10
263.757
 20
9.18866
 30
0.000000
  70
    32
  0
VERTEX
  8
241
  5
1ED6
 10
263.714
 20
9.37632
 30
0.000000
  70
    32
  0
VERTEX
  8
241
  5
1ED7
 10
263.668
 20
9.56290
 30
0.000000
  70
    32
  0
VERTEX
  8
241
  5
1ED8
 10
263.618
 20
9.74832
 30
0.000000
  70
    32
  0
VERTEX
  8
241
  5
1ED9
 10
263.565
 20
9.93250
 30
0.000000
  70
    32
  0
VERTEX
  8
241
  5
1EDA
 10
263.509
 20
10.1153
 30
0.000000
  70
    32
  0
VERTEX
  8
241
  5
1EDB
 10
263.449
 20
10.2968
 30
0.000000
  70
    32
  0
VERTEX
  8
241
  5
1EDC
 10
263.386
 20
10.4767
 30
0.000000
  70
    32
  0
VERTEX
  8
241
  5
1EDD
 10
263.320
 20
10.6551
 30
0.000000
  70
    32
  0
VERTEX
  8
241
  5
1EDE
 10
263.251
 20
10.8319
 30
0.000000
  70
    32
  0
VERTEX
  8
241
  5
1EDF
 10
263.178
 20
11.0069
 30
0.000000
  70
    32
  0
VERTEX
  8
241
  5
1EE0
 10
263.102
 20
11.1801
 30
0.000000
  70
    32
  0
VERTEX
  8
241
  5
1EE1
 10
263.023
 20
11.3515
 30
0.000000
  70
    32
  0
VERTEX
  8
241
  5
1EE2
 10
262.941
 20
11.5209
 30
0.000000
  70
    32
  0
VERTEX
  8
241
  5
1EE3
 10
262.856
 20
11.6882
 30
0.000000
  70
    32
  0
VERTEX
  8
241
  5
1EE4
 10
262.768
 20
11.8535
 30
0.000000
  70
    32
  0
VERTEX
  8
241
  5
1EE5
 10
262.677
 20
12.0166
 30
0.000000
  70
    32
  0
VERTEX
  8
241
  5
1EE6
 10
262.583
 20
12.1774
 30
0.000000
  70
    32
  0
VERTEX
  8
241
  5
1EE7
 10
262.486
 20
12.3359
 30
0.000000
  70
    32
  0
VERTEX
  8
241
  5
1EE8
 10
262.386
 20
12.4921
 30
0.000000
  70
    32
  0
VERTEX
  8
241
  5
1EE9
 10
262.283
 20
12.6458
 30
0.000000
  70
    32
  0
VERTEX
  8
241
  5
1EEA
 10
262.178
 20
12.7969
 30
0.000000
  70
    32
  0
VERTEX
  8
241
  5
1EEB
 10
262.070
 20
12.9455
 30
0.000000
  70
    32
  0
VERTEX
  8
241
  5
1EEC
 10
261.959
 20
13.0914
 30
0.000000
  70
    32
  0
VERTEX
  8
241
  5
1EED
 10
261.846
 20
13.2346
 30
0.000000
  70
    32
  0
VERTEX
  8
241
  5
1EEE
 10
261.730
 20
13.3750
 30
0.000000
  70
    32
  0
VERTEX
  8
241
  5
1EEF
 10
261.611
 20
13.5126
 30
0.000000
  70
    32
  0
VERTEX
  8
241
  5
1EF0
 10
261.490
 20
13.6472
 30
0.000000
  70
    32
  0
VERTEX
  8
241
  5
1EF1
 10
261.367
 20
13.7789
 30
0.000000
  70
    32
  0
VERTEX
  8
241
  5
1EF2
 10
261.241
 20
13.9076
 30
0.000000
  70
    32
  0
VERTEX
  8
241
  5
1EF3
 10
261.113
 20
14.0332
 30
0.000000
  70
    32
  0
VERTEX
  8
241
  5
1EF4
 10
260.982
 20
14.1556
 30
0.000000
  70
    32
  0
VERTEX
  8
241
  5
1EF5
 10
260.850
 20
14.2749
 30
0.000000
  70
    32
  0
VERTEX
  8
241
  5
1EF6
 10
260.715
 20
14.3909
 30
0.000000
  70
    32
  0
VERTEX
  8
241
  5
1EF7
 10
260.578
 20
14.5037
 30
0.000000
  70
    32
  0
VERTEX
  8
241
  5
1EF8
 10
260.439
 20
14.6130
 30
0.000000
  70
    32
  0
VERTEX
  8
241
  5
1EF9
 10
260.299
 20
14.7190
 30
0.000000
  70
    32
  0
VERTEX
  8
241
  5
1EFA
 10
260.156
 20
14.8216
 30
0.000000
  70
    32
  0
VERTEX
  8
241
  5
1EFB
 10
260.011
 20
14.9206
 30
0.000000
  70
    32
  0
VERTEX
  8
241
  5
1EFC
 10
259.865
 20
15.0162
 30
0.000000
  70
    32
  0
VERTEX
  8
241
  5
1EFD
 10
259.717
 20
15.1082
 30
0.000000
  70
    32
  0
VERTEX
  8
241
  5
1EFE
 10
259.567
 20
15.1965
 30
0.000000
  70
    32
  0
VERTEX
  8
241
  5
1EFF
 10
259.416
 20
15.2812
 30
0.000000
  70
    32
  0
VERTEX
  8
241
  5
1F00
 10
259.263
 20
15.3623
 30
0.000000
  70
    32
  0
VERTEX
  8
241
  5
1F01
 10
259.109
 20
15.4396
 30
0.000000
  70
    32
  0
VERTEX
  8
241
  5
1F02
 10
258.954
 20
15.5131
 30
0.000000
  70
    32
  0
VERTEX
  8
241
  5
1F03
 10
258.797
 20
15.5829
 30
0.000000
  70
    32
  0
VERTEX
  8
241
  5
1F04
 10
258.639
 20
15.6488
 30
0.000000
  70
    32
  0
VERTEX
  8
241
  5
1F05
 10
258.480
 20
15.7109
 30
0.000000
  70
    32
  0
VERTEX
  8
241
  5
1F06
 10
258.319
 20
15.7691
 30
0.000000
  70
    32
  0
VERTEX
  8
241
  5
1F07
 10
258.158
 20
15.8234
 30
0.000000
  70
    32
  0
VERTEX
  8
241
  5
1F08
 10
257.996
 20
15.8738
 30
0.000000
  70
    32
  0
VERTEX
  8
241
  5
1F09
 10
257.832
 20
15.9202
 30
0.000000
  70
    32
  0
VERTEX
  8
241
  5
1F0A
 10
257.668
 20
15.9627
 30
0.000000
  70
    32
  0
VERTEX
  8
241
  5
1F0B
 10
257.504
 20
16.0012
 30
0.000000
  70
    32
  0
VERTEX
  8
241
  5
1F0C
 10
257.338
 20
16.0356
 30
0.000000
  70
    32
  0
VERTEX
  8
241
  5
1F0D
 10
257.172
 20
16.0661
 30
0.000000
  70
    32
  0
VERTEX
  8
241
  5
1F0E
 10
257.006
 20
16.0925
 30
0.000000
  70
    32
  0
VERTEX
  8
241
  5
1F0F
 10
256.839
 20
16.1149
 30
0.000000
  70
    32
  0
VERTEX
  8
241
  5
1F10
 10
256.672
 20
16.1332
 30
0.000000
  70
    32
  0
VERTEX
  8
241
  5
1F11
 10
256.504
 20
16.1475
 30
0.000000
  70
    32
  0
VERTEX
  8
241
  5
1F12
 10
256.336
 20
16.1577
 30
0.000000
  70
    32
  0
VERTEX
  8
241
  5
1F13
 10
256.168
 20
16.1638
 30
0.000000
  70
    32
  0
VERTEX
  8
241
  5
1F14
 10
256.000
 20
16.1658
 30
0.000000
  70
    32
  0
VERTEX
  8
241
  5
1F15
 10
255.832
 20
16.1638
 30
0.000000
  70
    32
  0
VERTEX
  8
241
  5
1F16
 10
255.664
 20
16.1577
 30
0.000000
  70
    32
  0
VERTEX
  8
241
  5
1F17
 10
255.496
 20
16.1475
 30
0.000000
  70
    32
  0
VERTEX
  8
241
  5
1F18
 10
255.328
 20
16.1332
 30
0.000000
  70
    32
  0
VERTEX
  8
241
  5
1F19
 10
255.161
 20
16.1149
 30
0.000000
  70
    32
  0
VERTEX
  8
241
  5
1F1A
 10
254.994
 20
16.0925
 30
0.000000
  70
    32
  0
VERTEX
  8
241
  5
1F1B
 10
254.828
 20
16.0661
 30
0.000000
  70
    32
  0
VERTEX
  8
241
  5
1F1C
 10
254.662
 20
16.0356
 30
0.000000
  70
    32
  0
VERTEX
  8
241
  5
1F1D
 10
254.496
 20
16.0012
 30
0.000000
  70
    32
  0
VERTEX
  8
241
  5
1F1E
 10
254.332
 20
15.9627
 30
0.000000
  70
    32
  0
VERTEX
  8
241
  5
1F1F
 10
254.168
 20
15.9202
 30
0.000000
  70
    32
  0
VERTEX
  8
241
  5
1F20
 10
254.004
 20
15.8738
 30
0.000000
  70
    32
  0
VERTEX
  8
241
  5
1F21
 10
253.842
 20
15.8234
 30
0.000000
  70
    32
  0
VERTEX
  8
241
  5
1F22
 10
253.681
 20
15.7691
 30
0.000000
  70
    32
  0
VERTEX
  8
241
  5
1F23
 10
253.520
 20
15.7109
 30
0.000000
  70
    32
  0
VERTEX
  8
241
  5
1F24
 10
253.361
 20
15.6488
 30
0.000000
  70
    32
  0
VERTEX
  8
241
  5
1F25
 10
253.203
 20
15.5829
 30
0.000000
  70
    32
  0
VERTEX
  8
241
  5
1F26
 10
253.046
 20
15.5131
 30
0.000000
  70
    32
  0
VERTEX
  8
241
  5
1F27
 10
252.891
 20
15.4396
 30
0.000000
  70
    32
  0
VERTEX
  8
241
  5
1F28
 10
252.737
 20
15.3623
 30
0.000000
  70
    32
  0
VERTEX
  8
241
  5
1F29
 10
252.584
 20
15.2812
 30
0.000000
  70
    32
  0
VERTEX
  8
241
  5
1F2A
 10
252.433
 20
15.1965
 30
0.000000
  70
    32
  0
VERTEX
  8
241
  5
1F2B
 10
252.283
 20
15.1082
 30
0.000000
  70
    32
  0
VERTEX
  8
241
  5
1F2C
 10
252.135
 20
15.0162
 30
0.000000
  70
    32
  0
VERTEX
  8
241
  5
1F2D
 10
251.989
 20
14.9206
 30
0.000000
  70
    32
  0
VERTEX
  8
241
  5
1F2E
 10
251.844
 20
14.8216
 30
0.000000
  70
    32
  0
VERTEX
  8
241
  5
1F2F
 10
251.701
 20
14.7190
 30
0.000000
  70
    32
  0
VERTEX
  8
241
  5
1F30
 10
251.561
 20
14.6130
 30
0.000000
  70
    32
  0
VERTEX
  8
241
  5
1F31
 10
251.422
 20
14.5037
 30
0.000000
  70
    32
  0
VERTEX
  8
241
  5
1F32
 10
251.285
 20
14.3909
 30
0.000000
  70
    32
  0
VERTEX
  8
241
  5
1F33
 10
251.150
 20
14.2749
 30
0.000000
  70
    32
  0
VERTEX
  8
241
  5
1F34
 10
251.018
 20
14.1556
 30
0.000000
  70
    32
  0
VERTEX
  8
241
  5
1F35
 10
250.887
 20
14.0332
 30
0.000000
  70
    32
  0
VERTEX
  8
241
  5
1F36
 10
250.759
 20
13.9076
 30
0.000000
  70
    32
  0
VERTEX
  8
241
  5
1F37
 10
250.633
 20
13.7789
 30
0.000000
  70
    32
  0
VERTEX
  8
241
  5
1F38
 10
250.510
 20
13.6472
 30
0.000000
  70
    32
  0
VERTEX
  8
241
  5
1F39
 10
250.389
 20
13.5126
 30
0.000000
  70
    32
  0
VERTEX
  8
241
  5
1F3A
 10
250.270
 20
13.3750
 30
0.000000
  70
    32
  0
VERTEX
  8
241
  5
1F3B
 10
250.154
 20
13.2346
 30
0.000000
  70
    32
  0
VERTEX
  8
241
  5
1F3C
 10
250.041
 20
13.0914
 30
0.000000
  70
    32
  0
VERTEX
  8
241
  5
1F3D
 10
249.930
 20
12.9455
 30
0.000000
  70
    32
  0
VERTEX
  8
241
  5
1F3E
 10
249.822
 20
12.7969
 30
0.000000
  70
    32
  0
VERTEX
  8
241
  5
1F3F
 10
249.717
 20
12.6458
 30
0.000000
  70
    32
  0
VERTEX
  8
241
  5
1F40
 10
249.614
 20
12.4921
 30
0.000000
  70
    32
  0
VERTEX
  8
241
  5
1F41
 10
249.514
 20
12.3359
 30
0.000000
  70
    32
  0
VERTEX
  8
241
  5
1F42
 10
249.417
 20
12.1774
 30
0.000000
  70
    32
  0
VERTEX
  8
241
  5
1F43
 10
249.323
 20
12.0166
 30
0.000000
  70
    32
  0
VERTEX
  8
241
  5
1F44
 10
249.232
 20
11.8535
 30
0.000000
  70
    32
  0
VERTEX
  8
241
  5
1F45
 10
249.144
 20
11.6882
 30
0.000000
  70
    32
  0
VERTEX
  8
241
  5
1F46
 10
249.059
 20
11.5209
 30
0.000000
  70
    32
  0
VERTEX
  8
241
  5
1F47
 10
248.977
 20
11.3515
 30
0.000000
  70
    32
  0
VERTEX
  8
241
  5
1F48
 10
248.898
 20
11.1801
 30
0.000000
  70
    32
  0
VERTEX
  8
241
  5
1F49
 10
248.822
 20
11.0069
 30
0.000000
  70
    32
  0
VERTEX
  8
241
  5
1F4A
 10
248.749
 20
10.8319
 30
0.000000
  70
    32
  0
VERTEX
  8
241
  5
1F4B
 10
248.680
 20
10.6551
 30
0.000000
  70
    32
  0
VERTEX
  8
241
  5
1F4C
 10
248.614
 20
10.4767
 30
0.000000
  70
    32
  0
VERTEX
  8
241
  5
1F4D
 10
248.551
 20
10.2968
 30
0.000000
  70
    32
  0
VERTEX
  8
241
  5
1F4E
 10
248.491
 20
10.1153
 30
0.000000
  70
    32
  0
VERTEX
  8
241
  5
1F4F
 10
248.435
 20
9.93250
 30
0.000000
  70
    32
  0
VERTEX
  8
241
  5
1F50
 10
248.382
 20
9.74832
 30
0.000000
  70
    32
  0
VERTEX
  8
241
  5
1F51
 10
248.332
 20
9.56290
 30
0.000000
  70
    32
  0
VERTEX
  8
241
  5
1F52
 10
248.286
 20
9.37632
 30
0.000000
  70
    32
  0
VERTEX
  8
241
  5
1F53
 10
248.243
 20
9.18866
 30
0.000000
  70
    32
  0
VERTEX
  8
241
  5
1F54
 10
248.204
 20
9.00000
 30
0.000000
  70
    32
  0
SEQEND
  8
241
  5
1F55
  0
POLYLINE
  5
175B
  8
241
  6
CONTINUOUS
 10
256.0000000000011937
 20
9.9965535343471856
 30
0.0
 66
     1
 70
     8
  0
VERTEX
  8
241
  5
1F56
 10
256.000
 20
9.99655
 30
0.000000
  70
    32
  0
VERTEX
  8
241
  5
1F57
 10
255.706
 20
9.99029
 30
0.000000
  70
    32
  0
VERTEX
  8
241
  5
1F58
 10
255.412
 20
9.97153
 30
0.000000
  70
    32
  0
VERTEX
  8
241
  5
1F59
 10
255.120
 20
9.94031
 30
0.000000
  70
    32
  0
VERTEX
  8
241
  5
1F5A
 10
254.829
 20
9.89671
 30
0.000000
  70
    32
  0
VERTEX
  8
241
  5
1F5B
 10
254.542
 20
9.84083
 30
0.000000
  70
    32
  0
VERTEX
  8
241
  5
1F5C
 10
254.258
 20
9.77281
 30
0.000000
  70
    32
  0
VERTEX
  8
241
  5
1F5D
 10
253.979
 20
9.69281
 30
0.000000
  70
    32
  0
VERTEX
  8
241
  5
1F5E
 10
253.704
 20
9.60102
 30
0.000000
  70
    32
  0
VERTEX
  8
241
  5
1F5F
 10
253.435
 20
9.49767
 30
0.000000
  70
    32
  0
VERTEX
  8
241
  5
1F60
 10
253.172
 20
9.38300
 30
0.000000
  70
    32
  0
VERTEX
  8
241
  5
1F61
 10
252.915
 20
9.25729
 30
0.000000
  70
    32
  0
VERTEX
  8
241
  5
1F62
 10
252.667
 20
9.12084
 30
0.000000
  70
    32
  0
VERTEX
  8
241
  5
1F63
 10
252.426
 20
8.97399
 30
0.000000
  70
    32
  0
VERTEX
  8
241
  5
1F64
 10
252.194
 20
8.81708
 30
0.000000
  70
    32
  0
VERTEX
  8
241
  5
1F65
 10
251.971
 20
8.65050
 30
0.000000
  70
    32
  0
VERTEX
  8
241
  5
1F66
 10
251.757
 20
8.47464
 30
0.000000
  70
    32
  0
VERTEX
  8
241
  5
1F67
 10
251.554
 20
8.28992
 30
0.000000
  70
    32
  0
VERTEX
  8
241
  5
1F68
 10
251.362
 20
8.09681
 30
0.000000
  70
    32
  0
VERTEX
  8
241
  5
1F69
 10
251.181
 20
7.89575
 30
0.000000
  70
    32
  0
VERTEX
  8
241
  5
1F6A
 10
251.011
 20
7.68723
 30
0.000000
  70
    32
  0
VERTEX
  8
241
  5
1F6B
 10
250.854
 20
7.47176
 30
0.000000
  70
    32
  0
VERTEX
  8
241
  5
1F6C
 10
250.708
 20
7.24985
 30
0.000000
  70
    32
  0
VERTEX
  8
241
  5
1F6D
 10
250.576
 20
7.02204
 30
0.000000
  70
    32
  0
VERTEX
  8
241
  5
1F6E
 10
250.457
 20
6.78888
 30
0.000000
  70
    32
  0
VERTEX
  8
241
  5
1F6F
 10
250.351
 20
6.55093
 30
0.000000
  70
    32
  0
VERTEX
  8
241
  5
1F70
 10
250.258
 20
6.30876
 30
0.000000
  70
    32
  0
VERTEX
  8
241
  5
1F71
 10
250.180
 20
6.06296
 30
0.000000
  70
    32
  0
VERTEX
  8
241
  5
1F72
 10
250.115
 20
5.81412
 30
0.000000
  70
    32
  0
VERTEX
  8
241
  5
1F73
 10
250.065
 20
5.56284
 30
0.000000
  70
    32
  0
VERTEX
  8
241
  5
1F74
 10
250.029
 20
5.30971
 30
0.000000
  70
    32
  0
VERTEX
  8
241
  5
1F75
 10
250.007
 20
5.05536
 30
0.000000
  70
    32
  0
VERTEX
  8
241
  5
1F76
 10
250.000
 20
4.80040
 30
0.000000
  70
    32
  0
VERTEX
  8
241
  5
1F77
 10
250.007
 20
4.54544
 30
0.000000
  70
    32
  0
VERTEX
  8
241
  5
1F78
 10
250.029
 20
4.29109
 30
0.000000
  70
    32
  0
VERTEX
  8
241
  5
1F79
 10
250.065
 20
4.03797
 30
0.000000
  70
    32
  0
VERTEX
  8
241
  5
1F7A
 10
250.115
 20
3.78668
 30
0.000000
  70
    32
  0
VERTEX
  8
241
  5
1F7B
 10
250.180
 20
3.53784
 30
0.000000
  70
    32
  0
VERTEX
  8
241
  5
1F7C
 10
250.258
 20
3.29204
 30
0.000000
  70
    32
  0
VERTEX
  8
241
  5
1F7D
 10
250.351
 20
3.04987
 30
0.000000
  70
    32
  0
VERTEX
  8
241
  5
1F7E
 10
250.457
 20
2.81192
 30
0.000000
  70
    32
  0
VERTEX
  8
241
  5
1F7F
 10
250.576
 20
2.57876
 30
0.000000
  70
    32
  0
VERTEX
  8
241
  5
1F80
 10
250.708
 20
2.35095
 30
0.000000
  70
    32
  0
VERTEX
  8
241
  5
1F81
 10
250.854
 20
2.12904
 30
0.000000
  70
    32
  0
VERTEX
  8
241
  5
1F82
 10
251.011
 20
1.91357
 30
0.000000
  70
    32
  0
VERTEX
  8
241
  5
1F83
 10
251.181
 20
1.70506
 30
0.000000
  70
    32
  0
VERTEX
  8
241
  5
1F84
 10
251.362
 20
1.50400
 30
0.000000
  70
    32
  0
VERTEX
  8
241
  5
1F85
 10
251.554
 20
1.31088
 30
0.000000
  70
    32
  0
VERTEX
  8
241
  5
1F86
 10
251.757
 20
1.12617
 30
0.000000
  70
    32
  0
VERTEX
  8
241
  5
1F87
 10
251.971
 20
0.950306
 30
0.000000
  70
    32
  0
VERTEX
  8
241
  5
1F88
 10
252.194
 20
0.783721
 30
0.000000
  70
    32
  0
VERTEX
  8
241
  5
1F89
 10
252.426
 20
0.626812
 30
0.000000
  70
    32
  0
VERTEX
  8
241
  5
1F8A
 10
252.667
 20
0.479958
 30
0.000000
  70
    32
  0
VERTEX
  8
241
  5
1F8B
 10
252.915
 20
0.343513
 30
0.000000
  70
    32
  0
VERTEX
  8
241
  5
1F8C
 10
253.172
 20
0.217804
 30
0.000000
  70
    32
  0
VERTEX
  8
241
  5
1F8D
 10
253.435
 20
0.103135
 30
0.000000
  70
    32
  0
VERTEX
  8
241
  5
1F8E
 10
253.704
 20
-0.000217760
 30
0.000000
  70
    32
  0
VERTEX
  8
241
  5
1F8F
 10
253.979
 20
-0.0920054
 30
0.000000
  70
    32
  0
VERTEX
  8
241
  5
1F90
 10
254.258
 20
-0.172007
 30
0.000000
  70
    32
  0
VERTEX
  8
241
  5
1F91
 10
254.542
 20
-0.240029
 30
0.000000
  70
    32
  0
VERTEX
  8
241
  5
1F92
 10
254.829
 20
-0.295909
 30
0.000000
  70
    32
  0
VERTEX
  8
241
  5
1F93
 10
255.120
 20
-0.339511
 30
0.000000
  70
    32
  0
VERTEX
  8
241
  5
1F94
 10
255.412
 20
-0.370730
 30
0.000000
  70
    32
  0
VERTEX
  8
241
  5
1F95
 10
255.706
 20
-0.389492
 30
0.000000
  70
    32
  0
VERTEX
  8
241
  5
1F96
 10
256.000
 20
-0.395751
 30
0.000000
  70
    32
  0
VERTEX
  8
241
  5
1F97
 10
256.294
 20
-0.389492
 30
0.000000
  70
    32
  0
VERTEX
  8
241
  5
1F98
 10
256.588
 20
-0.370730
 30
0.000000
  70
    32
  0
VERTEX
  8
241
  5
1F99
 10
256.880
 20
-0.339511
 30
0.000000
  70
    32
  0
VERTEX
  8
241
  5
1F9A
 10
257.171
 20
-0.295909
 30
0.000000
  70
    32
  0
VERTEX
  8
241
  5
1F9B
 10
257.458
 20
-0.240029
 30
0.000000
  70
    32
  0
VERTEX
  8
241
  5
1F9C
 10
257.742
 20
-0.172007
 30
0.000000
  70
    32
  0
VERTEX
  8
241
  5
1F9D
 10
258.021
 20
-0.0920054
 30
0.000000
  70
    32
  0
VERTEX
  8
241
  5
1F9E
 10
258.296
 20
-0.000217760
 30
0.000000
  70
    32
  0
VERTEX
  8
241
  5
1F9F
 10
258.565
 20
0.103135
 30
0.000000
  70
    32
  0
VERTEX
  8
241
  5
1FA0
 10
258.828
 20
0.217804
 30
0.000000
  70
    32
  0
VERTEX
  8
241
  5
1FA1
 10
259.085
 20
0.343513
 30
0.000000
  70
    32
  0
VERTEX
  8
241
  5
1FA2
 10
259.333
 20
0.479958
 30
0.000000
  70
    32
  0
VERTEX
  8
241
  5
1FA3
 10
259.574
 20
0.626812
 30
0.000000
  70
    32
  0
VERTEX
  8
241
  5
1FA4
 10
259.806
 20
0.783721
 30
0.000000
  70
    32
  0
VERTEX
  8
241
  5
1FA5
 10
260.029
 20
0.950306
 30
0.000000
  70
    32
  0
VERTEX
  8
241
  5
1FA6
 10
260.243
 20
1.12617
 30
0.000000
  70
    32
  0
VERTEX
  8
241
  5
1FA7
 10
260.446
 20
1.31088
 30
0.000000
  70
    32
  0
VERTEX
  8
241
  5
1FA8
 10
260.638
 20
1.50400
 30
0.000000
  70
    32
  0
VERTEX
  8
241
  5
1FA9
 10
260.819
 20
1.70506
 30
0.000000
  70
    32
  0
VERTEX
  8
241
  5
1FAA
 10
260.989
 20
1.91357
 30
0.000000
  70
    32
  0
VERTEX
  8
241
  5
1FAB
 10
261.146
 20
2.12904
 30
0.000000
  70
    32
  0
VERTEX
  8
241
  5
1FAC
 10
261.292
 20
2.35095
 30
0.000000
  70
    32
  0
VERTEX
  8
241
  5
1FAD
 10
261.424
 20
2.57876
 30
0.000000
  70
    32
  0
VERTEX
  8
241
  5
1FAE
 10
261.543
 20
2.81192
 30
0.000000
  70
    32
  0
VERTEX
  8
241
  5
1FAF
 10
261.649
 20
3.04987
 30
0.000000
  70
    32
  0
VERTEX
  8
241
  5
1FB0
 10
261.742
 20
3.29204
 30
0.000000
  70
    32
  0
VERTEX
  8
241
  5
1FB1
 10
261.820
 20
3.53784
 30
0.000000
  70
    32
  0
VERTEX
  8
241
  5
1FB2
 10
261.885
 20
3.78668
 30
0.000000
  70
    32
  0
VERTEX
  8
241
  5
1FB3
 10
261.935
 20
4.03797
 30
0.000000
  70
    32
  0
VERTEX
  8
241
  5
1FB4
 10
261.971
 20
4.29109
 30
0.000000
  70
    32
  0
VERTEX
  8
241
  5
1FB5
 10
261.993
 20
4.54544
 30
0.000000
  70
    32
  0
VERTEX
  8
241
  5
1FB6
 10
262.000
 20
4.80040
 30
0.000000
  70
    32
  0
VERTEX
  8
241
  5
1FB7
 10
261.993
 20
5.05536
 30
0.000000
  70
    32
  0
VERTEX
  8
241
  5
1FB8
 10
261.971
 20
5.30971
 30
0.000000
  70
    32
  0
VERTEX
  8
241
  5
1FB9
 10
261.935
 20
5.56284
 30
0.000000
  70
    32
  0
VERTEX
  8
241
  5
1FBA
 10
261.885
 20
5.81412
 30
0.000000
  70
    32
  0
VERTEX
  8
241
  5
1FBB
 10
261.820
 20
6.06296
 30
0.000000
  70
    32
  0
VERTEX
  8
241
  5
1FBC
 10
261.742
 20
6.30876
 30
0.000000
  70
    32
  0
VERTEX
  8
241
  5
1FBD
 10
261.649
 20
6.55093
 30
0.000000
  70
    32
  0
VERTEX
  8
241
  5
1FBE
 10
261.543
 20
6.78888
 30
0.000000
  70
    32
  0
VERTEX
  8
241
  5
1FBF
 10
261.424
 20
7.02204
 30
0.000000
  70
    32
  0
VERTEX
  8
241
  5
1FC0
 10
261.292
 20
7.24985
 30
0.000000
  70
    32
  0
VERTEX
  8
241
  5
1FC1
 10
261.146
 20
7.47176
 30
0.000000
  70
    32
  0
VERTEX
  8
241
  5
1FC2
 10
260.989
 20
7.68723
 30
0.000000
  70
    32
  0
VERTEX
  8
241
  5
1FC3
 10
260.819
 20
7.89575
 30
0.000000
  70
    32
  0
VERTEX
  8
241
  5
1FC4
 10
260.638
 20
8.09681
 30
0.000000
  70
    32
  0
VERTEX
  8
241
  5
1FC5
 10
260.446
 20
8.28992
 30
0.000000
  70
    32
  0
VERTEX
  8
241
  5
1FC6
 10
260.243
 20
8.47464
 30
0.000000
  70
    32
  0
VERTEX
  8
241
  5
1FC7
 10
260.029
 20
8.65050
 30
0.000000
  70
    32
  0
VERTEX
  8
241
  5
1FC8
 10
259.806
 20
8.81708
 30
0.000000
  70
    32
  0
VERTEX
  8
241
  5
1FC9
 10
259.574
 20
8.97399
 30
0.000000
  70
    32
  0
VERTEX
  8
241
  5
1FCA
 10
259.333
 20
9.12084
 30
0.000000
  70
    32
  0
VERTEX
  8
241
  5
1FCB
 10
259.085
 20
9.25729
 30
0.000000
  70
    32
  0
VERTEX
  8
241
  5
1FCC
 10
258.828
 20
9.38300
 30
0.000000
  70
    32
  0
VERTEX
  8
241
  5
1FCD
 10
258.565
 20
9.49767
 30
0.000000
  70
    32
  0
VERTEX
  8
241
  5
1FCE
 10
258.296
 20
9.60102
 30
0.000000
  70
    32
  0
VERTEX
  8
241
  5
1FCF
 10
258.021
 20
9.69281
 30
0.000000
  70
    32
  0
VERTEX
  8
241
  5
1FD0
 10
257.742
 20
9.77281
 30
0.000000
  70
    32
  0
VERTEX
  8
241
  5
1FD1
 10
257.458
 20
9.84083
 30
0.000000
  70
    32
  0
VERTEX
  8
241
  5
1FD2
 10
257.171
 20
9.89671
 30
0.000000
  70
    32
  0
VERTEX
  8
241
  5
1FD3
 10
256.880
 20
9.94031
 30
0.000000
  70
    32
  0
VERTEX
  8
241
  5
1FD4
 10
256.588
 20
9.97153
 30
0.000000
  70
    32
  0
VERTEX
  8
241
  5
1FD5
 10
256.294
 20
9.99029
 30
0.000000
  70
    32
  0
VERTEX
  8
241
  5
1FD6
 10
256.000
 20
9.99655
 30
0.000000
  70
    32
  0
SEQEND
  8
241
  5
1FD7
  0
ARC
  5
176F
  8
240
  6
CONTINUOUS
 10
313.4813380855673017
 20
19.9999999999987494
 30
0.0
 40
25.0
 50
30.8518859860677708
 51
90.0
  0
ARC
  5
1773
  8
240
  6
CONTINUOUS
 10
280.0000000000013074
 20
-0.0000000000017053
 30
0.0
 40
64.0
 50
329.1481140139321724
 51
30.8518859860677708
  0
ARC
  5
1776
  8
240
  6
CONTINUOUS
 10
313.481338085567927
 20
-20.0000000000012506
 30
0.0
 40
25.0
 50
270.0
 51
329.1481140139321724
  0
LINE
  5
1918
  8
241
  6
CONTINUOUS
 10
280.0000000000001137
 20
13.2499999999984102
 30
0.0
 11
280.0000000000002274
 21
44.9999999999988702
 31
0.0
  0
LINE
  5
1955
  8
241
  6
CONTINUOUS
 10
114.5000000000005969
 20
26.6905989200003688
 30
0.0
 11
114.5000000000005969
 21
31.3094010800003417
 31
0.0
  0
LINE
  5
1956
  8
241
  6
CONTINUOUS
 10
106.5000000000004974
 20
31.3094010800003417
 30
0.0
 11
106.5000000000004974
 21
26.6905989200003688
 31
0.0
  0
CIRCLE
  5
1957
  8
241
  6
CONTINUOUS
 10
110.5000000000004974
 20
29.0000000000003588
 30
0.0
 40
8.0
  0
LINE
  5
1958
  8
245
  6
CENTER2
 10
110.5000000000004974
 20
38.0000000000003624
 30
0.0
 11
110.5000000000004974
 21
20.0000000000003588
 31
0.0
  0
LINE
  5
1959
  8
241
  6
CONTINUOUS
 10
110.5000000000004974
 20
24.381197850000369
 30
0.0
 11
114.5000000000005969
 21
26.6905989200003688
 31
0.0
  0
LINE
  5
195A
  8
241
  6
CONTINUOUS
 10
106.5000000000004974
 20
26.6905989200003688
 30
0.0
 11
110.5000000000004974
 21
24.381197850000369
 31
0.0
  0
LINE
  5
195B
  8
241
  6
CONTINUOUS
 10
114.5000000000005969
 20
31.3094010800003417
 30
0.0
 11
110.5000000000004974
 21
33.6188021500003487
 31
0.0
  0
LINE
  5
195C
  8
241
  6
CONTINUOUS
 10
110.5000000000004974
 20
33.6188021500003487
 30
0.0
 11
106.5000000000004974
 21
31.3094010800003417
 31
0.0
  0
CIRCLE
  5
195D
  8
242
  6
CONTINUOUS
 10
110.5000000000004974
 20
29.0000000000003588
 30
0.0
 40
7.0000000000002842
  0
LINE
  5
196F
  8
241
  6
CONTINUOUS
 10
91.5000000000005684
 20
26.6905989200004115
 30
0.0
 11
91.5000000000005684
 21
31.3094010800003808
 31
0.0
  0
LINE
  5
1970
  8
241
  6
CONTINUOUS
 10
83.5000000000005542
 20
31.3094010800003808
 30
0.0
 11
83.5000000000005542
 21
26.6905989200004115
 31
0.0
  0
CIRCLE
  5
1971
  8
241
  6
CONTINUOUS
 10
87.5000000000005542
 20
29.0000000000004015
 30
0.0
 40
8.0
  0
LINE
  5
1972
  8
245
  6
CENTER2
 10
87.5000000000005542
 20
38.0000000000003979
 30
0.0
 11
87.5000000000005542
 21
20.0000000000004015
 31
0.0
  0
LINE
  5
1973
  8
241
  6
CONTINUOUS
 10
87.5000000000005542
 20
24.381197850000401
 30
0.0
 11
91.5000000000005684
 21
26.6905989200004115
 31
0.0
  0
LINE
  5
1974
  8
241
  6
CONTINUOUS
 10
83.5000000000005542
 20
26.6905989200004115
 30
0.0
 11
87.5000000000005542
 21
24.381197850000401
 31
0.0
  0
LINE
  5
1975
  8
241
  6
CONTINUOUS
 10
91.5000000000005684
 20
31.3094010800003808
 30
0.0
 11
87.5000000000005542
 21
33.6188021500003913
 31
0.0
  0
LINE
  5
1976
  8
241
  6
CONTINUOUS
 10
87.5000000000005542
 20
33.6188021500003913
 30
0.0
 11
83.5000000000005542
 21
31.3094010800003808
 31
0.0
  0
CIRCLE
  5
1977
  8
242
  6
CONTINUOUS
 10
87.5000000000005542
 20
29.0000000000004015
 30
0.0
 40
7.0000000000002842
  0
LINE
  5
1989
  8
241
  6
CONTINUOUS
 10
68.5000000000006253
 20
26.6905989200004505
 30
0.0
 11
68.5000000000006253
 21
31.3094010800004199
 31
0.0
  0
LINE
  5
198A
  8
241
  6
CONTINUOUS
 10
60.5000000000006182
 20
31.3094010800004199
 30
0.0
 11
60.5000000000006182
 21
26.6905989200004505
 31
0.0
  0
CIRCLE
  5
198B
  8
241
  6
CONTINUOUS
 10
64.5000000000006253
 20
29.0000000000004299
 30
0.0
 40
8.0
  0
LINE
  5
198C
  8
245
  6
CENTER2
 10
64.5000000000006253
 20
38.0000000000004334
 30
0.0
 11
64.5000000000006253
 21
20.0000000000004299
 31
0.0
  0
LINE
  5
198D
  8
241
  6
CONTINUOUS
 10
64.5000000000006253
 20
24.38119785000044
 30
0.0
 11
68.5000000000006253
 21
26.6905989200004505
 31
0.0
  0
LINE
  5
198E
  8
241
  6
CONTINUOUS
 10
60.5000000000006182
 20
26.6905989200004505
 30
0.0
 11
64.5000000000006253
 21
24.38119785000044
 31
0.0
  0
LINE
  5
198F
  8
241
  6
CONTINUOUS
 10
68.5000000000006253
 20
31.3094010800004199
 30
0.0
 11
64.5000000000006253
 21
33.6188021500004268
 31
0.0
  0
LINE
  5
1990
  8
241
  6
CONTINUOUS
 10
64.5000000000006253
 20
33.6188021500004268
 30
0.0
 11
60.5000000000006182
 21
31.3094010800004199
 31
0.0
  0
CIRCLE
  5
1991
  8
242
  6
CONTINUOUS
 10
64.5000000000006253
 20
29.0000000000004299
 30
0.0
 40
7.0000000000002842
  0
ARC
  5
19BB
  8
246
  6
PHANTOM2
 10
121.0
 20
57.9999999999996021
 30
0.0
 40
6.0
 50
0.0
 51
90.0
  0
LINE
  5
19BC
  8
246
  6
PHANTOM2
 10
47.0000000000000711
 20
-63.9999999999994102
 30
0.0
 11
121.0000000000004974
 21
-63.9999999999989484
 31
0.0
  0
LINE
  5
19BD
  8
246
  6
PHANTOM2
 10
47.0000000000000711
 20
-63.9999999999994102
 30
0.0
 11
36.7573593128807374
 21
-53.7573593128800908
 31
0.0
  0
ARC
  5
19BE
  8
246
  6
PHANTOM2
 10
121.0000000000004974
 20
-57.9999999999989484
 30
0.0
 40
6.0
 50
270.0
 51
0.0
  0
LINE
  5
19BF
  8
246
  6
PHANTOM2
 10
46.9999999999997087
 20
63.9999999999996021
 30
0.0
 11
121.0
 21
63.9999999999996021
 31
0.0
  0
LINE
  5
19C0
  8
246
  6
PHANTOM2
 10
46.9999999999997087
 20
63.9999999999996021
 30
0.0
 11
36.7573593128804035
 21
53.7573593128802827
 31
0.0
  0
LINE
  5
19D3
  8
246
  6
PHANTOM2
 10
244.7000000000008129
 20
-12.7000000000018307
 30
0.0
 11
232.45444125630749
 21
-12.7000000000018307
 31
0.0
  0
LINE
  5
19D4
  8
246
  6
PHANTOM2
 10
244.7000000000008129
 20
12.6999999999980293
 30
0.0
 11
232.45444125630749
 21
12.6999999999980293
 31
0.0
  0
LINE
  5
19D5
  8
246
  6
PHANTOM2
 10
244.7000000000008129
 20
12.6999999999980293
 30
0.0
 11
244.7000000000008129
 21
-12.7000000000018307
 31
0.0
  0
LINE
  5
19D6
  8
246
  6
PHANTOM2
 10
327.8535105086829731
 20
-11.4852813742404791
 30
0.0
 11
317.7100000000007185
 21
-11.4852813742405395
 31
0.0
  0
LINE
  5
19D7
  8
246
  6
PHANTOM2
 10
317.7100000000007185
 20
-11.4852813742405395
 30
0.0
 11
317.7100000000007185
 21
12.6999999999980293
 31
0.0
  0
LINE
  5
19D8
  8
246
  6
PHANTOM2
 10
317.7100000000007185
 20
12.6999999999980293
 30
0.0
 11
327.5455587436943006
 21
12.6999999999980293
 31
0.0
  0
ARC
  5
19D9
  8
246
  6
PHANTOM2
 10
280.0000000000009095
 20
-0.0000000000020179
 30
0.0
 40
49.2124999999997925
 50
194.9552483166422121
 51
346.5037698927425822
  0
ARC
  5
19DA
  8
246
  6
PHANTOM2
 10
280.0000000000009095
 20
-0.0000000000020179
 30
0.0
 40
49.2124999999997925
 50
14.9552483166422707
 51
165.0447516833577026
  0
TEXT
  5
19EB
  8
241
  6
CONTINUOUS
 10
-105.0
 20
91.0
 30
0.0
 40
5.0
  1
BCV50Y-180-BH1.250R-5
  7
YOKO
  0
LINE
  5
1B24
  8
250
  6
CONTINUOUS
 10
127.5000000000002984
 20
45.0000000000003411
 30
0.0
 11
148.0
 21
45.0000000000003482
 31
0.0
  0
LINE
  5
1B25
  8
250
  6
CONTINUOUS
 10
129.6190678608732014
 20
0.0000000000000001
 30
0.0
 11
148.0
 21
0.000000000000003
 31
0.0
  0
LINE
  5
1B26
  8
250
  6
CONTINUOUS
 10
147.0
 20
42.7700000000003513
 30
0.0
 11
147.0
 21
2.2300000000000031
 31
0.0
  0
LINE
  5
1B2A
  8
250
  6
CONTINUOUS
 10
146.6283333333333871
 20
42.7700000000003513
 30
0.0
 11
147.0
 21
45.0000000000003482
 31
0.0
  0
LINE
  5
1B2B
  8
250
  6
CONTINUOUS
 10
147.3716666666666981
 20
42.7700000000003513
 30
0.0
 11
147.0
 21
45.0000000000003482
 31
0.0
  0
LINE
  5
1B2C
  8
250
  6
CONTINUOUS
 10
147.0
 20
45.0000000000003482
 30
0.0
 11
147.0
 21
42.7700000000003513
 31
0.0
  0
LINE
  5
1B2D
  8
250
  6
CONTINUOUS
 10
147.3716666666666981
 20
2.2300000000000022
 30
0.0
 11
147.0
 21
0.0000000000000029
 31
0.0
  0
LINE
  5
1B2E
  8
250
  6
CONTINUOUS
 10
146.6283333333333871
 20
2.2300000000000022
 30
0.0
 11
147.0
 21
0.0000000000000029
 31
0.0
  0
LINE
  5
1B2F
  8
250
  6
CONTINUOUS
 10
147.0
 20
0.0000000000000029
 30
0.0
 11
147.0
 21
2.2300000000000022
 31
0.0
  0
TEXT
  5
1D57
  8
250
  6
CONTINUOUS
 10
146.0
 20
16.7000000000001307
 30
0.0
 40
2.7999999999999989
  1
1.771
 50
90.0
  0
LINE
  5
1D58
  8
250
  6
CONTINUOUS
 10
311.7500000000002274
 20
45.4999999999987494
 30
0.0
 11
311.7500000000002274
 21
78.0
 31
0.0
  0
LINE
  5
1D59
  8
250
  6
CONTINUOUS
 10
280.0000000000009095
 20
45.4999999999987494
 30
0.0
 11
280.0000000000009095
 21
78.0
 31
0.0
  0
LINE
  5
1D5A
  8
250
  6
CONTINUOUS
 10
309.5200000000002092
 20
77.0
 30
0.0
 11
282.2300000000009277
 21
77.0
 31
0.0
  0
LINE
  5
1D5E
  8
250
  6
CONTINUOUS
 10
309.5200000000002092
 20
77.3716666666666555
 30
0.0
 11
311.7500000000002274
 21
77.0
 31
0.0
  0
LINE
  5
1D5F
  8
250
  6
CONTINUOUS
 10
309.5200000000002092
 20
76.6283333333333303
 30
0.0
 11
311.7500000000002274
 21
77.0
 31
0.0
  0
LINE
  5
1D60
  8
250
  6
CONTINUOUS
 10
311.7500000000002274
 20
77.0
 30
0.0
 11
309.5200000000002092
 21
77.0
 31
0.0
  0
LINE
  5
1D61
  8
250
  6
CONTINUOUS
 10
282.2300000000009277
 20
76.6283333333333303
 30
0.0
 11
280.0000000000009095
 21
77.0
 31
0.0
  0
LINE
  5
1D62
  8
250
  6
CONTINUOUS
 10
282.2300000000009277
 20
77.3716666666666555
 30
0.0
 11
280.0000000000009095
 21
77.0
 31
0.0
  0
LINE
  5
1D63
  8
250
  6
CONTINUOUS
 10
280.0000000000009095
 20
77.0
 30
0.0
 11
282.2300000000009277
 21
77.0
 31
0.0
  0
TEXT
  5
1D64
  8
250
  6
CONTINUOUS
 10
288.2083333333338828
 20
78.0000000000000142
 30
0.0
 40
2.7999999999999989
  1
üá1.250
  0
LINE
  5
1D65
  8
250
  6
CONTINUOUS
 10
232.8250468203372918
 20
39.875514949607421
 30
0.0
 11
327.1749531796654082
 21
-39.875514949610448
 31
0.0
  0
LINE
  5
1D69
  8
250
  6
CONTINUOUS
 10
232.5851180568122913
 20
39.591665870791779
 30
0.0
 11
231.1219523474435107
 21
41.3150875307572889
 31
0.0
  0
LINE
  5
1D6A
  8
250
  6
CONTINUOUS
 10
233.0649755838622923
 20
40.1593640284230489
 30
0.0
 11
231.1219523474435107
 21
41.3150875307572889
 31
0.0
  0
LINE
  5
1D6B
  8
250
  6
CONTINUOUS
 10
231.1219523474435107
 20
41.3150875307572889
 30
0.0
 11
232.8250468203372918
 21
39.875514949607421
 31
0.0
  0
TEXT
  5
1D6C
  8
250
  6
CONTINUOUS
 10
288.7538507974304025
 20
-4.5187179630629126
 30
0.0
 40
2.7999999999999989
  1
(\U+22055.04)
 50
319.7932067255234188
  0
LINE
  5
1D6D
  8
250
  6
CONTINUOUS
 10
327.4148819431903803
 20
-39.591665870794877
 30
0.0
 11
328.8780476525591894
 21
-41.3150875307603869
 31
0.0
  0
LINE
  5
1D6E
  8
250
  6
CONTINUOUS
 10
326.9350244161403793
 20
-40.1593640284261468
 30
0.0
 11
328.8780476525591894
 21
-41.3150875307603869
 31
0.0
  0
LINE
  5
1D6F
  8
250
  6
CONTINUOUS
 10
328.8780476525591894
 20
-41.3150875307603869
 30
0.0
 11
327.1749531796654082
 21
-39.8755149496105119
 31
0.0
  0
LINE
  5
1D70
  8
250
  6
CONTINUOUS
 10
0.0
 20
-35.4249999999999972
 30
0.0
 11
-0.0000000000000026
 21
-78.0
 31
0.0
  0
LINE
  5
1D71
  8
250
  6
CONTINUOUS
 10
126.9999999999999005
 20
-15.5294372515224897
 30
0.0
 11
126.9999999999999005
 21
-78.0
 31
0.0
  0
LINE
  5
1D72
  8
250
  6
CONTINUOUS
 10
2.2299999999999969
 20
-77.0
 30
0.0
 11
124.7699999999998965
 21
-77.0
 31
0.0
  0
LINE
  5
1D76
  8
250
  6
CONTINUOUS
 10
124.7699999999998965
 20
-76.6283333333333303
 30
0.0
 11
126.9999999999999005
 21
-77.0
 31
0.0
  0
LINE
  5
1D77
  8
250
  6
CONTINUOUS
 10
124.7699999999998965
 20
-77.3716666666666555
 30
0.0
 11
126.9999999999999005
 21
-77.0
 31
0.0
  0
LINE
  5
1D78
  8
250
  6
CONTINUOUS
 10
126.9999999999999005
 20
-77.0
 30
0.0
 11
124.7699999999998965
 21
-77.0
 31
0.0
  0
LINE
  5
1D79
  8
250
  6
CONTINUOUS
 10
2.2299999999999969
 20
-77.3716666666666555
 30
0.0
 11
-0.0000000000000026
 21
-77.0
 31
0.0
  0
LINE
  5
1D7A
  8
250
  6
CONTINUOUS
 10
2.2299999999999969
 20
-76.6283333333333303
 30
0.0
 11
-0.0000000000000026
 21
-77.0
 31
0.0
  0
LINE
  5
1D7B
  8
250
  6
CONTINUOUS
 10
-0.0000000000000026
 20
-77.0
 30
0.0
 11
2.2299999999999969
 21
-77.0
 31
0.0
  0
TEXT
  5
1D7C
  8
250
  6
CONTINUOUS
 10
58.8333333333332789
 20
-75.9999999999999858
 30
0.0
 40
2.7999999999999989
  1
5.00
  0
VIEWPORT
  5
22
 67
     1
  8
0
 10
261.517699115044195
 20
148.5
 30
0.0
 40
523.0353982300885036
 41
297.0
 68
     1
 69
     1
1001
ACAD
1000
MVIEW
1002
{
1070
    16
1010
0.0
1020
0.0
1030
0.0
1010
0.0
1020
0.0
1030
1.0
1040
0.0
1040
297.0
1040
261.517699115044195
1040
148.5
1040
50.0
1040
0.0
1040
0.0
1070
     0
1070
   100
1070
     1
1070
     1
1070
     0
1070
     0
1070
     0
1070
     0
1040
0.0
1040
0.0
1040
0.0
1040
1.0
1040
1.0
1040
10.0
1040
10.0
1070
     0
1002
{
1002
}
1002
}
1001
GENIUS_GENODEF_13
1002
{
1000
HIER
1070
     0
1002
}
1002
{
1000
MANEDIT
1070
     0
1002
}
1002
{
1000
NOSEL
1070
     0
1002
}
1002
{
1000
BEHIND
1070
     0
1002
}
1002
{
1000
OTHER
1070
     0
1002
}
1002
{
1000
REACTOR
1002
}
1001
GENIUS_GENOBJ-N-SDF_13
1002
{
1000
OWNER
1000
GEN
1002
}
1001
GENIUS_GENSCREG_15
1000
PF
1040
1.0
1000
DF
1040
1.0
1000
MIN
1011
0.0
1021
0.0
1031
0.0
1021
0.0
1031
0.0
1000
MAX
1011
523.0353982300885036
1021
0.0
1031
0.0
1021
297.0
1031
0.0
1000
FLAGS
1070
     4
  0
ENDSEC
  0
EOF
