  0
SECTION
  2
HEADER
  9
$ACADVER
  1
AC1009
  9
$INSBASE
 10
0.0
 20
0.0
 30
0.0
  9
$EXTMIN
 10
-104.0476190476189942
 20
-78.0
 30
0.0
  9
$EXTMAX
 10
345.9999999999996021
 20
96.0
 30
0.0
  9
$LIMMIN
 10
0.0
 20
0.0
  9
$LIMMAX
 10
297.0
 20
210.0
  9
$ORTHOMODE
 70
     0
  9
$REGENMODE
 70
     1
  9
$FILLMODE
 70
     1
  9
$QTEXTMODE
 70
     0
  9
$MIRRTEXT
 70
     1
  9
$DRAGMODE
 70
     2
  9
$LTSCALE
 40
10.0
  9
$OSMODE
 70
   807
  9
$ATTMODE
 70
     1
  9
$TEXTSIZE
 40
3.0
  9
$TRACEWID
 40
1.0
  9
$TEXTSTYLE
  7
YOKO
  9
$CLAYER
  8
240
  9
$CELTYPE
  6
BYLAYER
  9
$CECOLOR
 62
   256
  9
$DIMSCALE
 40
1.0
  9
$DIMASZ
 40
2.2299999999999991
  9
$DIMEXO
 40
0.5
  9
$DIMDLI
 40
7.0
  9
$DIMRND
 40
0.0
  9
$DIMDLE
 40
0.0
  9
$DIMEXE
 40
1.0
  9
$DIMTP
 40
0.0
  9
$DIMTM
 40
0.01
  9
$DIMTXT
 40
2.7999999999999989
  9
$DIMCEN
 40
0.0
  9
$DIMTSZ
 40
0.0
  9
$DIMTOL
 70
     0
  9
$DIMLIM
 70
     0
  9
$DIMTIH
 70
     0
  9
$DIMTOH
 70
     0
  9
$DIMSE1
 70
     0
  9
$DIMSE2
 70
     0
  9
$DIMTAD
 70
     3
  9
$DIMZIN
 70
     9
  9
$DIMBLK
  1
OPEN
  9
$DIMASO
 70
     1
  9
$DIMSHO
 70
     1
  9
$DIMPOST
  1

  9
$DIMAPOST
  1

  9
$DIMALT
 70
     0
  9
$DIMALTD
 70
     2
  9
$DIMALTF
 40
25.3999999999999986
  9
$DIMLFAC
 40
1.0
  9
$DIMTOFL
 70
     1
  9
$DIMTVP
 40
0.0
  9
$DIMTIX
 70
     1
  9
$DIMSOXD
 70
     0
  9
$DIMSAH
 70
     0
  9
$DIMBLK1
  1

  9
$DIMBLK2
  1

  9
$DIMSTYLE
  2
BIGT
  9
$DIMCLRD
 70
   256
  9
$DIMCLRE
 70
   256
  9
$DIMCLRT
 70
    40
  9
$DIMTFAC
 40
1.0
  9
$DIMGAP
 40
1.0
  9
$LUNITS
 70
     2
  9
$LUPREC
 70
     3
  9
$SKETCHINC
 40
1.0
  9
$FILLETRAD
 40
0.0
  9
$AUNITS
 70
     0
  9
$AUPREC
 70
     3
  9
$MENU
  1
.
  9
$ELEVATION
 40
0.0
  9
$PELEVATION
 40
0.0
  9
$THICKNESS
 40
0.0
  9
$LIMCHECK
 70
     0
  9
$BLIPMODE
 70
     0
  9
$CHAMFERA
 40
0.25
  9
$CHAMFERB
 40
0.25
  9
$SKPOLY
 70
     0
  9
$TDCREATE
 40
2458179.6829398148693144
  9
$TDUPDATE
 40
2458184.6477083340287209
  9
$TDINDWG
 40
0.0706134259
  9
$TDUSRTIMER
 40
0.0706134259
  9
$USRTIMER
 70
     1
  9
$ANGBASE
 50
0.0
  9
$ANGDIR
 70
     0
  9
$PDMODE
 70
     1
  9
$PDSIZE
 40
0.0
  9
$PLINEWID
 40
0.0
  9
$COORDS
 70
     1
  9
$SPLFRAME
 70
     0
  9
$SPLINETYPE
 70
     6
  9
$SPLINESEGS
 70
     4
  9
$ATTDIA
 70
     1
  9
$ATTREQ
 70
     1
  9
$HANDLING
 70
     1
  9
$HANDSEED
  5
280A
  9
$SURFTAB1
 70
     6
  9
$SURFTAB2
 70
     6
  9
$SURFTYPE
 70
     6
  9
$SURFU
 70
     6
  9
$SURFV
 70
     6
  9
$UCSNAME
  2

  9
$UCSORG
 10
0.0
 20
0.0
 30
0.0
  9
$UCSXDIR
 10
1.0
 20
0.0
 30
0.0
  9
$UCSYDIR
 10
0.0
 20
1.0
 30
0.0
  9
$PUCSNAME
  2

  9
$PUCSORG
 10
0.0
 20
0.0
 30
0.0
  9
$PUCSXDIR
 10
1.0
 20
0.0
 30
0.0
  9
$PUCSYDIR
 10
0.0
 20
1.0
 30
0.0
  9
$USERI1
 70
     1
  9
$USERI2
 70
     0
  9
$USERI3
 70
     0
  9
$USERI4
 70
     0
  9
$USERI5
 70
     0
  9
$USERR1
 40
0.0
  9
$USERR2
 40
0.0
  9
$USERR3
 40
0.0
  9
$USERR4
 40
0.0
  9
$USERR5
 40
0.0
  9
$WORLDVIEW
 70
     1
  9
$SHADEDGE
 70
     3
  9
$SHADEDIF
 70
    70
  9
$TILEMODE
 70
     1
  9
$MAXACTVP
 70
    16
  9
$PLIMCHECK
 70
     0
  9
$PEXTMIN
 10
1.0000000000000000E+20
 20
1.0000000000000000E+20
 30
1.0000000000000000E+20
  9
$PEXTMAX
 10
-1.0000000000000000E+20
 20
-1.0000000000000000E+20
 30
-1.0000000000000000E+20
  9
$PLIMMIN
 10
0.0
 20
0.0
  9
$PLIMMAX
 10
420.0
 20
297.0
  9
$UNITMODE
 70
     0
  9
$VISRETAIN
 70
     1
  9
$PLINEGEN
 70
     0
  9
$PSLTSCALE
 70
     1
  0
ENDSEC
  0
SECTION
  2
TABLES
  0
TABLE
  2
VPORT
 70
     1
  0
VPORT
  2
*ACTIVE
 70
     0
 10
0.0
 20
0.0
 11
1.0
 21
1.0
 12
139.1176436805459105
 22
-7.7703445975618024
 13
0.0
 23
0.0
 14
7.0
 24
7.0
 15
7.0
 25
7.0
 16
0.0
 26
0.0
 36
1.0
 17
0.0
 27
0.0
 37
0.0
 40
381.9155793392706073
 41
1.8592342342342341
 42
50.0
 43
0.0
 44
0.0
 50
0.0
 51
0.0
 71
     0
 72
  2000
 73
     1
 74
     0
 75
     0
 76
     1
 77
     0
 78
     0
  0
ENDTAB
  0
TABLE
  2
LTYPE
 70
    16
  0
LTYPE
  2
CONTINUOUS
 70
     0
  3
Solid line
 72
    65
 73
     0
 40
0.0
  0
LTYPE
  2
CENTER2
 70
     0
  3
___ _ ___ _ ___ _ ___ _ ___ _ ___ _ ___ _ ___ _
 72
    65
 73
     4
 40
1.125
 49
0.75
 49
-0.125
 49
0.125
 49
-0.125
  0
LTYPE
  2
HIDDEN2
 70
     0
  3
_ _ _ _ _ _ _ _ _ _ _ _ _ _ _ _ _ _ _ _ _ _ _ _
 72
    65
 73
     2
 40
0.1875
 49
0.125
 49
-0.0625
  0
LTYPE
  2
PHANTOM2
 70
     0
  3
___ _ _ ___ _ _ ___ _ _ ___ _ _ ___ _ _ ___ _ _
 72
    65
 73
     6
 40
1.25
 49
0.625
 49
-0.125
 49
0.125
 49
-0.125
 49
0.125
 49
-0.125
  0
LTYPE
  2
CENTER
 70
     0
  3
____ _ ____ _ ____ _ ____ _ ____ _ ____ _ ____ 
 72
    65
 73
     4
 40
2.0
 49
1.25
 49
-0.25
 49
0.25
 49
-0.25
  0
LTYPE
  2
AM_ISO02W050
 70
     0
  3
__ __ __ __ __ __ __ __ __ __ __ __ __ __ __
 72
    65
 73
     2
 40
7.5
 49
6.0
 49
-1.5
  0
LTYPE
  2
AMCONSTR
 70
     0
  3
_______________________
 72
    65
 73
     2
 40
9999.0
 49
9999.0
 49
0.0
  0
LTYPE
  2
ACISOWELD
 70
     0
  3
_ _ _ _ _
 72
    65
 73
     2
 40
2.0
 49
2.0
 49
-1.0
  0
LTYPE
  2
ACISOTGB
 70
     0
  3
__ . . __ . .
 72
    65
 73
     6
 40
9.0
 49
4.0
 49
-1.0
 49
1.0
 49
-1.0
 49
1.0
 49
-1.0
  0
LTYPE
  2
ACISOTGL
 70
     0
  3
_ _ _ _ _
 72
    65
 73
     2
 40
3.0
 49
2.0
 49
-1.0
  0
LTYPE
  2
ACJISTGB
 70
     0
  3
__ . . __ . .
 72
    65
 73
     6
 40
9.0
 49
4.0
 49
-1.0
 49
1.0
 49
-1.0
 49
1.0
 49
-1.0
  0
LTYPE
  2
ACJISTGL
 70
     0
  3
_ _ _ _ _
 72
    65
 73
     2
 40
3.0
 49
2.0
 49
-1.0
  0
LTYPE
  2
HIDDEN
 70
     0
  3
Hidden __ __ __ __ __ __ __ __ __ __ __ __ __ _
 72
    65
 73
     2
 40
9.5249999999999986
 49
6.3499999999999988
 49
-3.1749999999999989
  0
LTYPE
  2
AMZIGZAG2
 70
     0
  3
/\/-/\/-/\/-/\/-/\/-/\/
 72
    65
 73
     2
 40
0.4401
 49
0.0001
 49
-0.4400000000000003
  0
LTYPE
  2
ACANSTGB
 70
     0
  3
__ . . __ . .
 72
    65
 73
     6
 40
0.35433070866
 49
0.15748031496
 49
-0.03937007874
 49
0.03937007874
 49
-0.03937007874
 49
0.03937007874
 49
-0.03937007874
  0
LTYPE
  2
ACANSTGL
 70
     0
  3
_ _ _ _ _
 72
    65
 73
     2
 40
0.11811023622
 49
0.07874015748
 49
-0.03937007874
  0
ENDTAB
  0
TABLE
  2
LAYER
 70
    10
  0
LAYER
  2
0
 70
     0
 62
     7
  6
CONTINUOUS
  0
LAYER
  2
DEFPOINTS
 70
     0
 62
     7
  6
CONTINUOUS
  0
LAYER
  2
245
 70
     0
 62
     2
  6
CENTER2
  0
LAYER
  2
240
 70
     0
 62
     4
  6
CONTINUOUS
  0
LAYER
  2
241
 70
     0
 62
   211
  6
CONTINUOUS
  0
LAYER
  2
242
 70
     0
 62
     3
  6
CONTINUOUS
  0
LAYER
  2
246
 70
     0
 62
     3
  6
PHANTOM2
  0
LAYER
  2
247
 70
     0
 62
    60
  6
CONTINUOUS
  0
LAYER
  2
250
 70
     0
 62
     3
  6
CONTINUOUS
  0
LAYER
  2
243
 70
     0
 62
   211
  6
HIDDEN2
  0
ENDTAB
  0
TABLE
  2
STYLE
 70
     7
  0
STYLE
  2
STANDARD
 70
     0
 40
0.0
 41
1.0
 50
0.0
 71
     0
 42
3.0
  3
romans.shx
  4
extfont.shx
  0
STYLE
  2
ACISOTS
 70
     0
 40
1.0
 41
1.0
 50
0.0
 71
     0
 42
3.0
  3
amgdt.shx
  4
extfont.shx
  0
STYLE
  2
ACISOGDT
 70
     0
 40
0.0
 41
1.0
 50
0.0
 71
     0
 42
3.0
  3
amgdt.shx
  4
extfont.shx
  0
STYLE
  2
ACJISTS
 70
     0
 40
1.0
 41
1.0
 50
0.0
 71
     0
 42
3.0
  3
amgdt.shx
  4
extfont.shx
  0
STYLE
  2
ACJISGDT
 70
     0
 40
0.0
 41
1.0
 50
0.0
 71
     0
 42
3.0
  3
amgdt.shx
  4
extfont.shx
  0
STYLE
  2
YOKO
 70
     0
 40
0.0
 41
1.0
 50
0.0
 71
     0
 42
3.0
  3
romans.shx
  4
extfont.shx
  0
STYLE
  2
ACANSGDT
 70
     0
 40
0.0
 41
1.0
 50
0.0
 71
     0
 42
3.0
  3
amgdt.shx
  4

  0
ENDTAB
  0
TABLE
  2
VIEW
 70
     0
  0
ENDTAB
  0
TABLE
  2
UCS
 70
     0
  0
ENDTAB
  0
TABLE
  2
APPID
 70
    41
  0
APPID
  2
ACAD
 70
     0
  0
APPID
  2
GLOBAL
 70
     0
  0
APPID
  2
DETAIL
 70
     0
  0
APPID
  2
GRPNAME
 70
     0
  0
APPID
  2
GPARA
 70
     0
  0
APPID
  2
MCAD_NO_VIS
 70
     0
  0
APPID
  2
ACAD_TEMP_GRAPHIC
 70
     0
  0
APPID
  2
ACATTRIBSERVICES
 70
     0
  0
APPID
  2
GENIUS_GENSCREG_15
 70
     0
  0
APPID
  2
GENIUS_GENODEF_13
 70
     0
  0
APPID
  2
GENIUS_GENOBJ-N-SDF_13
 70
     0
  0
APPID
  2
GENIUS_GENREC_14
 70
     0
  0
APPID
  2
GENIUS_GENOBJ-N-REC_13
 70
     0
  0
APPID
  2
GENIUS_GENDIMSH_14
 70
     0
  0
APPID
  2
GENIUS_GENOBJ-N-DIM_13
 70
     0
  0
APPID
  2
GENIUS_GENDIM_13
 70
     0
  0
APPID
  2
GENIUS_GENDTOL_13
 70
     0
  0
APPID
  2
GENIUS_GENOLIS_13
 70
     0
  0
APPID
  2
GENIUS_GENOENT_13
 70
     0
  0
APPID
  2
GENIUS_GENOBJ-F-FEM_13
 70
     0
  0
APPID
  2
GENIUS_GENOREF_13
 70
     0
  0
APPID
  2
GENIUS_GEFFEM_13
 70
     0
  0
APPID
  2
GENIUS_GEFFEMP_13
 70
     0
  0
APPID
  2
AD_DRAW
 70
     0
  0
APPID
  2
DESIGNERASSEMBLIES
 70
     0
  0
APPID
  2
ACADM_DIM_EDIT
 70
     0
  0
APPID
  2
AMDT_DM_ADJ
 70
     0
  0
APPID
  2
ACAD_NAV_VCDISPLAY
 70
     0
  0
APPID
  2
ITEMNAME
 70
     0
  0
APPID
  2
GENIUS_GENOBJ-N-FIL_13
 70
     0
  0
APPID
  2
ACAECLAYERSTANDARD
 70
     0
  0
APPID
  2
ACAD_DSTYLE_DIMJAG
 70
     0
  0
APPID
  2
ACAD_DSTYLE_DIMTALN
 70
     0
  0
APPID
  2
ACAD_DSTYLE_DIMBREAK
 70
     0
  0
APPID
  2
ACAD_PSEXT
 70
     0
  0
APPID
  2
GRADE_0
 70
     0
  0
APPID
  2
ACAD_DSTYLE_DIMINSPECT
 70
     0
  0
APPID
  2
ACADANNOMONITORALERTICONDI
 70
     0
  0
APPID
  2
ACAD_EXEMPT_FROM_CAD_STANDARDS
 70
     0
  0
APPID
  2
ACAD_DSTYLE_DIMRADIAL_EXTENSION
 70
     0
  0
APPID
  2
ACAD_MLEADERVER
 70
     0
  0
ENDTAB
  0
TABLE
  2
DIMSTYLE
 70
    29
  0
DIMSTYLE
  2
BIGT
 70
     0
  3

  4

  5
OPEN
  6

  7

 40
1.0
 41
2.2299999999999991
 42
0.5
 43
7.0
 44
1.0
 45
0.0
 46
0.0
 47
0.0
 48
0.01
140
2.7999999999999989
141
0.0
142
0.0
143
25.3999999999999986
144
1.0
145
0.0
146
1.0
147
1.0
 71
     0
 72
     0
 73
     0
 74
     0
 75
     0
 76
     0
 77
     3
 78
     9
170
     0
171
     2
172
     1
173
     0
174
     1
175
     0
176
   256
177
   256
178
    40
  0
DIMSTYLE
  2
AM_ISO
 70
     0
  3

  4
"
  5

  6

  7

 40
1.0
 41
2.5
 42
1.0
 43
10.0
 44
1.0
 45
0.0
 46
0.0
 47
0.1
 48
0.1
140
3.5
141
0.0
142
0.0
143
0.0393701
144
1.0
145
0.0
146
0.71
147
1.5
 71
     0
 72
     0
 73
     0
 74
     0
 75
     0
 76
     0
 77
     1
 78
     8
170
     0
171
     2
172
     1
173
     0
174
     0
175
     0
176
   256
177
   256
178
     2
  0
DIMSTYLE
  2
AM_ISO$3
 70
     0
  3

  4
"
  5

  6

  7

 40
1.0
 41
2.5
 42
1.0
 43
10.0
 44
1.0
 45
0.0
 46
0.0
 47
0.1
 48
0.1
140
3.5
141
0.0
142
0.0
143
0.0393701
144
1.0
145
0.0
146
0.71
147
1.5
 71
     0
 72
     0
 73
     0
 74
     1
 75
     0
 76
     0
 77
     1
 78
     8
170
     0
171
     2
172
     0
173
     0
174
     0
175
     0
176
   256
177
   256
178
     2
  0
DIMSTYLE
  2
AM_ISO$4
 70
     0
  3

  4
"
  5

  6

  7

 40
1.0
 41
2.5
 42
1.0
 43
10.0
 44
1.0
 45
0.0
 46
0.0
 47
0.1
 48
0.1
140
3.5
141
0.0
142
0.0
143
0.0393701
144
1.0
145
0.0
146
0.71
147
1.5
 71
     0
 72
     0
 73
     0
 74
     1
 75
     0
 76
     0
 77
     1
 78
     8
170
     0
171
     2
172
     0
173
     0
174
     0
175
     0
176
   256
177
   256
178
     2
  0
DIMSTYLE
  2
AM_ISO$6
 70
     0
  3

  4
"
  5

  6

  7

 40
1.0
 41
2.5
 42
1.0
 43
10.0
 44
1.0
 45
0.0
 46
0.0
 47
0.1
 48
0.1
140
3.5
141
0.0
142
0.0
143
0.0393701
144
1.0
145
0.0
146
0.71
147
1.5
 71
     0
 72
     0
 73
     0
 74
     0
 75
     0
 76
     0
 77
     0
 78
     8
170
     0
171
     2
172
     1
173
     0
174
     0
175
     0
176
   256
177
   256
178
     2
  0
DIMSTYLE
  2
AM_ISO$7
 70
     0
  3

  4
"
  5

  6

  7

 40
1.0
 41
2.5
 42
1.0
 43
10.0
 44
1.0
 45
0.0
 46
0.0
 47
0.1
 48
0.1
140
5.0
141
0.0
142
0.0
143
0.0393701
144
1.0
145
0.0
146
0.71
147
1.5
 71
     0
 72
     0
 73
     0
 74
     0
 75
     0
 76
     0
 77
     1
 78
     8
170
     0
171
     2
172
     1
173
     0
174
     0
175
     0
176
   256
177
   256
178
     2
  0
DIMSTYLE
  2
AM_ISO$SF
 70
     0
  3

  4
"
  5

  6

  7

 40
1.0
 41
2.5
 42
1.0
 43
10.0
 44
1.0
 45
0.0
 46
0.0
 47
0.1
 48
0.1
140
3.5
141
0.0
142
0.0
143
0.0393701
144
1.0
145
0.0
146
0.71
147
1.5
 71
     0
 72
     0
 73
     0
 74
     0
 75
     1
 76
     1
 77
     1
 78
     8
170
     0
171
     2
172
     1
173
     0
174
     0
175
     0
176
   256
177
   256
178
     2
  0
DIMSTYLE
  2
AM_ISO$SH
 70
     0
  3

  4
"
  5

  6
GENAXEH
  7

 40
1.0
 41
2.5
 42
1.0
 43
10.0
 44
1.0
 45
0.0
 46
0.0
 47
0.1
 48
0.1
140
3.5
141
0.0
142
0.0
143
0.0393701
144
2.0
145
0.0
146
0.71
147
1.5
 71
     0
 72
     0
 73
     0
 74
     0
 75
     1
 76
     1
 77
     1
 78
     8
170
     0
171
     2
172
     1
173
     1
174
     0
175
     0
176
   256
177
   256
178
     2
  0
DIMSTYLE
  2
BIGT$2
 70
     0
  3

  4

  5
OPEN
  6

  7

 40
1.0
 41
2.2299999999999991
 42
0.5
 43
7.0
 44
1.0
 45
0.0
 46
0.0
 47
0.0
 48
0.01
140
2.7999999999999989
141
0.0
142
0.0
143
25.3999999999999986
144
1.0
145
0.0
146
1.0
147
1.0
 71
     0
 72
     0
 73
     0
 74
     0
 75
     0
 76
     0
 77
     3
 78
     9
170
     0
171
     2
172
     1
173
     0
174
     0
175
     0
176
   256
177
   256
178
    40
  0
DIMSTYLE
  2
BIGT$3
 70
     0
  3

  4

  5
OPEN
  6

  7

 40
1.0
 41
2.2299999999999991
 42
0.5
 43
2.5
 44
1.0
 45
0.0
 46
0.0
 47
0.0
 48
0.01
140
2.7999999999999989
141
0.0
142
0.0
143
25.3999999999999986
144
1.0
145
0.0
146
1.0
147
1.0
 71
     0
 72
     0
 73
     0
 74
     0
 75
     0
 76
     0
 77
     3
 78
     9
170
     0
171
     2
172
     1
173
     0
174
     0
175
     0
176
   256
177
   256
178
    40
  0
DIMSTYLE
  2
BIGT$7
 70
     0
  3

  4

  5
OPEN
  6

  7

 40
0.0
 41
2.2299999999999991
 42
0.5
 43
7.0
 44
1.0
 45
0.0
 46
0.0
 47
0.0
 48
0.01
140
2.7999999999999989
141
0.0
142
0.0
143
25.3999999999999986
144
1.0
145
0.0
146
1.0
147
1.0
 71
     0
 72
     0
 73
     0
 74
     0
 75
     0
 76
     0
 77
     3
 78
     9
170
     0
171
     2
172
     0
173
     0
174
     0
175
     0
176
   256
177
   256
178
    40
  0
DIMSTYLE
  2
BIGT$6
 70
     0
  3

  4

  5
OPEN
  6

  7

 40
1.0
 41
2.2299999999999991
 42
0.5
 43
2.5
 44
1.0
 45
0.0
 46
0.0
 47
0.0
 48
0.01
140
2.7999999999999989
141
0.0
142
0.0
143
25.3999999999999986
144
1.0
145
0.0
146
1.0
147
1.0
 71
     0
 72
     0
 73
     0
 74
     0
 75
     0
 76
     0
 77
     3
 78
     9
170
     0
171
     2
172
     1
173
     0
174
     0
175
     0
176
   256
177
   256
178
    40
  0
DIMSTYLE
  2
BIGT$0
 70
     0
  3

  4

  5
OPEN
  6

  7

 40
1.0
 41
2.2299999999999991
 42
0.5
 43
7.0
 44
1.0
 45
0.0
 46
0.0
 47
0.0
 48
0.01
140
2.7999999999999989
141
0.0
142
0.0
143
25.3999999999999986
144
1.0
145
0.0
146
1.0
147
1.0
 71
     0
 72
     0
 73
     0
 74
     0
 75
     0
 76
     0
 77
     3
 78
     9
170
     0
171
     2
172
     1
173
     0
174
     0
175
     0
176
   256
177
   256
178
    40
  0
DIMSTYLE
  2
BIGT$4
 70
     0
  3

  4

  5
OPEN
  6

  7

 40
1.0
 41
2.2299999999999991
 42
0.5
 43
2.5
 44
1.0
 45
0.0
 46
0.0
 47
0.0
 48
0.01
140
2.7999999999999989
141
0.0
142
0.0
143
25.3999999999999986
144
1.0
145
0.0
146
1.0
147
1.0
 71
     0
 72
     0
 73
     0
 74
     0
 75
     0
 76
     0
 77
     3
 78
     9
170
     0
171
     2
172
     1
173
     0
174
     0
175
     0
176
   256
177
   256
178
    40
  0
DIMSTYLE
  2
BIGT$SH
 70
     0
  3

  4

  5
OPEN
  6

  7

 40
1.0
 41
2.2299999999999991
 42
0.5
 43
7.0
 44
1.0
 45
0.0
 46
0.0
 47
0.0
 48
0.0
140
2.7999999999999989
141
0.0
142
0.0
143
25.3999999999999986
144
1.0
145
0.0
146
1.0
147
1.0
 71
     0
 72
     0
 73
     0
 74
     0
 75
     0
 76
     0
 77
     3
 78
     9
170
     0
171
     2
172
     1
173
     0
174
     0
175
     0
176
   256
177
   256
178
    40
  0
DIMSTYLE
  2
BIGT$SF
 70
     0
  3

  4

  5
OPEN
  6

  7

 40
1.0
 41
2.2299999999999991
 42
0.5
 43
7.0
 44
1.0
 45
0.0
 46
0.0
 47
0.0
 48
0.0
140
2.7999999999999989
141
0.0
142
0.0
143
25.3999999999999986
144
1.0
145
0.0
146
1.0
147
1.0
 71
     0
 72
     0
 73
     0
 74
     0
 75
     0
 76
     0
 77
     3
 78
     9
170
     0
171
     2
172
     1
173
     0
174
     0
175
     0
176
   256
177
   256
178
    40
  0
DIMSTYLE
  2
TECHNICAL_OSAKA
 70
     0
  3

  4
"
  5
OPEN30
  6

  7

 40
1.0
 41
2.5
 42
1.0
 43
10.0
 44
1.0
 45
0.0
 46
0.0
 47
0.1
 48
0.1
140
2.7999999999999989
141
0.0
142
0.0
143
0.0393701
144
1.0
145
0.0
146
0.71
147
1.5
 71
     0
 72
     0
 73
     0
 74
     0
 75
     0
 76
     0
 77
     3
 78
     8
170
     0
171
     2
172
     1
173
     0
174
     0
175
     0
176
   256
177
   256
178
    40
  0
DIMSTYLE
  2
TECHNICAL_OSAKA$3
 70
     0
  3

  4
"
  5
OPEN30
  6

  7

 40
1.0
 41
2.5
 42
1.0
 43
10.0
 44
1.0
 45
0.0
 46
0.0
 47
0.1
 48
0.1
140
2.7999999999999989
141
0.0
142
0.0
143
0.0393701
144
1.0
145
0.0
146
0.71
147
1.5
 71
     0
 72
     0
 73
     0
 74
     1
 75
     0
 76
     0
 77
     3
 78
     8
170
     0
171
     2
172
     0
173
     0
174
     0
175
     0
176
   256
177
   256
178
    40
  0
DIMSTYLE
  2
TECHNICAL_OSAKA$4
 70
     0
  3

  4
"
  5
OPEN30
  6

  7

 40
1.0
 41
2.5
 42
1.0
 43
10.0
 44
1.0
 45
0.0
 46
0.0
 47
0.1
 48
0.1
140
2.7999999999999989
141
0.0
142
0.0
143
0.0393701
144
1.0
145
0.0
146
0.71
147
1.5
 71
     0
 72
     0
 73
     0
 74
     1
 75
     0
 76
     0
 77
     3
 78
     8
170
     0
171
     2
172
     0
173
     0
174
     0
175
     0
176
   256
177
   256
178
    40
  0
DIMSTYLE
  2
TECHNICAL_OSAKA$6
 70
     0
  3

  4
"
  5
OPEN30
  6

  7

 40
1.0
 41
2.5
 42
1.0
 43
10.0
 44
1.0
 45
0.0
 46
0.0
 47
0.1
 48
0.1
140
2.7999999999999989
141
0.0
142
0.0
143
0.0393701
144
1.0
145
0.0
146
0.71
147
1.5
 71
     0
 72
     0
 73
     0
 74
     0
 75
     0
 76
     0
 77
     0
 78
     8
170
     0
171
     2
172
     1
173
     0
174
     0
175
     0
176
   256
177
   256
178
    40
  0
DIMSTYLE
  2
TECHNICAL_OSAKA$7
 70
     0
  3

  4
"
  5
OPEN30
  6

  7

 40
1.0
 41
2.5
 42
1.0
 43
10.0
 44
1.0
 45
0.0
 46
0.0
 47
0.1
 48
0.1
140
2.7999999999999989
141
0.0
142
0.0
143
0.0393701
144
1.0
145
0.0
146
0.71
147
1.5
 71
     0
 72
     0
 73
     0
 74
     0
 75
     0
 76
     0
 77
     3
 78
     8
170
     0
171
     2
172
     1
173
     0
174
     0
175
     0
176
   256
177
   256
178
    40
  0
DIMSTYLE
  2
TECHNICAL_OSAKA$SF
 70
     0
  3

  4
"
  5
OPEN30
  6
OPEN30
  7
OPEN30
 40
1.0
 41
2.5
 42
1.0
 43
10.0
 44
1.0
 45
0.0
 46
0.0
 47
0.1
 48
0.1
140
3.5
141
0.0
142
0.0
143
0.0393701
144
1.0
145
0.0
146
0.71
147
1.5
 71
     0
 72
     0
 73
     0
 74
     0
 75
     1
 76
     1
 77
     3
 78
     8
170
     0
171
     2
172
     1
173
     0
174
     0
175
     0
176
   256
177
   256
178
    40
  0
DIMSTYLE
  2
TECHNICAL_OSAKA$SH
 70
     0
  3

  4
"
  5
OPEN30
  6
GENAXEH
  7
OPEN30
 40
1.0
 41
2.5
 42
1.0
 43
10.0
 44
1.0
 45
0.0
 46
0.0
 47
0.1
 48
0.1
140
3.5
141
0.0
142
0.0
143
0.0393701
144
2.0
145
0.0
146
0.71
147
1.5
 71
     0
 72
     0
 73
     0
 74
     0
 75
     1
 76
     1
 77
     3
 78
     8
170
     0
171
     2
172
     1
173
     1
174
     0
175
     0
176
   256
177
   256
178
    40
  0
DIMSTYLE
  2
AM_ANSI
 70
     0
  3

  4
mm
  5

  6

  7

 40
1.0
 41
0.12
 42
0.05
 43
0.5
 44
0.1
 45
0.0
 46
0.0
 47
0.1
 48
0.1
140
0.12
141
0.0
142
0.0
143
25.3999999999999986
144
1.0
145
0.0
146
0.71
147
0.06
 71
     0
 72
     0
 73
     1
 74
     1
 75
     0
 76
     0
 77
     0
 78
     7
170
     0
171
     2
172
     0
173
     0
174
     0
175
     0
176
   256
177
   256
178
     2
  0
DIMSTYLE
  2
AM_ANSI$3
 70
     0
  3

  4
mm
  5

  6

  7

 40
1.0
 41
0.12
 42
0.05
 43
0.5
 44
0.1
 45
0.0
 46
0.0
 47
0.1
 48
0.1
140
0.12
141
0.0
142
0.0
143
25.3999999999999986
144
1.0
145
0.0
146
0.71
147
0.06
 71
     0
 72
     0
 73
     1
 74
     1
 75
     0
 76
     0
 77
     0
 78
     7
170
     0
171
     2
172
     0
173
     0
174
     0
175
     0
176
   256
177
   256
178
     2
  0
DIMSTYLE
  2
AM_ANSI$4
 70
     0
  3

  4
mm
  5

  6

  7

 40
1.0
 41
0.12
 42
0.05
 43
0.5
 44
0.1
 45
0.0
 46
0.0
 47
0.1
 48
0.1
140
0.12
141
0.0
142
0.0
143
25.3999999999999986
144
1.0
145
0.0
146
0.71
147
0.06
 71
     0
 72
     0
 73
     1
 74
     1
 75
     0
 76
     0
 77
     0
 78
     7
170
     0
171
     2
172
     0
173
     0
174
     0
175
     0
176
   256
177
   256
178
     2
  0
DIMSTYLE
  2
AM_ANSI$7
 70
     0
  3

  4
mm
  5

  6

  7

 40
1.0
 41
0.12
 42
0.05
 43
0.5
 44
0.1
 45
0.0
 46
0.0
 47
0.1
 48
0.1
140
0.12
141
0.0
142
0.0
143
25.3999999999999986
144
1.0
145
0.0
146
0.71
147
0.06
 71
     0
 72
     0
 73
     1
 74
     1
 75
     0
 76
     0
 77
     0
 78
     7
170
     0
171
     2
172
     0
173
     0
174
     0
175
     0
176
   256
177
   256
178
     2
  0
DIMSTYLE
  2
AM_ANSI$SF
 70
     0
  3

  4
mm
  5

  6

  7

 40
1.0
 41
0.12
 42
0.05
 43
0.5
 44
0.1
 45
0.0
 46
0.0
 47
0.1
 48
0.1
140
0.12
141
0.0
142
0.0
143
25.3999999999999986
144
1.0
145
0.0
146
0.71
147
0.06
 71
     0
 72
     0
 73
     1
 74
     1
 75
     1
 76
     1
 77
     0
 78
     7
170
     0
171
     2
172
     0
173
     0
174
     0
175
     0
176
   256
177
   256
178
     2
  0
DIMSTYLE
  2
AM_ANSI$SH
 70
     0
  3

  4
mm
  5

  6

  7

 40
1.0
 41
0.12
 42
0.05
 43
0.5
 44
0.1
 45
0.0
 46
0.0
 47
0.1
 48
0.1
140
0.12
141
0.0
142
0.0
143
25.3999999999999986
144
1.0
145
0.0
146
0.71
147
0.06
 71
     0
 72
     0
 73
     1
 74
     1
 75
     1
 76
     1
 77
     0
 78
     7
170
     0
171
     2
172
     0
173
     1
174
     0
175
     0
176
   256
177
   256
178
     2
  0
ENDTAB
  0
ENDSEC
  0
SECTION
  2
BLOCKS
  0
BLOCK
  8
0
  2
$MODEL_SPACE
 70
     0
 10
0.0
 20
0.0
 30
0.0
  3
$MODEL_SPACE
  1

  0
ENDBLK
  5
1C
  8
0
  0
BLOCK
 67
     1
  8
0
  2
$PAPER_SPACE
 70
     0
 10
0.0
 20
0.0
 30
0.0
  3
$PAPER_SPACE
  1

  0
ENDBLK
  5
19
 67
     1
  8
0
  0
BLOCK
  8
0
  2
_OPEN
 70
     0
 10
0.0
 20
0.0
 30
0.0
  3
_OPEN
  1

  0
LINE
  5
595
  8
0
  6
BYBLOCK
 62
     0
 10
-1.0
 20
0.1666666666666666
 30
0.0
 11
0.0
 21
0.0
 31
0.0
  0
LINE
  5
596
  8
0
  6
BYBLOCK
 62
     0
 10
-1.0
 20
-0.1666666666666666
 30
0.0
 11
0.0
 21
0.0
 31
0.0
  0
LINE
  5
597
  8
0
  6
BYBLOCK
 62
     0
 10
0.0
 20
0.0
 30
0.0
 11
-1.0
 21
0.0
 31
0.0
  0
ENDBLK
  5
599
  8
0
  0
BLOCK
  8
0
  2
GENAXEH
 70
     0
 10
0.0
 20
0.0
 30
0.0
  3
GENAXEH
  1

  0
LINE
  5
6E8
  8
0
 10
-1.0
 20
0.0
 30
0.0
 11
1.0
 21
0.0
 31
0.0
  0
ENDBLK
  5
6EA
  8
0
  0
BLOCK
  8
0
  2
_OPEN30
 70
     0
 10
0.0
 20
0.0
 30
0.0
  3
_OPEN30
  1

  0
LINE
  5
E8F
  8
0
  6
BYBLOCK
 62
     0
 10
-1.0
 20
0.26794919
 30
0.0
 11
0.0
 21
0.0
 31
0.0
  0
LINE
  5
E90
  8
0
  6
BYBLOCK
 62
     0
 10
0.0
 20
0.0
 30
0.0
 11
-1.0
 21
-0.26794919
 31
0.0
  0
LINE
  5
E91
  8
0
  6
BYBLOCK
 62
     0
 10
0.0
 20
0.0
 30
0.0
 11
-1.0
 21
0.0
 31
0.0
  0
ENDBLK
  5
E93
  8
0
  0
BLOCK
  8
0
  2
_ACMOPEN15
 70
     0
 10
0.0
 20
0.0
 30
0.0
  3
_ACMOPEN15
  1

  0
LINE
  5
1359
  8
245
 62
     0
 10
-1.0
 20
0.0
 30
0.0
 11
0.0
 21
0.0
 31
0.0
  0
LINE
  5
135A
  8
245
 62
     0
 10
-1.0
 20
-0.131652497
 30
0.0
 11
0.0
 21
0.0
 31
0.0
  0
LINE
  5
135B
  8
245
 62
     0
 10
0.0
 20
0.0
 30
0.0
 11
-1.0
 21
0.131652497
 31
0.0
  0
ENDBLK
  5
1358
  8
0
  0
ENDSEC
  0
SECTION
  2
ENTITIES
  0
LINE
  5
1404
  8
245
  6
CENTER2
 10
-103.5999999999999943
 20
0.0
 30
0.0
 11
128.6219010114772914
 21
0.0
 31
0.0
1001
GRPNAME
1000
PASTMD0L
  0
LINE
  5
1405
  8
240
  6
CONTINUOUS
 10
0.0
 20
34.9250000000000114
 30
0.0
 11
-101.5999999999999943
 21
20.1083333297216917
 31
0.0
1001
GRPNAME
1000
PASTMD0L
  0
LINE
  5
1406
  8
240
  6
CONTINUOUS
 10
0.0
 20
-34.9250000000000114
 30
0.0
 11
-101.5999999999999943
 21
-20.1083333297217202
 31
0.0
1001
GRPNAME
1000
PASTMD0L
  0
LINE
  5
1407
  8
240
  6
CONTINUOUS
 10
-101.5999999999999943
 20
20.1083333297216917
 30
0.0
 11
-101.5999999999999943
 21
-20.1083333297217202
 31
0.0
1001
GRPNAME
1000
PASTMD0L
  0
LINE
  5
1408
  8
241
  6
CONTINUOUS
 10
7.5938332300000013
 20
49.2124999999999702
 30
0.0
 11
7.5938332300000013
 21
12.6999999999964803
 31
0.0
1001
GRPNAME
1000
PASTMD0L
  0
LINE
  5
1409
  8
241
  6
CONTINUOUS
 10
9.2000000000000028
 20
45.6449999999999818
 30
0.0
 11
9.2000000000000028
 21
12.6999999999954802
 31
0.0
1001
GRPNAME
1000
PASTMD0L
  0
LINE
  5
140A
  8
241
  6
CONTINUOUS
 10
13.0399999999999903
 20
45.6449999999999818
 30
0.0
 11
13.0399999999999903
 21
12.6999999999930893
 31
0.0
1001
GRPNAME
1000
PASTMD0L
  0
LINE
  5
140B
  8
241
  6
CONTINUOUS
 10
14.6461667700000007
 20
49.2124999999999702
 30
0.0
 11
14.6461667700000007
 21
12.6999999999920892
 31
0.0
1001
GRPNAME
1000
PASTMD0L
  0
LINE
  5
140C
  8
241
  6
CONTINUOUS
 10
1.5
 20
34.9250000000000114
 30
0.0
 11
1.5
 21
-34.9250000000000114
 31
0.0
1001
GRPNAME
1000
PASTMD0L
  0
LINE
  5
140D
  8
241
  6
CONTINUOUS
 10
9.1999999999999993
 20
-12.6999999999962405
 30
0.0
 11
9.2000000000000028
 21
-45.6450000000000031
 31
0.0
1001
GRPNAME
1000
PASTMD0L
  0
LINE
  5
140E
  8
241
  6
CONTINUOUS
 10
7.5938332300000013
 20
-49.2124999999999986
 30
0.0
 11
7.5938332300000004
 21
-12.6999999999969209
 31
0.0
1001
GRPNAME
1000
PASTMD0L
  0
LINE
  5
140F
  8
241
  6
CONTINUOUS
 10
13.0399999999999903
 20
-45.6450000000000031
 30
0.0
 11
13.0399999999999903
 21
-12.6999999999946294
 31
0.0
1001
GRPNAME
1000
PASTMD0L
  0
LINE
  5
1410
  8
241
  6
CONTINUOUS
 10
14.6461667700000007
 20
-49.2124999999999986
 30
0.0
 11
14.6461667700000007
 21
-12.6999999999939508
 31
0.0
1001
GRPNAME
1000
PASTMD0L
  0
LINE
  5
1411
  8
240
  6
CONTINUOUS
 10
1.5
 20
-49.2124999999999986
 30
0.0
 11
1.5
 21
-34.9250000000000114
 31
0.0
1001
GRPNAME
1000
PASTMD0L
  0
LINE
  5
1412
  8
240
  6
CONTINUOUS
 10
19.0500000000000114
 20
-49.2124999999999986
 30
0.0
 11
19.0500000000001108
 21
-45.0
 31
0.0
1001
GRPNAME
1000
PASTMD0L
  0
LINE
  5
1413
  8
240
  6
CONTINUOUS
 10
14.6461667700000007
 20
-49.2124999999999986
 30
0.0
 11
19.0500000000000114
 21
-49.2124999999999986
 31
0.0
1001
GRPNAME
1000
PASTMD0L
  0
LINE
  5
1414
  8
240
  6
CONTINUOUS
 10
1.5
 20
-49.2124999999999986
 30
0.0
 11
7.5938332300000013
 21
-49.2124999999999986
 31
0.0
1001
GRPNAME
1000
PASTMD0L
  0
LINE
  5
1415
  8
240
  6
CONTINUOUS
 10
9.2000000000000028
 20
-45.6450000000000031
 30
0.0
 11
13.0399999999999903
 21
-45.6450000000000031
 31
0.0
1001
GRPNAME
1000
PASTMD0L
  0
LINE
  5
1416
  8
240
  6
CONTINUOUS
 10
9.2000000000000028
 20
-46.4305375499999897
 30
0.0
 11
7.5938332300000013
 21
-49.2124999999999986
 31
0.0
1001
GRPNAME
1000
PASTMD0L
  0
LINE
  5
1417
  8
240
  6
CONTINUOUS
 10
9.2000000000000028
 20
-45.6450000000000031
 30
0.0
 11
9.2000000000000028
 21
-46.4305375499999897
 31
0.0
1001
GRPNAME
1000
PASTMD0L
  0
LINE
  5
1418
  8
240
  6
CONTINUOUS
 10
13.0399999999999903
 20
-46.4305375499999897
 30
0.0
 11
14.6461667700000007
 21
-49.2124999999999986
 31
0.0
1001
GRPNAME
1000
PASTMD0L
  0
LINE
  5
1419
  8
240
  6
CONTINUOUS
 10
13.0399999999999903
 20
-45.6450000000000031
 30
0.0
 11
13.0399999999999903
 21
-46.4305375499999897
 31
0.0
1001
GRPNAME
1000
PASTMD0L
  0
LINE
  5
141A
  8
241
  6
CONTINUOUS
 10
0.0
 20
-34.9250000000000114
 30
0.0
 11
0.0
 21
34.9250000000000114
 31
0.0
1001
GRPNAME
1000
PASTMD0L
  0
LINE
  5
141B
  8
240
  6
CONTINUOUS
 10
0.0
 20
-34.9250000000000114
 30
0.0
 11
1.5
 21
-34.9250000000000114
 31
0.0
  0
LINE
  5
141C
  8
240
  6
CONTINUOUS
 10
1.5
 20
49.2124999999999702
 30
0.0
 11
1.5
 21
34.9250000000000114
 31
0.0
1001
GRPNAME
1000
PASTMD0L
  0
LINE
  5
141D
  8
240
  6
CONTINUOUS
 10
19.0500000000000114
 20
49.2124999999999702
 30
0.0
 11
19.0500000000000291
 21
45.0000000000001634
 31
0.0
1001
GRPNAME
1000
PASTMD0L
  0
LINE
  5
141E
  8
240
  6
CONTINUOUS
 10
0.0
 20
34.9250000000000114
 30
0.0
 11
1.5
 21
34.9250000000000114
 31
0.0
  0
LINE
  5
141F
  8
240
  6
CONTINUOUS
 10
14.6461667700000007
 20
49.2124999999999702
 30
0.0
 11
19.0500000000000114
 21
49.2124999999999702
 31
0.0
1001
GRPNAME
1000
PASTMD0L
  0
LINE
  5
1420
  8
240
  6
CONTINUOUS
 10
1.5
 20
49.2124999999999702
 30
0.0
 11
7.5938332300000013
 21
49.2124999999999702
 31
0.0
1001
GRPNAME
1000
PASTMD0L
  0
LINE
  5
1421
  8
240
  6
CONTINUOUS
 10
9.2000000000000028
 20
45.6449999999999818
 30
0.0
 11
13.0399999999999903
 21
45.6449999999999818
 31
0.0
1001
GRPNAME
1000
PASTMD0L
  0
LINE
  5
1422
  8
240
  6
CONTINUOUS
 10
9.2000000000000028
 20
45.6449999999999818
 30
0.0
 11
9.2000000000000028
 21
46.4305375499999897
 31
0.0
1001
GRPNAME
1000
PASTMD0L
  0
LINE
  5
1423
  8
240
  6
CONTINUOUS
 10
9.2000000000000028
 20
46.4305375499999897
 30
0.0
 11
7.5938332300000013
 21
49.2124999999999702
 31
0.0
1001
GRPNAME
1000
PASTMD0L
  0
LINE
  5
1424
  8
240
  6
CONTINUOUS
 10
13.0399999999999903
 20
45.6449999999999818
 30
0.0
 11
13.0399999999999903
 21
46.4305375499999897
 31
0.0
1001
GRPNAME
1000
PASTMD0L
  0
LINE
  5
1425
  8
240
  6
CONTINUOUS
 10
13.0399999999999903
 20
46.4305375499999897
 30
0.0
 11
14.6461667700000007
 21
49.2124999999999702
 31
0.0
1001
GRPNAME
1000
PASTMD0L
  0
TEXT
  5
1426
  8
250
  6
CONTINUOUS
 10
-73.8675778919675849
 20
-37.357738943014617
 30
0.0
 40
2.799999999999998
  1
BCV50Y
  7
YOKO
1001
ITEMNAME
1000
LNSP3
  0
LINE
  5
1427
  8
250
  6
CONTINUOUS
 10
-57.0612186589336901
 20
-38.3577389430146312
 30
0.0
 11
-75.0612186589336829
 21
-38.3577389430146312
 31
0.0
1001
ITEMNAME
1000
LNSP2
  0
LINE
  5
1428
  8
250
  6
CONTINUOUS
 10
-52.088904974520247
 20
-29.0818615630252886
 30
0.0
 11
-50.7999999989336928
 21
-27.5166666630146288
 31
0.0
  0
LINE
  5
1429
  8
250
  6
CONTINUOUS
 10
-51.5116036569175506
 20
-29.4152796686203608
 30
0.0
 11
-50.7999999989336928
 21
-27.5166666630146288
 31
0.0
  0
LINE
  5
142A
  8
250
  6
CONTINUOUS
 10
-50.7999999989336928
 20
-27.5166666630146288
 30
0.0
 11
-51.8002543157188811
 21
-29.2485706158228211
 31
0.0
  0
LINE
  5
142B
  8
250
  6
CONTINUOUS
 10
-51.8002543157188811
 20
-29.2485706158228211
 30
0.0
 11
-57.0612186589336901
 21
-38.3577389430146312
 31
0.0
1001
ACAD
1000
DSTYLE
1002
{
1070
     6
1000
OPEN
1070
    41
1040
2.0
1070
    42
1040
2.0
1070
    44
1040
2.0
1070
   140
1040
4.0
1070
   343
1005
0
1002
}
  0
LINE
  5
142C
  8
247
  6
CONTINUOUS
 10
5.4999999999999432
 20
-26.75
 30
0.0
 11
5.5
 21
-22.1153846156700489
 31
0.0
  0
LINE
  5
142D
  8
247
  6
CONTINUOUS
 10
3.0
 20
-25.9548934999879783
 30
0.0
 11
5.0999999999160082
 21
-26.5570588100573595
 31
0.0
  0
LINE
  5
142E
  8
247
  6
CONTINUOUS
 10
3.996153846113998
 20
-25.3251514035190404
 30
0.0
 11
3.996153846113998
 21
-26.24053601886704
 31
0.0
  0
ARC
  5
142F
  8
247
  6
CONTINUOUS
 10
3.3847190672940992
 20
-25.0872634019468101
 30
0.0
 40
0.3876715809326743
 50
72.997889675292214
 51
172.9241662185135908
  0
ARC
  5
1430
  8
247
  6
CONTINUOUS
 10
3.305223131028014
 20
-25.3824775568041296
 30
0.0
 40
0.6933047965358772
 50
4.7429368522022122
 51
73.8492262732667513
1001
GENIUS_GENOBJ-N-FIL_13
1002
{
1000
OWNER
1000
GEN
1002
}
1001
GENIUS_GENODEF_13
1002
{
1000
HIER
1070
     0
1002
}
1002
{
1000
MANEDIT
1070
     0
1002
}
1002
{
1000
NOSEL
1070
     0
1002
}
1002
{
1000
BEHIND
1070
     0
1002
}
1002
{
1000
OTHER
1070
     0
1002
}
1002
{
1000
REACTOR
1002
}
  0
LINE
  5
1431
  8
247
  6
CONTINUOUS
 10
5.0999999999160082
 20
-25.6416741947093705
 30
0.0
 11
5.0999999999160082
 21
-26.5570588100573595
 31
0.0
  0
LINE
  5
1432
  8
247
  6
CONTINUOUS
 10
3.0
 20
-25.9548934999879783
 30
0.0
 11
3.0
 21
-25.0395088846399894
 31
0.0
  0
ARC
  5
1433
  8
247
  6
CONTINUOUS
 10
4.3874169627678707
 20
-25.3783064762668609
 30
0.0
 40
0.394857301075386
 50
65.990941652528889
 51
172.2634434590690944
  0
ARC
  5
1434
  8
247
  6
CONTINUOUS
 10
4.391200327332565
 20
-25.7124466104269302
 30
0.0
 40
0.7123241612361686
 50
5.701985164259785
 51
77.2773384368220064
1001
GENIUS_GENOBJ-N-FIL_13
1002
{
1000
OWNER
1000
GEN
1002
}
1001
GENIUS_GENODEF_13
1002
{
1000
HIER
1070
     0
1002
}
1002
{
1000
MANEDIT
1070
     0
1002
}
1002
{
1000
NOSEL
1070
     0
1002
}
1002
{
1000
BEHIND
1070
     0
1002
}
1002
{
1000
OTHER
1070
     0
1002
}
1002
{
1000
REACTOR
1002
}
  0
LINE
  5
1435
  8
247
  6
CONTINUOUS
 10
5.0999999999160082
 20
-24.6839818870633998
 30
0.0
 11
3.0
 21
-24.0818165769940116
 31
0.0
  0
LINE
  5
1436
  8
247
  6
CONTINUOUS
 10
3.0
 20
-22.5856627309079805
 30
0.0
 11
3.0
 21
-22.9816783643036011
 31
0.0
  0
LINE
  5
1437
  8
247
  6
CONTINUOUS
 10
5.0999999999160082
 20
-23.6087396539439816
 30
0.0
 11
5.0999999999160082
 21
-23.1779704231919901
 31
0.0
  0
ARC
  5
1438
  8
247
  6
CONTINUOUS
 10
4.4582995950833562
 20
-22.3818165770699693
 30
0.0
 40
1.576855057639547
 50
202.3594881415291127
 51
254.9932485428464872
  0
ARC
  5
1439
  8
247
  6
CONTINUOUS
 10
3.5658188585381341
 20
-22.8475113661332294
 30
0.0
 40
0.6234706797009447
 50
94.9945893190753168
 51
155.1663289573039037
1001
GENIUS_GENOBJ-N-FIL_13
1002
{
1000
OWNER
1000
GEN
1002
}
1001
GENIUS_GENODEF_13
1002
{
1000
HIER
1070
     0
1002
}
1002
{
1000
MANEDIT
1070
     0
1002
}
1002
{
1000
NOSEL
1070
     0
1002
}
1002
{
1000
BEHIND
1070
     0
1002
}
1002
{
1000
OTHER
1070
     0
1002
}
1002
{
1000
REACTOR
1002
}
  0
ARC
  5
143A
  8
247
  6
CONTINUOUS
 10
4.1621021219694381
 20
-23.4441839510328016
 30
0.0
 40
0.974947214910698
 50
15.8460965557808002
 51
82.325137004169278
  0
ARC
  5
143B
  8
247
  6
CONTINUOUS
 10
4.3714704019710631
 20
-23.035211638772239
 30
0.0
 40
0.9271945638692008
 50
249.7136016704968995
 51
321.7887456564109243
1001
GENIUS_GENOBJ-N-FIL_13
1002
{
1000
OWNER
1000
GEN
1002
}
1001
GENIUS_GENODEF_13
1002
{
1000
HIER
1070
     0
1002
}
1002
{
1000
MANEDIT
1070
     0
1002
}
1002
{
1000
NOSEL
1070
     0
1002
}
1002
{
1000
BEHIND
1070
     0
1002
}
1002
{
1000
OTHER
1070
     0
1002
}
1002
{
1000
REACTOR
1002
}
  0
LINE
  5
143C
  8
247
  6
CONTINUOUS
 10
4.2923076922559744
 20
-22.9625858078159588
 30
0.0
 11
4.2923076922559744
 21
-22.4779704232199684
 31
0.0
  0
ARC
  5
143D
  8
247
  6
CONTINUOUS
 10
4.25
 20
-26.75
 30
0.0
 40
1.25
 50
180.0
 51
0.0
  0
LINE
  5
143E
  8
247
  6
CONTINUOUS
 10
3.0
 20
-26.75
 30
0.0
 11
3.0
 21
-26.3038461539140407
 31
0.0
  0
ARC
  5
143F
  8
247
  6
CONTINUOUS
 10
4.25
 20
-22.1153846156700489
 30
0.0
 40
1.25
 50
0.0
 51
180.0
  0
LINE
  5
1440
  8
241
  6
CONTINUOUS
 10
19.0500000000000114
 20
-45.0000000000000071
 30
0.0
 11
19.0500000000000114
 21
-12.6999999999920892
 31
0.0
  0
LINE
  5
1441
  8
241
  6
CONTINUOUS
 10
19.1000000000079311
 20
12.6999999999893198
 30
0.0
 11
3.700000000003171
 21
12.6999999999989104
 31
0.0
  0
LINE
  5
1442
  8
241
  6
CONTINUOUS
 10
19.1000000000053802
 20
-12.6999999999920608
 30
0.0
 11
3.700000000003056
 21
-12.6999999999985693
 31
0.0
  0
LINE
  5
1443
  8
241
  6
CONTINUOUS
 10
3.700000000003056
 20
-12.6999999999985693
 30
0.0
 11
1.500000000000111
 21
-14.8999999999995207
 31
0.0
  0
LINE
  5
1444
  8
241
  6
CONTINUOUS
 10
3.700000000003171
 20
12.6999999999989104
 30
0.0
 11
1.5000000000001701
 21
14.89999999999986
 31
0.0
  0
LINE
  5
14CD
  8
241
  6
CONTINUOUS
 10
33.0000000000079581
 20
45.0000000000002771
 30
0.0
 11
33.0000000000082991
 21
-44.9999999999998792
 31
0.0
  0
ARC
  5
14CF
  8
240
  6
CONTINUOUS
 10
114.9999999999999005
 20
15.0294372515227792
 30
0.0
 40
12.0
 50
0.0
 51
45.0
  0
LINE
  5
14D0
  8
241
  6
CONTINUOUS
 10
34.7141428428527732
 20
45.0000000000002274
 30
0.0
 11
34.7141428428531071
 21
-44.9999999999999432
 31
0.0
  0
LINE
  5
14D7
  8
245
  6
CENTER2
 10
51.1071478435640714
 20
-29.0
 30
0.0
 11
121.9869621524997001
 21
-28.9999999999999503
 31
0.0
  0
LINE
  5
14D8
  8
243
  6
HIDDEN2
 10
126.8000000000000966
 20
-13.2499999999998792
 30
0.0
 11
42.0000000000002274
 21
-13.2499999999999396
 31
0.0
  0
LINE
  5
14D9
  8
243
  6
HIDDEN2
 10
42.0000000000002274
 20
-13.2499999999999396
 30
0.0
 11
42.0000000000003268
 21
-44.9999999999999929
 31
0.0
  0
LINE
  5
14DB
  8
240
  6
CONTINUOUS
 10
19.0500000000001108
 20
-45.0
 30
0.0
 11
127.000000000000199
 21
-44.9999999999999432
 31
0.0
  0
LINE
  5
14F2
  8
240
  6
CONTINUOUS
 10
126.9999999999999005
 20
15.0294372515228307
 30
0.0
 11
127.000000000000199
 21
-44.9999999999999432
 31
0.0
  0
LINE
  5
1503
  8
240
  6
CONTINUOUS
 10
101.1720409991216059
 20
39.2106965702044477
 30
0.0
 11
34.9999999999999716
 21
45.0000000000001634
 31
0.0
  0
LINE
  5
1505
  8
240
  6
CONTINUOUS
 10
19.0500000000000291
 20
45.0000000000001634
 30
0.0
 11
34.9999999999999716
 21
45.0000000000001634
 31
0.0
  0
ARC
  5
150A
  8
240
  6
CONTINUOUS
 10
99.428926144168372
 20
19.2868026083695483
 30
0.0
 40
20.0
 50
45.0
 51
85.0000000000002558
  0
LINE
  5
150B
  8
240
  6
CONTINUOUS
 10
123.4852813742383972
 20
23.5147186257613612
 30
0.0
 11
113.5710617678992946
 21
33.4289382321005135
 31
0.0
  0
ARC
  5
1514
  8
241
  6
CONTINUOUS
 10
19.1000000000000192
 20
0.0000000000000568
 30
0.0
 40
12.6999999999997009
 50
269.9999823999074806
 51
90.0
  0
LINE
  5
1535
  8
241
  6
CONTINUOUS
 10
19.0500000000000007
 20
12.69999999998935
 30
0.0
 11
19.0500000000000114
 21
45.0000000000001634
 31
0.0
  0
ARC
  5
1628
  8
246
  6
PHANTOM2
 10
279.9999999999997158
 20
-0.0000000000000568
 30
0.0
 40
63.9999999999998792
 50
32.6423790958446816
 51
327.3576209041481206
  0
ARC
  5
1629
  8
240
  6
CONTINUOUS
 10
279.9999999999993179
 20
-0.000000000000739
 30
0.0
 40
45.0
 50
90.0
 51
269.9999823999042974
  0
LINE
  5
162A
  8
245
  6
CENTER2
 10
345.9999999999996021
 20
-0.0000000000007958
 30
0.0
 11
213.999999999999801
 21
0.0000000000005116
 31
0.0
  0
ARC
  5
1630
  8
240
  6
CONTINUOUS
 10
313.4813380855657101
 20
-20.000000000000739
 30
0.0
 40
25.0
 50
270.0
 51
329.1481140139321724
  0
LINE
  5
1631
  8
241
  6
CONTINUOUS
 10
311.7499999999985221
 20
-13.2500000000002807
 30
0.0
 11
311.7499999999985789
 21
-45.0000000000007319
 31
0.0
  0
LINE
  5
1635
  8
240
  6
CONTINUOUS
 10
279.9999999999993179
 20
-45.0000000000007319
 30
0.0
 11
313.4813380855657101
 21
-45.0000000000007319
 31
0.0
  0
LINE
  5
163D
  8
241
  6
CONTINUOUS
 10
256.8290651030225149
 20
38.5760000000000787
 30
0.0
 11
330.2125132983236995
 21
38.5760000000000787
 31
0.0
  0
LINE
  5
163E
  8
241
  6
CONTINUOUS
 10
239.6887112585069985
 20
20.0000000000002309
 30
0.0
 11
340.7947366142823853
 21
19.999999999999261
 31
0.0
  0
LINE
  5
1641
  8
241
  6
CONTINUOUS
 10
311.7499999999985221
 20
-13.2500000000002807
 30
0.0
 11
279.9999999999984084
 21
-13.2500000000002807
 31
0.0
  0
LINE
  5
1642
  8
240
  6
CONTINUOUS
 10
279.9999999999993179
 20
44.999999999999261
 30
0.0
 11
313.4813380855662786
 21
44.999999999999261
 31
0.0
  0
ARC
  5
1645
  8
240
  6
CONTINUOUS
 10
279.9999999999996021
 20
-0.0000000000002842
 30
0.0
 40
64.0
 50
329.1481140139321724
 51
30.8518859860677708
  0
ARC
  5
164A
  8
240
  6
CONTINUOUS
 10
313.4813380855662786
 20
19.999999999999261
 30
0.0
 40
25.0
 50
30.8518859860677708
 51
90.0
  0
ARC
  5
1667
  8
241
  6
CONTINUOUS
 10
255.9999999999996021
 20
-7.446152422707029
 30
0.0
 40
7.9495399805384821
 50
348.7281791448917261
 51
191.2718208551081887
  0
POLYLINE
  5
1668
  8
241
  6
CONTINUOUS
 10
263.796200588024476
 20
-9.0000000000004583
 30
0.0
 66
     1
 70
     8
  0
VERTEX
  8
241
  5
2706
 10
263.796
 20
-9.00000
 30
0.000000
  70
    32
  0
VERTEX
  8
241
  5
2707
 10
263.757
 20
-9.18866
 30
0.000000
  70
    32
  0
VERTEX
  8
241
  5
2708
 10
263.714
 20
-9.37632
 30
0.000000
  70
    32
  0
VERTEX
  8
241
  5
2709
 10
263.668
 20
-9.56290
 30
0.000000
  70
    32
  0
VERTEX
  8
241
  5
270A
 10
263.618
 20
-9.74832
 30
0.000000
  70
    32
  0
VERTEX
  8
241
  5
270B
 10
263.565
 20
-9.93250
 30
0.000000
  70
    32
  0
VERTEX
  8
241
  5
270C
 10
263.509
 20
-10.1153
 30
0.000000
  70
    32
  0
VERTEX
  8
241
  5
270D
 10
263.449
 20
-10.2968
 30
0.000000
  70
    32
  0
VERTEX
  8
241
  5
270E
 10
263.386
 20
-10.4767
 30
0.000000
  70
    32
  0
VERTEX
  8
241
  5
270F
 10
263.320
 20
-10.6551
 30
0.000000
  70
    32
  0
VERTEX
  8
241
  5
2710
 10
263.251
 20
-10.8319
 30
0.000000
  70
    32
  0
VERTEX
  8
241
  5
2711
 10
263.178
 20
-11.0069
 30
0.000000
  70
    32
  0
VERTEX
  8
241
  5
2712
 10
263.102
 20
-11.1801
 30
0.000000
  70
    32
  0
VERTEX
  8
241
  5
2713
 10
263.023
 20
-11.3515
 30
0.000000
  70
    32
  0
VERTEX
  8
241
  5
2714
 10
262.941
 20
-11.5209
 30
0.000000
  70
    32
  0
VERTEX
  8
241
  5
2715
 10
262.856
 20
-11.6882
 30
0.000000
  70
    32
  0
VERTEX
  8
241
  5
2716
 10
262.768
 20
-11.8535
 30
0.000000
  70
    32
  0
VERTEX
  8
241
  5
2717
 10
262.677
 20
-12.0166
 30
0.000000
  70
    32
  0
VERTEX
  8
241
  5
2718
 10
262.583
 20
-12.1774
 30
0.000000
  70
    32
  0
VERTEX
  8
241
  5
2719
 10
262.486
 20
-12.3359
 30
0.000000
  70
    32
  0
VERTEX
  8
241
  5
271A
 10
262.386
 20
-12.4921
 30
0.000000
  70
    32
  0
VERTEX
  8
241
  5
271B
 10
262.283
 20
-12.6458
 30
0.000000
  70
    32
  0
VERTEX
  8
241
  5
271C
 10
262.178
 20
-12.7969
 30
0.000000
  70
    32
  0
VERTEX
  8
241
  5
271D
 10
262.070
 20
-12.9455
 30
0.000000
  70
    32
  0
VERTEX
  8
241
  5
271E
 10
261.959
 20
-13.0914
 30
0.000000
  70
    32
  0
VERTEX
  8
241
  5
271F
 10
261.846
 20
-13.2346
 30
0.000000
  70
    32
  0
VERTEX
  8
241
  5
2720
 10
261.730
 20
-13.3750
 30
0.000000
  70
    32
  0
VERTEX
  8
241
  5
2721
 10
261.611
 20
-13.5126
 30
0.000000
  70
    32
  0
VERTEX
  8
241
  5
2722
 10
261.490
 20
-13.6472
 30
0.000000
  70
    32
  0
VERTEX
  8
241
  5
2723
 10
261.367
 20
-13.7789
 30
0.000000
  70
    32
  0
VERTEX
  8
241
  5
2724
 10
261.241
 20
-13.9076
 30
0.000000
  70
    32
  0
VERTEX
  8
241
  5
2725
 10
261.113
 20
-14.0332
 30
0.000000
  70
    32
  0
VERTEX
  8
241
  5
2726
 10
260.982
 20
-14.1556
 30
0.000000
  70
    32
  0
VERTEX
  8
241
  5
2727
 10
260.850
 20
-14.2749
 30
0.000000
  70
    32
  0
VERTEX
  8
241
  5
2728
 10
260.715
 20
-14.3909
 30
0.000000
  70
    32
  0
VERTEX
  8
241
  5
2729
 10
260.578
 20
-14.5037
 30
0.000000
  70
    32
  0
VERTEX
  8
241
  5
272A
 10
260.439
 20
-14.6130
 30
0.000000
  70
    32
  0
VERTEX
  8
241
  5
272B
 10
260.299
 20
-14.7190
 30
0.000000
  70
    32
  0
VERTEX
  8
241
  5
272C
 10
260.156
 20
-14.8216
 30
0.000000
  70
    32
  0
VERTEX
  8
241
  5
272D
 10
260.011
 20
-14.9206
 30
0.000000
  70
    32
  0
VERTEX
  8
241
  5
272E
 10
259.865
 20
-15.0162
 30
0.000000
  70
    32
  0
VERTEX
  8
241
  5
272F
 10
259.717
 20
-15.1082
 30
0.000000
  70
    32
  0
VERTEX
  8
241
  5
2730
 10
259.567
 20
-15.1965
 30
0.000000
  70
    32
  0
VERTEX
  8
241
  5
2731
 10
259.416
 20
-15.2812
 30
0.000000
  70
    32
  0
VERTEX
  8
241
  5
2732
 10
259.263
 20
-15.3623
 30
0.000000
  70
    32
  0
VERTEX
  8
241
  5
2733
 10
259.109
 20
-15.4396
 30
0.000000
  70
    32
  0
VERTEX
  8
241
  5
2734
 10
258.954
 20
-15.5131
 30
0.000000
  70
    32
  0
VERTEX
  8
241
  5
2735
 10
258.797
 20
-15.5829
 30
0.000000
  70
    32
  0
VERTEX
  8
241
  5
2736
 10
258.639
 20
-15.6488
 30
0.000000
  70
    32
  0
VERTEX
  8
241
  5
2737
 10
258.480
 20
-15.7109
 30
0.000000
  70
    32
  0
VERTEX
  8
241
  5
2738
 10
258.319
 20
-15.7691
 30
0.000000
  70
    32
  0
VERTEX
  8
241
  5
2739
 10
258.158
 20
-15.8234
 30
0.000000
  70
    32
  0
VERTEX
  8
241
  5
273A
 10
257.996
 20
-15.8738
 30
0.000000
  70
    32
  0
VERTEX
  8
241
  5
273B
 10
257.832
 20
-15.9202
 30
0.000000
  70
    32
  0
VERTEX
  8
241
  5
273C
 10
257.668
 20
-15.9627
 30
0.000000
  70
    32
  0
VERTEX
  8
241
  5
273D
 10
257.504
 20
-16.0012
 30
0.000000
  70
    32
  0
VERTEX
  8
241
  5
273E
 10
257.338
 20
-16.0356
 30
0.000000
  70
    32
  0
VERTEX
  8
241
  5
273F
 10
257.172
 20
-16.0661
 30
0.000000
  70
    32
  0
VERTEX
  8
241
  5
2740
 10
257.006
 20
-16.0925
 30
0.000000
  70
    32
  0
VERTEX
  8
241
  5
2741
 10
256.839
 20
-16.1149
 30
0.000000
  70
    32
  0
VERTEX
  8
241
  5
2742
 10
256.672
 20
-16.1332
 30
0.000000
  70
    32
  0
VERTEX
  8
241
  5
2743
 10
256.504
 20
-16.1475
 30
0.000000
  70
    32
  0
VERTEX
  8
241
  5
2744
 10
256.336
 20
-16.1577
 30
0.000000
  70
    32
  0
VERTEX
  8
241
  5
2745
 10
256.168
 20
-16.1638
 30
0.000000
  70
    32
  0
VERTEX
  8
241
  5
2746
 10
256.000
 20
-16.1658
 30
0.000000
  70
    32
  0
VERTEX
  8
241
  5
2747
 10
255.832
 20
-16.1638
 30
0.000000
  70
    32
  0
VERTEX
  8
241
  5
2748
 10
255.664
 20
-16.1577
 30
0.000000
  70
    32
  0
VERTEX
  8
241
  5
2749
 10
255.496
 20
-16.1475
 30
0.000000
  70
    32
  0
VERTEX
  8
241
  5
274A
 10
255.328
 20
-16.1332
 30
0.000000
  70
    32
  0
VERTEX
  8
241
  5
274B
 10
255.161
 20
-16.1149
 30
0.000000
  70
    32
  0
VERTEX
  8
241
  5
274C
 10
254.994
 20
-16.0925
 30
0.000000
  70
    32
  0
VERTEX
  8
241
  5
274D
 10
254.828
 20
-16.0661
 30
0.000000
  70
    32
  0
VERTEX
  8
241
  5
274E
 10
254.662
 20
-16.0356
 30
0.000000
  70
    32
  0
VERTEX
  8
241
  5
274F
 10
254.496
 20
-16.0012
 30
0.000000
  70
    32
  0
VERTEX
  8
241
  5
2750
 10
254.332
 20
-15.9627
 30
0.000000
  70
    32
  0
VERTEX
  8
241
  5
2751
 10
254.168
 20
-15.9202
 30
0.000000
  70
    32
  0
VERTEX
  8
241
  5
2752
 10
254.004
 20
-15.8738
 30
0.000000
  70
    32
  0
VERTEX
  8
241
  5
2753
 10
253.842
 20
-15.8234
 30
0.000000
  70
    32
  0
VERTEX
  8
241
  5
2754
 10
253.681
 20
-15.7691
 30
0.000000
  70
    32
  0
VERTEX
  8
241
  5
2755
 10
253.520
 20
-15.7109
 30
0.000000
  70
    32
  0
VERTEX
  8
241
  5
2756
 10
253.361
 20
-15.6488
 30
0.000000
  70
    32
  0
VERTEX
  8
241
  5
2757
 10
253.203
 20
-15.5829
 30
0.000000
  70
    32
  0
VERTEX
  8
241
  5
2758
 10
253.046
 20
-15.5131
 30
0.000000
  70
    32
  0
VERTEX
  8
241
  5
2759
 10
252.891
 20
-15.4396
 30
0.000000
  70
    32
  0
VERTEX
  8
241
  5
275A
 10
252.737
 20
-15.3623
 30
0.000000
  70
    32
  0
VERTEX
  8
241
  5
275B
 10
252.584
 20
-15.2812
 30
0.000000
  70
    32
  0
VERTEX
  8
241
  5
275C
 10
252.433
 20
-15.1965
 30
0.000000
  70
    32
  0
VERTEX
  8
241
  5
275D
 10
252.283
 20
-15.1082
 30
0.000000
  70
    32
  0
VERTEX
  8
241
  5
275E
 10
252.135
 20
-15.0162
 30
0.000000
  70
    32
  0
VERTEX
  8
241
  5
275F
 10
251.989
 20
-14.9206
 30
0.000000
  70
    32
  0
VERTEX
  8
241
  5
2760
 10
251.844
 20
-14.8216
 30
0.000000
  70
    32
  0
VERTEX
  8
241
  5
2761
 10
251.701
 20
-14.7190
 30
0.000000
  70
    32
  0
VERTEX
  8
241
  5
2762
 10
251.561
 20
-14.6130
 30
0.000000
  70
    32
  0
VERTEX
  8
241
  5
2763
 10
251.422
 20
-14.5037
 30
0.000000
  70
    32
  0
VERTEX
  8
241
  5
2764
 10
251.285
 20
-14.3909
 30
0.000000
  70
    32
  0
VERTEX
  8
241
  5
2765
 10
251.150
 20
-14.2749
 30
0.000000
  70
    32
  0
VERTEX
  8
241
  5
2766
 10
251.018
 20
-14.1556
 30
0.000000
  70
    32
  0
VERTEX
  8
241
  5
2767
 10
250.887
 20
-14.0332
 30
0.000000
  70
    32
  0
VERTEX
  8
241
  5
2768
 10
250.759
 20
-13.9076
 30
0.000000
  70
    32
  0
VERTEX
  8
241
  5
2769
 10
250.633
 20
-13.7789
 30
0.000000
  70
    32
  0
VERTEX
  8
241
  5
276A
 10
250.510
 20
-13.6472
 30
0.000000
  70
    32
  0
VERTEX
  8
241
  5
276B
 10
250.389
 20
-13.5126
 30
0.000000
  70
    32
  0
VERTEX
  8
241
  5
276C
 10
250.270
 20
-13.3750
 30
0.000000
  70
    32
  0
VERTEX
  8
241
  5
276D
 10
250.154
 20
-13.2346
 30
0.000000
  70
    32
  0
VERTEX
  8
241
  5
276E
 10
250.041
 20
-13.0914
 30
0.000000
  70
    32
  0
VERTEX
  8
241
  5
276F
 10
249.930
 20
-12.9455
 30
0.000000
  70
    32
  0
VERTEX
  8
241
  5
2770
 10
249.822
 20
-12.7969
 30
0.000000
  70
    32
  0
VERTEX
  8
241
  5
2771
 10
249.717
 20
-12.6458
 30
0.000000
  70
    32
  0
VERTEX
  8
241
  5
2772
 10
249.614
 20
-12.4921
 30
0.000000
  70
    32
  0
VERTEX
  8
241
  5
2773
 10
249.514
 20
-12.3359
 30
0.000000
  70
    32
  0
VERTEX
  8
241
  5
2774
 10
249.417
 20
-12.1774
 30
0.000000
  70
    32
  0
VERTEX
  8
241
  5
2775
 10
249.323
 20
-12.0166
 30
0.000000
  70
    32
  0
VERTEX
  8
241
  5
2776
 10
249.232
 20
-11.8535
 30
0.000000
  70
    32
  0
VERTEX
  8
241
  5
2777
 10
249.144
 20
-11.6882
 30
0.000000
  70
    32
  0
VERTEX
  8
241
  5
2778
 10
249.059
 20
-11.5209
 30
0.000000
  70
    32
  0
VERTEX
  8
241
  5
2779
 10
248.977
 20
-11.3515
 30
0.000000
  70
    32
  0
VERTEX
  8
241
  5
277A
 10
248.898
 20
-11.1801
 30
0.000000
  70
    32
  0
VERTEX
  8
241
  5
277B
 10
248.822
 20
-11.0069
 30
0.000000
  70
    32
  0
VERTEX
  8
241
  5
277C
 10
248.749
 20
-10.8319
 30
0.000000
  70
    32
  0
VERTEX
  8
241
  5
277D
 10
248.680
 20
-10.6551
 30
0.000000
  70
    32
  0
VERTEX
  8
241
  5
277E
 10
248.614
 20
-10.4767
 30
0.000000
  70
    32
  0
VERTEX
  8
241
  5
277F
 10
248.551
 20
-10.2968
 30
0.000000
  70
    32
  0
VERTEX
  8
241
  5
2780
 10
248.491
 20
-10.1153
 30
0.000000
  70
    32
  0
VERTEX
  8
241
  5
2781
 10
248.435
 20
-9.93250
 30
0.000000
  70
    32
  0
VERTEX
  8
241
  5
2782
 10
248.382
 20
-9.74832
 30
0.000000
  70
    32
  0
VERTEX
  8
241
  5
2783
 10
248.332
 20
-9.56290
 30
0.000000
  70
    32
  0
VERTEX
  8
241
  5
2784
 10
248.286
 20
-9.37632
 30
0.000000
  70
    32
  0
VERTEX
  8
241
  5
2785
 10
248.243
 20
-9.18866
 30
0.000000
  70
    32
  0
VERTEX
  8
241
  5
2786
 10
248.204
 20
-9.00000
 30
0.000000
  70
    32
  0
SEQEND
  8
241
  5
2787
  0
POLYLINE
  5
1671
  8
241
  6
CONTINUOUS
 10
255.9999999999996021
 20
-9.9965535343491752
 30
0.0
 66
     1
 70
     8
  0
VERTEX
  8
241
  5
2788
 10
256.000
 20
-9.99655
 30
0.000000
  70
    32
  0
VERTEX
  8
241
  5
2789
 10
255.706
 20
-9.99029
 30
0.000000
  70
    32
  0
VERTEX
  8
241
  5
278A
 10
255.412
 20
-9.97153
 30
0.000000
  70
    32
  0
VERTEX
  8
241
  5
278B
 10
255.120
 20
-9.94031
 30
0.000000
  70
    32
  0
VERTEX
  8
241
  5
278C
 10
254.829
 20
-9.89671
 30
0.000000
  70
    32
  0
VERTEX
  8
241
  5
278D
 10
254.542
 20
-9.84083
 30
0.000000
  70
    32
  0
VERTEX
  8
241
  5
278E
 10
254.258
 20
-9.77281
 30
0.000000
  70
    32
  0
VERTEX
  8
241
  5
278F
 10
253.979
 20
-9.69281
 30
0.000000
  70
    32
  0
VERTEX
  8
241
  5
2790
 10
253.704
 20
-9.60102
 30
0.000000
  70
    32
  0
VERTEX
  8
241
  5
2791
 10
253.435
 20
-9.49767
 30
0.000000
  70
    32
  0
VERTEX
  8
241
  5
2792
 10
253.172
 20
-9.38300
 30
0.000000
  70
    32
  0
VERTEX
  8
241
  5
2793
 10
252.915
 20
-9.25729
 30
0.000000
  70
    32
  0
VERTEX
  8
241
  5
2794
 10
252.667
 20
-9.12084
 30
0.000000
  70
    32
  0
VERTEX
  8
241
  5
2795
 10
252.426
 20
-8.97399
 30
0.000000
  70
    32
  0
VERTEX
  8
241
  5
2796
 10
252.194
 20
-8.81708
 30
0.000000
  70
    32
  0
VERTEX
  8
241
  5
2797
 10
251.971
 20
-8.65050
 30
0.000000
  70
    32
  0
VERTEX
  8
241
  5
2798
 10
251.757
 20
-8.47464
 30
0.000000
  70
    32
  0
VERTEX
  8
241
  5
2799
 10
251.554
 20
-8.28992
 30
0.000000
  70
    32
  0
VERTEX
  8
241
  5
279A
 10
251.362
 20
-8.09681
 30
0.000000
  70
    32
  0
VERTEX
  8
241
  5
279B
 10
251.181
 20
-7.89575
 30
0.000000
  70
    32
  0
VERTEX
  8
241
  5
279C
 10
251.011
 20
-7.68723
 30
0.000000
  70
    32
  0
VERTEX
  8
241
  5
279D
 10
250.854
 20
-7.47176
 30
0.000000
  70
    32
  0
VERTEX
  8
241
  5
279E
 10
250.708
 20
-7.24985
 30
0.000000
  70
    32
  0
VERTEX
  8
241
  5
279F
 10
250.576
 20
-7.02204
 30
0.000000
  70
    32
  0
VERTEX
  8
241
  5
27A0
 10
250.457
 20
-6.78888
 30
0.000000
  70
    32
  0
VERTEX
  8
241
  5
27A1
 10
250.351
 20
-6.55093
 30
0.000000
  70
    32
  0
VERTEX
  8
241
  5
27A2
 10
250.258
 20
-6.30876
 30
0.000000
  70
    32
  0
VERTEX
  8
241
  5
27A3
 10
250.180
 20
-6.06296
 30
0.000000
  70
    32
  0
VERTEX
  8
241
  5
27A4
 10
250.115
 20
-5.81412
 30
0.000000
  70
    32
  0
VERTEX
  8
241
  5
27A5
 10
250.065
 20
-5.56284
 30
0.000000
  70
    32
  0
VERTEX
  8
241
  5
27A6
 10
250.029
 20
-5.30971
 30
0.000000
  70
    32
  0
VERTEX
  8
241
  5
27A7
 10
250.007
 20
-5.05536
 30
0.000000
  70
    32
  0
VERTEX
  8
241
  5
27A8
 10
250.000
 20
-4.80040
 30
0.000000
  70
    32
  0
VERTEX
  8
241
  5
27A9
 10
250.007
 20
-4.54544
 30
0.000000
  70
    32
  0
VERTEX
  8
241
  5
27AA
 10
250.029
 20
-4.29109
 30
0.000000
  70
    32
  0
VERTEX
  8
241
  5
27AB
 10
250.065
 20
-4.03797
 30
0.000000
  70
    32
  0
VERTEX
  8
241
  5
27AC
 10
250.115
 20
-3.78668
 30
0.000000
  70
    32
  0
VERTEX
  8
241
  5
27AD
 10
250.180
 20
-3.53784
 30
0.000000
  70
    32
  0
VERTEX
  8
241
  5
27AE
 10
250.258
 20
-3.29204
 30
0.000000
  70
    32
  0
VERTEX
  8
241
  5
27AF
 10
250.351
 20
-3.04987
 30
0.000000
  70
    32
  0
VERTEX
  8
241
  5
27B0
 10
250.457
 20
-2.81192
 30
0.000000
  70
    32
  0
VERTEX
  8
241
  5
27B1
 10
250.576
 20
-2.57876
 30
0.000000
  70
    32
  0
VERTEX
  8
241
  5
27B2
 10
250.708
 20
-2.35095
 30
0.000000
  70
    32
  0
VERTEX
  8
241
  5
27B3
 10
250.854
 20
-2.12904
 30
0.000000
  70
    32
  0
VERTEX
  8
241
  5
27B4
 10
251.011
 20
-1.91357
 30
0.000000
  70
    32
  0
VERTEX
  8
241
  5
27B5
 10
251.181
 20
-1.70506
 30
0.000000
  70
    32
  0
VERTEX
  8
241
  5
27B6
 10
251.362
 20
-1.50400
 30
0.000000
  70
    32
  0
VERTEX
  8
241
  5
27B7
 10
251.554
 20
-1.31088
 30
0.000000
  70
    32
  0
VERTEX
  8
241
  5
27B8
 10
251.757
 20
-1.12617
 30
0.000000
  70
    32
  0
VERTEX
  8
241
  5
27B9
 10
251.971
 20
-0.950306
 30
0.000000
  70
    32
  0
VERTEX
  8
241
  5
27BA
 10
252.194
 20
-0.783721
 30
0.000000
  70
    32
  0
VERTEX
  8
241
  5
27BB
 10
252.426
 20
-0.626812
 30
0.000000
  70
    32
  0
VERTEX
  8
241
  5
27BC
 10
252.667
 20
-0.479958
 30
0.000000
  70
    32
  0
VERTEX
  8
241
  5
27BD
 10
252.915
 20
-0.343513
 30
0.000000
  70
    32
  0
VERTEX
  8
241
  5
27BE
 10
253.172
 20
-0.217804
 30
0.000000
  70
    32
  0
VERTEX
  8
241
  5
27BF
 10
253.435
 20
-0.103135
 30
0.000000
  70
    32
  0
VERTEX
  8
241
  5
27C0
 10
253.704
 20
0.000217760
 30
0.000000
  70
    32
  0
VERTEX
  8
241
  5
27C1
 10
253.979
 20
0.0920054
 30
0.000000
  70
    32
  0
VERTEX
  8
241
  5
27C2
 10
254.258
 20
0.172007
 30
0.000000
  70
    32
  0
VERTEX
  8
241
  5
27C3
 10
254.542
 20
0.240029
 30
0.000000
  70
    32
  0
VERTEX
  8
241
  5
27C4
 10
254.829
 20
0.295909
 30
0.000000
  70
    32
  0
VERTEX
  8
241
  5
27C5
 10
255.120
 20
0.339511
 30
0.000000
  70
    32
  0
VERTEX
  8
241
  5
27C6
 10
255.412
 20
0.370730
 30
0.000000
  70
    32
  0
VERTEX
  8
241
  5
27C7
 10
255.706
 20
0.389492
 30
0.000000
  70
    32
  0
VERTEX
  8
241
  5
27C8
 10
256.000
 20
0.395751
 30
0.000000
  70
    32
  0
VERTEX
  8
241
  5
27C9
 10
256.294
 20
0.389492
 30
0.000000
  70
    32
  0
VERTEX
  8
241
  5
27CA
 10
256.588
 20
0.370730
 30
0.000000
  70
    32
  0
VERTEX
  8
241
  5
27CB
 10
256.880
 20
0.339511
 30
0.000000
  70
    32
  0
VERTEX
  8
241
  5
27CC
 10
257.171
 20
0.295909
 30
0.000000
  70
    32
  0
VERTEX
  8
241
  5
27CD
 10
257.458
 20
0.240029
 30
0.000000
  70
    32
  0
VERTEX
  8
241
  5
27CE
 10
257.742
 20
0.172007
 30
0.000000
  70
    32
  0
VERTEX
  8
241
  5
27CF
 10
258.021
 20
0.0920054
 30
0.000000
  70
    32
  0
VERTEX
  8
241
  5
27D0
 10
258.296
 20
0.000217760
 30
0.000000
  70
    32
  0
VERTEX
  8
241
  5
27D1
 10
258.565
 20
-0.103135
 30
0.000000
  70
    32
  0
VERTEX
  8
241
  5
27D2
 10
258.828
 20
-0.217804
 30
0.000000
  70
    32
  0
VERTEX
  8
241
  5
27D3
 10
259.085
 20
-0.343513
 30
0.000000
  70
    32
  0
VERTEX
  8
241
  5
27D4
 10
259.333
 20
-0.479958
 30
0.000000
  70
    32
  0
VERTEX
  8
241
  5
27D5
 10
259.574
 20
-0.626812
 30
0.000000
  70
    32
  0
VERTEX
  8
241
  5
27D6
 10
259.806
 20
-0.783721
 30
0.000000
  70
    32
  0
VERTEX
  8
241
  5
27D7
 10
260.029
 20
-0.950306
 30
0.000000
  70
    32
  0
VERTEX
  8
241
  5
27D8
 10
260.243
 20
-1.12617
 30
0.000000
  70
    32
  0
VERTEX
  8
241
  5
27D9
 10
260.446
 20
-1.31088
 30
0.000000
  70
    32
  0
VERTEX
  8
241
  5
27DA
 10
260.638
 20
-1.50400
 30
0.000000
  70
    32
  0
VERTEX
  8
241
  5
27DB
 10
260.819
 20
-1.70506
 30
0.000000
  70
    32
  0
VERTEX
  8
241
  5
27DC
 10
260.989
 20
-1.91357
 30
0.000000
  70
    32
  0
VERTEX
  8
241
  5
27DD
 10
261.146
 20
-2.12904
 30
0.000000
  70
    32
  0
VERTEX
  8
241
  5
27DE
 10
261.292
 20
-2.35095
 30
0.000000
  70
    32
  0
VERTEX
  8
241
  5
27DF
 10
261.424
 20
-2.57876
 30
0.000000
  70
    32
  0
VERTEX
  8
241
  5
27E0
 10
261.543
 20
-2.81192
 30
0.000000
  70
    32
  0
VERTEX
  8
241
  5
27E1
 10
261.649
 20
-3.04987
 30
0.000000
  70
    32
  0
VERTEX
  8
241
  5
27E2
 10
261.742
 20
-3.29204
 30
0.000000
  70
    32
  0
VERTEX
  8
241
  5
27E3
 10
261.820
 20
-3.53784
 30
0.000000
  70
    32
  0
VERTEX
  8
241
  5
27E4
 10
261.885
 20
-3.78668
 30
0.000000
  70
    32
  0
VERTEX
  8
241
  5
27E5
 10
261.935
 20
-4.03797
 30
0.000000
  70
    32
  0
VERTEX
  8
241
  5
27E6
 10
261.971
 20
-4.29109
 30
0.000000
  70
    32
  0
VERTEX
  8
241
  5
27E7
 10
261.993
 20
-4.54544
 30
0.000000
  70
    32
  0
VERTEX
  8
241
  5
27E8
 10
262.000
 20
-4.80040
 30
0.000000
  70
    32
  0
VERTEX
  8
241
  5
27E9
 10
261.993
 20
-5.05536
 30
0.000000
  70
    32
  0
VERTEX
  8
241
  5
27EA
 10
261.971
 20
-5.30971
 30
0.000000
  70
    32
  0
VERTEX
  8
241
  5
27EB
 10
261.935
 20
-5.56284
 30
0.000000
  70
    32
  0
VERTEX
  8
241
  5
27EC
 10
261.885
 20
-5.81412
 30
0.000000
  70
    32
  0
VERTEX
  8
241
  5
27ED
 10
261.820
 20
-6.06296
 30
0.000000
  70
    32
  0
VERTEX
  8
241
  5
27EE
 10
261.742
 20
-6.30876
 30
0.000000
  70
    32
  0
VERTEX
  8
241
  5
27EF
 10
261.649
 20
-6.55093
 30
0.000000
  70
    32
  0
VERTEX
  8
241
  5
27F0
 10
261.543
 20
-6.78888
 30
0.000000
  70
    32
  0
VERTEX
  8
241
  5
27F1
 10
261.424
 20
-7.02204
 30
0.000000
  70
    32
  0
VERTEX
  8
241
  5
27F2
 10
261.292
 20
-7.24985
 30
0.000000
  70
    32
  0
VERTEX
  8
241
  5
27F3
 10
261.146
 20
-7.47176
 30
0.000000
  70
    32
  0
VERTEX
  8
241
  5
27F4
 10
260.989
 20
-7.68723
 30
0.000000
  70
    32
  0
VERTEX
  8
241
  5
27F5
 10
260.819
 20
-7.89575
 30
0.000000
  70
    32
  0
VERTEX
  8
241
  5
27F6
 10
260.638
 20
-8.09681
 30
0.000000
  70
    32
  0
VERTEX
  8
241
  5
27F7
 10
260.446
 20
-8.28992
 30
0.000000
  70
    32
  0
VERTEX
  8
241
  5
27F8
 10
260.243
 20
-8.47464
 30
0.000000
  70
    32
  0
VERTEX
  8
241
  5
27F9
 10
260.029
 20
-8.65050
 30
0.000000
  70
    32
  0
VERTEX
  8
241
  5
27FA
 10
259.806
 20
-8.81708
 30
0.000000
  70
    32
  0
VERTEX
  8
241
  5
27FB
 10
259.574
 20
-8.97399
 30
0.000000
  70
    32
  0
VERTEX
  8
241
  5
27FC
 10
259.333
 20
-9.12084
 30
0.000000
  70
    32
  0
VERTEX
  8
241
  5
27FD
 10
259.085
 20
-9.25729
 30
0.000000
  70
    32
  0
VERTEX
  8
241
  5
27FE
 10
258.828
 20
-9.38300
 30
0.000000
  70
    32
  0
VERTEX
  8
241
  5
27FF
 10
258.565
 20
-9.49767
 30
0.000000
  70
    32
  0
VERTEX
  8
241
  5
2800
 10
258.296
 20
-9.60102
 30
0.000000
  70
    32
  0
VERTEX
  8
241
  5
2801
 10
258.021
 20
-9.69281
 30
0.000000
  70
    32
  0
VERTEX
  8
241
  5
2802
 10
257.742
 20
-9.77281
 30
0.000000
  70
    32
  0
VERTEX
  8
241
  5
2803
 10
257.458
 20
-9.84083
 30
0.000000
  70
    32
  0
VERTEX
  8
241
  5
2804
 10
257.171
 20
-9.89671
 30
0.000000
  70
    32
  0
VERTEX
  8
241
  5
2805
 10
256.880
 20
-9.94031
 30
0.000000
  70
    32
  0
VERTEX
  8
241
  5
2806
 10
256.588
 20
-9.97153
 30
0.000000
  70
    32
  0
VERTEX
  8
241
  5
2807
 10
256.294
 20
-9.99029
 30
0.000000
  70
    32
  0
VERTEX
  8
241
  5
2808
 10
256.000
 20
-9.99655
 30
0.000000
  70
    32
  0
SEQEND
  8
241
  5
2809
  0
LINE
  5
1784
  8
245
  6
CENTER2
 10
279.9999999999977831
 20
-66.0000000000000284
 30
0.0
 11
279.9999999999990905
 21
65.9999999999997442
 31
0.0
  0
LINE
  5
1816
  8
246
  6
PHANTOM2
 10
244.699999999998397
 20
-12.7000000000000401
 30
0.0
 11
232.4544412563051026
 21
-12.7000000000000401
 31
0.0
  0
LINE
  5
1817
  8
246
  6
PHANTOM2
 10
244.699999999998397
 20
12.6999999999998199
 30
0.0
 11
232.4544412563051026
 21
12.6999999999998199
 31
0.0
  0
LINE
  5
1818
  8
246
  6
PHANTOM2
 10
244.699999999998397
 20
12.6999999999998199
 30
0.0
 11
244.699999999998397
 21
-12.7000000000000401
 31
0.0
  0
LINE
  5
1819
  8
246
  6
PHANTOM2
 10
327.8535105086806993
 20
-11.4852813742386903
 30
0.0
 11
317.7099999999982742
 21
-11.4852813742387507
 31
0.0
  0
LINE
  5
181A
  8
246
  6
PHANTOM2
 10
317.7099999999982742
 20
-11.4852813742387507
 30
0.0
 11
317.7099999999982742
 21
12.6999999999998199
 31
0.0
  0
LINE
  5
181B
  8
246
  6
PHANTOM2
 10
317.7099999999982742
 20
12.6999999999998199
 30
0.0
 11
327.5455587436919132
 21
12.6999999999998199
 31
0.0
  0
ARC
  5
181C
  8
246
  6
PHANTOM2
 10
279.9999999999985221
 20
-0.0000000000002274
 30
0.0
 40
49.2124999999997925
 50
194.9552483166424111
 51
346.5037698927420138
  0
ARC
  5
181D
  8
246
  6
PHANTOM2
 10
279.9999999999985221
 20
-0.0000000000002274
 30
0.0
 40
49.2124999999997925
 50
14.9552483166424892
 51
165.0447516833575037
  0
LINE
  5
1D20
  8
241
  6
CONTINUOUS
 10
279.9999999999985221
 20
-13.2500000000003997
 30
0.0
 11
279.9999999999985789
 21
-45.0000000000008527
 31
0.0
  0
LINE
  5
1D51
  8
246
  6
PHANTOM2
 10
46.9999999999997229
 20
-63.9999999999996305
 30
0.0
 11
121.0
 21
-63.9999999999996305
 31
0.0
  0
LINE
  5
1D52
  8
246
  6
PHANTOM2
 10
46.9999999999997229
 20
-63.9999999999996305
 30
0.0
 11
36.7573593128804035
 21
-53.7573593128803111
 31
0.0
  0
ARC
  5
1D54
  8
246
  6
PHANTOM2
 10
121.0
 20
-57.9999999999996305
 30
0.0
 40
6.0
 50
270.0
 51
0.0
  0
LINE
  5
1D55
  8
246
  6
PHANTOM2
 10
47.0000000000000924
 20
63.9999999999993676
 30
0.0
 11
121.0000000000004974
 21
63.9999999999989129
 31
0.0
  0
ARC
  5
1D56
  8
246
  6
PHANTOM2
 10
121.0000000000003979
 20
57.99999999999892
 30
0.0
 40
6.0
 50
0.0
 51
90.0
  0
LINE
  5
1D57
  8
246
  6
PHANTOM2
 10
47.0000000000000782
 20
63.9999999999993392
 30
0.0
 11
36.7573593128806806
 21
53.7573593128800908
 31
0.0
  0
LINE
  5
1DDE
  8
241
  6
CONTINUOUS
 10
114.5000000000005969
 20
-31.3094010799999403
 30
0.0
 11
114.5000000000005969
 21
-26.6905989199999603
 31
0.0
  0
LINE
  5
1DDF
  8
241
  6
CONTINUOUS
 10
106.5000000000005969
 20
-26.6905989199999603
 30
0.0
 11
106.5000000000005969
 21
-31.3094010799999403
 31
0.0
  0
CIRCLE
  5
1DE0
  8
241
  6
CONTINUOUS
 10
110.5000000000005969
 20
-28.9999999999999503
 30
0.0
 40
8.0
  0
LINE
  5
1DE1
  8
245
  6
CENTER2
 10
110.5000000000005969
 20
-19.9999999999999503
 30
0.0
 11
110.5000000000005969
 21
-37.9999999999999503
 31
0.0
  0
LINE
  5
1DE2
  8
241
  6
CONTINUOUS
 10
110.5000000000005969
 20
-33.6188021499999365
 30
0.0
 11
114.5000000000005969
 21
-31.3094010799999403
 31
0.0
  0
LINE
  5
1DE3
  8
241
  6
CONTINUOUS
 10
106.5000000000005969
 20
-31.3094010799999403
 30
0.0
 11
110.5000000000005969
 21
-33.6188021499999365
 31
0.0
  0
LINE
  5
1DE4
  8
241
  6
CONTINUOUS
 10
114.5000000000005969
 20
-26.6905989199999603
 30
0.0
 11
110.5000000000005969
 21
-24.3811978499999604
 31
0.0
  0
LINE
  5
1DE5
  8
241
  6
CONTINUOUS
 10
110.5000000000005969
 20
-24.3811978499999604
 30
0.0
 11
106.5000000000005969
 21
-26.6905989199999603
 31
0.0
  0
CIRCLE
  5
1DE6
  8
242
  6
CONTINUOUS
 10
110.5000000000005969
 20
-28.9999999999999503
 30
0.0
 40
7.0000000000002842
  0
LINE
  5
1DF7
  8
241
  6
CONTINUOUS
 10
91.5000000000006253
 20
-31.3094010799999616
 30
0.0
 11
91.5000000000006253
 21
-26.6905989199999887
 31
0.0
  0
LINE
  5
1DF8
  8
241
  6
CONTINUOUS
 10
83.5000000000006253
 20
-26.6905989199999887
 30
0.0
 11
83.5000000000006253
 21
-31.3094010799999616
 31
0.0
  0
CIRCLE
  5
1DF9
  8
241
  6
CONTINUOUS
 10
87.5000000000006253
 20
-28.9999999999999716
 30
0.0
 40
8.0
  0
LINE
  5
1DFA
  8
245
  6
CENTER2
 10
87.5000000000006253
 20
-19.9999999999999716
 30
0.0
 11
87.5000000000006253
 21
-37.9999999999999716
 31
0.0
  0
LINE
  5
1DFB
  8
241
  6
CONTINUOUS
 10
87.5000000000006253
 20
-33.6188021499999721
 30
0.0
 11
91.5000000000006253
 21
-31.3094010799999616
 31
0.0
  0
LINE
  5
1DFC
  8
241
  6
CONTINUOUS
 10
83.5000000000006253
 20
-31.3094010799999616
 30
0.0
 11
87.5000000000006253
 21
-33.6188021499999721
 31
0.0
  0
LINE
  5
1DFD
  8
241
  6
CONTINUOUS
 10
91.5000000000006253
 20
-26.6905989199999887
 30
0.0
 11
87.5000000000006253
 21
-24.3811978499999817
 31
0.0
  0
LINE
  5
1DFE
  8
241
  6
CONTINUOUS
 10
87.5000000000006253
 20
-24.3811978499999817
 30
0.0
 11
83.5000000000006253
 21
-26.6905989199999887
 31
0.0
  0
CIRCLE
  5
1DFF
  8
242
  6
CONTINUOUS
 10
87.5000000000006253
 20
-28.9999999999999716
 30
0.0
 40
7.0000000000002842
  0
LINE
  5
1E10
  8
241
  6
CONTINUOUS
 10
68.5000000000006253
 20
-31.3094010799999793
 30
0.0
 11
68.5000000000006253
 21
-26.6905989199999993
 31
0.0
  0
LINE
  5
1E11
  8
241
  6
CONTINUOUS
 10
60.5000000000006182
 20
-26.6905989199999993
 30
0.0
 11
60.5000000000006182
 21
-31.3094010799999793
 31
0.0
  0
CIRCLE
  5
1E12
  8
241
  6
CONTINUOUS
 10
64.5000000000006253
 20
-28.9999999999999893
 30
0.0
 40
8.0
  0
LINE
  5
1E13
  8
245
  6
CENTER2
 10
64.5000000000006253
 20
-19.9999999999999893
 30
0.0
 11
64.5000000000006253
 21
-37.9999999999999929
 31
0.0
  0
LINE
  5
1E14
  8
241
  6
CONTINUOUS
 10
64.5000000000006253
 20
-33.6188021499999792
 30
0.0
 11
68.5000000000006253
 21
-31.3094010799999793
 31
0.0
  0
LINE
  5
1E15
  8
241
  6
CONTINUOUS
 10
60.5000000000006182
 20
-31.3094010799999793
 30
0.0
 11
64.5000000000006253
 21
-33.6188021499999792
 31
0.0
  0
LINE
  5
1E16
  8
241
  6
CONTINUOUS
 10
68.5000000000006253
 20
-26.6905989199999993
 30
0.0
 11
64.5000000000006253
 21
-24.3811978499999995
 31
0.0
  0
LINE
  5
1E17
  8
241
  6
CONTINUOUS
 10
64.5000000000006253
 20
-24.3811978499999995
 30
0.0
 11
60.5000000000006182
 21
-26.6905989199999993
 31
0.0
  0
CIRCLE
  5
1E18
  8
242
  6
CONTINUOUS
 10
64.5000000000006253
 20
-28.9999999999999893
 30
0.0
 40
7.0000000000002842
  0
TEXT
  5
2069
  8
241
  6
CONTINUOUS
 10
-105.0
 20
91.0
 30
0.0
 40
5.0
  1
BCV50Y-180-BH1.250L-5
  7
YOKO
  0
LINE
  5
2532
  8
250
  6
CONTINUOUS
 10
0.0
 20
35.4249999999999972
 30
0.0
 11
0.0000000000000026
 21
78.0
 31
0.0
  0
LINE
  5
2533
  8
250
  6
CONTINUOUS
 10
126.9999999999999005
 20
15.5294372515227792
 30
0.0
 11
126.9999999999999005
 21
78.0
 31
0.0
  0
LINE
  5
2534
  8
250
  6
CONTINUOUS
 10
2.2300000000000022
 20
77.0
 30
0.0
 11
124.7699999999998965
 21
77.0
 31
0.0
  0
LINE
  5
2538
  8
250
  6
CONTINUOUS
 10
2.2300000000000022
 20
76.6283333333333303
 30
0.0
 11
0.0000000000000026
 21
77.0
 31
0.0
  0
LINE
  5
2539
  8
250
  6
CONTINUOUS
 10
2.2300000000000022
 20
77.3716666666666555
 30
0.0
 11
0.0000000000000026
 21
77.0
 31
0.0
  0
LINE
  5
253A
  8
250
  6
CONTINUOUS
 10
0.0000000000000026
 20
77.0
 30
0.0
 11
2.2300000000000022
 21
77.0
 31
0.0
  0
LINE
  5
253B
  8
250
  6
CONTINUOUS
 10
124.7699999999998965
 20
77.3716666666666555
 30
0.0
 11
126.9999999999999005
 21
77.0
 31
0.0
  0
LINE
  5
253C
  8
250
  6
CONTINUOUS
 10
124.7699999999998965
 20
76.6283333333333303
 30
0.0
 11
126.9999999999999005
 21
77.0
 31
0.0
  0
LINE
  5
253D
  8
250
  6
CONTINUOUS
 10
126.9999999999999005
 20
77.0
 30
0.0
 11
124.7699999999998965
 21
77.0
 31
0.0
  0
TEXT
  5
253E
  8
250
  6
CONTINUOUS
 10
58.8333333333332789
 20
78.0000000000000142
 30
0.0
 40
2.7999999999999989
  1
5.00
  0
LINE
  5
253F
  8
250
  6
CONTINUOUS
 10
127.5000000000002984
 20
-44.9999999999999503
 30
0.0
 11
148.0000000000017906
 21
-44.9999999999999503
 31
0.0
  0
LINE
  5
2540
  8
250
  6
CONTINUOUS
 10
129.1219010114774051
 20
0.0000000000000001
 30
0.0
 11
148.0000000000017906
 21
0.0000000000000031
 31
0.0
  0
LINE
  5
2541
  8
250
  6
CONTINUOUS
 10
147.0000000000017906
 20
-42.7699999999999534
 30
0.0
 11
147.0000000000017906
 21
-2.2299999999999969
 31
0.0
  0
LINE
  5
2545
  8
250
  6
CONTINUOUS
 10
146.6283333333350924
 20
-2.2299999999999969
 30
0.0
 11
147.0000000000017906
 21
0.000000000000003
 31
0.0
  0
LINE
  5
2546
  8
250
  6
CONTINUOUS
 10
147.3716666666684887
 20
-2.2299999999999969
 30
0.0
 11
147.0000000000017906
 21
0.000000000000003
 31
0.0
  0
LINE
  5
2547
  8
250
  6
CONTINUOUS
 10
147.0000000000017906
 20
0.000000000000003
 30
0.0
 11
147.0000000000017906
 21
-2.2299999999999969
 31
0.0
  0
LINE
  5
2548
  8
250
  6
CONTINUOUS
 10
147.3716666666684887
 20
-42.7699999999999534
 30
0.0
 11
147.0000000000017906
 21
-44.9999999999999503
 31
0.0
  0
LINE
  5
2549
  8
250
  6
CONTINUOUS
 10
146.6283333333350924
 20
-42.7699999999999534
 30
0.0
 11
147.0000000000017906
 21
-44.9999999999999503
 31
0.0
  0
LINE
  5
254A
  8
250
  6
CONTINUOUS
 10
147.0000000000017906
 20
-44.9999999999999503
 30
0.0
 11
147.0000000000017906
 21
-42.7699999999999534
 31
0.0
  0
TEXT
  5
254B
  8
250
  6
CONTINUOUS
 10
146.0000000000017906
 20
-28.3000000000000185
 30
0.0
 40
2.7999999999999989
  1
1.771
 50
90.0
  0
LINE
  5
254C
  8
250
  6
CONTINUOUS
 10
327.3083885811626033
 20
-39.7171155782198966
 30
0.0
 11
232.6916114188371125
 21
39.7171155782201666
 31
0.0
  0
TEXT
  5
2550
  8
250
  6
CONTINUOUS
 10
261.7642849505880918
 20
18.1820609001144007
 30
0.0
 40
2.7999999999999989
  1
 (\U+22055.04)
 50
319.9853169279442113
  0
LINE
  5
2551
  8
250
  6
CONTINUOUS
 10
232.4526357355510982
 20
39.4324636259888024
 30
0.0
 11
230.9836997054487995
 21
41.1509696779357483
 31
0.0
  0
LINE
  5
2552
  8
250
  6
CONTINUOUS
 10
232.9305871021230132
 20
40.0017675304515521
 30
0.0
 11
230.9836997054487995
 21
41.1509696779357483
 31
0.0
  0
LINE
  5
2553
  8
250
  6
CONTINUOUS
 10
230.9836997054487995
 20
41.1509696779357483
 30
0.0
 11
232.6916114188371125
 21
39.7171155782201666
 31
0.0
  0
LINE
  5
2554
  8
250
  6
CONTINUOUS
 10
327.5473642644485039
 20
-39.4324636259885608
 30
0.0
 11
329.0163002945507742
 21
-41.1509696779354996
 31
0.0
  0
LINE
  5
2555
  8
250
  6
CONTINUOUS
 10
327.0694128978765889
 20
-40.0017675304513034
 30
0.0
 11
329.0163002945507742
 21
-41.1509696779354996
 31
0.0
  0
LINE
  5
2556
  8
250
  6
CONTINUOUS
 10
329.0163002945507742
 20
-41.1509696779354996
 30
0.0
 11
327.3083885811624896
 21
-39.7171155782199321
 31
0.0
  0
LINE
  5
2557
  8
250
  6
CONTINUOUS
 10
279.9999861769164227
 20
-45.4999999999986073
 30
0.0
 11
279.9999861769164227
 21
-78.0
 31
0.0
  0
LINE
  5
2558
  8
250
  6
CONTINUOUS
 10
311.7499999999985789
 20
-45.500000000000739
 30
0.0
 11
311.7499999999985789
 21
-78.0
 31
0.0
  0
LINE
  5
2559
  8
250
  6
CONTINUOUS
 10
282.2299861769164977
 20
-77.0
 30
0.0
 11
309.5199999999985039
 21
-77.0
 31
0.0
  0
LINE
  5
255D
  8
250
  6
CONTINUOUS
 10
282.2299861769164977
 20
-77.3716666666666555
 30
0.0
 11
279.9999861769164227
 21
-77.0
 31
0.0
  0
LINE
  5
255E
  8
250
  6
CONTINUOUS
 10
282.2299861769164977
 20
-76.6283333333333303
 30
0.0
 11
279.9999861769164227
 21
-77.0
 31
0.0
  0
LINE
  5
255F
  8
250
  6
CONTINUOUS
 10
279.9999861769164227
 20
-77.0
 30
0.0
 11
282.2299861769164977
 21
-77.0
 31
0.0
  0
LINE
  5
2560
  8
250
  6
CONTINUOUS
 10
309.5199999999985039
 20
-76.6283333333333303
 30
0.0
 11
311.7499999999985789
 21
-77.0
 31
0.0
  0
LINE
  5
2561
  8
250
  6
CONTINUOUS
 10
309.5199999999985039
 20
-77.3716666666666555
 30
0.0
 11
311.7499999999985789
 21
-77.0
 31
0.0
  0
LINE
  5
2562
  8
250
  6
CONTINUOUS
 10
311.7499999999985789
 20
-77.0
 30
0.0
 11
309.5199999999985039
 21
-77.0
 31
0.0
  0
TEXT
  5
2563
  8
250
  6
CONTINUOUS
 10
288.2083264217907868
 20
-75.9999999999999858
 30
0.0
 40
2.7999999999999989
  1
üá1.250
  0
VIEWPORT
  5
22
 67
     1
  8
0
 10
261.517699115044195
 20
148.5
 30
0.0
 40
523.0353982300885036
 41
297.0
 68
     1
 69
     1
1001
ACAD
1000
MVIEW
1002
{
1070
    16
1010
0.0
1020
0.0
1030
0.0
1010
0.0
1020
0.0
1030
1.0
1040
0.0
1040
297.0
1040
261.517699115044195
1040
148.5
1040
50.0
1040
0.0
1040
0.0
1070
     0
1070
   100
1070
     1
1070
     1
1070
     0
1070
     0
1070
     0
1070
     0
1040
0.0
1040
0.0
1040
0.0
1040
1.0
1040
1.0
1040
10.0
1040
10.0
1070
     0
1002
{
1002
}
1002
}
1001
GENIUS_GENODEF_13
1002
{
1000
HIER
1070
     0
1002
}
1002
{
1000
MANEDIT
1070
     0
1002
}
1002
{
1000
NOSEL
1070
     0
1002
}
1002
{
1000
BEHIND
1070
     0
1002
}
1002
{
1000
OTHER
1070
     0
1002
}
1002
{
1000
REACTOR
1002
}
1001
GENIUS_GENOBJ-N-SDF_13
1002
{
1000
OWNER
1000
GEN
1002
}
1001
GENIUS_GENSCREG_15
1000
PF
1040
1.0
1000
DF
1040
1.0
1000
MIN
1011
0.0
1021
0.0
1031
0.0
1021
0.0
1031
0.0
1000
MAX
1011
523.0353982300885036
1021
0.0
1031
0.0
1021
297.0
1031
0.0
1000
FLAGS
1070
     4
  0
ENDSEC
  0
EOF
