  0
SECTION
  2
HEADER
  9
$ACADVER
  1
AC1009
  9
$INSBASE
 10
0.0
 20
0.0
 30
0.0
  9
$EXTMIN
 10
-104.0476190476189942
 20
-78.0
 30
0.0
  9
$EXTMAX
 10
403.1365804869843146
 20
96.0
 30
0.0
  9
$LIMMIN
 10
0.0
 20
0.0
  9
$LIMMAX
 10
297.0
 20
210.0
  9
$ORTHOMODE
 70
     0
  9
$REGENMODE
 70
     1
  9
$FILLMODE
 70
     1
  9
$QTEXTMODE
 70
     0
  9
$MIRRTEXT
 70
     1
  9
$DRAGMODE
 70
     2
  9
$LTSCALE
 40
10.0
  9
$OSMODE
 70
   807
  9
$ATTMODE
 70
     1
  9
$TEXTSIZE
 40
3.0
  9
$TRACEWID
 40
1.0
  9
$TEXTSTYLE
  7
YOKO
  9
$CLAYER
  8
240
  9
$CELTYPE
  6
BYLAYER
  9
$CECOLOR
 62
   256
  9
$DIMSCALE
 40
1.0
  9
$DIMASZ
 40
2.0
  9
$DIMEXO
 40
2.0
  9
$DIMDLI
 40
7.0
  9
$DIMRND
 40
0.0
  9
$DIMDLE
 40
0.0
  9
$DIMEXE
 40
2.0
  9
$DIMTP
 40
0.0
  9
$DIMTM
 40
0.01
  9
$DIMTXT
 40
4.0
  9
$DIMCEN
 40
0.0
  9
$DIMTSZ
 40
0.0
  9
$DIMTOL
 70
     0
  9
$DIMLIM
 70
     0
  9
$DIMTIH
 70
     0
  9
$DIMTOH
 70
     0
  9
$DIMSE1
 70
     0
  9
$DIMSE2
 70
     0
  9
$DIMTAD
 70
     3
  9
$DIMZIN
 70
     8
  9
$DIMBLK
  1
OPEN
  9
$DIMASO
 70
     1
  9
$DIMSHO
 70
     1
  9
$DIMPOST
  1

  9
$DIMAPOST
  1

  9
$DIMALT
 70
     0
  9
$DIMALTD
 70
     2
  9
$DIMALTF
 40
25.3999999999999986
  9
$DIMLFAC
 40
1.0
  9
$DIMTOFL
 70
     1
  9
$DIMTVP
 40
0.0
  9
$DIMTIX
 70
     1
  9
$DIMSOXD
 70
     0
  9
$DIMSAH
 70
     0
  9
$DIMBLK1
  1

  9
$DIMBLK2
  1

  9
$DIMSTYLE
  2
BIGT
  9
$DIMCLRD
 70
   256
  9
$DIMCLRE
 70
   256
  9
$DIMCLRT
 70
   256
  9
$DIMTFAC
 40
1.0
  9
$DIMGAP
 40
1.0
  9
$LUNITS
 70
     2
  9
$LUPREC
 70
     3
  9
$SKETCHINC
 40
1.0
  9
$FILLETRAD
 40
0.0
  9
$AUNITS
 70
     0
  9
$AUPREC
 70
     3
  9
$MENU
  1
.
  9
$ELEVATION
 40
0.0
  9
$PELEVATION
 40
0.0
  9
$THICKNESS
 40
0.0
  9
$LIMCHECK
 70
     0
  9
$BLIPMODE
 70
     0
  9
$CHAMFERA
 40
0.25
  9
$CHAMFERB
 40
0.25
  9
$SKPOLY
 70
     0
  9
$TDCREATE
 40
2458180.5549189820885658
  9
$TDUPDATE
 40
2458186.5790162030607462
  9
$TDINDWG
 40
0.0430365741
  9
$TDUSRTIMER
 40
0.0430365278
  9
$USRTIMER
 70
     1
  9
$ANGBASE
 50
0.0
  9
$ANGDIR
 70
     0
  9
$PDMODE
 70
     0
  9
$PDSIZE
 40
-5.0
  9
$PLINEWID
 40
0.0
  9
$COORDS
 70
     1
  9
$SPLFRAME
 70
     0
  9
$SPLINETYPE
 70
     6
  9
$SPLINESEGS
 70
     4
  9
$ATTDIA
 70
     1
  9
$ATTREQ
 70
     1
  9
$HANDLING
 70
     1
  9
$HANDSEED
  5
5698
  9
$SURFTAB1
 70
     6
  9
$SURFTAB2
 70
     6
  9
$SURFTYPE
 70
     6
  9
$SURFU
 70
     6
  9
$SURFV
 70
     6
  9
$UCSNAME
  2

  9
$UCSORG
 10
0.0
 20
0.0
 30
0.0
  9
$UCSXDIR
 10
1.0
 20
0.0
 30
0.0
  9
$UCSYDIR
 10
0.0
 20
1.0
 30
0.0
  9
$PUCSNAME
  2

  9
$PUCSORG
 10
0.0
 20
0.0
 30
0.0
  9
$PUCSXDIR
 10
1.0
 20
0.0
 30
0.0
  9
$PUCSYDIR
 10
0.0
 20
1.0
 30
0.0
  9
$USERI1
 70
     1
  9
$USERI2
 70
     0
  9
$USERI3
 70
     0
  9
$USERI4
 70
     0
  9
$USERI5
 70
     0
  9
$USERR1
 40
0.0
  9
$USERR2
 40
0.0
  9
$USERR3
 40
0.0
  9
$USERR4
 40
0.0
  9
$USERR5
 40
0.0
  9
$WORLDVIEW
 70
     1
  9
$SHADEDGE
 70
     3
  9
$SHADEDIF
 70
    70
  9
$TILEMODE
 70
     1
  9
$MAXACTVP
 70
    16
  9
$PLIMCHECK
 70
     0
  9
$PEXTMIN
 10
1.0000000000000000E+20
 20
1.0000000000000000E+20
 30
1.0000000000000000E+20
  9
$PEXTMAX
 10
-1.0000000000000000E+20
 20
-1.0000000000000000E+20
 30
-1.0000000000000000E+20
  9
$PLIMMIN
 10
0.0
 20
0.0
  9
$PLIMMAX
 10
420.0
 20
297.0
  9
$UNITMODE
 70
     0
  9
$VISRETAIN
 70
     1
  9
$PLINEGEN
 70
     0
  9
$PSLTSCALE
 70
     1
  0
ENDSEC
  0
SECTION
  2
TABLES
  0
TABLE
  2
VPORT
 70
     1
  0
VPORT
  2
*ACTIVE
 70
     0
 10
0.0
 20
0.0
 11
1.0
 21
1.0
 12
152.2293021588027955
 22
-22.4622939372010784
 13
0.0
 23
0.0
 14
7.0
 24
7.0
 15
7.0
 25
7.0
 16
0.0
 26
0.0
 36
1.0
 17
0.0
 27
0.0
 37
0.0
 40
309.3880094255696918
 41
1.8592342342342341
 42
50.0
 43
0.0
 44
0.0
 50
0.0
 51
0.0
 71
     0
 72
  2000
 73
     1
 74
     0
 75
     0
 76
     0
 77
     0
 78
     0
  0
ENDTAB
  0
TABLE
  2
LTYPE
 70
    16
  0
LTYPE
  2
CONTINUOUS
 70
     0
  3
Solid line
 72
    65
 73
     0
 40
0.0
  0
LTYPE
  2
CENTER2
 70
     0
  3
___ _ ___ _ ___ _ ___ _ ___ _ ___ _ ___ _ ___ _
 72
    65
 73
     4
 40
1.125
 49
0.75
 49
-0.125
 49
0.125
 49
-0.125
  0
LTYPE
  2
HIDDEN2
 70
     0
  3
_ _ _ _ _ _ _ _ _ _ _ _ _ _ _ _ _ _ _ _ _ _ _ _
 72
    65
 73
     2
 40
0.1875
 49
0.125
 49
-0.0625
  0
LTYPE
  2
PHANTOM2
 70
     0
  3
___ _ _ ___ _ _ ___ _ _ ___ _ _ ___ _ _ ___ _ _
 72
    65
 73
     6
 40
1.25
 49
0.625
 49
-0.125
 49
0.125
 49
-0.125
 49
0.125
 49
-0.125
  0
LTYPE
  2
HIDDEN
 70
     0
  3
Hidden __ __ __ __ __ __ __ __ __ __ __ __ __ _
 72
    65
 73
     2
 40
0.375
 49
0.25
 49
-0.125
  0
LTYPE
  2
CENTER
 70
     0
  3
Center ____ _ ____ _ ____ _ ____ _ ____ _ ____
 72
    65
 73
     4
 40
2.0
 49
1.25
 49
-0.25
 49
0.25
 49
-0.25
  0
LTYPE
  2
AMCONSTR
 70
     0
  3
_______________________
 72
    65
 73
     2
 40
9999.0
 49
9999.0
 49
0.0
  0
LTYPE
  2
AMZIGZAG2
 70
     0
  3
/\/-/\/-/\/-/\/-/\/-/\/
 72
    65
 73
     2
 40
0.4401
 49
0.0001
 49
-0.4400000000000001
  0
LTYPE
  2
ACANSTGB
 70
     0
  3
__ . . __ . .
 72
    65
 73
     6
 40
0.35433070866
 49
0.15748031496
 49
-0.03937007874
 49
0.03937007874
 49
-0.03937007874
 49
0.03937007874
 49
-0.03937007874
  0
LTYPE
  2
ACANSTGL
 70
     0
  3
_ _ _ _ _
 72
    65
 73
     2
 40
0.11811023622
 49
0.07874015748
 49
-0.03937007874
  0
ENDTAB
  0
TABLE
  2
LAYER
 70
     9
  0
LAYER
  2
0
 70
     0
 62
     7
  6
CONTINUOUS
  0
LAYER
  2
240
 70
     0
 62
     4
  6
CONTINUOUS
  0
LAYER
  2
245
 70
     0
 62
     2
  6
CENTER2
  0
LAYER
  2
241
 70
     0
 62
   211
  6
CONTINUOUS
  0
LAYER
  2
242
 70
     0
 62
     3
  6
CONTINUOUS
  0
LAYER
  2
243
 70
     0
 62
   211
  6
HIDDEN2
  0
LAYER
  2
246
 70
     0
 62
     3
  6
PHANTOM2
  0
LAYER
  2
247
 70
     0
 62
    60
  6
CONTINUOUS
  0
LAYER
  2
250
 70
     0
 62
     3
  6
CONTINUOUS
  0
ENDTAB
  0
TABLE
  2
STYLE
 70
     5
  0
STYLE
  2
STANDARD
 70
     0
 40
0.0
 41
1.0
 50
0.0
 71
     0
 42
3.0
  3
romans.shx
  4
extfont.shx
  0
STYLE
  2
YOKO
 70
     0
 40
0.0
 41
1.0
 50
0.0
 71
     0
 42
3.0
  3
romans.shx
  4
extfont.shx
  0
STYLE
  2

 70
     1
 40
0.0
 41
1.0
 50
0.0
 71
     0
 42
3.0
  3
genltshp.shx
  4

  0
STYLE
  2
ACANSGDT
 70
     0
 40
0.0
 41
1.0
 50
0.0
 71
     0
 42
3.0
  3
amgdt.shx
  4

  0
ENDTAB
  0
TABLE
  2
VIEW
 70
     0
  0
ENDTAB
  0
TABLE
  2
UCS
 70
     0
  0
ENDTAB
  0
TABLE
  2
APPID
 70
    42
  0
APPID
  2
ACAD
 70
     0
  0
APPID
  2
ACADANNOTATIVE
 70
     0
  0
APPID
  2
GLOBAL
 70
     0
  0
APPID
  2
DETAIL
 70
     0
  0
APPID
  2
GRPNAME
 70
     0
  0
APPID
  2
GPARA
 70
     0
  0
APPID
  2
MCAD_NO_VIS
 70
     0
  0
APPID
  2
ACAD_TEMP_GRAPHIC
 70
     0
  0
APPID
  2
ACATTRIBSERVICES
 70
     0
  0
APPID
  2
GENIUS_GENSCREG_15
 70
     0
  0
APPID
  2
GENIUS_GENODEF_13
 70
     0
  0
APPID
  2
GENIUS_GENOBJ-N-SDF_13
 70
     0
  0
APPID
  2
GENIUS_GENREC_14
 70
     0
  0
APPID
  2
GENIUS_GENOBJ-N-REC_13
 70
     0
  0
APPID
  2
GENIUS_GENDIMSH_14
 70
     0
  0
APPID
  2
GENIUS_GENOBJ-N-DIM_13
 70
     0
  0
APPID
  2
GENIUS_GENDIM_13
 70
     0
  0
APPID
  2
GENIUS_GENDTOL_13
 70
     0
  0
APPID
  2
GENIUS_GENOLIS_13
 70
     0
  0
APPID
  2
GENIUS_GENOENT_13
 70
     0
  0
APPID
  2
GENIUS_GENOBJ-F-FEM_13
 70
     0
  0
APPID
  2
GENIUS_GENOREF_13
 70
     0
  0
APPID
  2
GENIUS_GEFFEM_13
 70
     0
  0
APPID
  2
GENIUS_GEFFEMP_13
 70
     0
  0
APPID
  2
AD_DRAW
 70
     0
  0
APPID
  2
DESIGNERASSEMBLIES
 70
     0
  0
APPID
  2
ACADM_DIM_EDIT
 70
     0
  0
APPID
  2
AMDT_DM_ADJ
 70
     0
  0
APPID
  2
ACAD_NAV_VCDISPLAY
 70
     0
  0
APPID
  2
ITEMNAME
 70
     0
  0
APPID
  2
GENIUS_GENOBJ-N-FIL_13
 70
     0
  0
APPID
  2
ACAECLAYERSTANDARD
 70
     0
  0
APPID
  2
GRADE_0
 70
     0
  0
APPID
  2
ACAD_DSTYLE_DIMJAG
 70
     0
  0
APPID
  2
ACAD_DSTYLE_DIMTALN
 70
     0
  0
APPID
  2
ACAD_DSTYLE_DIMBREAK
 70
     0
  0
APPID
  2
ACAD_PSEXT
 70
     0
  0
APPID
  2
ACAD_DSTYLE_DIMINSPECT
 70
     0
  0
APPID
  2
ACADANNOMONITORALERTICONDI
 70
     0
  0
APPID
  2
ACAD_EXEMPT_FROM_CAD_STANDARDS
 70
     0
  0
APPID
  2
ACAD_DSTYLE_DIMRADIAL_EXTENSION
 70
     0
  0
APPID
  2
ACAD_MLEADERVER
 70
     0
  0
ENDTAB
  0
TABLE
  2
DIMSTYLE
 70
     7
  0
DIMSTYLE
  2
BIGT
 70
     0
  3

  4

  5

  6

  7

 40
1.0
 41
2.2299999999999991
 42
0.5
 43
7.0
 44
1.0
 45
0.0
 46
0.0
 47
0.0
 48
0.01
140
2.799999999999998
141
0.0
142
0.0
143
25.3999999999999986
144
1.0
145
0.0
146
1.0
147
1.0
 71
     0
 72
     0
 73
     0
 74
     0
 75
     0
 76
     0
 77
     3
 78
     9
170
     0
171
     2
172
     1
173
     0
174
     1
175
     0
176
   256
177
   256
178
    40
  0
DIMSTYLE
  2
AM_ANSI
 70
     0
  3

  4
mm
  5

  6

  7

 40
1.0
 41
0.12
 42
0.05
 43
0.5
 44
0.1
 45
0.0
 46
0.0
 47
0.1
 48
0.1
140
0.12
141
0.0
142
0.0
143
25.3999999999999986
144
1.0
145
0.0
146
0.71
147
0.06
 71
     0
 72
     0
 73
     1
 74
     1
 75
     0
 76
     0
 77
     0
 78
     7
170
     0
171
     2
172
     0
173
     0
174
     0
175
     0
176
   256
177
   256
178
     2
  0
DIMSTYLE
  2
AM_ANSI$3
 70
     0
  3

  4
mm
  5

  6

  7

 40
1.0
 41
0.12
 42
0.05
 43
0.5
 44
0.1
 45
0.0
 46
0.0
 47
0.1
 48
0.1
140
0.12
141
0.0
142
0.0
143
25.3999999999999986
144
1.0
145
0.0
146
0.71
147
0.06
 71
     0
 72
     0
 73
     1
 74
     1
 75
     0
 76
     0
 77
     0
 78
     7
170
     0
171
     2
172
     0
173
     0
174
     0
175
     0
176
   256
177
   256
178
     2
  0
DIMSTYLE
  2
AM_ANSI$4
 70
     0
  3

  4
mm
  5

  6

  7

 40
1.0
 41
0.12
 42
0.05
 43
0.5
 44
0.1
 45
0.0
 46
0.0
 47
0.1
 48
0.1
140
0.12
141
0.0
142
0.0
143
25.3999999999999986
144
1.0
145
0.0
146
0.71
147
0.06
 71
     0
 72
     0
 73
     1
 74
     1
 75
     0
 76
     0
 77
     0
 78
     7
170
     0
171
     2
172
     0
173
     0
174
     0
175
     0
176
   256
177
   256
178
     2
  0
DIMSTYLE
  2
AM_ANSI$7
 70
     0
  3

  4
mm
  5

  6

  7

 40
1.0
 41
0.12
 42
0.05
 43
0.5
 44
0.1
 45
0.0
 46
0.0
 47
0.1
 48
0.1
140
0.12
141
0.0
142
0.0
143
25.3999999999999986
144
1.0
145
0.0
146
0.71
147
0.06
 71
     0
 72
     0
 73
     1
 74
     1
 75
     0
 76
     0
 77
     0
 78
     7
170
     0
171
     2
172
     0
173
     0
174
     0
175
     0
176
   256
177
   256
178
     2
  0
DIMSTYLE
  2
AM_ANSI$SF
 70
     0
  3

  4
mm
  5

  6

  7

 40
1.0
 41
0.12
 42
0.05
 43
0.5
 44
0.1
 45
0.0
 46
0.0
 47
0.1
 48
0.1
140
0.12
141
0.0
142
0.0
143
25.3999999999999986
144
1.0
145
0.0
146
0.71
147
0.06
 71
     0
 72
     0
 73
     1
 74
     1
 75
     1
 76
     1
 77
     0
 78
     7
170
     0
171
     2
172
     0
173
     0
174
     0
175
     0
176
   256
177
   256
178
     2
  0
DIMSTYLE
  2
AM_ANSI$SH
 70
     0
  3

  4
mm
  5

  6
GENAXEH
  7

 40
1.0
 41
0.12
 42
0.05
 43
0.5
 44
0.1
 45
0.0
 46
0.0
 47
0.1
 48
0.1
140
0.12
141
0.0
142
0.0
143
25.3999999999999986
144
1.0
145
0.0
146
0.71
147
0.06
 71
     0
 72
     0
 73
     1
 74
     1
 75
     1
 76
     1
 77
     0
 78
     7
170
     0
171
     2
172
     0
173
     1
174
     0
175
     0
176
   256
177
   256
178
     2
  0
ENDTAB
  0
ENDSEC
  0
SECTION
  2
BLOCKS
  0
BLOCK
  8
0
  2
$MODEL_SPACE
 70
     0
 10
0.0
 20
0.0
 30
0.0
  3
$MODEL_SPACE
  1

  0
ENDBLK
  5
54E1
  8
0
  0
BLOCK
 67
     1
  8
0
  2
$PAPER_SPACE
 70
     0
 10
0.0
 20
0.0
 30
0.0
  3
$PAPER_SPACE
  1

  0
ENDBLK
  5
54DD
 67
     1
  8
0
  0
BLOCK
  8
0
  2
_OPEN
 70
     0
 10
0.0
 20
0.0
 30
0.0
  3
_OPEN
  1

  0
LINE
  5
595
  8
0
  6
BYBLOCK
 62
     0
 10
-1.0
 20
0.1666666666666666
 30
0.0
 11
0.0
 21
0.0
 31
0.0
  0
LINE
  5
596
  8
0
  6
BYBLOCK
 62
     0
 10
-1.0
 20
-0.1666666666666666
 30
0.0
 11
0.0
 21
0.0
 31
0.0
  0
LINE
  5
597
  8
0
  6
BYBLOCK
 62
     0
 10
0.0
 20
0.0
 30
0.0
 11
-1.0
 21
0.0
 31
0.0
  0
ENDBLK
  5
599
  8
0
  0
BLOCK
  8
0
  2
GENAXEH
 70
     0
 10
0.0
 20
0.0
 30
0.0
  3
GENAXEH
  1

  0
LINE
  5
5615
  8
0
 10
-1.0
 20
0.0
 30
0.0
 11
1.0
 21
0.0
 31
0.0
  0
ENDBLK
  5
5617
  8
0
  0
BLOCK
  8
0
  2
_ACMFILLEDHALF
 70
     0
 10
0.0
 20
0.0
 30
0.0
  3
_ACMFILLEDHALF
  1

  0
TRACE
  5
5625
  8
240
 62
     0
 10
-0.8
 20
0.0
 30
0.0
 11
-1.0
 21
0.166666666
 31
0.0
 12
0.0
 22
0.0
 32
0.0
 13
0.0
 23
0.0
 33
0.0
  0
LINE
  5
5626
  8
240
 62
     0
 10
-1.0
 20
0.0
 30
0.0
 11
-0.8
 21
0.0
 31
0.0
  0
ENDBLK
  5
5624
  8
0
  0
ENDSEC
  0
SECTION
  2
ENTITIES
  0
LINE
  5
1404
  8
245
  6
CENTER2
 10
-103.5999999999999943
 20
0.0
 30
0.0
 11
112.6167690812381039
 21
0.0
 31
0.0
1001
GRPNAME
1000
PASTMD0L
  0
LINE
  5
1405
  8
240
  6
CONTINUOUS
 10
0.0
 20
34.9250000000000114
 30
0.0
 11
-101.5999999999999943
 21
20.1083333297216917
 31
0.0
1001
GRPNAME
1000
PASTMD0L
  0
LINE
  5
1406
  8
240
  6
CONTINUOUS
 10
0.0
 20
-34.9250000000000114
 30
0.0
 11
-101.5999999999999943
 21
-20.1083333297217202
 31
0.0
1001
GRPNAME
1000
PASTMD0L
  0
LINE
  5
1407
  8
240
  6
CONTINUOUS
 10
-101.5999999999999943
 20
20.1083333297216917
 30
0.0
 11
-101.5999999999999943
 21
-20.1083333297217202
 31
0.0
1001
GRPNAME
1000
PASTMD0L
  0
LINE
  5
1408
  8
241
  6
CONTINUOUS
 10
7.5938332300000013
 20
49.2124999999999702
 30
0.0
 11
7.5938332300000013
 21
12.6999999999964803
 31
0.0
1001
GRPNAME
1000
PASTMD0L
  0
LINE
  5
1409
  8
241
  6
CONTINUOUS
 10
9.2000000000000028
 20
45.6449999999999818
 30
0.0
 11
9.2000000000000028
 21
12.6999999999954802
 31
0.0
1001
GRPNAME
1000
PASTMD0L
  0
LINE
  5
140A
  8
241
  6
CONTINUOUS
 10
13.0399999999999903
 20
45.6449999999999818
 30
0.0
 11
13.0399999999999903
 21
12.6999999999930893
 31
0.0
1001
GRPNAME
1000
PASTMD0L
  0
LINE
  5
140B
  8
241
  6
CONTINUOUS
 10
14.6461667700000007
 20
49.2124999999999702
 30
0.0
 11
14.6461667700000007
 21
12.6999999999920892
 31
0.0
1001
GRPNAME
1000
PASTMD0L
  0
LINE
  5
140C
  8
241
  6
CONTINUOUS
 10
1.5
 20
34.9250000000000114
 30
0.0
 11
1.5
 21
-34.9250000000000114
 31
0.0
1001
GRPNAME
1000
PASTMD0L
  0
LINE
  5
140D
  8
241
  6
CONTINUOUS
 10
9.1999999999999993
 20
-12.6999999999962405
 30
0.0
 11
9.2000000000000028
 21
-45.6450000000000031
 31
0.0
1001
GRPNAME
1000
PASTMD0L
  0
LINE
  5
140E
  8
241
  6
CONTINUOUS
 10
7.5938332300000013
 20
-49.2124999999999986
 30
0.0
 11
7.5938332300000004
 21
-12.6999999999969209
 31
0.0
1001
GRPNAME
1000
PASTMD0L
  0
LINE
  5
140F
  8
241
  6
CONTINUOUS
 10
13.0399999999999903
 20
-45.6450000000000031
 30
0.0
 11
13.0399999999999903
 21
-12.6999999999946294
 31
0.0
1001
GRPNAME
1000
PASTMD0L
  0
LINE
  5
1410
  8
241
  6
CONTINUOUS
 10
14.6461667700000007
 20
-49.2124999999999986
 30
0.0
 11
14.6461667700000007
 21
-12.6999999999939508
 31
0.0
1001
GRPNAME
1000
PASTMD0L
  0
LINE
  5
1411
  8
240
  6
CONTINUOUS
 10
1.5
 20
-49.2124999999999986
 30
0.0
 11
1.5
 21
-34.9250000000000114
 31
0.0
1001
GRPNAME
1000
PASTMD0L
  0
LINE
  5
1412
  8
240
  6
CONTINUOUS
 10
19.0500000000000114
 20
-49.2124999999999986
 30
0.0
 11
19.0500000000001108
 21
-44.9999999999997726
 31
0.0
1001
GRPNAME
1000
PASTMD0L
  0
LINE
  5
1413
  8
240
  6
CONTINUOUS
 10
14.6461667700000007
 20
-49.2124999999999986
 30
0.0
 11
19.0500000000000114
 21
-49.2124999999999986
 31
0.0
1001
GRPNAME
1000
PASTMD0L
  0
LINE
  5
1414
  8
240
  6
CONTINUOUS
 10
1.5
 20
-49.2124999999999986
 30
0.0
 11
7.5938332300000013
 21
-49.2124999999999986
 31
0.0
1001
GRPNAME
1000
PASTMD0L
  0
LINE
  5
1415
  8
240
  6
CONTINUOUS
 10
9.2000000000000028
 20
-45.6450000000000031
 30
0.0
 11
13.0399999999999903
 21
-45.6450000000000031
 31
0.0
1001
GRPNAME
1000
PASTMD0L
  0
LINE
  5
1416
  8
240
  6
CONTINUOUS
 10
9.2000000000000028
 20
-46.4305375499999897
 30
0.0
 11
7.5938332300000013
 21
-49.2124999999999986
 31
0.0
1001
GRPNAME
1000
PASTMD0L
  0
LINE
  5
1417
  8
240
  6
CONTINUOUS
 10
9.2000000000000028
 20
-45.6450000000000031
 30
0.0
 11
9.2000000000000028
 21
-46.4305375499999897
 31
0.0
1001
GRPNAME
1000
PASTMD0L
  0
LINE
  5
1418
  8
240
  6
CONTINUOUS
 10
13.0399999999999903
 20
-46.4305375499999897
 30
0.0
 11
14.6461667700000007
 21
-49.2124999999999986
 31
0.0
1001
GRPNAME
1000
PASTMD0L
  0
LINE
  5
1419
  8
240
  6
CONTINUOUS
 10
13.0399999999999903
 20
-45.6450000000000031
 30
0.0
 11
13.0399999999999903
 21
-46.4305375499999897
 31
0.0
1001
GRPNAME
1000
PASTMD0L
  0
LINE
  5
141A
  8
241
  6
CONTINUOUS
 10
0.0
 20
-34.9250000000000114
 30
0.0
 11
0.0
 21
34.9250000000000114
 31
0.0
1001
GRPNAME
1000
PASTMD0L
  0
LINE
  5
141B
  8
240
  6
CONTINUOUS
 10
0.0
 20
-34.9250000000000114
 30
0.0
 11
1.5
 21
-34.9250000000000114
 31
0.0
  0
LINE
  5
141C
  8
240
  6
CONTINUOUS
 10
1.5
 20
49.2124999999999702
 30
0.0
 11
1.5
 21
34.9250000000000114
 31
0.0
1001
GRPNAME
1000
PASTMD0L
  0
LINE
  5
141D
  8
240
  6
CONTINUOUS
 10
19.0500000000000114
 20
49.2124999999999702
 30
0.0
 11
19.0500000000000291
 21
45.0000000000003908
 31
0.0
1001
GRPNAME
1000
PASTMD0L
  0
LINE
  5
141E
  8
240
  6
CONTINUOUS
 10
0.0
 20
34.9250000000000114
 30
0.0
 11
1.5
 21
34.9250000000000114
 31
0.0
  0
LINE
  5
141F
  8
240
  6
CONTINUOUS
 10
14.6461667700000007
 20
49.2124999999999702
 30
0.0
 11
19.0500000000000114
 21
49.2124999999999702
 31
0.0
1001
GRPNAME
1000
PASTMD0L
  0
LINE
  5
1420
  8
240
  6
CONTINUOUS
 10
1.5
 20
49.2124999999999702
 30
0.0
 11
7.5938332300000013
 21
49.2124999999999702
 31
0.0
1001
GRPNAME
1000
PASTMD0L
  0
LINE
  5
1421
  8
240
  6
CONTINUOUS
 10
9.2000000000000028
 20
45.6449999999999818
 30
0.0
 11
13.0399999999999903
 21
45.6449999999999818
 31
0.0
1001
GRPNAME
1000
PASTMD0L
  0
LINE
  5
1422
  8
240
  6
CONTINUOUS
 10
9.2000000000000028
 20
45.6449999999999818
 30
0.0
 11
9.2000000000000028
 21
46.4305375499999897
 31
0.0
1001
GRPNAME
1000
PASTMD0L
  0
LINE
  5
1423
  8
240
  6
CONTINUOUS
 10
9.2000000000000028
 20
46.4305375499999897
 30
0.0
 11
7.5938332300000013
 21
49.2124999999999702
 31
0.0
1001
GRPNAME
1000
PASTMD0L
  0
LINE
  5
1424
  8
240
  6
CONTINUOUS
 10
13.0399999999999903
 20
45.6449999999999818
 30
0.0
 11
13.0399999999999903
 21
46.4305375499999897
 31
0.0
1001
GRPNAME
1000
PASTMD0L
  0
LINE
  5
1425
  8
240
  6
CONTINUOUS
 10
13.0399999999999903
 20
46.4305375499999897
 30
0.0
 11
14.6461667700000007
 21
49.2124999999999702
 31
0.0
1001
GRPNAME
1000
PASTMD0L
  0
TEXT
  5
1426
  8
250
  6
CONTINUOUS
 10
-73.8675778919675849
 20
-37.357738943014617
 30
0.0
 40
2.799999999999998
  1
BCV50Y
  7
YOKO
1001
ITEMNAME
1000
LNSP3
  0
LINE
  5
1427
  8
250
  6
CONTINUOUS
 10
-57.0612186589336901
 20
-38.3577389430146312
 30
0.0
 11
-75.0612186589336829
 21
-38.3577389430146312
 31
0.0
1001
ITEMNAME
1000
LNSP2
  0
LINE
  5
1428
  8
250
  6
CONTINUOUS
 10
-52.088904974520247
 20
-29.0818615630252886
 30
0.0
 11
-50.7999999989336928
 21
-27.5166666630146288
 31
0.0
  0
LINE
  5
1429
  8
250
  6
CONTINUOUS
 10
-51.5116036569175506
 20
-29.4152796686203608
 30
0.0
 11
-50.7999999989336928
 21
-27.5166666630146288
 31
0.0
  0
LINE
  5
142A
  8
250
  6
CONTINUOUS
 10
-50.7999999989336928
 20
-27.5166666630146288
 30
0.0
 11
-51.8002543157188811
 21
-29.2485706158228211
 31
0.0
  0
LINE
  5
142B
  8
250
  6
CONTINUOUS
 10
-51.8002543157188811
 20
-29.2485706158228211
 30
0.0
 11
-57.0612186589336901
 21
-38.3577389430146312
 31
0.0
1001
ACAD
1000
DSTYLE
1002
{
1070
     6
1000
OPEN
1070
    41
1040
2.0
1070
    42
1040
2.0
1070
    44
1040
2.0
1070
   140
1040
4.0
1070
   343
1005
0
1002
}
  0
LINE
  5
142C
  8
247
  6
CONTINUOUS
 10
5.4999999999999432
 20
-26.75
 30
0.0
 11
5.5
 21
-22.1153846156700489
 31
0.0
  0
LINE
  5
142D
  8
247
  6
CONTINUOUS
 10
3.0
 20
-25.9548934999879783
 30
0.0
 11
5.0999999999160082
 21
-26.5570588100573595
 31
0.0
  0
LINE
  5
142E
  8
247
  6
CONTINUOUS
 10
3.996153846113998
 20
-25.3251514035190404
 30
0.0
 11
3.996153846113998
 21
-26.24053601886704
 31
0.0
  0
ARC
  5
142F
  8
247
  6
CONTINUOUS
 10
3.3847190672940992
 20
-25.0872634019468101
 30
0.0
 40
0.3876715809326743
 50
72.9978896752921997
 51
172.9241662185135908
  0
ARC
  5
1430
  8
247
  6
CONTINUOUS
 10
3.305223131028014
 20
-25.3824775568041296
 30
0.0
 40
0.6933047965358772
 50
4.7429368522022122
 51
73.8492262732667513
1001
GENIUS_GENOBJ-N-FIL_13
1002
{
1000
OWNER
1000
GEN
1002
}
1001
GENIUS_GENODEF_13
1002
{
1000
HIER
1070
     0
1002
}
1002
{
1000
MANEDIT
1070
     0
1002
}
1002
{
1000
NOSEL
1070
     0
1002
}
1002
{
1000
BEHIND
1070
     0
1002
}
1002
{
1000
OTHER
1070
     0
1002
}
1002
{
1000
REACTOR
1002
}
  0
LINE
  5
1431
  8
247
  6
CONTINUOUS
 10
5.0999999999160082
 20
-25.6416741947093705
 30
0.0
 11
5.0999999999160082
 21
-26.5570588100573595
 31
0.0
  0
LINE
  5
1432
  8
247
  6
CONTINUOUS
 10
3.0
 20
-25.9548934999879783
 30
0.0
 11
3.0
 21
-25.0395088846399894
 31
0.0
  0
ARC
  5
1433
  8
247
  6
CONTINUOUS
 10
4.3874169627678707
 20
-25.3783064762668609
 30
0.0
 40
0.394857301075386
 50
65.990941652528889
 51
172.2634434590690944
  0
ARC
  5
1434
  8
247
  6
CONTINUOUS
 10
4.391200327332565
 20
-25.7124466104269302
 30
0.0
 40
0.7123241612361686
 50
5.701985164259785
 51
77.2773384368220064
1001
GENIUS_GENOBJ-N-FIL_13
1002
{
1000
OWNER
1000
GEN
1002
}
1001
GENIUS_GENODEF_13
1002
{
1000
HIER
1070
     0
1002
}
1002
{
1000
MANEDIT
1070
     0
1002
}
1002
{
1000
NOSEL
1070
     0
1002
}
1002
{
1000
BEHIND
1070
     0
1002
}
1002
{
1000
OTHER
1070
     0
1002
}
1002
{
1000
REACTOR
1002
}
  0
LINE
  5
1435
  8
247
  6
CONTINUOUS
 10
5.0999999999160082
 20
-24.6839818870633998
 30
0.0
 11
3.0
 21
-24.0818165769940116
 31
0.0
  0
LINE
  5
1436
  8
247
  6
CONTINUOUS
 10
3.0
 20
-22.5856627309079805
 30
0.0
 11
3.0
 21
-22.9816783643036011
 31
0.0
  0
LINE
  5
1437
  8
247
  6
CONTINUOUS
 10
5.0999999999160082
 20
-23.6087396539439816
 30
0.0
 11
5.0999999999160082
 21
-23.1779704231919901
 31
0.0
  0
ARC
  5
1438
  8
247
  6
CONTINUOUS
 10
4.4582995950833562
 20
-22.3818165770699693
 30
0.0
 40
1.576855057639547
 50
202.3594881415291127
 51
254.9932485428464872
  0
ARC
  5
1439
  8
247
  6
CONTINUOUS
 10
3.5658188585381341
 20
-22.8475113661332294
 30
0.0
 40
0.6234706797009447
 50
94.9945893190753168
 51
155.1663289573039037
1001
GENIUS_GENOBJ-N-FIL_13
1002
{
1000
OWNER
1000
GEN
1002
}
1001
GENIUS_GENODEF_13
1002
{
1000
HIER
1070
     0
1002
}
1002
{
1000
MANEDIT
1070
     0
1002
}
1002
{
1000
NOSEL
1070
     0
1002
}
1002
{
1000
BEHIND
1070
     0
1002
}
1002
{
1000
OTHER
1070
     0
1002
}
1002
{
1000
REACTOR
1002
}
  0
ARC
  5
143A
  8
247
  6
CONTINUOUS
 10
4.1621021219694381
 20
-23.4441839510328016
 30
0.0
 40
0.9749472149106978
 50
15.8460965557808002
 51
82.325137004169278
  0
ARC
  5
143B
  8
247
  6
CONTINUOUS
 10
4.3714704019710631
 20
-23.035211638772239
 30
0.0
 40
0.9271945638692008
 50
249.7136016704968995
 51
321.7887456564109243
1001
GENIUS_GENOBJ-N-FIL_13
1002
{
1000
OWNER
1000
GEN
1002
}
1001
GENIUS_GENODEF_13
1002
{
1000
HIER
1070
     0
1002
}
1002
{
1000
MANEDIT
1070
     0
1002
}
1002
{
1000
NOSEL
1070
     0
1002
}
1002
{
1000
BEHIND
1070
     0
1002
}
1002
{
1000
OTHER
1070
     0
1002
}
1002
{
1000
REACTOR
1002
}
  0
LINE
  5
143C
  8
247
  6
CONTINUOUS
 10
4.2923076922559744
 20
-22.9625858078159588
 30
0.0
 11
4.2923076922559744
 21
-22.4779704232199684
 31
0.0
  0
ARC
  5
143D
  8
247
  6
CONTINUOUS
 10
4.25
 20
-26.75
 30
0.0
 40
1.25
 50
180.0
 51
0.0
  0
LINE
  5
143E
  8
247
  6
CONTINUOUS
 10
3.0
 20
-26.75
 30
0.0
 11
3.0
 21
-26.3038461539140407
 31
0.0
  0
ARC
  5
143F
  8
247
  6
CONTINUOUS
 10
4.25
 20
-22.1153846156700489
 30
0.0
 40
1.25
 50
0.0
 51
180.0
  0
LINE
  5
1440
  8
241
  6
CONTINUOUS
 10
19.0500000000000114
 20
-44.9999999999997726
 30
0.0
 11
19.0500000000000114
 21
45.0000000000003908
 31
0.0
  0
LINE
  5
1441
  8
241
  6
CONTINUOUS
 10
18.5499999999901917
 20
12.6999999999896591
 30
0.0
 11
3.700000000003171
 21
12.6999999999989104
 31
0.0
  0
LINE
  5
1442
  8
241
  6
CONTINUOUS
 10
18.5499999999931084
 20
-12.6999999999923006
 30
0.0
 11
3.7000000000030551
 21
-12.6999999999985693
 31
0.0
  0
LINE
  5
1443
  8
241
  6
CONTINUOUS
 10
3.7000000000030551
 20
-12.6999999999985693
 30
0.0
 11
1.5000000000001099
 21
-14.8999999999995207
 31
0.0
  0
LINE
  5
1444
  8
241
  6
CONTINUOUS
 10
3.700000000003171
 20
12.6999999999989104
 30
0.0
 11
1.5000000000001701
 21
14.89999999999986
 31
0.0
  0
LINE
  5
1520
  8
240
  6
CONTINUOUS
 10
124.9999999999997016
 20
54.9993749508621974
 30
0.0
 11
124.9999999999999005
 21
19.9705627484772812
 31
0.0
  0
LINE
  5
1526
  8
240
  6
CONTINUOUS
 10
73.8345837044781064
 20
-30.8653674714502202
 30
0.0
 11
34.9999999999997229
 21
-44.9999999999996518
 31
0.0
  0
LINE
  5
1527
  8
240
  6
CONTINUOUS
 10
34.9999999999997726
 20
-44.9999999999997016
 30
0.0
 11
19.0500000000001108
 21
-44.9999999999997726
 31
0.0
  0
LINE
  5
1528
  8
241
  6
CONTINUOUS
 10
18.5500000000001712
 20
-12.6999999999993598
 30
0.0
 11
19.0500000000001712
 21
-13.1999999999993598
 31
0.0
  0
LINE
  5
1529
  8
241
  6
CONTINUOUS
 10
18.5500000000002387
 20
12.6999999999997009
 30
0.0
 11
19.0500000000002387
 21
13.1999999999997009
 31
0.0
  0
LINE
  5
152F
  8
240
  6
CONTINUOUS
 10
96.9999999999997584
 20
-12.9999999999996607
 30
0.0
 11
121.4852813742383972
 21
11.4852813742385198
 31
0.0
  0
ARC
  5
1531
  8
240
  6
CONTINUOUS
 10
60.1537343645063487
 20
6.722457169082757
 30
0.0
 40
40.0001274981875881
 50
290.0000404874543278
 51
314.9999595125436258
  0
LINE
  5
1532
  8
240
  6
CONTINUOUS
 10
96.9999999999997584
 20
-12.9999999999996607
 30
0.0
 11
88.4380957667929124
 21
-21.5619042332043591
 31
0.0
  0
ARC
  5
1535
  8
240
  6
CONTINUOUS
 10
112.9999999999999005
 20
19.9705627484771604
 30
0.0
 40
12.0
 50
315.0
 51
0.0
  0
LINE
  5
153A
  8
240
  6
CONTINUOUS
 10
124.9999999999997016
 20
54.9993749508621974
 30
0.0
 11
34.9999999999997726
 21
54.999374994040231
 31
0.0
  0
LINE
  5
153B
  8
245
  6
CENTER2
 10
120.0439999999996985
 20
42.5000000000003908
 30
0.0
 11
46.6391682721785514
 21
42.4999999999974989
 31
0.0
  0
LINE
  5
153D
  8
240
  6
CONTINUOUS
 10
34.9999999999997726
 20
54.999374994040231
 30
0.0
 11
34.9999999999997726
 21
45.0000000000003268
 31
0.0
  0
LINE
  5
153F
  8
241
  6
CONTINUOUS
 10
19.0499999999997804
 20
33.2608695652177673
 30
0.0
 11
34.9999999999997726
 21
33.2608695652177673
 31
0.0
  0
LINE
  5
1540
  8
240
  6
CONTINUOUS
 10
19.0500000000000398
 20
45.0000000000003908
 30
0.0
 11
34.9999999999997726
 21
45.0000000000003268
 31
0.0
  0
LINE
  5
1542
  8
241
  6
CONTINUOUS
 10
34.9999999999997229
 20
33.2608695652177175
 30
0.0
 11
34.9999999999997726
 21
45.0000000000003268
 31
0.0
  0
LINE
  5
371A
  8
243
  6
HIDDEN2
 10
38.099999999999973
 20
54.9993749925529869
 30
0.0
 11
38.099999999999973
 21
29.5999999999999091
 31
0.0
  0
LINE
  5
379A
  8
245
  6
CENTER2
 10
268.8634195130156854
 20
-0.0000000000001705
 30
0.0
 11
403.1365804869843146
 21
0.0000000000001705
 31
0.0
  0
CIRCLE
  5
379E
  8
246
  6
PHANTOM2
 10
336.0000000000001137
 20
0.0
 30
0.0
 40
62.5
  0
ARC
  5
379F
  8
240
  6
CONTINUOUS
 10
336.0000000000001137
 20
12.0
 30
0.0
 40
57.0000000000000071
 50
323.9276980662120877
 51
359.4826034085785977
  0
ARC
  5
37A0
  8
240
  6
CONTINUOUS
 10
336.0000000000001137
 20
-13.0
 30
0.0
 40
32.0000000000000071
 50
180.0
 51
195.5191319225874906
  0
LINE
  5
37A1
  8
245
  6
CENTER2
 10
336.0000000000002842
 20
66.5979343179360512
 30
0.0
 11
335.9999999999998863
 21
-66.5979343179360512
 31
0.0
  0
ARC
  5
37A2
  8
240
  6
CONTINUOUS
 10
336.0000000000002842
 20
12.0
 30
0.0
 40
57.0000000000000711
 50
270.0
 51
312.3348899158493168
  0
ARC
  5
37A5
  8
240
  6
CONTINUOUS
 10
335.9985134675043241
 20
12.0013323244844496
 30
0.0
 40
57.0019860070799211
 50
314.774114520907176
 51
323.927495421843787
  0
ARC
  5
37A7
  8
240
  6
CONTINUOUS
 10
335.9985134675043241
 20
12.0013323244844496
 30
0.0
 40
57.0019860070799211
 50
312.335092560220005
 51
314.7741536155504036
  0
ARC
  5
37A8
  8
240
  6
CONTINUOUS
 10
336.0000000000001137
 20
-13.0
 30
0.0
 40
32.0000000000000426
 50
213.9377900628905138
 51
270.0
  0
POLYLINE
  5
4A9F
  8
240
 66
     1
 10
0.0
 20
0.0
 30
0.0
 70
     8
  0
VERTEX
  5
4AA0
  8
240
 10
305.1669999999999732
 20
-21.5619000000000014
 30
0.0
 70
    32
  0
VERTEX
  5
4AA1
  8
240
 10
305.1759999999999877
 20
-21.594100000000001
 30
0.0
 70
    32
  0
VERTEX
  5
4AA2
  8
240
 10
305.1850000000000023
 20
-21.6263000000000005
 30
0.0
 70
    32
  0
VERTEX
  5
4AA3
  8
240
 10
305.1940000000000168
 20
-21.6584000000000003
 30
0.0
 70
    32
  0
VERTEX
  5
4AA4
  8
240
 10
305.2029999999999745
 20
-21.6905000000000001
 30
0.0
 70
    32
  0
VERTEX
  5
4AA5
  8
240
 10
305.2119999999999891
 20
-21.7225000000000001
 30
0.0
 70
    32
  0
VERTEX
  5
4AA6
  8
240
 10
305.2210000000000036
 20
-21.7545000000000002
 30
0.0
 70
    32
  0
VERTEX
  5
4AA7
  8
240
 10
305.2300000000000182
 20
-21.7865000000000002
 30
0.0
 70
    32
  0
VERTEX
  5
4AA8
  8
240
 10
305.2389999999999759
 20
-21.8184000000000005
 30
0.0
 70
    32
  0
VERTEX
  5
4AA9
  8
240
 10
305.2479999999999905
 20
-21.8503000000000007
 30
0.0
 70
    32
  0
VERTEX
  5
4AAA
  8
240
 10
305.257000000000005
 20
-21.882200000000001
 30
0.0
 70
    32
  0
VERTEX
  5
4AAB
  8
240
 10
305.2669999999999959
 20
-21.9140000000000015
 30
0.0
 70
    32
  0
VERTEX
  5
4AAC
  8
240
 10
305.2760000000000105
 20
-21.9457999999999984
 30
0.0
 70
    32
  0
VERTEX
  5
4AAD
  8
240
 10
305.285000000000025
 20
-21.9774999999999991
 30
0.0
 70
    32
  0
VERTEX
  5
4AAE
  8
240
 10
305.2939999999999827
 20
-22.0091999999999999
 30
0.0
 70
    32
  0
VERTEX
  5
4AAF
  8
240
 10
305.3039999999999736
 20
-22.0409000000000006
 30
0.0
 70
    32
  0
VERTEX
  5
4AB0
  8
240
 10
305.3129999999999882
 20
-22.0725000000000016
 30
0.0
 70
    32
  0
VERTEX
  5
4AB1
  8
240
 10
305.3220000000000027
 20
-22.104099999999999
 30
0.0
 70
    32
  0
VERTEX
  5
4AB2
  8
240
 10
305.3319999999999936
 20
-22.1356999999999999
 30
0.0
 70
    32
  0
VERTEX
  5
4AB3
  8
240
 10
305.3410000000000082
 20
-22.1672000000000011
 30
0.0
 70
    32
  0
VERTEX
  5
4AB4
  8
240
 10
305.3509999999999991
 20
-22.1986999999999988
 30
0.0
 70
    32
  0
VERTEX
  5
4AB5
  8
240
 10
305.3600000000000136
 20
-22.2301000000000002
 30
0.0
 70
    32
  0
VERTEX
  5
4AB6
  8
240
 10
305.3700000000000045
 20
-22.2616000000000014
 30
0.0
 70
    32
  0
VERTEX
  5
4AB7
  8
240
 10
305.3790000000000191
 20
-22.2928999999999995
 30
0.0
 70
    32
  0
VERTEX
  5
4AB8
  8
240
 10
305.38900000000001
 20
-22.3243000000000009
 30
0.0
 70
    32
  0
VERTEX
  5
4AB9
  8
240
 10
305.3980000000000246
 20
-22.355599999999999
 30
0.0
 70
    32
  0
VERTEX
  5
4ABA
  8
240
 10
305.4080000000000155
 20
-22.3868000000000009
 30
0.0
 70
    32
  0
VERTEX
  5
4ABB
  8
240
 10
305.4169999999999732
 20
-22.4179999999999993
 30
0.0
 70
    32
  0
VERTEX
  5
4ABC
  8
240
 10
305.4270000000000209
 20
-22.4492000000000012
 30
0.0
 70
    32
  0
VERTEX
  5
4ABD
  8
240
 10
305.4370000000000118
 20
-22.4803999999999995
 30
0.0
 70
    32
  0
VERTEX
  5
4ABE
  8
240
 10
305.4460000000000264
 20
-22.5115000000000016
 30
0.0
 70
    32
  0
VERTEX
  5
4ABF
  8
240
 10
305.4559999999999036
 20
-22.5426000000000002
 30
0.0
 70
    32
  0
VERTEX
  5
4AC0
  8
240
 10
305.4660000000000082
 20
-22.573599999999999
 30
0.0
 70
    32
  0
VERTEX
  5
4AC1
  8
240
 10
305.4750000000000227
 20
-22.6046000000000014
 30
0.0
 70
    32
  0
VERTEX
  5
4AC2
  8
240
 10
305.4850000000000136
 20
-22.6356000000000002
 30
0.0
 70
    32
  0
VERTEX
  5
4AC3
  8
240
 10
305.4950000000000045
 20
-22.6664999999999992
 30
0.0
 70
    32
  0
VERTEX
  5
4AC4
  8
240
 10
305.5049999999999955
 20
-22.6973999999999982
 30
0.0
 70
    32
  0
VERTEX
  5
4AC5
  8
240
 10
305.5149999999999864
 20
-22.7282000000000011
 30
0.0
 70
    32
  0
VERTEX
  5
4AC6
  8
240
 10
305.5240000000000009
 20
-22.7590000000000003
 30
0.0
 70
    32
  0
VERTEX
  5
4AC7
  8
240
 10
305.5339999999999918
 20
-22.7897999999999996
 30
0.0
 70
    32
  0
VERTEX
  5
4AC8
  8
240
 10
305.5439999999999827
 20
-22.8204999999999991
 30
0.0
 70
    32
  0
VERTEX
  5
4AC9
  8
240
 10
305.5540000000000873
 20
-22.8511999999999986
 30
0.0
 70
    32
  0
VERTEX
  5
4ACA
  8
240
 10
305.5640000000000214
 20
-22.8819000000000017
 30
0.0
 70
    32
  0
VERTEX
  5
4ACB
  8
240
 10
305.5740000000000123
 20
-22.9125000000000014
 30
0.0
 70
    32
  0
VERTEX
  5
4ACC
  8
240
 10
305.5840000000000032
 20
-22.9431000000000012
 30
0.0
 70
    32
  0
VERTEX
  5
4ACD
  8
240
 10
305.5939999999999941
 20
-22.9736000000000011
 30
0.0
 70
    32
  0
VERTEX
  5
4ACE
  8
240
 10
305.603999999999985
 20
-23.0041000000000011
 30
0.0
 70
    32
  0
VERTEX
  5
4ACF
  8
240
 10
305.6139999999999759
 20
-23.0346000000000011
 30
0.0
 70
    32
  0
VERTEX
  5
4AD0
  8
240
 10
305.6240000000000236
 20
-23.0650000000000013
 30
0.0
 70
    32
  0
VERTEX
  5
4AD1
  8
240
 10
305.6340000000000146
 20
-23.0954000000000015
 30
0.0
 70
    32
  0
VERTEX
  5
4AD2
  8
240
 10
305.6440000000000055
 20
-23.1256999999999984
 30
0.0
 70
    32
  0
VERTEX
  5
4AD3
  8
240
 10
305.6539999999999964
 20
-23.1559999999999988
 30
0.0
 70
    32
  0
VERTEX
  5
4AD4
  8
240
 10
305.6650000000000205
 20
-23.1862999999999992
 30
0.0
 70
    32
  0
VERTEX
  5
4AD5
  8
240
 10
305.6750000000000114
 20
-23.2164999999999999
 30
0.0
 70
    32
  0
VERTEX
  5
4AD6
  8
240
 10
305.6850000000000023
 20
-23.2467000000000006
 30
0.0
 70
    32
  0
VERTEX
  5
4AD7
  8
240
 10
305.6949999999999932
 20
-23.2769000000000013
 30
0.0
 70
    32
  0
VERTEX
  5
4AD8
  8
240
 10
305.7049999999999841
 20
-23.3069999999999986
 30
0.0
 70
    32
  0
VERTEX
  5
4AD9
  8
240
 10
305.7160000000000082
 20
-23.3369999999999997
 30
0.0
 70
    32
  0
VERTEX
  5
4ADA
  8
240
 10
305.7259999999999991
 20
-23.3671000000000006
 30
0.0
 70
    32
  0
VERTEX
  5
4ADB
  8
240
 10
305.73599999999999
 20
-23.3970999999999982
 30
0.0
 70
    32
  0
VERTEX
  5
4ADC
  8
240
 10
305.7459999999999809
 20
-23.4269999999999996
 30
0.0
 70
    32
  0
VERTEX
  5
4ADD
  8
240
 10
305.757000000000005
 20
-23.4570000000000007
 30
0.0
 70
    32
  0
VERTEX
  5
4ADE
  8
240
 10
305.7669999999999959
 20
-23.4867999999999988
 30
0.0
 70
    32
  0
VERTEX
  5
4ADF
  8
240
 10
305.7769999999999868
 20
-23.5167000000000002
 30
0.0
 70
    32
  0
VERTEX
  5
4AE0
  8
240
 10
305.7880000000000109
 20
-23.5465000000000018
 30
0.0
 70
    32
  0
VERTEX
  5
4AE1
  8
240
 10
305.7980000000000018
 20
-23.5762
 30
0.0
 70
    32
  0
VERTEX
  5
4AE2
  8
240
 10
305.8090000000000259
 20
-23.6060000000000016
 30
0.0
 70
    32
  0
VERTEX
  5
4AE3
  8
240
 10
305.8190000000000168
 20
-23.6356000000000002
 30
0.0
 70
    32
  0
VERTEX
  5
4AE4
  8
240
 10
305.8299999999999841
 20
-23.6652999999999984
 30
0.0
 70
    32
  0
VERTEX
  5
4AE5
  8
240
 10
305.839999999999975
 20
-23.6949000000000005
 30
0.0
 70
    32
  0
VERTEX
  5
4AE6
  8
240
 10
305.8509999999999991
 20
-23.724499999999999
 30
0.0
 70
    32
  0
VERTEX
  5
4AE7
  8
240
 10
305.86099999999999
 20
-23.7540000000000013
 30
0.0
 70
    32
  0
VERTEX
  5
4AE8
  8
240
 10
305.8720000000000141
 20
-23.7835000000000001
 30
0.0
 70
    32
  0
VERTEX
  5
4AE9
  8
240
 10
305.882000000000005
 20
-23.8128999999999991
 30
0.0
 70
    32
  0
VERTEX
  5
4AEA
  8
240
 10
305.8929999999999723
 20
-23.8423000000000016
 30
0.0
 70
    32
  0
VERTEX
  5
4AEB
  8
240
 10
305.90300000000002
 20
-23.8717000000000006
 30
0.0
 70
    32
  0
VERTEX
  5
4AEC
  8
240
 10
305.9139999999999873
 20
-23.9009999999999998
 30
0.0
 70
    32
  0
VERTEX
  5
4AED
  8
240
 10
305.9250000000000114
 20
-23.930299999999999
 30
0.0
 70
    32
  0
VERTEX
  5
4AEE
  8
240
 10
305.9350000000000023
 20
-23.9594999999999985
 30
0.0
 70
    32
  0
VERTEX
  5
4AEF
  8
240
 10
305.9460000000000264
 20
-23.9888000000000012
 30
0.0
 70
    32
  0
VERTEX
  5
4AF0
  8
240
 10
305.9569999999999936
 20
-24.0179000000000009
 30
0.0
 70
    32
  0
VERTEX
  5
4AF1
  8
240
 10
305.9669999999999845
 20
-24.0470000000000006
 30
0.0
 70
    32
  0
VERTEX
  5
4AF2
  8
240
 10
305.9780000000000086
 20
-24.0761000000000003
 30
0.0
 70
    32
  0
VERTEX
  5
4AF3
  8
240
 10
305.9889999999999759
 20
-24.1052
 30
0.0
 70
    32
  0
VERTEX
  5
4AF4
  8
240
 10
306.0
 20
-24.1341999999999999
 30
0.0
 70
    32
  0
VERTEX
  5
4AF5
  8
240
 10
306.0099999999999909
 20
-24.1631999999999998
 30
0.0
 70
    32
  0
VERTEX
  5
4AF6
  8
240
 10
306.021000000000015
 20
-24.1920999999999999
 30
0.0
 70
    32
  0
VERTEX
  5
4AF7
  8
240
 10
306.0319999999999823
 20
-24.2210000000000001
 30
0.0
 70
    32
  0
VERTEX
  5
4AF8
  8
240
 10
306.0430000000000064
 20
-24.2498000000000005
 30
0.0
 70
    32
  0
VERTEX
  5
4AF9
  8
240
 10
306.0539999999999736
 20
-24.2786000000000008
 30
0.0
 70
    32
  0
VERTEX
  5
4AFA
  8
240
 10
306.0640000000000214
 20
-24.3074000000000012
 30
0.0
 70
    32
  0
VERTEX
  5
4AFB
  8
240
 10
306.0749999999999886
 20
-24.3360999999999983
 30
0.0
 70
    32
  0
VERTEX
  5
4AFC
  8
240
 10
306.0860000000000127
 20
-24.3647999999999989
 30
0.0
 70
    32
  0
VERTEX
  5
4AFD
  8
240
 10
306.09699999999998
 20
-24.3934999999999995
 30
0.0
 70
    32
  0
VERTEX
  5
4AFE
  8
240
 10
306.1080000000000041
 20
-24.4221000000000004
 30
0.0
 70
    32
  0
VERTEX
  5
4AFF
  8
240
 10
306.1190000000000282
 20
-24.4506000000000014
 30
0.0
 70
    32
  0
VERTEX
  5
4B00
  8
240
 10
306.1299999999999955
 20
-24.4791999999999987
 30
0.0
 70
    32
  0
VERTEX
  5
4B01
  8
240
 10
306.1409999999999059
 20
-24.5076000000000001
 30
0.0
 70
    32
  0
VERTEX
  5
4B02
  8
240
 10
306.1519999999999868
 20
-24.5361000000000011
 30
0.0
 70
    32
  0
VERTEX
  5
4B03
  8
240
 10
306.1630000000000109
 20
-24.5644999999999989
 30
0.0
 70
    32
  0
VERTEX
  5
4B04
  8
240
 10
306.1739999999999782
 20
-24.5929000000000002
 30
0.0
 70
    32
  0
VERTEX
  5
4B05
  8
240
 10
306.1850000000000023
 20
-24.6212000000000018
 30
0.0
 70
    32
  0
VERTEX
  5
4B06
  8
240
 10
306.1960000000000264
 20
-24.6494999999999997
 30
0.0
 70
    32
  0
VERTEX
  5
4B07
  8
240
 10
306.2069999999999936
 20
-24.6777000000000015
 30
0.0
 70
    32
  0
VERTEX
  5
4B08
  8
240
 10
306.2180000000000177
 20
-24.7058999999999997
 30
0.0
 70
    32
  0
VERTEX
  5
4B09
  8
240
 10
306.228999999999985
 20
-24.7341000000000015
 30
0.0
 70
    32
  0
VERTEX
  5
4B0A
  8
240
 10
306.2400000000000091
 20
-24.7622
 30
0.0
 70
    32
  0
VERTEX
  5
4B0B
  8
240
 10
306.2509999999999764
 20
-24.7902999999999984
 30
0.0
 70
    32
  0
VERTEX
  5
4B0C
  8
240
 10
306.2620000000000005
 20
-24.8183000000000007
 30
0.0
 70
    32
  0
VERTEX
  5
4B0D
  8
240
 10
306.2740000000000009
 20
-24.8462999999999994
 30
0.0
 70
    32
  0
VERTEX
  5
4B0E
  8
240
 10
306.285000000000025
 20
-24.8743000000000016
 30
0.0
 70
    32
  0
VERTEX
  5
4B0F
  8
240
 10
306.2959999999999923
 20
-24.9022000000000006
 30
0.0
 70
    32
  0
VERTEX
  5
4B10
  8
240
 10
306.3070000000000164
 20
-24.9300999999999995
 30
0.0
 70
    32
  0
VERTEX
  5
4B11
  8
240
 10
306.3179999999999836
 20
-24.9578999999999986
 30
0.0
 70
    32
  0
VERTEX
  5
4B12
  8
240
 10
306.3290000000000077
 20
-24.9857000000000014
 30
0.0
 70
    32
  0
VERTEX
  5
4B13
  8
240
 10
306.3410000000000082
 20
-25.0134000000000007
 30
0.0
 70
    32
  0
VERTEX
  5
4B14
  8
240
 10
306.3519999999999754
 20
-25.0411000000000001
 30
0.0
 70
    32
  0
VERTEX
  5
4B15
  8
240
 10
306.3629999999999995
 20
-25.0687999999999995
 30
0.0
 70
    32
  0
VERTEX
  5
4B16
  8
240
 10
306.3740000000000236
 20
-25.0963999999999992
 30
0.0
 70
    32
  0
VERTEX
  5
4B17
  8
240
 10
306.3860000000000241
 20
-25.1239999999999988
 30
0.0
 70
    32
  0
VERTEX
  5
4B18
  8
240
 10
306.3969999999999914
 20
-25.1515999999999984
 30
0.0
 70
    32
  0
VERTEX
  5
4B19
  8
240
 10
306.4080000000000155
 20
-25.1790999999999983
 30
0.0
 70
    32
  0
VERTEX
  5
4B1A
  8
240
 10
306.4200000000000159
 20
-25.2064999999999984
 30
0.0
 70
    32
  0
VERTEX
  5
4B1B
  8
240
 10
306.4309999999999832
 20
-25.2340000000000018
 30
0.0
 70
    32
  0
VERTEX
  5
4B1C
  8
240
 10
306.4420000000000073
 20
-25.2612999999999985
 30
0.0
 70
    32
  0
VERTEX
  5
4B1D
  8
240
 10
306.4540000000000077
 20
-25.2886999999999986
 30
0.0
 70
    32
  0
VERTEX
  5
4B1E
  8
240
 10
306.464999999999975
 20
-25.3159999999999989
 30
0.0
 70
    32
  0
VERTEX
  5
4B1F
  8
240
 10
306.4759999999999991
 20
-25.3431999999999995
 30
0.0
 70
    32
  0
VERTEX
  5
4B20
  8
240
 10
306.4879999999999995
 20
-25.3704000000000001
 30
0.0
 70
    32
  0
VERTEX
  5
4B21
  8
240
 10
306.4990000000000236
 20
-25.3976000000000006
 30
0.0
 70
    32
  0
VERTEX
  5
4B22
  8
240
 10
306.5110000000000241
 20
-25.4248000000000012
 30
0.0
 70
    32
  0
VERTEX
  5
4B23
  8
240
 10
306.5219999999999914
 20
-25.4517999999999986
 30
0.0
 70
    32
  0
VERTEX
  5
4B24
  8
240
 10
306.5330000000000155
 20
-25.4788999999999994
 30
0.0
 70
    32
  0
VERTEX
  5
4B25
  8
240
 10
306.5450000000000159
 20
-25.5059000000000005
 30
0.0
 70
    32
  0
VERTEX
  5
4B26
  8
240
 10
306.5559999999999832
 20
-25.5329000000000015
 30
0.0
 70
    32
  0
VERTEX
  5
4B27
  8
240
 10
306.5679999999999836
 20
-25.5597999999999992
 30
0.0
 70
    32
  0
VERTEX
  5
4B28
  8
240
 10
306.5790000000000077
 20
-25.5867000000000004
 30
0.0
 70
    32
  0
VERTEX
  5
4B29
  8
240
 10
306.5910000000000082
 20
-25.6134999999999984
 30
0.0
 70
    32
  0
VERTEX
  5
4B2A
  8
240
 10
306.6019999999999754
 20
-25.6402999999999999
 30
0.0
 70
    32
  0
VERTEX
  5
4B2B
  8
240
 10
306.6139999999999759
 20
-25.6670000000000016
 30
0.0
 70
    32
  0
VERTEX
  5
4B2C
  8
240
 10
306.625
 20
-25.6937999999999995
 30
0.0
 70
    32
  0
VERTEX
  5
4B2D
  8
240
 10
306.6370000000000005
 20
-25.7204000000000015
 30
0.0
 70
    32
  0
VERTEX
  5
4B2E
  8
240
 10
306.6480000000000246
 20
-25.7470999999999997
 30
0.0
 70
    32
  0
VERTEX
  5
4B2F
  8
240
 10
306.660000000000025
 20
-25.7735999999999983
 30
0.0
 70
    32
  0
VERTEX
  5
4B30
  8
240
 10
306.6720000000000255
 20
-25.8002000000000002
 30
0.0
 70
    32
  0
VERTEX
  5
4B31
  8
240
 10
306.6829999999999927
 20
-25.8266999999999989
 30
0.0
 70
    32
  0
VERTEX
  5
4B32
  8
240
 10
306.6949999999999932
 20
-25.8532000000000011
 30
0.0
 70
    32
  0
VERTEX
  5
4B33
  8
240
 10
306.7060000000000173
 20
-25.8795999999999999
 30
0.0
 70
    32
  0
VERTEX
  5
4B34
  8
240
 10
306.7180000000000177
 20
-25.905899999999999
 30
0.0
 70
    32
  0
VERTEX
  5
4B35
  8
240
 10
306.7300000000000182
 20
-25.9323000000000015
 30
0.0
 70
    32
  0
VERTEX
  5
4B36
  8
240
 10
306.7409999999999854
 20
-25.9586000000000006
 30
0.0
 70
    32
  0
VERTEX
  5
4B37
  8
240
 10
306.7529999999999859
 20
-25.9847999999999999
 30
0.0
 70
    32
  0
VERTEX
  5
4B38
  8
240
 10
306.7649999999999864
 20
-26.0109999999999992
 30
0.0
 70
    32
  0
VERTEX
  5
4B39
  8
240
 10
306.7760000000000105
 20
-26.0371999999999986
 30
0.0
 70
    32
  0
VERTEX
  5
4B3A
  8
240
 10
306.7880000000000109
 20
-26.0633000000000017
 30
0.0
 70
    32
  0
VERTEX
  5
4B3B
  8
240
 10
306.8000000000000114
 20
-26.0894000000000013
 30
0.0
 70
    32
  0
VERTEX
  5
4B3C
  8
240
 10
306.8109999999999786
 20
-26.1154000000000011
 30
0.0
 70
    32
  0
VERTEX
  5
4B3D
  8
240
 10
306.8229999999999791
 20
-26.1414000000000009
 30
0.0
 70
    32
  0
VERTEX
  5
4B3E
  8
240
 10
306.8349999999999795
 20
-26.1674000000000007
 30
0.0
 70
    32
  0
VERTEX
  5
4B3F
  8
240
 10
306.8460000000000036
 20
-26.1933000000000007
 30
0.0
 70
    32
  0
VERTEX
  5
4B40
  8
240
 10
306.8580000000000041
 20
-26.219100000000001
 30
0.0
 70
    32
  0
VERTEX
  5
4B41
  8
240
 10
306.8700000000000045
 20
-26.245000000000001
 30
0.0
 70
    32
  0
VERTEX
  5
4B42
  8
240
 10
306.8809999999999718
 20
-26.2707000000000015
 30
0.0
 70
    32
  0
VERTEX
  5
4B43
  8
240
 10
306.8929999999999723
 20
-26.2965000000000018
 30
0.0
 70
    32
  0
VERTEX
  5
4B44
  8
240
 10
306.9049999999999727
 20
-26.3221999999999987
 30
0.0
 70
    32
  0
VERTEX
  5
4B45
  8
240
 10
306.9169999999999732
 20
-26.3477999999999994
 30
0.0
 70
    32
  0
VERTEX
  5
4B46
  8
240
 10
306.9289999999999736
 20
-26.3734000000000002
 30
0.0
 70
    32
  0
VERTEX
  5
4B47
  8
240
 10
306.9399999999999977
 20
-26.3990000000000009
 30
0.0
 70
    32
  0
VERTEX
  5
4B48
  8
240
 10
306.9519999999999982
 20
-26.4244999999999983
 30
0.0
 70
    32
  0
VERTEX
  5
4B49
  8
240
 10
306.9639999999999986
 20
-26.4499999999999993
 30
0.0
 70
    32
  0
VERTEX
  5
4B4A
  8
240
 10
306.9759999999999991
 20
-26.4754000000000005
 30
0.0
 70
    32
  0
VERTEX
  5
4B4B
  8
240
 10
306.9870000000000232
 20
-26.5008000000000017
 30
0.0
 70
    32
  0
VERTEX
  5
4B4C
  8
240
 10
306.9990000000000236
 20
-26.5261999999999993
 30
0.0
 70
    32
  0
VERTEX
  5
4B4D
  8
240
 10
307.0110000000000241
 20
-26.5515000000000008
 30
0.0
 70
    32
  0
VERTEX
  5
4B4E
  8
240
 10
307.0230000000000246
 20
-26.5766999999999989
 30
0.0
 70
    32
  0
VERTEX
  5
4B4F
  8
240
 10
307.035000000000025
 20
-26.6020000000000003
 30
0.0
 70
    32
  0
VERTEX
  5
4B50
  8
240
 10
307.0470000000000255
 20
-26.6270999999999987
 30
0.0
 70
    32
  0
VERTEX
  5
4B51
  8
240
 10
307.0579999999999927
 20
-26.6523000000000003
 30
0.0
 70
    32
  0
VERTEX
  5
4B52
  8
240
 10
307.0699999999999932
 20
-26.6773999999999987
 30
0.0
 70
    32
  0
VERTEX
  5
4B53
  8
240
 10
307.0819999999999936
 20
-26.7024000000000008
 30
0.0
 70
    32
  0
VERTEX
  5
4B54
  8
240
 10
307.0939999999999941
 20
-26.7273999999999994
 30
0.0
 70
    32
  0
VERTEX
  5
4B55
  8
240
 10
307.1059999999999945
 20
-26.7524000000000015
 30
0.0
 70
    32
  0
VERTEX
  5
4B56
  8
240
 10
307.117999999999995
 20
-26.7773000000000003
 30
0.0
 70
    32
  0
VERTEX
  5
4B57
  8
240
 10
307.1299999999999955
 20
-26.8021999999999991
 30
0.0
 70
    32
  0
VERTEX
  5
4B58
  8
240
 10
307.1410000000000196
 20
-26.8270000000000017
 30
0.0
 70
    32
  0
VERTEX
  5
4B59
  8
240
 10
307.15300000000002
 20
-26.8518000000000008
 30
0.0
 70
    32
  0
VERTEX
  5
4B5A
  8
240
 10
307.1650000000000205
 20
-26.8765000000000001
 30
0.0
 70
    32
  0
VERTEX
  5
4B5B
  8
240
 10
307.1770000000000209
 20
-26.9011999999999993
 30
0.0
 70
    32
  0
VERTEX
  5
4B5C
  8
240
 10
307.1890000000000214
 20
-26.9258999999999986
 30
0.0
 70
    32
  0
VERTEX
  5
4B5D
  8
240
 10
307.2010000000000218
 20
-26.9505000000000017
 30
0.0
 70
    32
  0
VERTEX
  5
4B5E
  8
240
 10
307.2130000000000223
 20
-26.9750000000000014
 30
0.0
 70
    32
  0
VERTEX
  5
4B5F
  8
240
 10
307.2250000000000227
 20
-26.9996000000000009
 30
0.0
 70
    32
  0
VERTEX
  5
4B60
  8
240
 10
307.2370000000000232
 20
-27.0240000000000009
 30
0.0
 70
    32
  0
VERTEX
  5
4B61
  8
240
 10
307.2490000000000236
 20
-27.0485000000000007
 30
0.0
 70
    32
  0
VERTEX
  5
4B62
  8
240
 10
307.2610000000000241
 20
-27.0729000000000006
 30
0.0
 70
    32
  0
VERTEX
  5
4B63
  8
240
 10
307.2730000000000246
 20
-27.0972000000000008
 30
0.0
 70
    32
  0
VERTEX
  5
4B64
  8
240
 10
307.2839999999999918
 20
-27.1215000000000011
 30
0.0
 70
    32
  0
VERTEX
  5
4B65
  8
240
 10
307.2959999999999923
 20
-27.1458000000000013
 30
0.0
 70
    32
  0
VERTEX
  5
4B66
  8
240
 10
307.3079999999999927
 20
-27.1700000000000017
 30
0.0
 70
    32
  0
VERTEX
  5
4B67
  8
240
 10
307.3199999999999932
 20
-27.1941999999999986
 30
0.0
 70
    32
  0
VERTEX
  5
4B68
  8
240
 10
307.3319999999999936
 20
-27.2182999999999993
 30
0.0
 70
    32
  0
VERTEX
  5
4B69
  8
240
 10
307.3439999999999941
 20
-27.2423999999999999
 30
0.0
 70
    32
  0
VERTEX
  5
4B6A
  8
240
 10
307.3559999999999945
 20
-27.2664000000000009
 30
0.0
 70
    32
  0
VERTEX
  5
4B6B
  8
240
 10
307.367999999999995
 20
-27.2904000000000018
 30
0.0
 70
    32
  0
VERTEX
  5
4B6C
  8
240
 10
307.3799999999999955
 20
-27.3143999999999991
 30
0.0
 70
    32
  0
VERTEX
  5
4B6D
  8
240
 10
307.3919999999999959
 20
-27.3383000000000003
 30
0.0
 70
    32
  0
VERTEX
  5
4B6E
  8
240
 10
307.4039999999999964
 20
-27.3622000000000014
 30
0.0
 70
    32
  0
VERTEX
  5
4B6F
  8
240
 10
307.4159999999999968
 20
-27.3859999999999992
 30
0.0
 70
    32
  0
VERTEX
  5
4B70
  8
240
 10
307.4279999999999973
 20
-27.4098000000000006
 30
0.0
 70
    32
  0
VERTEX
  5
4B71
  8
240
 10
307.4399999999999977
 20
-27.4334999999999987
 30
0.0
 70
    32
  0
VERTEX
  5
4B72
  8
240
 10
307.4519999999999982
 20
-27.4572000000000003
 30
0.0
 70
    32
  0
VERTEX
  5
4B73
  8
240
 10
307.4639999999999986
 20
-27.4807999999999986
 30
0.0
 70
    32
  0
VERTEX
  5
4B74
  8
240
 10
307.4759999999999991
 20
-27.5044000000000004
 30
0.0
 70
    32
  0
VERTEX
  5
4B75
  8
240
 10
307.4879999999999995
 20
-27.5279999999999987
 30
0.0
 70
    32
  0
VERTEX
  5
4B76
  8
240
 10
307.5
 20
-27.5515000000000008
 30
0.0
 70
    32
  0
VERTEX
  5
4B77
  8
240
 10
307.5120000000000005
 20
-27.5748999999999995
 30
0.0
 70
    32
  0
VERTEX
  5
4B78
  8
240
 10
307.5240000000000009
 20
-27.5984000000000016
 30
0.0
 70
    32
  0
VERTEX
  5
4B79
  8
240
 10
307.5360000000000014
 20
-27.6217000000000006
 30
0.0
 70
    32
  0
VERTEX
  5
4B7A
  8
240
 10
307.5480000000000018
 20
-27.6450999999999993
 30
0.0
 70
    32
  0
VERTEX
  5
4B7B
  8
240
 10
307.5600000000000023
 20
-27.6683999999999983
 30
0.0
 70
    32
  0
VERTEX
  5
4B7C
  8
240
 10
307.5720000000000027
 20
-27.6916000000000011
 30
0.0
 70
    32
  0
VERTEX
  5
4B7D
  8
240
 10
307.5840000000000032
 20
-27.7148000000000003
 30
0.0
 70
    32
  0
VERTEX
  5
4B7E
  8
240
 10
307.5960000000000036
 20
-27.7379999999999995
 30
0.0
 70
    32
  0
VERTEX
  5
4B7F
  8
240
 10
307.6080000000000041
 20
-27.761099999999999
 30
0.0
 70
    32
  0
VERTEX
  5
4B80
  8
240
 10
307.6200000000000045
 20
-27.7840999999999987
 30
0.0
 70
    32
  0
VERTEX
  5
4B81
  8
240
 10
307.632000000000005
 20
-27.8070999999999984
 30
0.0
 70
    32
  0
VERTEX
  5
4B82
  8
240
 10
307.6440000000000055
 20
-27.8301000000000016
 30
0.0
 70
    32
  0
VERTEX
  5
4B83
  8
240
 10
307.6560000000000059
 20
-27.8531000000000013
 30
0.0
 70
    32
  0
VERTEX
  5
4B84
  8
240
 10
307.6680000000000064
 20
-27.8759000000000015
 30
0.0
 70
    32
  0
VERTEX
  5
4B85
  8
240
 10
307.6800000000000068
 20
-27.8988000000000014
 30
0.0
 70
    32
  0
VERTEX
  5
4B86
  8
240
 10
307.6920000000000073
 20
-27.9216000000000015
 30
0.0
 70
    32
  0
VERTEX
  5
4B87
  8
240
 10
307.7040000000000077
 20
-27.9442999999999984
 30
0.0
 70
    32
  0
VERTEX
  5
4B88
  8
240
 10
307.7160000000000082
 20
-27.9669999999999987
 30
0.0
 70
    32
  0
VERTEX
  5
4B89
  8
240
 10
307.7280000000000086
 20
-27.9896999999999991
 30
0.0
 70
    32
  0
VERTEX
  5
4B8A
  8
240
 10
307.7400000000000091
 20
-28.0122999999999998
 30
0.0
 70
    32
  0
VERTEX
  5
4B8B
  8
240
 10
307.7520000000000095
 20
-28.0349000000000004
 30
0.0
 70
    32
  0
VERTEX
  5
4B8C
  8
240
 10
307.76400000000001
 20
-28.0574000000000012
 30
0.0
 70
    32
  0
VERTEX
  5
4B8D
  8
240
 10
307.7760000000000105
 20
-28.0798999999999985
 30
0.0
 70
    32
  0
VERTEX
  5
4B8E
  8
240
 10
307.7880000000000109
 20
-28.1022999999999996
 30
0.0
 70
    32
  0
VERTEX
  5
4B8F
  8
240
 10
307.8000000000000114
 20
-28.1247000000000007
 30
0.0
 70
    32
  0
VERTEX
  5
4B90
  8
240
 10
307.8120000000000118
 20
-28.1470999999999982
 30
0.0
 70
    32
  0
VERTEX
  5
4B91
  8
240
 10
307.8240000000000123
 20
-28.1693999999999996
 30
0.0
 70
    32
  0
VERTEX
  5
4B92
  8
240
 10
307.8360000000000127
 20
-28.1916000000000011
 30
0.0
 70
    32
  0
VERTEX
  5
4B93
  8
240
 10
307.8480000000000132
 20
-28.2137999999999991
 30
0.0
 70
    32
  0
VERTEX
  5
4B94
  8
240
 10
307.8600000000000136
 20
-28.2360000000000007
 30
0.0
 70
    32
  0
VERTEX
  5
4B95
  8
240
 10
307.8720000000000141
 20
-28.2580999999999989
 30
0.0
 70
    32
  0
VERTEX
  5
4B96
  8
240
 10
307.8840000000000146
 20
-28.2802000000000007
 30
0.0
 70
    32
  0
VERTEX
  5
4B97
  8
240
 10
307.8959999999999013
 20
-28.3021999999999991
 30
0.0
 70
    32
  0
VERTEX
  5
4B98
  8
240
 10
307.9080000000000155
 20
-28.3242000000000012
 30
0.0
 70
    32
  0
VERTEX
  5
4B99
  8
240
 10
307.9200000000000159
 20
-28.3460999999999999
 30
0.0
 70
    32
  0
VERTEX
  5
4B9A
  8
240
 10
307.9320000000000164
 20
-28.3679999999999986
 30
0.0
 70
    32
  0
VERTEX
  5
4B9B
  8
240
 10
307.9440000000000168
 20
-28.3899000000000008
 30
0.0
 70
    32
  0
VERTEX
  5
4B9C
  8
240
 10
307.9560000000000173
 20
-28.4116999999999997
 30
0.0
 70
    32
  0
VERTEX
  5
4B9D
  8
240
 10
307.9680000000000177
 20
-28.4333999999999989
 30
0.0
 70
    32
  0
VERTEX
  5
4B9E
  8
240
 10
307.9800000000000182
 20
-28.4551000000000016
 30
0.0
 70
    32
  0
VERTEX
  5
4B9F
  8
240
 10
307.9920000000000186
 20
-28.4768000000000008
 30
0.0
 70
    32
  0
VERTEX
  5
4BA0
  8
240
 10
308.0040000000000191
 20
-28.4984000000000002
 30
0.0
 70
    32
  0
VERTEX
  5
4BA1
  8
240
 10
308.0160000000000196
 20
-28.5199999999999996
 30
0.0
 70
    32
  0
VERTEX
  5
4BA2
  8
240
 10
308.02800000000002
 20
-28.5414999999999992
 30
0.0
 70
    32
  0
VERTEX
  5
4BA3
  8
240
 10
308.0389999999999873
 20
-28.5629999999999988
 30
0.0
 70
    32
  0
VERTEX
  5
4BA4
  8
240
 10
308.0509999999999877
 20
-28.5843999999999987
 30
0.0
 70
    32
  0
VERTEX
  5
4BA5
  8
240
 10
308.0629999999999882
 20
-28.6057999999999986
 30
0.0
 70
    32
  0
VERTEX
  5
4BA6
  8
240
 10
308.0749999999999886
 20
-28.6271999999999984
 30
0.0
 70
    32
  0
VERTEX
  5
4BA7
  8
240
 10
308.0869999999999891
 20
-28.6484999999999985
 30
0.0
 70
    32
  0
VERTEX
  5
4BA8
  8
240
 10
308.0989999999999895
 20
-28.6696999999999989
 30
0.0
 70
    32
  0
VERTEX
  5
4BA9
  8
240
 10
308.11099999999999
 20
-28.6908999999999992
 30
0.0
 70
    32
  0
VERTEX
  5
4BAA
  8
240
 10
308.1229999999999905
 20
-28.7120999999999995
 30
0.0
 70
    32
  0
VERTEX
  5
4BAB
  8
240
 10
308.1349999999999909
 20
-28.7332000000000001
 30
0.0
 70
    32
  0
VERTEX
  5
4BAC
  8
240
 10
308.1469999999999914
 20
-28.7543000000000006
 30
0.0
 70
    32
  0
VERTEX
  5
4BAD
  8
240
 10
308.1589999999999918
 20
-28.7753000000000014
 30
0.0
 70
    32
  0
VERTEX
  5
4BAE
  8
240
 10
308.1709999999999923
 20
-28.7962999999999987
 30
0.0
 70
    32
  0
VERTEX
  5
4BAF
  8
240
 10
308.1820000000000164
 20
-28.8171999999999997
 30
0.0
 70
    32
  0
VERTEX
  5
4BB0
  8
240
 10
308.1940000000000168
 20
-28.8381000000000007
 30
0.0
 70
    32
  0
VERTEX
  5
4BB1
  8
240
 10
308.2060000000000173
 20
-28.8588999999999984
 30
0.0
 70
    32
  0
VERTEX
  5
4BB2
  8
240
 10
308.2180000000000177
 20
-28.8796999999999997
 30
0.0
 70
    32
  0
VERTEX
  5
4BB3
  8
240
 10
308.2300000000000182
 20
-28.900500000000001
 30
0.0
 70
    32
  0
VERTEX
  5
4BB4
  8
240
 10
308.2420000000000186
 20
-28.9211999999999989
 30
0.0
 70
    32
  0
VERTEX
  5
4BB5
  8
240
 10
308.2540000000000191
 20
-28.9418000000000006
 30
0.0
 70
    32
  0
VERTEX
  5
4BB6
  8
240
 10
308.2660000000000196
 20
-28.9623999999999988
 30
0.0
 70
    32
  0
VERTEX
  5
4BB7
  8
240
 10
308.2769999999999868
 20
-28.9830000000000005
 30
0.0
 70
    32
  0
VERTEX
  5
4BB8
  8
240
 10
308.2889999999999873
 20
-29.0034999999999989
 30
0.0
 70
    32
  0
VERTEX
  5
4BB9
  8
240
 10
308.3009999999999877
 20
-29.0240000000000009
 30
0.0
 70
    32
  0
VERTEX
  5
4BBA
  8
240
 10
308.3129999999999882
 20
-29.0443999999999996
 30
0.0
 70
    32
  0
VERTEX
  5
4BBB
  8
240
 10
308.3249999999999886
 20
-29.0648000000000017
 30
0.0
 70
    32
  0
VERTEX
  5
4BBC
  8
240
 10
308.3369999999999891
 20
-29.0851000000000006
 30
0.0
 70
    32
  0
VERTEX
  5
4BBD
  8
240
 10
308.3480000000000132
 20
-29.1053999999999995
 30
0.0
 70
    32
  0
VERTEX
  5
4BBE
  8
240
 10
308.3600000000000136
 20
-29.1256999999999984
 30
0.0
 70
    32
  0
VERTEX
  5
4BBF
  8
240
 10
308.3720000000000141
 20
-29.1458000000000013
 30
0.0
 70
    32
  0
VERTEX
  5
4BC0
  8
240
 10
308.3840000000000146
 20
-29.1660000000000004
 30
0.0
 70
    32
  0
VERTEX
  5
4BC1
  8
240
 10
308.3949999999999818
 20
-29.1860999999999997
 30
0.0
 70
    32
  0
VERTEX
  5
4BC2
  8
240
 10
308.4069999999999823
 20
-29.2060999999999993
 30
0.0
 70
    32
  0
VERTEX
  5
4BC3
  8
240
 10
308.4189999999999827
 20
-29.2261999999999986
 30
0.0
 70
    32
  0
VERTEX
  5
4BC4
  8
240
 10
308.4309999999999832
 20
-29.2460999999999984
 30
0.0
 70
    32
  0
VERTEX
  5
4BC5
  8
240
 10
308.4420000000000073
 20
-29.2659999999999982
 30
0.0
 70
    32
  0
VERTEX
  5
4BC6
  8
240
 10
308.4540000000000077
 20
-29.2859000000000016
 30
0.0
 70
    32
  0
VERTEX
  5
4BC7
  8
240
 10
308.4660000000000082
 20
-29.3057000000000016
 30
0.0
 70
    32
  0
VERTEX
  5
4BC8
  8
240
 10
308.4780000000000086
 20
-29.3255000000000017
 30
0.0
 70
    32
  0
VERTEX
  5
4BC9
  8
240
 10
308.4890000000000896
 20
-29.3451999999999984
 30
0.0
 70
    32
  0
VERTEX
  5
4BCA
  8
240
 10
308.5009999999999764
 20
-29.3648999999999987
 30
0.0
 70
    32
  0
VERTEX
  5
4BCB
  8
240
 10
308.5129999999999768
 20
-29.3845999999999989
 30
0.0
 70
    32
  0
VERTEX
  5
4BCC
  8
240
 10
308.5240000000000009
 20
-29.4040999999999997
 30
0.0
 70
    32
  0
VERTEX
  5
4BCD
  8
240
 10
308.5360000000000014
 20
-29.4237000000000002
 30
0.0
 70
    32
  0
VERTEX
  5
4BCE
  8
240
 10
308.5480000000000018
 20
-29.4432000000000009
 30
0.0
 70
    32
  0
VERTEX
  5
4BCF
  8
240
 10
308.5590000000000259
 20
-29.4625999999999983
 30
0.0
 70
    32
  0
VERTEX
  5
4BD0
  8
240
 10
308.5710000000000264
 20
-29.4819999999999993
 30
0.0
 70
    32
  0
VERTEX
  5
4BD1
  8
240
 10
308.5830000000000268
 20
-29.5014000000000003
 30
0.0
 70
    32
  0
VERTEX
  5
4BD2
  8
240
 10
308.5939999999999941
 20
-29.5207000000000015
 30
0.0
 70
    32
  0
VERTEX
  5
4BD3
  8
240
 10
308.6059999999999945
 20
-29.5399999999999991
 30
0.0
 70
    32
  0
VERTEX
  5
4BD4
  8
240
 10
308.617999999999995
 20
-29.5592000000000006
 30
0.0
 70
    32
  0
VERTEX
  5
4BD5
  8
240
 10
308.6290000000000191
 20
-29.5783999999999985
 30
0.0
 70
    32
  0
VERTEX
  5
4BD6
  8
240
 10
308.6410000000000196
 20
-29.5975000000000001
 30
0.0
 70
    32
  0
VERTEX
  5
4BD7
  8
240
 10
308.6519999999999868
 20
-29.6165999999999983
 30
0.0
 70
    32
  0
VERTEX
  5
4BD8
  8
240
 10
308.6639999999999873
 20
-29.6356000000000002
 30
0.0
 70
    32
  0
VERTEX
  5
4BD9
  8
240
 10
308.6759999999999877
 20
-29.6545999999999985
 30
0.0
 70
    32
  0
VERTEX
  5
4BDA
  8
240
 10
308.6870000000000118
 20
-29.6735000000000007
 30
0.0
 70
    32
  0
VERTEX
  5
4BDB
  8
240
 10
308.6990000000000123
 20
-29.6923999999999992
 30
0.0
 70
    32
  0
VERTEX
  5
4BDC
  8
240
 10
308.7099999999999795
 20
-29.7112000000000016
 30
0.0
 70
    32
  0
VERTEX
  5
4BDD
  8
240
 10
308.72199999999998
 20
-29.7300000000000004
 30
0.0
 70
    32
  0
VERTEX
  5
4BDE
  8
240
 10
308.7330000000000041
 20
-29.7487999999999992
 30
0.0
 70
    32
  0
VERTEX
  5
4BDF
  8
240
 10
308.7450000000000045
 20
-29.7674999999999983
 30
0.0
 70
    32
  0
VERTEX
  5
4BE0
  8
240
 10
308.7559999999999718
 20
-29.7861000000000011
 30
0.0
 70
    32
  0
VERTEX
  5
4BE1
  8
240
 10
308.7679999999999723
 20
-29.8048000000000002
 30
0.0
 70
    32
  0
VERTEX
  5
4BE2
  8
240
 10
308.7789999999999964
 20
-29.8232999999999997
 30
0.0
 70
    32
  0
VERTEX
  5
4BE3
  8
240
 10
308.7909999999999968
 20
-29.8417999999999992
 30
0.0
 70
    32
  0
VERTEX
  5
4BE4
  8
240
 10
308.8020000000000209
 20
-29.8602999999999987
 30
0.0
 70
    32
  0
VERTEX
  5
4BE5
  8
240
 10
308.8129999999999882
 20
-29.8786999999999985
 30
0.0
 70
    32
  0
VERTEX
  5
4BE6
  8
240
 10
308.8249999999999886
 20
-29.8970999999999982
 30
0.0
 70
    32
  0
VERTEX
  5
4BE7
  8
240
 10
308.8360000000000127
 20
-29.9154000000000018
 30
0.0
 70
    32
  0
VERTEX
  5
4BE8
  8
240
 10
308.8480000000000132
 20
-29.9337000000000018
 30
0.0
 70
    32
  0
VERTEX
  5
4BE9
  8
240
 10
308.8589999999999804
 20
-29.9518999999999984
 30
0.0
 70
    32
  0
VERTEX
  5
4BEA
  8
240
 10
308.8700000000000045
 20
-29.9700999999999986
 30
0.0
 70
    32
  0
VERTEX
  5
4BEB
  8
240
 10
308.882000000000005
 20
-29.9881999999999991
 30
0.0
 70
    32
  0
VERTEX
  5
4BEC
  8
240
 10
308.8929999999999723
 20
-30.0062999999999995
 30
0.0
 70
    32
  0
VERTEX
  5
4BED
  8
240
 10
308.9039999999999964
 20
-30.0244
 30
0.0
 70
    32
  0
VERTEX
  5
4BEE
  8
240
 10
308.9159999999999968
 20
-30.0424000000000007
 30
0.0
 70
    32
  0
VERTEX
  5
4BEF
  8
240
 10
308.9270000000000209
 20
-30.0603000000000016
 30
0.0
 70
    32
  0
VERTEX
  5
4BF0
  8
240
 10
308.9379999999999882
 20
-30.0781999999999989
 30
0.0
 70
    32
  0
VERTEX
  5
4BF1
  8
240
 10
308.9499999999999886
 20
-30.0960000000000001
 30
0.0
 70
    32
  0
VERTEX
  5
4BF2
  8
240
 10
308.9610000000000127
 20
-30.1138000000000012
 30
0.0
 70
    32
  0
VERTEX
  5
4BF3
  8
240
 10
308.97199999999998
 20
-30.1315999999999988
 30
0.0
 70
    32
  0
VERTEX
  5
4BF4
  8
240
 10
308.9830000000000041
 20
-30.1493000000000002
 30
0.0
 70
    32
  0
VERTEX
  5
4BF5
  8
240
 10
308.9950000000000045
 20
-30.1670000000000016
 30
0.0
 70
    32
  0
VERTEX
  5
4BF6
  8
240
 10
309.0059999999999718
 20
-30.1845999999999997
 30
0.0
 70
    32
  0
VERTEX
  5
4BF7
  8
240
 10
309.0169999999999959
 20
-30.2022000000000013
 30
0.0
 70
    32
  0
VERTEX
  5
4BF8
  8
240
 10
309.02800000000002
 20
-30.2196999999999996
 30
0.0
 70
    32
  0
VERTEX
  5
4BF9
  8
240
 10
309.0389999999999873
 20
-30.2371000000000016
 30
0.0
 70
    32
  0
VERTEX
  5
4BFA
  8
240
 10
309.0500000000000114
 20
-30.2545999999999999
 30
0.0
 70
    32
  0
VERTEX
  5
4BFB
  8
240
 10
309.0620000000000118
 20
-30.2718999999999987
 30
0.0
 70
    32
  0
VERTEX
  5
4BFC
  8
240
 10
309.0729999999999791
 20
-30.2893000000000008
 30
0.0
 70
    32
  0
VERTEX
  5
4BFD
  8
240
 10
309.0840000000000032
 20
-30.3064999999999998
 30
0.0
 70
    32
  0
VERTEX
  5
4BFE
  8
240
 10
309.0950000000000273
 20
-30.3237999999999985
 30
0.0
 70
    32
  0
VERTEX
  5
4BFF
  8
240
 10
309.1059999999999945
 20
-30.3410000000000011
 30
0.0
 70
    32
  0
VERTEX
  5
4C00
  8
240
 10
309.1170000000000186
 20
-30.3581000000000003
 30
0.0
 70
    32
  0
VERTEX
  5
4C01
  8
240
 10
309.1279999999999859
 20
-30.3751999999999995
 30
0.0
 70
    32
  0
VERTEX
  5
4C02
  8
240
 10
309.13900000000001
 20
-30.392199999999999
 30
0.0
 70
    32
  0
VERTEX
  5
4C03
  8
240
 10
309.1499999999999773
 20
-30.4091999999999985
 30
0.0
 70
    32
  0
VERTEX
  5
4C04
  8
240
 10
309.1610000000000014
 20
-30.4261000000000017
 30
0.0
 70
    32
  0
VERTEX
  5
4C05
  8
240
 10
309.1720000000000255
 20
-30.4430000000000014
 30
0.0
 70
    32
  0
VERTEX
  5
4C06
  8
240
 10
309.1829999999999927
 20
-30.4599000000000011
 30
0.0
 70
    32
  0
VERTEX
  5
4C07
  8
240
 10
309.1940000000000168
 20
-30.476700000000001
 30
0.0
 70
    32
  0
VERTEX
  5
4C08
  8
240
 10
309.2049999999999841
 20
-30.4934000000000012
 30
0.0
 70
    32
  0
VERTEX
  5
4C09
  8
240
 10
309.2160000000000082
 20
-30.5101000000000013
 30
0.0
 70
    32
  0
VERTEX
  5
4C0A
  8
240
 10
309.2269999999999754
 20
-30.5268000000000015
 30
0.0
 70
    32
  0
VERTEX
  5
4C0B
  8
240
 10
309.2379999999999995
 20
-30.5433999999999983
 30
0.0
 70
    32
  0
VERTEX
  5
4C0C
  8
240
 10
309.2479999999999905
 20
-30.5599999999999987
 30
0.0
 70
    32
  0
VERTEX
  5
4C0D
  8
240
 10
309.2590000000000146
 20
-30.5764999999999993
 30
0.0
 70
    32
  0
VERTEX
  5
4C0E
  8
240
 10
309.2699999999999818
 20
-30.5929000000000002
 30
0.0
 70
    32
  0
VERTEX
  5
4C0F
  8
240
 10
309.2810000000000059
 20
-30.6093000000000011
 30
0.0
 70
    32
  0
VERTEX
  5
4C10
  8
240
 10
309.2919999999999732
 20
-30.6256999999999984
 30
0.0
 70
    32
  0
VERTEX
  5
4C11
  8
240
 10
309.3020000000000209
 20
-30.6419999999999995
 30
0.0
 70
    32
  0
VERTEX
  5
4C12
  8
240
 10
309.3129999999999882
 20
-30.6583000000000006
 30
0.0
 70
    32
  0
VERTEX
  5
4C13
  8
240
 10
309.3240000000000123
 20
-30.6744999999999983
 30
0.0
 70
    32
  0
VERTEX
  5
4C14
  8
240
 10
309.3349999999999795
 20
-30.6906999999999996
 30
0.0
 70
    32
  0
VERTEX
  5
4C15
  8
240
 10
309.3450000000000273
 20
-30.7068000000000012
 30
0.0
 70
    32
  0
VERTEX
  5
4C16
  8
240
 10
309.3559999999999945
 20
-30.7228999999999992
 30
0.0
 70
    32
  0
VERTEX
  5
4C17
  8
240
 10
309.3670000000000186
 20
-30.738900000000001
 30
0.0
 70
    32
  0
VERTEX
  5
4C18
  8
240
 10
309.3770000000000095
 20
-30.7548999999999992
 30
0.0
 70
    32
  0
VERTEX
  5
4C19
  8
240
 10
309.3879999999999768
 20
-30.7708000000000013
 30
0.0
 70
    32
  0
VERTEX
  5
4C1A
  8
240
 10
309.3990000000000009
 20
-30.7866999999999997
 30
0.0
 70
    32
  0
VERTEX
  5
4C1B
  8
240
 10
309.4089999999999918
 20
-30.8024999999999984
 30
0.0
 70
    32
  0
VERTEX
  5
4C1C
  8
240
 10
309.4200000000000159
 20
-30.8183000000000007
 30
0.0
 70
    32
  0
VERTEX
  5
4C1D
  8
240
 10
309.4300000000000068
 20
-30.8339999999999996
 30
0.0
 70
    32
  0
VERTEX
  5
4C1E
  8
240
 10
309.4409999999999741
 20
-30.8496999999999986
 30
0.0
 70
    32
  0
VERTEX
  5
4C1F
  8
240
 10
309.4510000000000218
 20
-30.8654000000000011
 30
0.0
 70
    32
  0
SEQEND
  5
4C20
  8
240
  0
LINE
  5
37AB
  8
241
  6
CONTINUOUS
 10
361.4000000000000909
 20
29.5999999999999091
 30
0.0
 11
335.9999999999998863
 21
29.599999999999401
 31
0.0
  0
LINE
  5
37AD
  8
240
  6
CONTINUOUS
 10
336.0000000927303745
 20
54.9999999999994316
 30
0.0
 11
362.4824814533027961
 21
54.9999999232545633
 31
0.0
  0
ARC
  5
37AF
  8
240
  6
CONTINUOUS
 10
362.9999352779670971
 20
18.0900328373945705
 30
0.0
 40
30.0000647220395997
 50
0.0000375816148735
 51
33.8221245497153902
  0
LINE
  5
37B0
  8
240
  6
CONTINUOUS
 10
393.0000000000001137
 20
16.0672104418488289
 30
0.0
 11
393.0000000000001137
 21
12.0
 31
0.0
  0
POLYLINE
  5
4C21
  8
240
 66
     1
 10
0.0
 20
0.0
 30
0.0
 70
     8
  0
VERTEX
  5
4C22
  8
240
 10
392.9979999999999905
 20
11.4853000000000005
 30
0.0
 70
    32
  0
VERTEX
  5
4C23
  8
240
 10
392.9979999999999905
 20
11.4878999999999998
 30
0.0
 70
    32
  0
VERTEX
  5
4C24
  8
240
 10
392.9979999999999905
 20
11.4905000000000008
 30
0.0
 70
    32
  0
VERTEX
  5
4C25
  8
240
 10
392.9979999999999905
 20
11.4931000000000001
 30
0.0
 70
    32
  0
VERTEX
  5
4C26
  8
240
 10
392.9979999999999905
 20
11.4956999999999994
 30
0.0
 70
    32
  0
VERTEX
  5
4C27
  8
240
 10
392.9979999999999905
 20
11.4983000000000004
 30
0.0
 70
    32
  0
VERTEX
  5
4C28
  8
240
 10
392.9979999999999905
 20
11.5008999999999997
 30
0.0
 70
    32
  0
VERTEX
  5
4C29
  8
240
 10
392.9979999999999905
 20
11.5035000000000007
 30
0.0
 70
    32
  0
VERTEX
  5
4C2A
  8
240
 10
392.9979999999999905
 20
11.5061
 30
0.0
 70
    32
  0
VERTEX
  5
4C2B
  8
240
 10
392.9979999999999905
 20
11.5086999999999993
 30
0.0
 70
    32
  0
VERTEX
  5
4C2C
  8
240
 10
392.9979999999999905
 20
11.5113000000000003
 30
0.0
 70
    32
  0
VERTEX
  5
4C2D
  8
240
 10
392.9979999999999905
 20
11.5138999999999996
 30
0.0
 70
    32
  0
VERTEX
  5
4C2E
  8
240
 10
392.9979999999999905
 20
11.5165000000000006
 30
0.0
 70
    32
  0
VERTEX
  5
4C2F
  8
240
 10
392.9979999999999905
 20
11.5190999999999999
 30
0.0
 70
    32
  0
VERTEX
  5
4C30
  8
240
 10
392.9979999999999905
 20
11.5216999999999992
 30
0.0
 70
    32
  0
VERTEX
  5
4C31
  8
240
 10
392.9979999999999905
 20
11.5243000000000002
 30
0.0
 70
    32
  0
VERTEX
  5
4C32
  8
240
 10
392.9979999999999905
 20
11.5268999999999995
 30
0.0
 70
    32
  0
VERTEX
  5
4C33
  8
240
 10
392.9979999999999905
 20
11.5295000000000005
 30
0.0
 70
    32
  0
VERTEX
  5
4C34
  8
240
 10
392.9979999999999905
 20
11.5320999999999998
 30
0.0
 70
    32
  0
VERTEX
  5
4C35
  8
240
 10
392.9979999999999905
 20
11.5348000000000006
 30
0.0
 70
    32
  0
VERTEX
  5
4C36
  8
240
 10
392.9979999999999905
 20
11.5373999999999999
 30
0.0
 70
    32
  0
VERTEX
  5
4C37
  8
240
 10
392.9979999999999905
 20
11.5399999999999991
 30
0.0
 70
    32
  0
VERTEX
  5
4C38
  8
240
 10
392.9979999999999905
 20
11.5426000000000002
 30
0.0
 70
    32
  0
VERTEX
  5
4C39
  8
240
 10
392.9979999999999905
 20
11.5451999999999995
 30
0.0
 70
    32
  0
VERTEX
  5
4C3A
  8
240
 10
392.9979999999999905
 20
11.5478000000000005
 30
0.0
 70
    32
  0
VERTEX
  5
4C3B
  8
240
 10
392.9979999999999905
 20
11.5504999999999995
 30
0.0
 70
    32
  0
VERTEX
  5
4C3C
  8
240
 10
392.9979999999999905
 20
11.5531000000000006
 30
0.0
 70
    32
  0
VERTEX
  5
4C3D
  8
240
 10
392.9979999999999905
 20
11.5556999999999999
 30
0.0
 70
    32
  0
VERTEX
  5
4C3E
  8
240
 10
392.9979999999999905
 20
11.5582999999999991
 30
0.0
 70
    32
  0
VERTEX
  5
4C3F
  8
240
 10
392.9979999999999905
 20
11.5609999999999999
 30
0.0
 70
    32
  0
VERTEX
  5
4C40
  8
240
 10
392.9979999999999905
 20
11.5635999999999992
 30
0.0
 70
    32
  0
VERTEX
  5
4C41
  8
240
 10
392.9979999999999905
 20
11.5662000000000003
 30
0.0
 70
    32
  0
VERTEX
  5
4C42
  8
240
 10
392.9979999999999905
 20
11.5687999999999995
 30
0.0
 70
    32
  0
VERTEX
  5
4C43
  8
240
 10
392.9979999999999905
 20
11.5715000000000003
 30
0.0
 70
    32
  0
VERTEX
  5
4C44
  8
240
 10
392.9979999999999905
 20
11.5740999999999996
 30
0.0
 70
    32
  0
VERTEX
  5
4C45
  8
240
 10
392.9979999999999905
 20
11.5767000000000007
 30
0.0
 70
    32
  0
VERTEX
  5
4C46
  8
240
 10
392.9979999999999905
 20
11.5793999999999997
 30
0.0
 70
    32
  0
VERTEX
  5
4C47
  8
240
 10
392.9979999999999905
 20
11.5820000000000007
 30
0.0
 70
    32
  0
VERTEX
  5
4C48
  8
240
 10
392.9979999999999905
 20
11.5846
 30
0.0
 70
    32
  0
VERTEX
  5
4C49
  8
240
 10
392.9990000000000236
 20
11.5873000000000008
 30
0.0
 70
    32
  0
VERTEX
  5
4C4A
  8
240
 10
392.9990000000000236
 20
11.5899000000000001
 30
0.0
 70
    32
  0
VERTEX
  5
4C4B
  8
240
 10
392.9990000000000236
 20
11.5924999999999994
 30
0.0
 70
    32
  0
VERTEX
  5
4C4C
  8
240
 10
392.9990000000000236
 20
11.5952000000000002
 30
0.0
 70
    32
  0
VERTEX
  5
4C4D
  8
240
 10
392.9990000000000236
 20
11.5977999999999994
 30
0.0
 70
    32
  0
VERTEX
  5
4C4E
  8
240
 10
392.9990000000000236
 20
11.6004000000000005
 30
0.0
 70
    32
  0
VERTEX
  5
4C4F
  8
240
 10
392.9990000000000236
 20
11.6030999999999995
 30
0.0
 70
    32
  0
VERTEX
  5
4C50
  8
240
 10
392.9990000000000236
 20
11.6057000000000006
 30
0.0
 70
    32
  0
VERTEX
  5
4C51
  8
240
 10
392.9990000000000236
 20
11.6083999999999996
 30
0.0
 70
    32
  0
VERTEX
  5
4C52
  8
240
 10
392.9990000000000236
 20
11.6110000000000007
 30
0.0
 70
    32
  0
VERTEX
  5
4C53
  8
240
 10
392.9990000000000236
 20
11.6136999999999997
 30
0.0
 70
    32
  0
VERTEX
  5
4C54
  8
240
 10
392.9990000000000236
 20
11.6163000000000007
 30
0.0
 70
    32
  0
VERTEX
  5
4C55
  8
240
 10
392.9990000000000236
 20
11.6189999999999998
 30
0.0
 70
    32
  0
VERTEX
  5
4C56
  8
240
 10
392.9990000000000236
 20
11.6216000000000008
 30
0.0
 70
    32
  0
VERTEX
  5
4C57
  8
240
 10
392.9990000000000236
 20
11.6242999999999999
 30
0.0
 70
    32
  0
VERTEX
  5
4C58
  8
240
 10
392.9990000000000236
 20
11.6268999999999991
 30
0.0
 70
    32
  0
VERTEX
  5
4C59
  8
240
 10
392.9990000000000236
 20
11.6295999999999999
 30
0.0
 70
    32
  0
VERTEX
  5
4C5A
  8
240
 10
392.9990000000000236
 20
11.6321999999999992
 30
0.0
 70
    32
  0
VERTEX
  5
4C5B
  8
240
 10
392.9990000000000236
 20
11.6349
 30
0.0
 70
    32
  0
VERTEX
  5
4C5C
  8
240
 10
392.9990000000000236
 20
11.6374999999999993
 30
0.0
 70
    32
  0
VERTEX
  5
4C5D
  8
240
 10
392.9990000000000236
 20
11.6402000000000001
 30
0.0
 70
    32
  0
VERTEX
  5
4C5E
  8
240
 10
392.9990000000000236
 20
11.6427999999999994
 30
0.0
 70
    32
  0
VERTEX
  5
4C5F
  8
240
 10
392.9990000000000236
 20
11.6455000000000002
 30
0.0
 70
    32
  0
VERTEX
  5
4C60
  8
240
 10
392.9990000000000236
 20
11.6480999999999995
 30
0.0
 70
    32
  0
VERTEX
  5
4C61
  8
240
 10
392.9990000000000236
 20
11.6508000000000003
 30
0.0
 70
    32
  0
VERTEX
  5
4C62
  8
240
 10
392.9990000000000236
 20
11.6534999999999993
 30
0.0
 70
    32
  0
VERTEX
  5
4C63
  8
240
 10
392.9990000000000236
 20
11.6561000000000003
 30
0.0
 70
    32
  0
VERTEX
  5
4C64
  8
240
 10
392.9990000000000236
 20
11.6587999999999994
 30
0.0
 70
    32
  0
VERTEX
  5
4C65
  8
240
 10
392.9990000000000236
 20
11.6615000000000002
 30
0.0
 70
    32
  0
VERTEX
  5
4C66
  8
240
 10
392.9990000000000236
 20
11.6640999999999995
 30
0.0
 70
    32
  0
VERTEX
  5
4C67
  8
240
 10
392.9990000000000236
 20
11.6668000000000003
 30
0.0
 70
    32
  0
VERTEX
  5
4C68
  8
240
 10
392.9990000000000236
 20
11.6694999999999993
 30
0.0
 70
    32
  0
VERTEX
  5
4C69
  8
240
 10
392.9990000000000236
 20
11.6721000000000004
 30
0.0
 70
    32
  0
VERTEX
  5
4C6A
  8
240
 10
392.9990000000000236
 20
11.6747999999999994
 30
0.0
 70
    32
  0
VERTEX
  5
4C6B
  8
240
 10
392.9990000000000236
 20
11.6775000000000002
 30
0.0
 70
    32
  0
VERTEX
  5
4C6C
  8
240
 10
392.9990000000000236
 20
11.6800999999999995
 30
0.0
 70
    32
  0
VERTEX
  5
4C6D
  8
240
 10
392.9990000000000236
 20
11.6828000000000003
 30
0.0
 70
    32
  0
VERTEX
  5
4C6E
  8
240
 10
392.9990000000000236
 20
11.6854999999999993
 30
0.0
 70
    32
  0
VERTEX
  5
4C6F
  8
240
 10
392.9990000000000236
 20
11.6882000000000001
 30
0.0
 70
    32
  0
VERTEX
  5
4C70
  8
240
 10
392.9990000000000236
 20
11.6907999999999994
 30
0.0
 70
    32
  0
VERTEX
  5
4C71
  8
240
 10
392.9990000000000236
 20
11.6935000000000002
 30
0.0
 70
    32
  0
VERTEX
  5
4C72
  8
240
 10
392.9990000000000236
 20
11.6961999999999993
 30
0.0
 70
    32
  0
VERTEX
  5
4C73
  8
240
 10
392.9990000000000236
 20
11.6989000000000001
 30
0.0
 70
    32
  0
VERTEX
  5
4C74
  8
240
 10
392.9990000000000236
 20
11.7015999999999991
 30
0.0
 70
    32
  0
VERTEX
  5
4C75
  8
240
 10
392.9990000000000236
 20
11.7042000000000002
 30
0.0
 70
    32
  0
VERTEX
  5
4C76
  8
240
 10
392.9990000000000236
 20
11.7068999999999992
 30
0.0
 70
    32
  0
VERTEX
  5
4C77
  8
240
 10
392.9990000000000236
 20
11.7096
 30
0.0
 70
    32
  0
VERTEX
  5
4C78
  8
240
 10
392.9990000000000236
 20
11.7123000000000008
 30
0.0
 70
    32
  0
VERTEX
  5
4C79
  8
240
 10
392.9990000000000236
 20
11.7149999999999999
 30
0.0
 70
    32
  0
VERTEX
  5
4C7A
  8
240
 10
392.9990000000000236
 20
11.7177000000000007
 30
0.0
 70
    32
  0
VERTEX
  5
4C7B
  8
240
 10
392.9990000000000236
 20
11.7203999999999997
 30
0.0
 70
    32
  0
VERTEX
  5
4C7C
  8
240
 10
392.9990000000000236
 20
11.7230000000000008
 30
0.0
 70
    32
  0
VERTEX
  5
4C7D
  8
240
 10
392.9990000000000236
 20
11.7256999999999998
 30
0.0
 70
    32
  0
VERTEX
  5
4C7E
  8
240
 10
392.9990000000000236
 20
11.7284000000000006
 30
0.0
 70
    32
  0
VERTEX
  5
4C7F
  8
240
 10
392.9990000000000236
 20
11.7310999999999996
 30
0.0
 70
    32
  0
VERTEX
  5
4C80
  8
240
 10
392.9990000000000236
 20
11.7338000000000005
 30
0.0
 70
    32
  0
VERTEX
  5
4C81
  8
240
 10
392.9990000000000236
 20
11.7364999999999995
 30
0.0
 70
    32
  0
VERTEX
  5
4C82
  8
240
 10
392.9990000000000236
 20
11.7392000000000003
 30
0.0
 70
    32
  0
VERTEX
  5
4C83
  8
240
 10
392.9990000000000236
 20
11.7418999999999993
 30
0.0
 70
    32
  0
VERTEX
  5
4C84
  8
240
 10
392.9990000000000236
 20
11.7446000000000002
 30
0.0
 70
    32
  0
VERTEX
  5
4C85
  8
240
 10
392.9990000000000236
 20
11.7472999999999992
 30
0.0
 70
    32
  0
VERTEX
  5
4C86
  8
240
 10
392.9990000000000236
 20
11.75
 30
0.0
 70
    32
  0
VERTEX
  5
4C87
  8
240
 10
392.9990000000000236
 20
11.7527000000000008
 30
0.0
 70
    32
  0
VERTEX
  5
4C88
  8
240
 10
392.9990000000000236
 20
11.7553999999999998
 30
0.0
 70
    32
  0
VERTEX
  5
4C89
  8
240
 10
392.9990000000000236
 20
11.7581000000000007
 30
0.0
 70
    32
  0
VERTEX
  5
4C8A
  8
240
 10
392.9990000000000236
 20
11.7607999999999997
 30
0.0
 70
    32
  0
VERTEX
  5
4C8B
  8
240
 10
393.0
 20
11.7635000000000005
 30
0.0
 70
    32
  0
VERTEX
  5
4C8C
  8
240
 10
393.0
 20
11.7661999999999995
 30
0.0
 70
    32
  0
VERTEX
  5
4C8D
  8
240
 10
393.0
 20
11.7689000000000004
 30
0.0
 70
    32
  0
VERTEX
  5
4C8E
  8
240
 10
393.0
 20
11.7715999999999994
 30
0.0
 70
    32
  0
VERTEX
  5
4C8F
  8
240
 10
393.0
 20
11.7743000000000002
 30
0.0
 70
    32
  0
VERTEX
  5
4C90
  8
240
 10
393.0
 20
11.7769999999999992
 30
0.0
 70
    32
  0
VERTEX
  5
4C91
  8
240
 10
393.0
 20
11.7797999999999998
 30
0.0
 70
    32
  0
VERTEX
  5
4C92
  8
240
 10
393.0
 20
11.7825000000000006
 30
0.0
 70
    32
  0
VERTEX
  5
4C93
  8
240
 10
393.0
 20
11.7851999999999997
 30
0.0
 70
    32
  0
VERTEX
  5
4C94
  8
240
 10
393.0
 20
11.7879000000000005
 30
0.0
 70
    32
  0
VERTEX
  5
4C95
  8
240
 10
393.0
 20
11.7905999999999995
 30
0.0
 70
    32
  0
VERTEX
  5
4C96
  8
240
 10
393.0
 20
11.7933000000000003
 30
0.0
 70
    32
  0
VERTEX
  5
4C97
  8
240
 10
393.0
 20
11.7959999999999994
 30
0.0
 70
    32
  0
VERTEX
  5
4C98
  8
240
 10
393.0
 20
11.7988
 30
0.0
 70
    32
  0
VERTEX
  5
4C99
  8
240
 10
393.0
 20
11.8015000000000008
 30
0.0
 70
    32
  0
VERTEX
  5
4C9A
  8
240
 10
393.0
 20
11.8041999999999998
 30
0.0
 70
    32
  0
VERTEX
  5
4C9B
  8
240
 10
393.0
 20
11.8069000000000006
 30
0.0
 70
    32
  0
VERTEX
  5
4C9C
  8
240
 10
393.0
 20
11.8095999999999997
 30
0.0
 70
    32
  0
VERTEX
  5
4C9D
  8
240
 10
393.0
 20
11.8124000000000002
 30
0.0
 70
    32
  0
VERTEX
  5
4C9E
  8
240
 10
393.0
 20
11.8150999999999993
 30
0.0
 70
    32
  0
VERTEX
  5
4C9F
  8
240
 10
393.0
 20
11.8178000000000001
 30
0.0
 70
    32
  0
VERTEX
  5
4CA0
  8
240
 10
393.0
 20
11.8204999999999991
 30
0.0
 70
    32
  0
VERTEX
  5
4CA1
  8
240
 10
393.0
 20
11.8232999999999997
 30
0.0
 70
    32
  0
VERTEX
  5
4CA2
  8
240
 10
393.0
 20
11.8260000000000005
 30
0.0
 70
    32
  0
VERTEX
  5
4CA3
  8
240
 10
393.0
 20
11.8286999999999995
 30
0.0
 70
    32
  0
VERTEX
  5
4CA4
  8
240
 10
393.0
 20
11.8315000000000001
 30
0.0
 70
    32
  0
VERTEX
  5
4CA5
  8
240
 10
393.0
 20
11.8341999999999992
 30
0.0
 70
    32
  0
VERTEX
  5
4CA6
  8
240
 10
393.0
 20
11.8369
 30
0.0
 70
    32
  0
VERTEX
  5
4CA7
  8
240
 10
393.0
 20
11.8397000000000006
 30
0.0
 70
    32
  0
VERTEX
  5
4CA8
  8
240
 10
393.0
 20
11.8423999999999996
 30
0.0
 70
    32
  0
VERTEX
  5
4CA9
  8
240
 10
393.0
 20
11.8451000000000004
 30
0.0
 70
    32
  0
VERTEX
  5
4CAA
  8
240
 10
393.0
 20
11.8478999999999992
 30
0.0
 70
    32
  0
VERTEX
  5
4CAB
  8
240
 10
393.0
 20
11.8506
 30
0.0
 70
    32
  0
VERTEX
  5
4CAC
  8
240
 10
393.0
 20
11.8533000000000008
 30
0.0
 70
    32
  0
VERTEX
  5
4CAD
  8
240
 10
393.0
 20
11.8560999999999996
 30
0.0
 70
    32
  0
VERTEX
  5
4CAE
  8
240
 10
393.0
 20
11.8588000000000005
 30
0.0
 70
    32
  0
VERTEX
  5
4CAF
  8
240
 10
393.0
 20
11.8615999999999993
 30
0.0
 70
    32
  0
VERTEX
  5
4CB0
  8
240
 10
393.0
 20
11.8643000000000001
 30
0.0
 70
    32
  0
VERTEX
  5
4CB1
  8
240
 10
393.0
 20
11.8671000000000006
 30
0.0
 70
    32
  0
VERTEX
  5
4CB2
  8
240
 10
393.0
 20
11.8697999999999997
 30
0.0
 70
    32
  0
VERTEX
  5
4CB3
  8
240
 10
393.0
 20
11.8726000000000003
 30
0.0
 70
    32
  0
VERTEX
  5
4CB4
  8
240
 10
393.0
 20
11.8752999999999993
 30
0.0
 70
    32
  0
VERTEX
  5
4CB5
  8
240
 10
393.0
 20
11.8780000000000001
 30
0.0
 70
    32
  0
VERTEX
  5
4CB6
  8
240
 10
393.0
 20
11.8808000000000007
 30
0.0
 70
    32
  0
VERTEX
  5
4CB7
  8
240
 10
393.0
 20
11.8834999999999997
 30
0.0
 70
    32
  0
VERTEX
  5
4CB8
  8
240
 10
393.0
 20
11.8863000000000003
 30
0.0
 70
    32
  0
VERTEX
  5
4CB9
  8
240
 10
393.0
 20
11.8890999999999991
 30
0.0
 70
    32
  0
VERTEX
  5
4CBA
  8
240
 10
393.0
 20
11.8917999999999999
 30
0.0
 70
    32
  0
VERTEX
  5
4CBB
  8
240
 10
393.0
 20
11.8946000000000005
 30
0.0
 70
    32
  0
VERTEX
  5
4CBC
  8
240
 10
393.0
 20
11.8972999999999995
 30
0.0
 70
    32
  0
VERTEX
  5
4CBD
  8
240
 10
393.0
 20
11.9001000000000001
 30
0.0
 70
    32
  0
VERTEX
  5
4CBE
  8
240
 10
393.0
 20
11.9027999999999992
 30
0.0
 70
    32
  0
VERTEX
  5
4CBF
  8
240
 10
393.0
 20
11.9055999999999997
 30
0.0
 70
    32
  0
VERTEX
  5
4CC0
  8
240
 10
393.0
 20
11.9083000000000006
 30
0.0
 70
    32
  0
VERTEX
  5
4CC1
  8
240
 10
393.0
 20
11.9110999999999994
 30
0.0
 70
    32
  0
VERTEX
  5
4CC2
  8
240
 10
393.0
 20
11.9138999999999999
 30
0.0
 70
    32
  0
VERTEX
  5
4CC3
  8
240
 10
393.0
 20
11.9166000000000007
 30
0.0
 70
    32
  0
VERTEX
  5
4CC4
  8
240
 10
393.0
 20
11.9193999999999996
 30
0.0
 70
    32
  0
VERTEX
  5
4CC5
  8
240
 10
393.0
 20
11.9222000000000001
 30
0.0
 70
    32
  0
VERTEX
  5
4CC6
  8
240
 10
393.0
 20
11.9248999999999992
 30
0.0
 70
    32
  0
VERTEX
  5
4CC7
  8
240
 10
393.0
 20
11.9276999999999997
 30
0.0
 70
    32
  0
VERTEX
  5
4CC8
  8
240
 10
393.0
 20
11.9305000000000003
 30
0.0
 70
    32
  0
VERTEX
  5
4CC9
  8
240
 10
393.0
 20
11.9331999999999994
 30
0.0
 70
    32
  0
VERTEX
  5
4CCA
  8
240
 10
393.0
 20
11.9359999999999999
 30
0.0
 70
    32
  0
VERTEX
  5
4CCB
  8
240
 10
393.0
 20
11.9388000000000005
 30
0.0
 70
    32
  0
VERTEX
  5
4CCC
  8
240
 10
393.0
 20
11.9414999999999996
 30
0.0
 70
    32
  0
VERTEX
  5
4CCD
  8
240
 10
393.0
 20
11.9443000000000001
 30
0.0
 70
    32
  0
VERTEX
  5
4CCE
  8
240
 10
393.0
 20
11.9471000000000007
 30
0.0
 70
    32
  0
VERTEX
  5
4CCF
  8
240
 10
393.0
 20
11.9498999999999995
 30
0.0
 70
    32
  0
VERTEX
  5
4CD0
  8
240
 10
393.0
 20
11.9526000000000003
 30
0.0
 70
    32
  0
VERTEX
  5
4CD1
  8
240
 10
393.0
 20
11.9553999999999991
 30
0.0
 70
    32
  0
VERTEX
  5
4CD2
  8
240
 10
393.0
 20
11.9581999999999997
 30
0.0
 70
    32
  0
VERTEX
  5
4CD3
  8
240
 10
393.0
 20
11.9610000000000003
 30
0.0
 70
    32
  0
VERTEX
  5
4CD4
  8
240
 10
393.0
 20
11.9638000000000009
 30
0.0
 70
    32
  0
VERTEX
  5
4CD5
  8
240
 10
393.0
 20
11.9664999999999999
 30
0.0
 70
    32
  0
VERTEX
  5
4CD6
  8
240
 10
393.0
 20
11.9693000000000005
 30
0.0
 70
    32
  0
VERTEX
  5
4CD7
  8
240
 10
393.0
 20
11.9720999999999993
 30
0.0
 70
    32
  0
VERTEX
  5
4CD8
  8
240
 10
393.0
 20
11.9748999999999999
 30
0.0
 70
    32
  0
VERTEX
  5
4CD9
  8
240
 10
393.0
 20
11.9777000000000005
 30
0.0
 70
    32
  0
VERTEX
  5
4CDA
  8
240
 10
393.0
 20
11.9804999999999993
 30
0.0
 70
    32
  0
VERTEX
  5
4CDB
  8
240
 10
393.0
 20
11.9832999999999998
 30
0.0
 70
    32
  0
VERTEX
  5
4CDC
  8
240
 10
393.0
 20
11.9860000000000007
 30
0.0
 70
    32
  0
VERTEX
  5
4CDD
  8
240
 10
393.0
 20
11.9887999999999995
 30
0.0
 70
    32
  0
VERTEX
  5
4CDE
  8
240
 10
393.0
 20
11.9916
 30
0.0
 70
    32
  0
VERTEX
  5
4CDF
  8
240
 10
393.0
 20
11.9944000000000006
 30
0.0
 70
    32
  0
VERTEX
  5
4CE0
  8
240
 10
393.0
 20
11.9971999999999994
 30
0.0
 70
    32
  0
VERTEX
  5
4CE1
  8
240
 10
393.0
 20
12.0
 30
0.0
 70
    32
  0
SEQEND
  5
4CE2
  8
240
  0
POLYLINE
  5
4DA5
  8
240
 66
     1
 10
0.0
 20
0.0
 30
0.0
 70
     8
  0
VERTEX
  5
4DA6
  8
240
 10
393.0
 20
16.0671999999999997
 30
0.0
 70
    32
  0
VERTEX
  5
4DA7
  8
240
 10
393.0
 20
16.0779999999999994
 30
0.0
 70
    32
  0
VERTEX
  5
4DA8
  8
240
 10
393.0
 20
16.0886999999999993
 30
0.0
 70
    32
  0
VERTEX
  5
4DA9
  8
240
 10
393.0
 20
16.099499999999999
 30
0.0
 70
    32
  0
VERTEX
  5
4DAA
  8
240
 10
393.0
 20
16.1102999999999987
 30
0.0
 70
    32
  0
VERTEX
  5
4DAB
  8
240
 10
393.0
 20
16.1209999999999987
 30
0.0
 70
    32
  0
VERTEX
  5
4DAC
  8
240
 10
393.0
 20
16.1317999999999984
 30
0.0
 70
    32
  0
VERTEX
  5
4DAD
  8
240
 10
393.0
 20
16.1424999999999983
 30
0.0
 70
    32
  0
VERTEX
  5
4DAE
  8
240
 10
393.0
 20
16.1533000000000015
 30
0.0
 70
    32
  0
VERTEX
  5
4DAF
  8
240
 10
393.0
 20
16.1640000000000015
 30
0.0
 70
    32
  0
VERTEX
  5
4DB0
  8
240
 10
393.0
 20
16.1748000000000012
 30
0.0
 70
    32
  0
VERTEX
  5
4DB1
  8
240
 10
393.0
 20
16.1855000000000011
 30
0.0
 70
    32
  0
VERTEX
  5
4DB2
  8
240
 10
393.0
 20
16.1963000000000008
 30
0.0
 70
    32
  0
VERTEX
  5
4DB3
  8
240
 10
393.0
 20
16.2070000000000007
 30
0.0
 70
    32
  0
VERTEX
  5
4DB4
  8
240
 10
393.0
 20
16.2178000000000004
 30
0.0
 70
    32
  0
VERTEX
  5
4DB5
  8
240
 10
393.0
 20
16.2285000000000004
 30
0.0
 70
    32
  0
VERTEX
  5
4DB6
  8
240
 10
393.0
 20
16.2392000000000003
 30
0.0
 70
    32
  0
VERTEX
  5
4DB7
  8
240
 10
393.0
 20
16.25
 30
0.0
 70
    32
  0
VERTEX
  5
4DB8
  8
240
 10
393.0
 20
16.2606999999999999
 30
0.0
 70
    32
  0
VERTEX
  5
4DB9
  8
240
 10
393.0
 20
16.2713999999999999
 30
0.0
 70
    32
  0
VERTEX
  5
4DBA
  8
240
 10
393.0
 20
16.2821999999999996
 30
0.0
 70
    32
  0
VERTEX
  5
4DBB
  8
240
 10
393.0
 20
16.2928999999999995
 30
0.0
 70
    32
  0
VERTEX
  5
4DBC
  8
240
 10
393.0
 20
16.3035999999999994
 30
0.0
 70
    32
  0
VERTEX
  5
4DBD
  8
240
 10
393.0
 20
16.3143999999999991
 30
0.0
 70
    32
  0
VERTEX
  5
4DBE
  8
240
 10
393.0
 20
16.3250999999999991
 30
0.0
 70
    32
  0
VERTEX
  5
4DBF
  8
240
 10
393.0
 20
16.335799999999999
 30
0.0
 70
    32
  0
VERTEX
  5
4DC0
  8
240
 10
393.0
 20
16.3464999999999989
 30
0.0
 70
    32
  0
VERTEX
  5
4DC1
  8
240
 10
393.0
 20
16.3571999999999989
 30
0.0
 70
    32
  0
VERTEX
  5
4DC2
  8
240
 10
393.0
 20
16.3679999999999986
 30
0.0
 70
    32
  0
VERTEX
  5
4DC3
  8
240
 10
393.0
 20
16.3786999999999985
 30
0.0
 70
    32
  0
VERTEX
  5
4DC4
  8
240
 10
393.0
 20
16.3893999999999984
 30
0.0
 70
    32
  0
VERTEX
  5
4DC5
  8
240
 10
393.0
 20
16.4000999999999983
 30
0.0
 70
    32
  0
VERTEX
  5
4DC6
  8
240
 10
393.0
 20
16.4107999999999983
 30
0.0
 70
    32
  0
VERTEX
  5
4DC7
  8
240
 10
393.0
 20
16.4215000000000018
 30
0.0
 70
    32
  0
VERTEX
  5
4DC8
  8
240
 10
393.0
 20
16.4322000000000017
 30
0.0
 70
    32
  0
VERTEX
  5
4DC9
  8
240
 10
393.0
 20
16.4429000000000016
 30
0.0
 70
    32
  0
VERTEX
  5
4DCA
  8
240
 10
393.0
 20
16.4536000000000016
 30
0.0
 70
    32
  0
VERTEX
  5
4DCB
  8
240
 10
393.0
 20
16.4644000000000013
 30
0.0
 70
    32
  0
VERTEX
  5
4DCC
  8
240
 10
393.0
 20
16.4751000000000012
 30
0.0
 70
    32
  0
VERTEX
  5
4DCD
  8
240
 10
393.0
 20
16.4858000000000011
 30
0.0
 70
    32
  0
VERTEX
  5
4DCE
  8
240
 10
393.0
 20
16.4964000000000013
 30
0.0
 70
    32
  0
VERTEX
  5
4DCF
  8
240
 10
393.0
 20
16.5071000000000012
 30
0.0
 70
    32
  0
VERTEX
  5
4DD0
  8
240
 10
393.0
 20
16.5178000000000011
 30
0.0
 70
    32
  0
VERTEX
  5
4DD1
  8
240
 10
393.0
 20
16.5285000000000011
 30
0.0
 70
    32
  0
VERTEX
  5
4DD2
  8
240
 10
393.0
 20
16.539200000000001
 30
0.0
 70
    32
  0
VERTEX
  5
4DD3
  8
240
 10
393.0
 20
16.5499000000000009
 30
0.0
 70
    32
  0
VERTEX
  5
4DD4
  8
240
 10
393.0
 20
16.5606000000000009
 30
0.0
 70
    32
  0
VERTEX
  5
4DD5
  8
240
 10
393.0
 20
16.5713000000000008
 30
0.0
 70
    32
  0
VERTEX
  5
4DD6
  8
240
 10
393.0
 20
16.5820000000000007
 30
0.0
 70
    32
  0
VERTEX
  5
4DD7
  8
240
 10
393.0
 20
16.5926000000000009
 30
0.0
 70
    32
  0
VERTEX
  5
4DD8
  8
240
 10
393.0
 20
16.6033000000000008
 30
0.0
 70
    32
  0
VERTEX
  5
4DD9
  8
240
 10
393.0
 20
16.6140000000000008
 30
0.0
 70
    32
  0
VERTEX
  5
4DDA
  8
240
 10
393.0
 20
16.6247000000000007
 30
0.0
 70
    32
  0
VERTEX
  5
4DDB
  8
240
 10
393.0
 20
16.6354000000000006
 30
0.0
 70
    32
  0
VERTEX
  5
4DDC
  8
240
 10
393.0
 20
16.6460000000000008
 30
0.0
 70
    32
  0
VERTEX
  5
4DDD
  8
240
 10
393.0
 20
16.6567000000000007
 30
0.0
 70
    32
  0
VERTEX
  5
4DDE
  8
240
 10
393.0
 20
16.6674000000000007
 30
0.0
 70
    32
  0
VERTEX
  5
4DDF
  8
240
 10
393.0
 20
16.6780000000000008
 30
0.0
 70
    32
  0
VERTEX
  5
4DE0
  8
240
 10
393.0
 20
16.6887000000000008
 30
0.0
 70
    32
  0
VERTEX
  5
4DE1
  8
240
 10
393.0
 20
16.6994000000000007
 30
0.0
 70
    32
  0
VERTEX
  5
4DE2
  8
240
 10
393.0
 20
16.7100000000000009
 30
0.0
 70
    32
  0
VERTEX
  5
4DE3
  8
240
 10
393.0
 20
16.7207000000000008
 30
0.0
 70
    32
  0
VERTEX
  5
4DE4
  8
240
 10
393.0
 20
16.7313000000000009
 30
0.0
 70
    32
  0
VERTEX
  5
4DE5
  8
240
 10
393.0
 20
16.7420000000000009
 30
0.0
 70
    32
  0
VERTEX
  5
4DE6
  8
240
 10
393.0
 20
16.7527000000000008
 30
0.0
 70
    32
  0
VERTEX
  5
4DE7
  8
240
 10
393.0
 20
16.763300000000001
 30
0.0
 70
    32
  0
VERTEX
  5
4DE8
  8
240
 10
393.0
 20
16.7740000000000009
 30
0.0
 70
    32
  0
VERTEX
  5
4DE9
  8
240
 10
393.0
 20
16.7846000000000011
 30
0.0
 70
    32
  0
VERTEX
  5
4DEA
  8
240
 10
393.0
 20
16.795300000000001
 30
0.0
 70
    32
  0
VERTEX
  5
4DEB
  8
240
 10
393.0
 20
16.8059000000000012
 30
0.0
 70
    32
  0
VERTEX
  5
4DEC
  8
240
 10
393.0
 20
16.8165000000000013
 30
0.0
 70
    32
  0
VERTEX
  5
4DED
  8
240
 10
393.0
 20
16.8272000000000013
 30
0.0
 70
    32
  0
VERTEX
  5
4DEE
  8
240
 10
393.0
 20
16.8378000000000014
 30
0.0
 70
    32
  0
VERTEX
  5
4DEF
  8
240
 10
393.0
 20
16.8485000000000014
 30
0.0
 70
    32
  0
VERTEX
  5
4DF0
  8
240
 10
393.0
 20
16.8591000000000015
 30
0.0
 70
    32
  0
VERTEX
  5
4DF1
  8
240
 10
393.0
 20
16.8697000000000017
 30
0.0
 70
    32
  0
VERTEX
  5
4DF2
  8
240
 10
393.0
 20
16.8804000000000016
 30
0.0
 70
    32
  0
VERTEX
  5
4DF3
  8
240
 10
393.0
 20
16.8909999999999982
 30
0.0
 70
    32
  0
VERTEX
  5
4DF4
  8
240
 10
393.0
 20
16.9015999999999984
 30
0.0
 70
    32
  0
VERTEX
  5
4DF5
  8
240
 10
393.0
 20
16.9122999999999983
 30
0.0
 70
    32
  0
VERTEX
  5
4DF6
  8
240
 10
393.0
 20
16.9228999999999985
 30
0.0
 70
    32
  0
VERTEX
  5
4DF7
  8
240
 10
393.0
 20
16.9334999999999987
 30
0.0
 70
    32
  0
VERTEX
  5
4DF8
  8
240
 10
393.0
 20
16.9440999999999988
 30
0.0
 70
    32
  0
VERTEX
  5
4DF9
  8
240
 10
393.0
 20
16.954699999999999
 30
0.0
 70
    32
  0
VERTEX
  5
4DFA
  8
240
 10
393.0
 20
16.9653999999999989
 30
0.0
 70
    32
  0
VERTEX
  5
4DFB
  8
240
 10
393.0
 20
16.9759999999999991
 30
0.0
 70
    32
  0
VERTEX
  5
4DFC
  8
240
 10
393.0
 20
16.9865999999999993
 30
0.0
 70
    32
  0
VERTEX
  5
4DFD
  8
240
 10
393.0
 20
16.9971999999999994
 30
0.0
 70
    32
  0
VERTEX
  5
4DFE
  8
240
 10
393.0
 20
17.0077999999999996
 30
0.0
 70
    32
  0
VERTEX
  5
4DFF
  8
240
 10
393.0
 20
17.0183999999999997
 30
0.0
 70
    32
  0
VERTEX
  5
4E00
  8
240
 10
393.0
 20
17.0289999999999999
 30
0.0
 70
    32
  0
VERTEX
  5
4E01
  8
240
 10
393.0
 20
17.0396000000000001
 30
0.0
 70
    32
  0
VERTEX
  5
4E02
  8
240
 10
393.0
 20
17.0502000000000002
 30
0.0
 70
    32
  0
VERTEX
  5
4E03
  8
240
 10
393.0
 20
17.0608000000000004
 30
0.0
 70
    32
  0
VERTEX
  5
4E04
  8
240
 10
393.0
 20
17.0714000000000006
 30
0.0
 70
    32
  0
VERTEX
  5
4E05
  8
240
 10
393.0
 20
17.0820000000000007
 30
0.0
 70
    32
  0
VERTEX
  5
4E06
  8
240
 10
393.0
 20
17.0926000000000009
 30
0.0
 70
    32
  0
VERTEX
  5
4E07
  8
240
 10
393.0
 20
17.1032000000000011
 30
0.0
 70
    32
  0
VERTEX
  5
4E08
  8
240
 10
393.0
 20
17.1138000000000012
 30
0.0
 70
    32
  0
VERTEX
  5
4E09
  8
240
 10
393.0
 20
17.1244000000000014
 30
0.0
 70
    32
  0
VERTEX
  5
4E0A
  8
240
 10
393.0
 20
17.1350000000000016
 30
0.0
 70
    32
  0
VERTEX
  5
4E0B
  8
240
 10
393.0
 20
17.1456000000000017
 30
0.0
 70
    32
  0
VERTEX
  5
4E0C
  8
240
 10
393.0
 20
17.1561999999999983
 30
0.0
 70
    32
  0
VERTEX
  5
4E0D
  8
240
 10
393.0
 20
17.1666999999999987
 30
0.0
 70
    32
  0
VERTEX
  5
4E0E
  8
240
 10
393.0
 20
17.1772999999999989
 30
0.0
 70
    32
  0
VERTEX
  5
4E0F
  8
240
 10
393.0
 20
17.1878999999999991
 30
0.0
 70
    32
  0
VERTEX
  5
4E10
  8
240
 10
393.0
 20
17.1984999999999992
 30
0.0
 70
    32
  0
VERTEX
  5
4E11
  8
240
 10
393.0
 20
17.2089999999999996
 30
0.0
 70
    32
  0
VERTEX
  5
4E12
  8
240
 10
393.0
 20
17.2195999999999998
 30
0.0
 70
    32
  0
VERTEX
  5
4E13
  8
240
 10
393.0
 20
17.2302
 30
0.0
 70
    32
  0
VERTEX
  5
4E14
  8
240
 10
393.0
 20
17.2408000000000001
 30
0.0
 70
    32
  0
VERTEX
  5
4E15
  8
240
 10
393.0
 20
17.2513000000000005
 30
0.0
 70
    32
  0
VERTEX
  5
4E16
  8
240
 10
393.0
 20
17.2619000000000007
 30
0.0
 70
    32
  0
VERTEX
  5
4E17
  8
240
 10
393.0
 20
17.2724000000000011
 30
0.0
 70
    32
  0
VERTEX
  5
4E18
  8
240
 10
393.0
 20
17.2830000000000013
 30
0.0
 70
    32
  0
VERTEX
  5
4E19
  8
240
 10
393.0
 20
17.2936000000000014
 30
0.0
 70
    32
  0
VERTEX
  5
4E1A
  8
240
 10
393.0
 20
17.3040999999999983
 30
0.0
 70
    32
  0
VERTEX
  5
4E1B
  8
240
 10
393.0
 20
17.3146999999999984
 30
0.0
 70
    32
  0
VERTEX
  5
4E1C
  8
240
 10
393.0
 20
17.3251999999999988
 30
0.0
 70
    32
  0
VERTEX
  5
4E1D
  8
240
 10
393.0
 20
17.335799999999999
 30
0.0
 70
    32
  0
VERTEX
  5
4E1E
  8
240
 10
393.0
 20
17.3462999999999994
 30
0.0
 70
    32
  0
VERTEX
  5
4E1F
  8
240
 10
393.0
 20
17.3568999999999996
 30
0.0
 70
    32
  0
VERTEX
  5
4E20
  8
240
 10
393.0
 20
17.3673999999999999
 30
0.0
 70
    32
  0
VERTEX
  5
4E21
  8
240
 10
393.0
 20
17.3780000000000001
 30
0.0
 70
    32
  0
VERTEX
  5
4E22
  8
240
 10
393.0
 20
17.3885000000000005
 30
0.0
 70
    32
  0
VERTEX
  5
4E23
  8
240
 10
393.0
 20
17.3990000000000009
 30
0.0
 70
    32
  0
VERTEX
  5
4E24
  8
240
 10
393.0
 20
17.4096000000000011
 30
0.0
 70
    32
  0
VERTEX
  5
4E25
  8
240
 10
393.0
 20
17.4201000000000015
 30
0.0
 70
    32
  0
VERTEX
  5
4E26
  8
240
 10
393.0
 20
17.4305999999999983
 30
0.0
 70
    32
  0
VERTEX
  5
4E27
  8
240
 10
393.0
 20
17.4411999999999985
 30
0.0
 70
    32
  0
VERTEX
  5
4E28
  8
240
 10
393.0
 20
17.4516999999999989
 30
0.0
 70
    32
  0
VERTEX
  5
4E29
  8
240
 10
393.0
 20
17.4621999999999993
 30
0.0
 70
    32
  0
VERTEX
  5
4E2A
  8
240
 10
393.0
 20
17.4727999999999994
 30
0.0
 70
    32
  0
VERTEX
  5
4E2B
  8
240
 10
393.0
 20
17.4832999999999998
 30
0.0
 70
    32
  0
VERTEX
  5
4E2C
  8
240
 10
393.0
 20
17.4938000000000002
 30
0.0
 70
    32
  0
VERTEX
  5
4E2D
  8
240
 10
393.0
 20
17.5043000000000006
 30
0.0
 70
    32
  0
VERTEX
  5
4E2E
  8
240
 10
393.0
 20
17.514800000000001
 30
0.0
 70
    32
  0
VERTEX
  5
4E2F
  8
240
 10
393.0
 20
17.5253000000000014
 30
0.0
 70
    32
  0
VERTEX
  5
4E30
  8
240
 10
393.0
 20
17.5359000000000016
 30
0.0
 70
    32
  0
VERTEX
  5
4E31
  8
240
 10
393.0
 20
17.5463999999999984
 30
0.0
 70
    32
  0
VERTEX
  5
4E32
  8
240
 10
393.0
 20
17.5568999999999988
 30
0.0
 70
    32
  0
VERTEX
  5
4E33
  8
240
 10
393.0
 20
17.5673999999999992
 30
0.0
 70
    32
  0
VERTEX
  5
4E34
  8
240
 10
393.0
 20
17.5778999999999996
 30
0.0
 70
    32
  0
VERTEX
  5
4E35
  8
240
 10
393.0
 20
17.5884
 30
0.0
 70
    32
  0
VERTEX
  5
4E36
  8
240
 10
393.0
 20
17.5989000000000004
 30
0.0
 70
    32
  0
VERTEX
  5
4E37
  8
240
 10
393.0
 20
17.6094000000000008
 30
0.0
 70
    32
  0
VERTEX
  5
4E38
  8
240
 10
393.0
 20
17.6199000000000012
 30
0.0
 70
    32
  0
VERTEX
  5
4E39
  8
240
 10
393.0
 20
17.6304000000000016
 30
0.0
 70
    32
  0
VERTEX
  5
4E3A
  8
240
 10
393.0
 20
17.6408999999999985
 30
0.0
 70
    32
  0
VERTEX
  5
4E3B
  8
240
 10
393.0
 20
17.6513999999999989
 30
0.0
 70
    32
  0
VERTEX
  5
4E3C
  8
240
 10
393.0
 20
17.6617999999999995
 30
0.0
 70
    32
  0
VERTEX
  5
4E3D
  8
240
 10
393.0
 20
17.6722999999999999
 30
0.0
 70
    32
  0
VERTEX
  5
4E3E
  8
240
 10
393.0
 20
17.6828000000000003
 30
0.0
 70
    32
  0
VERTEX
  5
4E3F
  8
240
 10
393.0
 20
17.6933000000000007
 30
0.0
 70
    32
  0
VERTEX
  5
4E40
  8
240
 10
393.0
 20
17.7038000000000011
 30
0.0
 70
    32
  0
VERTEX
  5
4E41
  8
240
 10
393.0
 20
17.7143000000000015
 30
0.0
 70
    32
  0
VERTEX
  5
4E42
  8
240
 10
393.0
 20
17.7246999999999986
 30
0.0
 70
    32
  0
VERTEX
  5
4E43
  8
240
 10
393.0
 20
17.735199999999999
 30
0.0
 70
    32
  0
VERTEX
  5
4E44
  8
240
 10
393.0
 20
17.7456999999999994
 30
0.0
 70
    32
  0
VERTEX
  5
4E45
  8
240
 10
393.0
 20
17.7561
 30
0.0
 70
    32
  0
VERTEX
  5
4E46
  8
240
 10
393.0
 20
17.7666000000000004
 30
0.0
 70
    32
  0
VERTEX
  5
4E47
  8
240
 10
393.0
 20
17.7771000000000008
 30
0.0
 70
    32
  0
VERTEX
  5
4E48
  8
240
 10
393.0
 20
17.7875000000000014
 30
0.0
 70
    32
  0
VERTEX
  5
4E49
  8
240
 10
393.0
 20
17.7979999999999983
 30
0.0
 70
    32
  0
VERTEX
  5
4E4A
  8
240
 10
393.0
 20
17.8084999999999987
 30
0.0
 70
    32
  0
VERTEX
  5
4E4B
  8
240
 10
393.0
 20
17.8188999999999993
 30
0.0
 70
    32
  0
VERTEX
  5
4E4C
  8
240
 10
393.0
 20
17.8293999999999997
 30
0.0
 70
    32
  0
VERTEX
  5
4E4D
  8
240
 10
393.0
 20
17.8398000000000003
 30
0.0
 70
    32
  0
VERTEX
  5
4E4E
  8
240
 10
393.0
 20
17.8503000000000007
 30
0.0
 70
    32
  0
VERTEX
  5
4E4F
  8
240
 10
393.0
 20
17.8607000000000014
 30
0.0
 70
    32
  0
VERTEX
  5
4E50
  8
240
 10
393.0
 20
17.8712000000000018
 30
0.0
 70
    32
  0
VERTEX
  5
4E51
  8
240
 10
393.0
 20
17.8815999999999988
 30
0.0
 70
    32
  0
VERTEX
  5
4E52
  8
240
 10
393.0
 20
17.8920999999999992
 30
0.0
 70
    32
  0
VERTEX
  5
4E53
  8
240
 10
393.0
 20
17.9024999999999999
 30
0.0
 70
    32
  0
VERTEX
  5
4E54
  8
240
 10
393.0
 20
17.9129000000000005
 30
0.0
 70
    32
  0
VERTEX
  5
4E55
  8
240
 10
393.0
 20
17.9234000000000009
 30
0.0
 70
    32
  0
VERTEX
  5
4E56
  8
240
 10
393.0
 20
17.9338000000000015
 30
0.0
 70
    32
  0
VERTEX
  5
4E57
  8
240
 10
393.0
 20
17.9441999999999986
 30
0.0
 70
    32
  0
VERTEX
  5
4E58
  8
240
 10
393.0
 20
17.954699999999999
 30
0.0
 70
    32
  0
VERTEX
  5
4E59
  8
240
 10
393.0
 20
17.9650999999999996
 30
0.0
 70
    32
  0
VERTEX
  5
4E5A
  8
240
 10
393.0
 20
17.9755000000000003
 30
0.0
 70
    32
  0
VERTEX
  5
4E5B
  8
240
 10
393.0
 20
17.9859000000000009
 30
0.0
 70
    32
  0
VERTEX
  5
4E5C
  8
240
 10
393.0
 20
17.9964000000000013
 30
0.0
 70
    32
  0
VERTEX
  5
4E5D
  8
240
 10
393.0
 20
18.0067999999999984
 30
0.0
 70
    32
  0
VERTEX
  5
4E5E
  8
240
 10
393.0
 20
18.017199999999999
 30
0.0
 70
    32
  0
VERTEX
  5
4E5F
  8
240
 10
393.0
 20
18.0275999999999996
 30
0.0
 70
    32
  0
VERTEX
  5
4E60
  8
240
 10
393.0
 20
18.0380000000000003
 30
0.0
 70
    32
  0
VERTEX
  5
4E61
  8
240
 10
393.0
 20
18.0484000000000009
 30
0.0
 70
    32
  0
VERTEX
  5
4E62
  8
240
 10
393.0
 20
18.0588000000000015
 30
0.0
 70
    32
  0
VERTEX
  5
4E63
  8
240
 10
393.0
 20
18.0691999999999986
 30
0.0
 70
    32
  0
VERTEX
  5
4E64
  8
240
 10
393.0
 20
18.079699999999999
 30
0.0
 70
    32
  0
VERTEX
  5
4E65
  8
240
 10
393.0
 20
18.0900999999999996
 30
0.0
 70
    32
  0
SEQEND
  5
4E66
  8
240
  0
ARC
  5
37B6
  8
240
  6
CONTINUOUS
 10
336.0000000000001137
 20
0.0
 30
0.0
 40
62.5000000000000071
 50
33.8221621313292715
 51
58.3735716077094509
  0
ARC
  5
37B9
  8
240
  6
CONTINUOUS
 10
362.4811768163476131
 20
43.0001816479468673
 30
0.0
 40
11.9998183436439092
 50
58.3733663273406904
 51
89.991011517833158
  0
LINE
  5
37BA
  8
241
  6
CONTINUOUS
 10
361.3999999999999773
 20
54.9999999263915171
 30
0.0
 11
361.4000000000000909
 21
29.5999999999999091
 31
0.0
  0
ARC
  5
37BE
  8
241
  6
CONTINUOUS
 10
319.0000000000002842
 20
34.2647367097486111
 30
0.0
 40
7.8855679433000567
 50
198.490793770056797
 51
17.2261466900247484
  0
ARC
  5
37C0
  8
240
  6
CONTINUOUS
 10
336.0000000000001137
 20
23.0
 30
0.0
 40
31.9999999999999893
 50
143.8241806636748095
 51
180.0
  0
LINE
  5
37D9
  8
240
  6
CONTINUOUS
 10
304.0
 20
-13.0
 30
0.0
 11
304.0
 21
9.0
 31
0.0
  0
LINE
  5
37DD
  8
240
  6
CONTINUOUS
 10
304.0
 20
23.0
 30
0.0
 11
304.0
 21
9.0
 31
0.0
  0
POLYLINE
  5
37DF
  8
241
  6
CONTINUOUS
 66
     1
 10
0.0
 20
0.0
 30
0.0
 70
     8
  0
VERTEX
  5
4FE9
  8
241
 10
325.0
 20
31.6189999999999998
 30
0.0
 70
    32
  0
VERTEX
  5
4FEA
  8
241
 10
324.992999999999995
 20
31.873899999999999
 30
0.0
 70
    32
  0
VERTEX
  5
4FEB
  8
241
 10
324.9710000000000036
 20
32.128300000000003
 30
0.0
 70
    32
  0
VERTEX
  5
4FEC
  8
241
 10
324.9350000000000023
 20
32.3813999999999993
 30
0.0
 70
    32
  0
VERTEX
  5
4FED
  8
241
 10
324.8849999999999909
 20
32.6326999999999998
 30
0.0
 70
    32
  0
VERTEX
  5
4FEE
  8
241
 10
324.8199999999999932
 20
32.8815000000000026
 30
0.0
 70
    32
  0
VERTEX
  5
4FEF
  8
241
 10
324.7420000000000186
 20
33.1272999999999982
 30
0.0
 70
    32
  0
VERTEX
  5
4FF0
  8
241
 10
324.6490000000000009
 20
33.3695000000000022
 30
0.0
 70
    32
  0
VERTEX
  5
4FF1
  8
241
 10
324.5430000000000064
 20
33.6075000000000017
 30
0.0
 70
    32
  0
VERTEX
  5
4FF2
  8
241
 10
324.4239999999999782
 20
33.840600000000002
 30
0.0
 70
    32
  0
VERTEX
  5
4FF3
  8
241
 10
324.2919999999999732
 20
34.0683999999999969
 30
0.0
 70
    32
  0
VERTEX
  5
4FF4
  8
241
 10
324.146000000000015
 20
34.290300000000002
 30
0.0
 70
    32
  0
VERTEX
  5
4FF5
  8
241
 10
323.9889999999999759
 20
34.5058000000000007
 30
0.0
 70
    32
  0
VERTEX
  5
4FF6
  8
241
 10
323.8190000000000168
 20
34.7143000000000015
 30
0.0
 70
    32
  0
VERTEX
  5
4FF7
  8
241
 10
323.6379999999999768
 20
34.9153999999999982
 30
0.0
 70
    32
  0
VERTEX
  5
4FF8
  8
241
 10
323.4460000000000264
 20
35.1084999999999994
 30
0.0
 70
    32
  0
VERTEX
  5
4FF9
  8
241
 10
323.242999999999995
 20
35.2931999999999988
 30
0.0
 70
    32
  0
VERTEX
  5
4FFA
  8
241
 10
323.0289999999999964
 20
35.4690999999999974
 30
0.0
 70
    32
  0
VERTEX
  5
4FFB
  8
241
 10
322.8059999999999832
 20
35.6356999999999999
 30
0.0
 70
    32
  0
VERTEX
  5
4FFC
  8
241
 10
322.5740000000000123
 20
35.7926000000000002
 30
0.0
 70
    32
  0
VERTEX
  5
4FFD
  8
241
 10
322.3330000000000268
 20
35.9393999999999991
 30
0.0
 70
    32
  0
VERTEX
  5
4FFE
  8
241
 10
322.0849999999999795
 20
36.0758999999999972
 30
0.0
 70
    32
  0
VERTEX
  5
4FFF
  8
241
 10
321.8279999999999745
 20
36.2015999999999991
 30
0.0
 70
    32
  0
VERTEX
  5
5000
  8
241
 10
321.5649999999999977
 20
36.3162999999999982
 30
0.0
 70
    32
  0
VERTEX
  5
5001
  8
241
 10
321.2959999999999923
 20
36.4196000000000026
 30
0.0
 70
    32
  0
VERTEX
  5
5002
  8
241
 10
321.021000000000015
 20
36.5114000000000019
 30
0.0
 70
    32
  0
VERTEX
  5
5003
  8
241
 10
320.7420000000000186
 20
36.5914000000000001
 30
0.0
 70
    32
  0
VERTEX
  5
5004
  8
241
 10
320.4580000000000268
 20
36.659399999999998
 30
0.0
 70
    32
  0
VERTEX
  5
5005
  8
241
 10
320.1709999999999923
 20
36.7152999999999992
 30
0.0
 70
    32
  0
VERTEX
  5
5006
  8
241
 10
319.8799999999999955
 20
36.758899999999997
 30
0.0
 70
    32
  0
VERTEX
  5
5007
  8
241
 10
319.5880000000000223
 20
36.7901000000000025
 30
0.0
 70
    32
  0
VERTEX
  5
5008
  8
241
 10
319.2939999999999827
 20
36.8089000000000013
 30
0.0
 70
    32
  0
VERTEX
  5
5009
  8
241
 10
319.0
 20
36.815100000000001
 30
0.0
 70
    32
  0
VERTEX
  5
500A
  8
241
 10
318.7060000000000173
 20
36.8089000000000013
 30
0.0
 70
    32
  0
VERTEX
  5
500B
  8
241
 10
318.4119999999999777
 20
36.7901000000000025
 30
0.0
 70
    32
  0
VERTEX
  5
500C
  8
241
 10
318.1200000000000045
 20
36.758899999999997
 30
0.0
 70
    32
  0
VERTEX
  5
500D
  8
241
 10
317.8290000000000077
 20
36.7152999999999992
 30
0.0
 70
    32
  0
VERTEX
  5
500E
  8
241
 10
317.5419999999999732
 20
36.659399999999998
 30
0.0
 70
    32
  0
VERTEX
  5
500F
  8
241
 10
317.2579999999999814
 20
36.5914000000000001
 30
0.0
 70
    32
  0
VERTEX
  5
5010
  8
241
 10
316.978999999999985
 20
36.5114000000000019
 30
0.0
 70
    32
  0
VERTEX
  5
5011
  8
241
 10
316.7040000000000077
 20
36.4196000000000026
 30
0.0
 70
    32
  0
VERTEX
  5
5012
  8
241
 10
316.4350000000000023
 20
36.3162999999999982
 30
0.0
 70
    32
  0
VERTEX
  5
5013
  8
241
 10
316.1720000000000255
 20
36.2015999999999991
 30
0.0
 70
    32
  0
VERTEX
  5
5014
  8
241
 10
315.9150000000000205
 20
36.0758999999999972
 30
0.0
 70
    32
  0
VERTEX
  5
5015
  8
241
 10
315.6669999999999732
 20
35.9393999999999991
 30
0.0
 70
    32
  0
VERTEX
  5
5016
  8
241
 10
315.4259999999999877
 20
35.7926000000000002
 30
0.0
 70
    32
  0
VERTEX
  5
5017
  8
241
 10
315.1940000000000168
 20
35.6356999999999999
 30
0.0
 70
    32
  0
VERTEX
  5
5018
  8
241
 10
314.9710000000000036
 20
35.4690999999999974
 30
0.0
 70
    32
  0
VERTEX
  5
5019
  8
241
 10
314.757000000000005
 20
35.2931999999999988
 30
0.0
 70
    32
  0
VERTEX
  5
501A
  8
241
 10
314.5539999999999736
 20
35.1084999999999994
 30
0.0
 70
    32
  0
VERTEX
  5
501B
  8
241
 10
314.3620000000000232
 20
34.9153999999999982
 30
0.0
 70
    32
  0
VERTEX
  5
501C
  8
241
 10
314.1809999999999832
 20
34.7143000000000015
 30
0.0
 70
    32
  0
VERTEX
  5
501D
  8
241
 10
314.0110000000000241
 20
34.5058000000000007
 30
0.0
 70
    32
  0
VERTEX
  5
501E
  8
241
 10
313.853999999999985
 20
34.290300000000002
 30
0.0
 70
    32
  0
VERTEX
  5
501F
  8
241
 10
313.7080000000000268
 20
34.0683999999999969
 30
0.0
 70
    32
  0
VERTEX
  5
5020
  8
241
 10
313.5760000000000218
 20
33.840600000000002
 30
0.0
 70
    32
  0
VERTEX
  5
5021
  8
241
 10
313.4569999999999936
 20
33.6075000000000017
 30
0.0
 70
    32
  0
VERTEX
  5
5022
  8
241
 10
313.3509999999999991
 20
33.3695000000000022
 30
0.0
 70
    32
  0
VERTEX
  5
5023
  8
241
 10
313.2579999999999814
 20
33.1272999999999982
 30
0.0
 70
    32
  0
VERTEX
  5
5024
  8
241
 10
313.1800000000000068
 20
32.8815000000000026
 30
0.0
 70
    32
  0
VERTEX
  5
5025
  8
241
 10
313.1150000000000091
 20
32.6326999999999998
 30
0.0
 70
    32
  0
VERTEX
  5
5026
  8
241
 10
313.0649999999999977
 20
32.3813999999999993
 30
0.0
 70
    32
  0
VERTEX
  5
5027
  8
241
 10
313.0289999999999964
 20
32.128300000000003
 30
0.0
 70
    32
  0
VERTEX
  5
5028
  8
241
 10
313.007000000000005
 20
31.873899999999999
 30
0.0
 70
    32
  0
VERTEX
  5
5029
  8
241
 10
313.0
 20
31.6189999999999998
 30
0.0
 70
    32
  0
VERTEX
  5
502A
  8
241
 10
313.007000000000005
 20
31.3640000000000008
 30
0.0
 70
    32
  0
VERTEX
  5
502B
  8
241
 10
313.0289999999999964
 20
31.1097000000000001
 30
0.0
 70
    32
  0
VERTEX
  5
502C
  8
241
 10
313.0649999999999977
 20
30.8566000000000003
 30
0.0
 70
    32
  0
VERTEX
  5
502D
  8
241
 10
313.1150000000000091
 20
30.6052999999999997
 30
0.0
 70
    32
  0
VERTEX
  5
502E
  8
241
 10
313.1800000000000068
 20
30.3564000000000007
 30
0.0
 70
    32
  0
VERTEX
  5
502F
  8
241
 10
313.2579999999999814
 20
30.1106000000000016
 30
0.0
 70
    32
  0
VERTEX
  5
5030
  8
241
 10
313.3509999999999991
 20
29.8685000000000009
 30
0.0
 70
    32
  0
VERTEX
  5
5031
  8
241
 10
313.4569999999999936
 20
29.6305000000000014
 30
0.0
 70
    32
  0
VERTEX
  5
5032
  8
241
 10
313.5760000000000218
 20
29.3973000000000013
 30
0.0
 70
    32
  0
VERTEX
  5
5033
  8
241
 10
313.7080000000000268
 20
29.1694999999999993
 30
0.0
 70
    32
  0
VERTEX
  5
5034
  8
241
 10
313.853999999999985
 20
28.9476000000000013
 30
0.0
 70
    32
  0
VERTEX
  5
5035
  8
241
 10
314.0110000000000241
 20
28.7321999999999989
 30
0.0
 70
    32
  0
VERTEX
  5
5036
  8
241
 10
314.1809999999999832
 20
28.5235999999999983
 30
0.0
 70
    32
  0
VERTEX
  5
5037
  8
241
 10
314.3620000000000232
 20
28.3226000000000013
 30
0.0
 70
    32
  0
VERTEX
  5
5038
  8
241
 10
314.5539999999999736
 20
28.1295000000000002
 30
0.0
 70
    32
  0
VERTEX
  5
5039
  8
241
 10
314.757000000000005
 20
27.9448000000000008
 30
0.0
 70
    32
  0
VERTEX
  5
503A
  8
241
 10
314.9710000000000036
 20
27.7688999999999986
 30
0.0
 70
    32
  0
VERTEX
  5
503B
  8
241
 10
315.1940000000000168
 20
27.6022999999999996
 30
0.0
 70
    32
  0
VERTEX
  5
503C
  8
241
 10
315.4259999999999877
 20
27.4453999999999994
 30
0.0
 70
    32
  0
VERTEX
  5
503D
  8
241
 10
315.6669999999999732
 20
27.2985000000000007
 30
0.0
 70
    32
  0
VERTEX
  5
503E
  8
241
 10
315.9150000000000205
 20
27.1620999999999988
 30
0.0
 70
    32
  0
VERTEX
  5
503F
  8
241
 10
316.1720000000000255
 20
27.0364000000000004
 30
0.0
 70
    32
  0
VERTEX
  5
5040
  8
241
 10
316.4350000000000023
 20
26.9217000000000013
 30
0.0
 70
    32
  0
VERTEX
  5
5041
  8
241
 10
316.7040000000000077
 20
26.8184000000000005
 30
0.0
 70
    32
  0
VERTEX
  5
5042
  8
241
 10
316.978999999999985
 20
26.7266000000000012
 30
0.0
 70
    32
  0
VERTEX
  5
5043
  8
241
 10
317.2579999999999814
 20
26.6465999999999994
 30
0.0
 70
    32
  0
VERTEX
  5
5044
  8
241
 10
317.5419999999999732
 20
26.5786000000000016
 30
0.0
 70
    32
  0
VERTEX
  5
5045
  8
241
 10
317.8290000000000077
 20
26.5227000000000004
 30
0.0
 70
    32
  0
VERTEX
  5
5046
  8
241
 10
318.1200000000000045
 20
26.479099999999999
 30
0.0
 70
    32
  0
VERTEX
  5
5047
  8
241
 10
318.4119999999999777
 20
26.4479000000000006
 30
0.0
 70
    32
  0
VERTEX
  5
5048
  8
241
 10
318.7060000000000173
 20
26.4290999999999983
 30
0.0
 70
    32
  0
VERTEX
  5
5049
  8
241
 10
319.0
 20
26.4227999999999987
 30
0.0
 70
    32
  0
VERTEX
  5
504A
  8
241
 10
319.2939999999999827
 20
26.4290999999999983
 30
0.0
 70
    32
  0
VERTEX
  5
504B
  8
241
 10
319.5880000000000223
 20
26.4479000000000006
 30
0.0
 70
    32
  0
VERTEX
  5
504C
  8
241
 10
319.8799999999999955
 20
26.479099999999999
 30
0.0
 70
    32
  0
VERTEX
  5
504D
  8
241
 10
320.1709999999999923
 20
26.5227000000000004
 30
0.0
 70
    32
  0
VERTEX
  5
504E
  8
241
 10
320.4580000000000268
 20
26.5786000000000016
 30
0.0
 70
    32
  0
VERTEX
  5
504F
  8
241
 10
320.7420000000000186
 20
26.6465999999999994
 30
0.0
 70
    32
  0
VERTEX
  5
5050
  8
241
 10
321.021000000000015
 20
26.7266000000000012
 30
0.0
 70
    32
  0
VERTEX
  5
5051
  8
241
 10
321.2959999999999923
 20
26.8184000000000005
 30
0.0
 70
    32
  0
VERTEX
  5
5052
  8
241
 10
321.5649999999999977
 20
26.9217000000000013
 30
0.0
 70
    32
  0
VERTEX
  5
5053
  8
241
 10
321.8279999999999745
 20
27.0364000000000004
 30
0.0
 70
    32
  0
VERTEX
  5
5054
  8
241
 10
322.0849999999999795
 20
27.1620999999999988
 30
0.0
 70
    32
  0
VERTEX
  5
5055
  8
241
 10
322.3330000000000268
 20
27.2985000000000007
 30
0.0
 70
    32
  0
VERTEX
  5
5056
  8
241
 10
322.5740000000000123
 20
27.4453999999999994
 30
0.0
 70
    32
  0
VERTEX
  5
5057
  8
241
 10
322.8059999999999832
 20
27.6022999999999996
 30
0.0
 70
    32
  0
VERTEX
  5
5058
  8
241
 10
323.0289999999999964
 20
27.7688999999999986
 30
0.0
 70
    32
  0
VERTEX
  5
5059
  8
241
 10
323.242999999999995
 20
27.9448000000000008
 30
0.0
 70
    32
  0
VERTEX
  5
505A
  8
241
 10
323.4460000000000264
 20
28.1295000000000002
 30
0.0
 70
    32
  0
VERTEX
  5
505B
  8
241
 10
323.6379999999999768
 20
28.3226000000000013
 30
0.0
 70
    32
  0
VERTEX
  5
505C
  8
241
 10
323.8190000000000168
 20
28.5235999999999983
 30
0.0
 70
    32
  0
VERTEX
  5
505D
  8
241
 10
323.9889999999999759
 20
28.7321999999999989
 30
0.0
 70
    32
  0
VERTEX
  5
505E
  8
241
 10
324.146000000000015
 20
28.9476000000000013
 30
0.0
 70
    32
  0
VERTEX
  5
505F
  8
241
 10
324.2919999999999732
 20
29.1694999999999993
 30
0.0
 70
    32
  0
VERTEX
  5
5060
  8
241
 10
324.4239999999999782
 20
29.3973000000000013
 30
0.0
 70
    32
  0
VERTEX
  5
5061
  8
241
 10
324.5430000000000064
 20
29.6305000000000014
 30
0.0
 70
    32
  0
VERTEX
  5
5062
  8
241
 10
324.6490000000000009
 20
29.8685000000000009
 30
0.0
 70
    32
  0
VERTEX
  5
5063
  8
241
 10
324.7420000000000186
 20
30.1106000000000016
 30
0.0
 70
    32
  0
VERTEX
  5
5064
  8
241
 10
324.8199999999999932
 20
30.3564000000000007
 30
0.0
 70
    32
  0
VERTEX
  5
5065
  8
241
 10
324.8849999999999909
 20
30.6052999999999997
 30
0.0
 70
    32
  0
VERTEX
  5
5066
  8
241
 10
324.9350000000000023
 20
30.8566000000000003
 30
0.0
 70
    32
  0
VERTEX
  5
5067
  8
241
 10
324.9710000000000036
 20
31.1097000000000001
 30
0.0
 70
    32
  0
VERTEX
  5
5068
  8
241
 10
324.992999999999995
 20
31.3640000000000008
 30
0.0
 70
    32
  0
VERTEX
  5
5069
  8
241
 10
325.0
 20
31.6189999999999998
 30
0.0
 70
    32
  0
SEQEND
  5
506A
  8
241
  0
POLYLINE
  5
37E3
  8
241
  6
CONTINUOUS
 66
     1
 10
0.0
 20
0.0
 30
0.0
 70
     8
  0
VERTEX
  5
506B
  8
241
 10
326.5319999999999823
 20
36.6000000000000014
 30
0.0
 70
    32
  0
VERTEX
  5
506C
  8
241
 10
326.5059999999999718
 20
36.682699999999997
 30
0.0
 70
    32
  0
VERTEX
  5
506D
  8
241
 10
326.478999999999985
 20
36.7652000000000001
 30
0.0
 70
    32
  0
VERTEX
  5
506E
  8
241
 10
326.4519999999999982
 20
36.8472999999999971
 30
0.0
 70
    32
  0
VERTEX
  5
506F
  8
241
 10
326.4239999999999782
 20
36.9290999999999983
 30
0.0
 70
    32
  0
VERTEX
  5
5070
  8
241
 10
326.3949999999999818
 20
37.0105999999999966
 30
0.0
 70
    32
  0
VERTEX
  5
5071
  8
241
 10
326.3650000000000091
 20
37.0917999999999992
 30
0.0
 70
    32
  0
VERTEX
  5
5072
  8
241
 10
326.3349999999999795
 20
37.172699999999999
 30
0.0
 70
    32
  0
VERTEX
  5
5073
  8
241
 10
326.3050000000000068
 20
37.2531999999999996
 30
0.0
 70
    32
  0
VERTEX
  5
5074
  8
241
 10
326.2730000000000246
 20
37.3333999999999975
 30
0.0
 70
    32
  0
VERTEX
  5
5075
  8
241
 10
326.2409999999999854
 20
37.4132999999999996
 30
0.0
 70
    32
  0
VERTEX
  5
5076
  8
241
 10
326.2080000000000268
 20
37.4926999999999992
 30
0.0
 70
    32
  0
VERTEX
  5
5077
  8
241
 10
326.1750000000000114
 20
37.5718999999999994
 30
0.0
 70
    32
  0
VERTEX
  5
5078
  8
241
 10
326.1410000000000196
 20
37.6505999999999972
 30
0.0
 70
    32
  0
VERTEX
  5
5079
  8
241
 10
326.1059999999999945
 20
37.7289999999999992
 30
0.0
 70
    32
  0
VERTEX
  5
507A
  8
241
 10
326.0709999999999127
 20
37.8070000000000022
 30
0.0
 70
    32
  0
VERTEX
  5
507B
  8
241
 10
326.035000000000025
 20
37.8845999999999989
 30
0.0
 70
    32
  0
VERTEX
  5
507C
  8
241
 10
325.9979999999999905
 20
37.9617999999999967
 30
0.0
 70
    32
  0
VERTEX
  5
507D
  8
241
 10
325.9610000000000127
 20
38.0386000000000024
 30
0.0
 70
    32
  0
VERTEX
  5
507E
  8
241
 10
325.9230000000000018
 20
38.1148999999999987
 30
0.0
 70
    32
  0
VERTEX
  5
507F
  8
241
 10
325.8849999999999909
 20
38.1908999999999992
 30
0.0
 70
    32
  0
VERTEX
  5
5080
  8
241
 10
325.8460000000000036
 20
38.2663999999999973
 30
0.0
 70
    32
  0
VERTEX
  5
5081
  8
241
 10
325.8059999999999832
 20
38.3415000000000106
 30
0.0
 70
    32
  0
VERTEX
  5
5082
  8
241
 10
325.7660000000000196
 20
38.4162000000000106
 30
0.0
 70
    32
  0
VERTEX
  5
5083
  8
241
 10
325.7250000000000227
 20
38.4904000000000011
 30
0.0
 70
    32
  0
VERTEX
  5
5084
  8
241
 10
325.6829999999999927
 20
38.5641000000000034
 30
0.0
 70
    32
  0
VERTEX
  5
5085
  8
241
 10
325.6410000000000196
 20
38.6373999999999995
 30
0.0
 70
    32
  0
VERTEX
  5
5086
  8
241
 10
325.5980000000000132
 20
38.7102000000000004
 30
0.0
 70
    32
  0
VERTEX
  5
5087
  8
241
 10
325.5550000000000068
 20
38.7826000000000022
 30
0.0
 70
    32
  0
VERTEX
  5
5088
  8
241
 10
325.5110000000000241
 20
38.8545000000000016
 30
0.0
 70
    32
  0
VERTEX
  5
5089
  8
241
 10
325.4660000000000082
 20
38.9258000000000024
 30
0.0
 70
    32
  0
VERTEX
  5
508A
  8
241
 10
325.4209999999999923
 20
38.996699999999997
 30
0.0
 70
    32
  0
VERTEX
  5
508B
  8
241
 10
325.375
 20
39.0671000000000035
 30
0.0
 70
    32
  0
VERTEX
  5
508C
  8
241
 10
325.3290000000000077
 20
39.1370000000000005
 30
0.0
 70
    32
  0
VERTEX
  5
508D
  8
241
 10
325.2819999999999823
 20
39.2064000000000021
 30
0.0
 70
    32
  0
VERTEX
  5
508E
  8
241
 10
325.2339999999999804
 20
39.2751999999999981
 30
0.0
 70
    32
  0
VERTEX
  5
508F
  8
241
 10
325.1859999999999786
 20
39.3434999999999988
 30
0.0
 70
    32
  0
VERTEX
  5
5090
  8
241
 10
325.1379999999999768
 20
39.4112999999999971
 30
0.0
 70
    32
  0
VERTEX
  5
5091
  8
241
 10
325.0879999999999086
 20
39.4786000000000001
 30
0.0
 70
    32
  0
VERTEX
  5
5092
  8
241
 10
325.0389999999999873
 20
39.5452999999999975
 30
0.0
 70
    32
  0
VERTEX
  5
5093
  8
241
 10
324.9879999999999995
 20
39.6114999999999995
 30
0.0
 70
    32
  0
VERTEX
  5
5094
  8
241
 10
324.9379999999999882
 20
39.6771000000000029
 30
0.0
 70
    32
  0
VERTEX
  5
5095
  8
241
 10
324.8860000000000241
 20
39.7421000000000006
 30
0.0
 70
    32
  0
VERTEX
  5
5096
  8
241
 10
324.8340000000000032
 20
39.8066000000000031
 30
0.0
 70
    32
  0
VERTEX
  5
5097
  8
241
 10
324.7819999999999823
 20
39.8704999999999998
 30
0.0
 70
    32
  0
VERTEX
  5
5098
  8
241
 10
324.728999999999985
 20
39.933799999999998
 30
0.0
 70
    32
  0
VERTEX
  5
5099
  8
241
 10
324.6759999999999877
 20
39.9964999999999975
 30
0.0
 70
    32
  0
VERTEX
  5
509A
  8
241
 10
324.6220000000000141
 20
40.0587000000000018
 30
0.0
 70
    32
  0
VERTEX
  5
509B
  8
241
 10
324.5670000000000073
 20
40.1201999999999899
 30
0.0
 70
    32
  0
VERTEX
  5
509C
  8
241
 10
324.5120000000000005
 20
40.1811999999999898
 30
0.0
 70
    32
  0
VERTEX
  5
509D
  8
241
 10
324.4569999999999936
 20
40.241500000000002
 30
0.0
 70
    32
  0
VERTEX
  5
509E
  8
241
 10
324.4010000000000105
 20
40.3012000000000015
 30
0.0
 70
    32
  0
VERTEX
  5
509F
  8
241
 10
324.3439999999999941
 20
40.3603000000000023
 30
0.0
 70
    32
  0
VERTEX
  5
50A0
  8
241
 10
324.2869999999999777
 20
40.4187999999999903
 30
0.0
 70
    32
  0
VERTEX
  5
50A1
  8
241
 10
324.2300000000000182
 20
40.476700000000001
 30
0.0
 70
    32
  0
VERTEX
  5
50A2
  8
241
 10
324.1720000000000255
 20
40.5339000000000027
 30
0.0
 70
    32
  0
VERTEX
  5
50A3
  8
241
 10
324.1140000000000896
 20
40.5904999999999987
 30
0.0
 70
    32
  0
VERTEX
  5
50A4
  8
241
 10
324.0550000000000068
 20
40.6463999999999928
 30
0.0
 70
    32
  0
VERTEX
  5
50A5
  8
241
 10
323.9950000000000045
 20
40.7017000000000024
 30
0.0
 70
    32
  0
VERTEX
  5
50A6
  8
241
 10
323.9359999999999786
 20
40.7563000000000031
 30
0.0
 70
    32
  0
VERTEX
  5
50A7
  8
241
 10
323.875
 20
40.810299999999998
 30
0.0
 70
    32
  0
VERTEX
  5
50A8
  8
241
 10
323.8149999999999977
 20
40.863599999999991
 30
0.0
 70
    32
  0
VERTEX
  5
50A9
  8
241
 10
323.7540000000000191
 20
40.9162000000000035
 30
0.0
 70
    32
  0
VERTEX
  5
50AA
  8
241
 10
323.6920000000000073
 20
40.9682000000000031
 30
0.0
 70
    32
  0
VERTEX
  5
50AB
  8
241
 10
323.6299999999999955
 20
41.0195000000000007
 30
0.0
 70
    32
  0
VERTEX
  5
50AC
  8
241
 10
323.5679999999999836
 20
41.0700999999999894
 30
0.0
 70
    32
  0
VERTEX
  5
50AD
  8
241
 10
323.5049999999999955
 20
41.1199999999999974
 30
0.0
 70
    32
  0
VERTEX
  5
50AE
  8
241
 10
323.4420000000000073
 20
41.1691999999999894
 30
0.0
 70
    32
  0
VERTEX
  5
50AF
  8
241
 10
323.3779999999999859
 20
41.2177000000000007
 30
0.0
 70
    32
  0
VERTEX
  5
50B0
  8
241
 10
323.3140000000000214
 20
41.265500000000003
 30
0.0
 70
    32
  0
VERTEX
  5
50B1
  8
241
 10
323.25
 20
41.3126000000000033
 30
0.0
 70
    32
  0
VERTEX
  5
50B2
  8
241
 10
323.1850000000000023
 20
41.3590000000000018
 30
0.0
 70
    32
  0
VERTEX
  5
50B3
  8
241
 10
323.1200000000000045
 20
41.4046999999999912
 30
0.0
 70
    32
  0
VERTEX
  5
50B4
  8
241
 10
323.0539999999999736
 20
41.4496999999999929
 30
0.0
 70
    32
  0
VERTEX
  5
50B5
  8
241
 10
322.9890000000000896
 20
41.4938999999999893
 30
0.0
 70
    32
  0
VERTEX
  5
50B6
  8
241
 10
322.9220000000000255
 20
41.5375000000000014
 30
0.0
 70
    32
  0
VERTEX
  5
50B7
  8
241
 10
322.8559999999999945
 20
41.5801999999999907
 30
0.0
 70
    32
  0
VERTEX
  5
50B8
  8
241
 10
322.7889999999999873
 20
41.6223000000000027
 30
0.0
 70
    32
  0
VERTEX
  5
50B9
  8
241
 10
322.7210000000000036
 20
41.6636000000000024
 30
0.0
 70
    32
  0
VERTEX
  5
50BA
  8
241
 10
322.6539999999999964
 20
41.7042000000000002
 30
0.0
 70
    32
  0
VERTEX
  5
50BB
  8
241
 10
322.5860000000000127
 20
41.7439999999999998
 30
0.0
 70
    32
  0
VERTEX
  5
50BC
  8
241
 10
322.5179999999999723
 20
41.7830999999999904
 30
0.0
 70
    32
  0
VERTEX
  5
50BD
  8
241
 10
322.4490000000000123
 20
41.8213999999999899
 30
0.0
 70
    32
  0
VERTEX
  5
50BE
  8
241
 10
322.3799999999999955
 20
41.8590000000000018
 30
0.0
 70
    32
  0
VERTEX
  5
50BF
  8
241
 10
322.3109999999999786
 20
41.8958000000000013
 30
0.0
 70
    32
  0
VERTEX
  5
50C0
  8
241
 10
322.2409999999999854
 20
41.9318000000000026
 30
0.0
 70
    32
  0
VERTEX
  5
50C1
  8
241
 10
322.1709999999999923
 20
41.9671000000000021
 30
0.0
 70
    32
  0
VERTEX
  5
50C2
  8
241
 10
322.1009999999999991
 20
42.0016000000000034
 30
0.0
 70
    32
  0
VERTEX
  5
50C3
  8
241
 10
322.0310000000000059
 20
42.0352999999999923
 30
0.0
 70
    32
  0
VERTEX
  5
50C4
  8
241
 10
321.9599999999999795
 20
42.0683000000000007
 30
0.0
 70
    32
  0
VERTEX
  5
50C5
  8
241
 10
321.88900000000001
 20
42.1004000000000005
 30
0.0
 70
    32
  0
VERTEX
  5
50C6
  8
241
 10
321.8179999999999836
 20
42.1317999999999984
 30
0.0
 70
    32
  0
VERTEX
  5
50C7
  8
241
 10
321.7470000000000141
 20
42.162399999999991
 30
0.0
 70
    32
  0
VERTEX
  5
50C8
  8
241
 10
321.6750000000000114
 20
42.192300000000003
 30
0.0
 70
    32
  0
VERTEX
  5
50C9
  8
241
 10
321.6030000000000086
 20
42.2212999999999923
 30
0.0
 70
    32
  0
VERTEX
  5
50CA
  8
241
 10
321.5310000000000059
 20
42.2494999999999905
 30
0.0
 70
    32
  0
VERTEX
  5
50CB
  8
241
 10
321.4580000000000268
 20
42.277000000000001
 30
0.0
 70
    32
  0
VERTEX
  5
50CC
  8
241
 10
321.3860000000000241
 20
42.303600000000003
 30
0.0
 70
    32
  0
VERTEX
  5
50CD
  8
241
 10
321.3129999999999882
 20
42.329500000000003
 30
0.0
 70
    32
  0
VERTEX
  5
50CE
  8
241
 10
321.2400000000000091
 20
42.3545000000000016
 30
0.0
 70
    32
  0
VERTEX
  5
50CF
  8
241
 10
321.1659999999999968
 20
42.3787999999999911
 30
0.0
 70
    32
  0
VERTEX
  5
50D0
  8
241
 10
321.0930000000000177
 20
42.4021999999999935
 30
0.0
 70
    32
  0
VERTEX
  5
50D1
  8
241
 10
321.0190000000000055
 20
42.4247999999999905
 30
0.0
 70
    32
  0
VERTEX
  5
50D2
  8
241
 10
320.9449999999999932
 20
42.4465999999999894
 30
0.0
 70
    32
  0
VERTEX
  5
50D3
  8
241
 10
320.8709999999999809
 20
42.4675999999999974
 30
0.0
 70
    32
  0
VERTEX
  5
50D4
  8
241
 10
320.7970000000000255
 20
42.4878
 30
0.0
 70
    32
  0
VERTEX
  5
50D5
  8
241
 10
320.7230000000000132
 20
42.5071999999999974
 30
0.0
 70
    32
  0
VERTEX
  5
50D6
  8
241
 10
320.6479999999999109
 20
42.5257000000000005
 30
0.0
 70
    32
  0
VERTEX
  5
50D7
  8
241
 10
320.5740000000000123
 20
42.5433999999999983
 30
0.0
 70
    32
  0
VERTEX
  5
50D8
  8
241
 10
320.4990000000000236
 20
42.5602999999999909
 30
0.0
 70
    32
  0
VERTEX
  5
50D9
  8
241
 10
320.4239999999999782
 20
42.5763999999999996
 30
0.0
 70
    32
  0
VERTEX
  5
50DA
  8
241
 10
320.3489999999999895
 20
42.591700000000003
 30
0.0
 70
    32
  0
VERTEX
  5
50DB
  8
241
 10
320.2740000000000009
 20
42.6060999999999908
 30
0.0
 70
    32
  0
VERTEX
  5
50DC
  8
241
 10
320.1979999999999791
 20
42.6197000000000017
 30
0.0
 70
    32
  0
VERTEX
  5
50DD
  8
241
 10
320.1229999999999905
 20
42.6325000000000003
 30
0.0
 70
    32
  0
VERTEX
  5
50DE
  8
241
 10
320.0470000000000255
 20
42.6443999999999903
 30
0.0
 70
    32
  0
VERTEX
  5
50DF
  8
241
 10
319.97199999999998
 20
42.6555000000000035
 30
0.0
 70
    32
  0
VERTEX
  5
50E0
  8
241
 10
319.896000000000015
 20
42.6657999999999973
 30
0.0
 70
    32
  0
VERTEX
  5
50E1
  8
241
 10
319.8199999999999932
 20
42.6751999999999967
 30
0.0
 70
    32
  0
VERTEX
  5
50E2
  8
241
 10
319.7450000000000045
 20
42.6837999999999909
 30
0.0
 70
    32
  0
VERTEX
  5
50E3
  8
241
 10
319.6689999999999827
 20
42.6916000000000011
 30
0.0
 70
    32
  0
VERTEX
  5
50E4
  8
241
 10
319.5930000000000177
 20
42.6985000000000028
 30
0.0
 70
    32
  0
VERTEX
  5
50E5
  8
241
 10
319.5169999999999959
 20
42.7045999999999921
 30
0.0
 70
    32
  0
VERTEX
  5
50E6
  8
241
 10
319.4399999999999977
 20
42.7098999999999975
 30
0.0
 70
    32
  0
VERTEX
  5
50E7
  8
241
 10
319.3639999999999759
 20
42.7143000000000015
 30
0.0
 70
    32
  0
VERTEX
  5
50E8
  8
241
 10
319.2880000000000109
 20
42.7179000000000002
 30
0.0
 70
    32
  0
VERTEX
  5
50E9
  8
241
 10
319.2119999999999891
 20
42.7207000000000008
 30
0.0
 70
    32
  0
VERTEX
  5
50EA
  8
241
 10
319.1359999999999104
 20
42.7225999999999999
 30
0.0
 70
    32
  0
VERTEX
  5
50EB
  8
241
 10
319.0600000000000023
 20
42.7237000000000009
 30
0.0
 70
    32
  0
SEQEND
  5
50EC
  8
241
  0
ARC
  5
37E4
  8
240
  6
CONTINUOUS
 10
336.0000000000001137
 20
23.0
 30
0.0
 40
31.9999999999999893
 50
89.9999822338746611
 51
143.8241806636837907
  0
POLYLINE
  5
50ED
  8
241
 66
     1
 10
0.0
 20
0.0
 30
0.0
 70
     8
  0
VERTEX
  5
50EE
  8
241
 10
311.5219999999999914
 20
31.7637999999999998
 30
0.0
 70
    32
  0
VERTEX
  5
50EF
  8
241
 10
311.5179999999999723
 20
31.773299999999999
 30
0.0
 70
    32
  0
VERTEX
  5
50F0
  8
241
 10
311.5149999999999864
 20
31.7828000000000017
 30
0.0
 70
    32
  0
VERTEX
  5
50F1
  8
241
 10
311.5120000000000005
 20
31.7924000000000007
 30
0.0
 70
    32
  0
VERTEX
  5
50F2
  8
241
 10
311.5090000000000146
 20
31.8018999999999998
 30
0.0
 70
    32
  0
VERTEX
  5
50F3
  8
241
 10
311.5059999999999718
 20
31.811399999999999
 30
0.0
 70
    32
  0
VERTEX
  5
50F4
  8
241
 10
311.5029999999999859
 20
31.8209000000000017
 30
0.0
 70
    32
  0
VERTEX
  5
50F5
  8
241
 10
311.5
 20
31.8305000000000007
 30
0.0
 70
    32
  0
VERTEX
  5
50F6
  8
241
 10
311.4970000000000141
 20
31.8399999999999999
 30
0.0
 70
    32
  0
VERTEX
  5
50F7
  8
241
 10
311.492999999999995
 20
31.849499999999999
 30
0.0
 70
    32
  0
VERTEX
  5
50F8
  8
241
 10
311.4900000000000091
 20
31.8590000000000018
 30
0.0
 70
    32
  0
VERTEX
  5
50F9
  8
241
 10
311.4870000000000232
 20
31.8686000000000007
 30
0.0
 70
    32
  0
VERTEX
  5
50FA
  8
241
 10
311.4839999999999804
 20
31.8780999999999999
 30
0.0
 70
    32
  0
VERTEX
  5
50FB
  8
241
 10
311.4809999999999945
 20
31.8875999999999991
 30
0.0
 70
    32
  0
VERTEX
  5
50FC
  8
241
 10
311.4780000000000086
 20
31.8972000000000016
 30
0.0
 70
    32
  0
VERTEX
  5
50FD
  8
241
 10
311.4750000000000227
 20
31.9067000000000007
 30
0.0
 70
    32
  0
VERTEX
  5
50FE
  8
241
 10
311.47199999999998
 20
31.9161999999999999
 30
0.0
 70
    32
  0
VERTEX
  5
50FF
  8
241
 10
311.4700000000000273
 20
31.9256999999999991
 30
0.0
 70
    32
  0
VERTEX
  5
5100
  8
241
 10
311.4669999999999845
 20
31.9353000000000016
 30
0.0
 70
    32
  0
VERTEX
  5
5101
  8
241
 10
311.4639999999999986
 20
31.9448000000000008
 30
0.0
 70
    32
  0
VERTEX
  5
5102
  8
241
 10
311.4610000000000127
 20
31.9542999999999999
 30
0.0
 70
    32
  0
VERTEX
  5
5103
  8
241
 10
311.4580000000000268
 20
31.9638999999999989
 30
0.0
 70
    32
  0
VERTEX
  5
5104
  8
241
 10
311.4549999999999841
 20
31.9734000000000016
 30
0.0
 70
    32
  0
VERTEX
  5
5105
  8
241
 10
311.4519999999999982
 20
31.9829000000000008
 30
0.0
 70
    32
  0
VERTEX
  5
5106
  8
241
 10
311.4490000000000123
 20
31.9923999999999999
 30
0.0
 70
    32
  0
VERTEX
  5
5107
  8
241
 10
311.4460000000000264
 20
32.0020000000000095
 30
0.0
 70
    32
  0
VERTEX
  5
5108
  8
241
 10
311.4440000000000168
 20
32.0114999999999981
 30
0.0
 70
    32
  0
VERTEX
  5
5109
  8
241
 10
311.4409999999999741
 20
32.0210000000000008
 30
0.0
 70
    32
  0
VERTEX
  5
510A
  8
241
 10
311.4379999999999882
 20
32.0305000000000106
 30
0.0
 70
    32
  0
VERTEX
  5
510B
  8
241
 10
311.4350000000000023
 20
32.0401000000000025
 30
0.0
 70
    32
  0
VERTEX
  5
510C
  8
241
 10
311.4329999999999927
 20
32.0495999999999981
 30
0.0
 70
    32
  0
VERTEX
  5
510D
  8
241
 10
311.4300000000000068
 20
32.0591000000000008
 30
0.0
 70
    32
  0
VERTEX
  5
510E
  8
241
 10
311.4270000000000209
 20
32.0686000000000107
 30
0.0
 70
    32
  0
VERTEX
  5
510F
  8
241
 10
311.4240000000000919
 20
32.0780999999999992
 30
0.0
 70
    32
  0
VERTEX
  5
5110
  8
241
 10
311.4220000000000255
 20
32.0876000000000019
 30
0.0
 70
    32
  0
VERTEX
  5
5111
  8
241
 10
311.4190000000000964
 20
32.0970999999999975
 30
0.0
 70
    32
  0
VERTEX
  5
5112
  8
241
 10
311.4159999999999968
 20
32.1066000000000003
 30
0.0
 70
    32
  0
VERTEX
  5
5113
  8
241
 10
311.4139999999999873
 20
32.116100000000003
 30
0.0
 70
    32
  0
VERTEX
  5
5114
  8
241
 10
311.4110000000000014
 20
32.1255999999999986
 30
0.0
 70
    32
  0
VERTEX
  5
5115
  8
241
 10
311.4080000000000155
 20
32.1351000000000013
 30
0.0
 70
    32
  0
VERTEX
  5
5116
  8
241
 10
311.4060000000000059
 20
32.144599999999997
 30
0.0
 70
    32
  0
VERTEX
  5
5117
  8
241
 10
311.40300000000002
 20
32.1540999999999997
 30
0.0
 70
    32
  0
VERTEX
  5
5118
  8
241
 10
311.4010000000000105
 20
32.1636000000000024
 30
0.0
 70
    32
  0
VERTEX
  5
5119
  8
241
 10
311.3980000000000246
 20
32.173099999999998
 30
0.0
 70
    32
  0
VERTEX
  5
511A
  8
241
 10
311.3949999999999818
 20
32.1826000000000008
 30
0.0
 70
    32
  0
VERTEX
  5
511B
  8
241
 10
311.3929999999999723
 20
32.1920000000000002
 30
0.0
 70
    32
  0
VERTEX
  5
511C
  8
241
 10
311.3899999999999864
 20
32.2015000000000029
 30
0.0
 70
    32
  0
VERTEX
  5
511D
  8
241
 10
311.3879999999999768
 20
32.2109999999999985
 30
0.0
 70
    32
  0
VERTEX
  5
511E
  8
241
 10
311.3849999999999909
 20
32.2203999999999979
 30
0.0
 70
    32
  0
VERTEX
  5
511F
  8
241
 10
311.3829999999999814
 20
32.2299000000000007
 30
0.0
 70
    32
  0
VERTEX
  5
5120
  8
241
 10
311.3799999999999955
 20
32.2394000000000105
 30
0.0
 70
    32
  0
VERTEX
  5
5121
  8
241
 10
311.3779999999999859
 20
32.2488000000000099
 30
0.0
 70
    32
  0
VERTEX
  5
5122
  8
241
 10
311.3759999999999764
 20
32.2582000000000093
 30
0.0
 70
    32
  0
VERTEX
  5
5123
  8
241
 10
311.3729999999999905
 20
32.2676999999999978
 30
0.0
 70
    32
  0
VERTEX
  5
5124
  8
241
 10
311.3709999999999809
 20
32.2770999999999972
 30
0.0
 70
    32
  0
VERTEX
  5
5125
  8
241
 10
311.367999999999995
 20
32.2866
 30
0.0
 70
    32
  0
VERTEX
  5
5126
  8
241
 10
311.3659999999999854
 20
32.2959999999999994
 30
0.0
 70
    32
  0
VERTEX
  5
5127
  8
241
 10
311.3639999999999759
 20
32.3053999999999988
 30
0.0
 70
    32
  0
VERTEX
  5
5128
  8
241
 10
311.36099999999999
 20
32.3147999999999982
 30
0.0
 70
    32
  0
VERTEX
  5
5129
  8
241
 10
311.3589999999999804
 20
32.3241999999999976
 30
0.0
 70
    32
  0
VERTEX
  5
512A
  8
241
 10
311.3570000000000277
 20
32.333599999999997
 30
0.0
 70
    32
  0
VERTEX
  5
512B
  8
241
 10
311.353999999999985
 20
32.3430000000000106
 30
0.0
 70
    32
  0
VERTEX
  5
512C
  8
241
 10
311.3519999999999754
 20
32.35240000000001
 30
0.0
 70
    32
  0
VERTEX
  5
512D
  8
241
 10
311.3500000000000227
 20
32.3618000000000023
 30
0.0
 70
    32
  0
VERTEX
  5
512E
  8
241
 10
311.34699999999998
 20
32.3712000000000018
 30
0.0
 70
    32
  0
VERTEX
  5
512F
  8
241
 10
311.3450000000000273
 20
32.3804999999999978
 30
0.0
 70
    32
  0
VERTEX
  5
5130
  8
241
 10
311.3430000000000177
 20
32.3898999999999972
 30
0.0
 70
    32
  0
VERTEX
  5
5131
  8
241
 10
311.3410000000000082
 20
32.3992999999999967
 30
0.0
 70
    32
  0
VERTEX
  5
5132
  8
241
 10
311.3380000000000223
 20
32.4085999999999999
 30
0.0
 70
    32
  0
VERTEX
  5
5133
  8
241
 10
311.3360000000000127
 20
32.4179999999999993
 30
0.0
 70
    32
  0
VERTEX
  5
5134
  8
241
 10
311.3340000000000032
 20
32.4273000000000025
 30
0.0
 70
    32
  0
VERTEX
  5
5135
  8
241
 10
311.3319999999999936
 20
32.4365999999999985
 30
0.0
 70
    32
  0
VERTEX
  5
5136
  8
241
 10
311.3299999999999841
 20
32.445999999999998
 30
0.0
 70
    32
  0
VERTEX
  5
5137
  8
241
 10
311.3279999999999745
 20
32.4553000000000011
 30
0.0
 70
    32
  0
VERTEX
  5
5138
  8
241
 10
311.3249999999999886
 20
32.4645999999999972
 30
0.0
 70
    32
  0
VERTEX
  5
5139
  8
241
 10
311.3229999999999791
 20
32.4739000000000004
 30
0.0
 70
    32
  0
VERTEX
  5
513A
  8
241
 10
311.3210000000000264
 20
32.4831999999999965
 30
0.0
 70
    32
  0
VERTEX
  5
513B
  8
241
 10
311.3190000000000168
 20
32.4924999999999997
 30
0.0
 70
    32
  0
VERTEX
  5
513C
  8
241
 10
311.3170000000000073
 20
32.5016999999999996
 30
0.0
 70
    32
  0
VERTEX
  5
513D
  8
241
 10
311.3149999999999977
 20
32.5110000000000028
 30
0.0
 70
    32
  0
VERTEX
  5
513E
  8
241
 10
311.3129999999999882
 20
32.5202999999999989
 30
0.0
 70
    32
  0
VERTEX
  5
513F
  8
241
 10
311.3109999999999786
 20
32.5294999999999987
 30
0.0
 70
    32
  0
VERTEX
  5
5140
  8
241
 10
311.3090000000000259
 20
32.5386999999999986
 30
0.0
 70
    32
  0
VERTEX
  5
5141
  8
241
 10
311.3070000000000164
 20
32.5480000000000018
 30
0.0
 70
    32
  0
VERTEX
  5
5142
  8
241
 10
311.3050000000000068
 20
32.5572000000000017
 30
0.0
 70
    32
  0
VERTEX
  5
5143
  8
241
 10
311.3029999999999973
 20
32.5664000000000016
 30
0.0
 70
    32
  0
VERTEX
  5
5144
  8
241
 10
311.3009999999999877
 20
32.5756000000000014
 30
0.0
 70
    32
  0
VERTEX
  5
5145
  8
241
 10
311.2989999999999782
 20
32.5848000000000013
 30
0.0
 70
    32
  0
VERTEX
  5
5146
  8
241
 10
311.2970000000000255
 20
32.5940000000000012
 30
0.0
 70
    32
  0
VERTEX
  5
5147
  8
241
 10
311.2950000000000159
 20
32.6032000000000011
 30
0.0
 70
    32
  0
VERTEX
  5
5148
  8
241
 10
311.2930000000000064
 20
32.6122999999999976
 30
0.0
 70
    32
  0
VERTEX
  5
5149
  8
241
 10
311.2909999999999968
 20
32.6214999999999975
 30
0.0
 70
    32
  0
VERTEX
  5
514A
  8
241
 10
311.2900000000000205
 20
32.6306999999999974
 30
0.0
 70
    32
  0
VERTEX
  5
514B
  8
241
 10
311.2880000000000109
 20
32.639800000000001
 30
0.0
 70
    32
  0
VERTEX
  5
514C
  8
241
 10
311.2860000000000014
 20
32.6488999999999976
 30
0.0
 70
    32
  0
VERTEX
  5
514D
  8
241
 10
311.2839999999999918
 20
32.6580000000000013
 30
0.0
 70
    32
  0
VERTEX
  5
514E
  8
241
 10
311.2819999999999823
 20
32.6670999999999978
 30
0.0
 70
    32
  0
VERTEX
  5
514F
  8
241
 10
311.2799999999999727
 20
32.6762000000000015
 30
0.0
 70
    32
  0
VERTEX
  5
5150
  8
241
 10
311.2789999999999964
 20
32.685299999999998
 30
0.0
 70
    32
  0
VERTEX
  5
5151
  8
241
 10
311.2769999999999868
 20
32.6944000000000017
 30
0.0
 70
    32
  0
VERTEX
  5
5152
  8
241
 10
311.2749999999999773
 20
32.7034999999999982
 30
0.0
 70
    32
  0
VERTEX
  5
5153
  8
241
 10
311.2729999999999109
 20
32.7124999999999986
 30
0.0
 70
    32
  0
VERTEX
  5
5154
  8
241
 10
311.2719999999999914
 20
32.7216000000000022
 30
0.0
 70
    32
  0
VERTEX
  5
5155
  8
241
 10
311.2699999999999818
 20
32.7306999999999988
 30
0.0
 70
    32
  0
VERTEX
  5
5156
  8
241
 10
311.2679999999999723
 20
32.7398000000000025
 30
0.0
 70
    32
  0
VERTEX
  5
5157
  8
241
 10
311.2669999999999959
 20
32.7490000000000094
 30
0.0
 70
    32
  0
VERTEX
  5
5158
  8
241
 10
311.2649999999999864
 20
32.7580999999999989
 30
0.0
 70
    32
  0
VERTEX
  5
5159
  8
241
 10
311.2629999999999768
 20
32.7672999999999988
 30
0.0
 70
    32
  0
VERTEX
  5
515A
  8
241
 10
311.2610000000000241
 20
32.7764999999999986
 30
0.0
 70
    32
  0
VERTEX
  5
515B
  8
241
 10
311.2599999999999909
 20
32.7856999999999985
 30
0.0
 70
    32
  0
VERTEX
  5
515C
  8
241
 10
311.2579999999999814
 20
32.7950000000000017
 30
0.0
 70
    32
  0
VERTEX
  5
515D
  8
241
 10
311.2559999999999718
 20
32.8042000000000016
 30
0.0
 70
    32
  0
VERTEX
  5
515E
  8
241
 10
311.2549999999999955
 20
32.8134999999999977
 30
0.0
 70
    32
  0
VERTEX
  5
515F
  8
241
 10
311.2529999999999859
 20
32.8228000000000009
 30
0.0
 70
    32
  0
VERTEX
  5
5160
  8
241
 10
311.2520000000000095
 20
32.832099999999997
 30
0.0
 70
    32
  0
VERTEX
  5
5161
  8
241
 10
311.25
 20
32.8414000000000001
 30
0.0
 70
    32
  0
VERTEX
  5
5162
  8
241
 10
311.2479999999999905
 20
32.8507999999999996
 30
0.0
 70
    32
  0
VERTEX
  5
5163
  8
241
 10
311.2470000000000141
 20
32.860199999999999
 30
0.0
 70
    32
  0
VERTEX
  5
5164
  8
241
 10
311.2450000000000045
 20
32.8695000000000022
 30
0.0
 70
    32
  0
VERTEX
  5
5165
  8
241
 10
311.2440000000000282
 20
32.8789000000000016
 30
0.0
 70
    32
  0
VERTEX
  5
5166
  8
241
 10
311.2420000000000186
 20
32.8883999999999972
 30
0.0
 70
    32
  0
VERTEX
  5
5167
  8
241
 10
311.2400000000000091
 20
32.8977999999999966
 30
0.0
 70
    32
  0
VERTEX
  5
5168
  8
241
 10
311.2389999999999759
 20
32.9072000000000031
 30
0.0
 70
    32
  0
VERTEX
  5
5169
  8
241
 10
311.2370000000000232
 20
32.9166999999999987
 30
0.0
 70
    32
  0
VERTEX
  5
516A
  8
241
 10
311.23599999999999
 20
32.9262000000000015
 30
0.0
 70
    32
  0
VERTEX
  5
516B
  8
241
 10
311.2339999999999804
 20
32.9356999999999971
 30
0.0
 70
    32
  0
VERTEX
  5
516C
  8
241
 10
311.2330000000000041
 20
32.9451999999999998
 30
0.0
 70
    32
  0
VERTEX
  5
516D
  8
241
 10
311.2309999999999945
 20
32.9547000000000025
 30
0.0
 70
    32
  0
VERTEX
  5
516E
  8
241
 10
311.2300000000000182
 20
32.9643000000000015
 30
0.0
 70
    32
  0
VERTEX
  5
516F
  8
241
 10
311.2280000000000086
 20
32.9739000000000004
 30
0.0
 70
    32
  0
VERTEX
  5
5170
  8
241
 10
311.2269999999999754
 20
32.9834000000000032
 30
0.0
 70
    32
  0
VERTEX
  5
5171
  8
241
 10
311.2250000000000227
 20
32.9930000000000092
 30
0.0
 70
    32
  0
VERTEX
  5
5172
  8
241
 10
311.2239999999999895
 20
33.002600000000001
 30
0.0
 70
    32
  0
VERTEX
  5
5173
  8
241
 10
311.22199999999998
 20
33.0122
 30
0.0
 70
    32
  0
VERTEX
  5
5174
  8
241
 10
311.2210000000000036
 20
33.0219000000000023
 30
0.0
 70
    32
  0
VERTEX
  5
5175
  8
241
 10
311.2200000000000273
 20
33.0315000000000012
 30
0.0
 70
    32
  0
VERTEX
  5
5176
  8
241
 10
311.2180000000000177
 20
33.0412000000000106
 30
0.0
 70
    32
  0
VERTEX
  5
5177
  8
241
 10
311.2169999999999845
 20
33.0508999999999986
 30
0.0
 70
    32
  0
VERTEX
  5
5178
  8
241
 10
311.214999999999975
 20
33.0604999999999976
 30
0.0
 70
    32
  0
VERTEX
  5
5179
  8
241
 10
311.2139999999999986
 20
33.0701999999999998
 30
0.0
 70
    32
  0
VERTEX
  5
517A
  8
241
 10
311.2130000000000223
 20
33.0799999999999983
 30
0.0
 70
    32
  0
VERTEX
  5
517B
  8
241
 10
311.2110000000000127
 20
33.0897000000000006
 30
0.0
 70
    32
  0
VERTEX
  5
517C
  8
241
 10
311.2099999999999795
 20
33.0994000000000028
 30
0.0
 70
    32
  0
VERTEX
  5
517D
  8
241
 10
311.2090000000000032
 20
33.1092000000000013
 30
0.0
 70
    32
  0
VERTEX
  5
517E
  8
241
 10
311.2069999999999936
 20
33.1188999999999965
 30
0.0
 70
    32
  0
VERTEX
  5
517F
  8
241
 10
311.2060000000000173
 20
33.128700000000002
 30
0.0
 70
    32
  0
VERTEX
  5
5180
  8
241
 10
311.2049999999999841
 20
33.1385000000000005
 30
0.0
 70
    32
  0
VERTEX
  5
5181
  8
241
 10
311.2029999999999745
 20
33.148299999999999
 30
0.0
 70
    32
  0
VERTEX
  5
5182
  8
241
 10
311.2019999999999982
 20
33.1580999999999975
 30
0.0
 70
    32
  0
VERTEX
  5
5183
  8
241
 10
311.2010000000000218
 20
33.1679000000000102
 30
0.0
 70
    32
  0
VERTEX
  5
5184
  8
241
 10
311.1999999999999886
 20
33.1777000000000015
 30
0.0
 70
    32
  0
VERTEX
  5
5185
  8
241
 10
311.1979999999999791
 20
33.1876000000000104
 30
0.0
 70
    32
  0
VERTEX
  5
5186
  8
241
 10
311.1970000000000027
 20
33.1974000000000018
 30
0.0
 70
    32
  0
VERTEX
  5
5187
  8
241
 10
311.1960000000000264
 20
33.2072999999999965
 30
0.0
 70
    32
  0
VERTEX
  5
5188
  8
241
 10
311.1949999999999932
 20
33.2171000000000021
 30
0.0
 70
    32
  0
VERTEX
  5
5189
  8
241
 10
311.1929999999999836
 20
33.2269999999999968
 30
0.0
 70
    32
  0
VERTEX
  5
518A
  8
241
 10
311.1920000000000073
 20
33.2368999999999986
 30
0.0
 70
    32
  0
VERTEX
  5
518B
  8
241
 10
311.1909999999999741
 20
33.2468000000000004
 30
0.0
 70
    32
  0
VERTEX
  5
518C
  8
241
 10
311.1899999999999977
 20
33.2567000000000093
 30
0.0
 70
    32
  0
VERTEX
  5
518D
  8
241
 10
311.1890000000000214
 20
33.2665999999999968
 30
0.0
 70
    32
  0
VERTEX
  5
518E
  8
241
 10
311.1879999999999882
 20
33.2764999999999986
 30
0.0
 70
    32
  0
VERTEX
  5
518F
  8
241
 10
311.1859999999999786
 20
33.2864000000000004
 30
0.0
 70
    32
  0
VERTEX
  5
5190
  8
241
 10
311.1850000000000023
 20
33.2963999999999984
 30
0.0
 70
    32
  0
VERTEX
  5
5191
  8
241
 10
311.1840000000000259
 20
33.3063000000000002
 30
0.0
 70
    32
  0
VERTEX
  5
5192
  8
241
 10
311.1829999999999927
 20
33.316200000000002
 30
0.0
 70
    32
  0
VERTEX
  5
5193
  8
241
 10
311.1820000000000164
 20
33.3262
 30
0.0
 70
    32
  0
VERTEX
  5
5194
  8
241
 10
311.1809999999999832
 20
33.3361999999999981
 30
0.0
 70
    32
  0
VERTEX
  5
5195
  8
241
 10
311.1800000000000068
 20
33.3460999999999999
 30
0.0
 70
    32
  0
VERTEX
  5
5196
  8
241
 10
311.1789999999999736
 20
33.3560999999999979
 30
0.0
 70
    32
  0
VERTEX
  5
5197
  8
241
 10
311.1779999999999973
 20
33.366100000000003
 30
0.0
 70
    32
  0
VERTEX
  5
5198
  8
241
 10
311.1770000000000209
 20
33.376100000000001
 30
0.0
 70
    32
  0
VERTEX
  5
5199
  8
241
 10
311.1759999999999877
 20
33.386099999999999
 30
0.0
 70
    32
  0
VERTEX
  5
519A
  8
241
 10
311.1750000000000114
 20
33.396099999999997
 30
0.0
 70
    32
  0
VERTEX
  5
519B
  8
241
 10
311.1740000000000919
 20
33.4061000000000021
 30
0.0
 70
    32
  0
VERTEX
  5
519C
  8
241
 10
311.1730000000000018
 20
33.4161000000000001
 30
0.0
 70
    32
  0
VERTEX
  5
519D
  8
241
 10
311.1720000000000255
 20
33.4260999999999981
 30
0.0
 70
    32
  0
VERTEX
  5
519E
  8
241
 10
311.1709999999999923
 20
33.4361000000000033
 30
0.0
 70
    32
  0
VERTEX
  5
519F
  8
241
 10
311.1700000000000159
 20
33.4461000000000013
 30
0.0
 70
    32
  0
VERTEX
  5
51A0
  8
241
 10
311.1689999999999827
 20
33.4562000000000026
 30
0.0
 70
    32
  0
VERTEX
  5
51A1
  8
241
 10
311.1680000000000064
 20
33.4662000000000006
 30
0.0
 70
    32
  0
VERTEX
  5
51A2
  8
241
 10
311.1669999999999732
 20
33.4761999999999986
 30
0.0
 70
    32
  0
VERTEX
  5
51A3
  8
241
 10
311.1669999999999732
 20
33.4863
 30
0.0
 70
    32
  0
VERTEX
  5
51A4
  8
241
 10
311.1659999999999968
 20
33.496299999999998
 30
0.0
 70
    32
  0
VERTEX
  5
51A5
  8
241
 10
311.1650000000000205
 20
33.5063999999999993
 30
0.0
 70
    32
  0
VERTEX
  5
51A6
  8
241
 10
311.1639999999999873
 20
33.5163999999999973
 30
0.0
 70
    32
  0
VERTEX
  5
51A7
  8
241
 10
311.1630000000000109
 20
33.5264999999999986
 30
0.0
 70
    32
  0
VERTEX
  5
51A8
  8
241
 10
311.1619999999999777
 20
33.5364999999999966
 30
0.0
 70
    32
  0
VERTEX
  5
51A9
  8
241
 10
311.1619999999999777
 20
33.546599999999998
 30
0.0
 70
    32
  0
VERTEX
  5
51AA
  8
241
 10
311.1610000000000014
 20
33.5566000000000031
 30
0.0
 70
    32
  0
VERTEX
  5
51AB
  8
241
 10
311.160000000000025
 20
33.5666999999999973
 30
0.0
 70
    32
  0
VERTEX
  5
51AC
  8
241
 10
311.1589999999999918
 20
33.5767999999999986
 30
0.0
 70
    32
  0
VERTEX
  5
51AD
  8
241
 10
311.1589999999999918
 20
33.5867999999999967
 30
0.0
 70
    32
  0
VERTEX
  5
51AE
  8
241
 10
311.1580000000000155
 20
33.596899999999998
 30
0.0
 70
    32
  0
VERTEX
  5
51AF
  8
241
 10
311.1569999999999823
 20
33.6069999999999993
 30
0.0
 70
    32
  0
VERTEX
  5
51B0
  8
241
 10
311.1560000000000059
 20
33.6169999999999973
 30
0.0
 70
    32
  0
VERTEX
  5
51B1
  8
241
 10
311.1560000000000059
 20
33.6270999999999987
 30
0.0
 70
    32
  0
VERTEX
  5
51B2
  8
241
 10
311.1549999999999727
 20
33.6372
 30
0.0
 70
    32
  0
VERTEX
  5
51B3
  8
241
 10
311.1539999999999964
 20
33.647199999999998
 30
0.0
 70
    32
  0
VERTEX
  5
51B4
  8
241
 10
311.1539999999999964
 20
33.6572999999999993
 30
0.0
 70
    32
  0
VERTEX
  5
51B5
  8
241
 10
311.15300000000002
 20
33.6674000000000007
 30
0.0
 70
    32
  0
VERTEX
  5
51B6
  8
241
 10
311.15300000000002
 20
33.6773999999999987
 30
0.0
 70
    32
  0
VERTEX
  5
51B7
  8
241
 10
311.1519999999999868
 20
33.6875
 30
0.0
 70
    32
  0
VERTEX
  5
51B8
  8
241
 10
311.1510000000000105
 20
33.6976000000000013
 30
0.0
 70
    32
  0
VERTEX
  5
51B9
  8
241
 10
311.1510000000000105
 20
33.7075999999999993
 30
0.0
 70
    32
  0
VERTEX
  5
51BA
  8
241
 10
311.1499999999999773
 20
33.7177000000000007
 30
0.0
 70
    32
  0
VERTEX
  5
51BB
  8
241
 10
311.1499999999999773
 20
33.7276999999999987
 30
0.0
 70
    32
  0
VERTEX
  5
51BC
  8
241
 10
311.1490000000000009
 20
33.7378
 30
0.0
 70
    32
  0
VERTEX
  5
51BD
  8
241
 10
311.1490000000000009
 20
33.7479000000000013
 30
0.0
 70
    32
  0
VERTEX
  5
51BE
  8
241
 10
311.1480000000000246
 20
33.7578999999999994
 30
0.0
 70
    32
  0
VERTEX
  5
51BF
  8
241
 10
311.1480000000000246
 20
33.7680000000000007
 30
0.0
 70
    32
  0
VERTEX
  5
51C0
  8
241
 10
311.1469999999999914
 20
33.7779999999999987
 30
0.0
 70
    32
  0
VERTEX
  5
51C1
  8
241
 10
311.1469999999999914
 20
33.7881
 30
0.0
 70
    32
  0
VERTEX
  5
51C2
  8
241
 10
311.146000000000015
 20
33.798099999999998
 30
0.0
 70
    32
  0
VERTEX
  5
51C3
  8
241
 10
311.146000000000015
 20
33.8081000000000031
 30
0.0
 70
    32
  0
VERTEX
  5
51C4
  8
241
 10
311.146000000000015
 20
33.8181999999999974
 30
0.0
 70
    32
  0
VERTEX
  5
51C5
  8
241
 10
311.1449999999999818
 20
33.8282000000000096
 30
0.0
 70
    32
  0
VERTEX
  5
51C6
  8
241
 10
311.1449999999999818
 20
33.8382000000000005
 30
0.0
 70
    32
  0
VERTEX
  5
51C7
  8
241
 10
311.1440000000000055
 20
33.8483000000000018
 30
0.0
 70
    32
  0
VERTEX
  5
51C8
  8
241
 10
311.1440000000000055
 20
33.8582999999999998
 30
0.0
 70
    32
  0
VERTEX
  5
51C9
  8
241
 10
311.1440000000000055
 20
33.8682999999999979
 30
0.0
 70
    32
  0
VERTEX
  5
51CA
  8
241
 10
311.1429999999999723
 20
33.8783000000000101
 30
0.0
 70
    32
  0
VERTEX
  5
51CB
  8
241
 10
311.1429999999999723
 20
33.888300000000001
 30
0.0
 70
    32
  0
VERTEX
  5
51CC
  8
241
 10
311.1429999999999723
 20
33.898299999999999
 30
0.0
 70
    32
  0
VERTEX
  5
51CD
  8
241
 10
311.1419999999999959
 20
33.908299999999997
 30
0.0
 70
    32
  0
VERTEX
  5
51CE
  8
241
 10
311.1419999999999959
 20
33.9183000000000092
 30
0.0
 70
    32
  0
VERTEX
  5
51CF
  8
241
 10
311.1419999999999959
 20
33.9283000000000001
 30
0.0
 70
    32
  0
VERTEX
  5
51D0
  8
241
 10
311.1419999999999959
 20
33.9382000000000019
 30
0.0
 70
    32
  0
VERTEX
  5
51D1
  8
241
 10
311.1410000000000196
 20
33.9481999999999999
 30
0.0
 70
    32
  0
VERTEX
  5
51D2
  8
241
 10
311.1410000000000196
 20
33.9581999999999979
 30
0.0
 70
    32
  0
VERTEX
  5
51D3
  8
241
 10
311.1410000000000196
 20
33.9680999999999997
 30
0.0
 70
    32
  0
VERTEX
  5
51D4
  8
241
 10
311.1410000000000196
 20
33.9780999999999977
 30
0.0
 70
    32
  0
VERTEX
  5
51D5
  8
241
 10
311.1399999999999864
 20
33.9879999999999995
 30
0.0
 70
    32
  0
VERTEX
  5
51D6
  8
241
 10
311.1399999999999864
 20
33.9979000000000013
 30
0.0
 70
    32
  0
VERTEX
  5
51D7
  8
241
 10
311.1399999999999864
 20
34.0078999999999994
 30
0.0
 70
    32
  0
VERTEX
  5
51D8
  8
241
 10
311.1399999999999864
 20
34.0178000000000011
 30
0.0
 70
    32
  0
VERTEX
  5
51D9
  8
241
 10
311.1399999999999864
 20
34.0277000000000029
 30
0.0
 70
    32
  0
VERTEX
  5
51DA
  8
241
 10
311.1399999999999864
 20
34.0375999999999976
 30
0.0
 70
    32
  0
VERTEX
  5
51DB
  8
241
 10
311.1399999999999864
 20
34.0474999999999994
 30
0.0
 70
    32
  0
VERTEX
  5
51DC
  8
241
 10
311.13900000000001
 20
34.0572999999999979
 30
0.0
 70
    32
  0
VERTEX
  5
51DD
  8
241
 10
311.13900000000001
 20
34.0671999999999997
 30
0.0
 70
    32
  0
VERTEX
  5
51DE
  8
241
 10
311.13900000000001
 20
34.0771000000000015
 30
0.0
 70
    32
  0
VERTEX
  5
51DF
  8
241
 10
311.13900000000001
 20
34.0869
 30
0.0
 70
    32
  0
VERTEX
  5
51E0
  8
241
 10
311.13900000000001
 20
34.0968000000000018
 30
0.0
 70
    32
  0
VERTEX
  5
51E1
  8
241
 10
311.13900000000001
 20
34.1066000000000003
 30
0.0
 70
    32
  0
VERTEX
  5
51E2
  8
241
 10
311.13900000000001
 20
34.1163999999999987
 30
0.0
 70
    32
  0
VERTEX
  5
51E3
  8
241
 10
311.13900000000001
 20
34.1261999999999972
 30
0.0
 70
    32
  0
VERTEX
  5
51E4
  8
241
 10
311.13900000000001
 20
34.1360000000000099
 30
0.0
 70
    32
  0
VERTEX
  5
51E5
  8
241
 10
311.13900000000001
 20
34.1458000000000013
 30
0.0
 70
    32
  0
VERTEX
  5
51E6
  8
241
 10
311.13900000000001
 20
34.1555999999999997
 30
0.0
 70
    32
  0
VERTEX
  5
51E7
  8
241
 10
311.13900000000001
 20
34.165300000000002
 30
0.0
 70
    32
  0
VERTEX
  5
51E8
  8
241
 10
311.13900000000001
 20
34.1751000000000005
 30
0.0
 70
    32
  0
VERTEX
  5
51E9
  8
241
 10
311.13900000000001
 20
34.1848000000000098
 30
0.0
 70
    32
  0
VERTEX
  5
51EA
  8
241
 10
311.13900000000001
 20
34.1946000000000012
 30
0.0
 70
    32
  0
VERTEX
  5
51EB
  8
241
 10
311.13900000000001
 20
34.2043000000000035
 30
0.0
 70
    32
  0
VERTEX
  5
51EC
  8
241
 10
311.13900000000001
 20
34.2139999999999986
 30
0.0
 70
    32
  0
VERTEX
  5
51ED
  8
241
 10
311.13900000000001
 20
34.2237000000000009
 30
0.0
 70
    32
  0
VERTEX
  5
51EE
  8
241
 10
311.1399999999999864
 20
34.2334000000000032
 30
0.0
 70
    32
  0
VERTEX
  5
51EF
  8
241
 10
311.1399999999999864
 20
34.2430000000000092
 30
0.0
 70
    32
  0
VERTEX
  5
51F0
  8
241
 10
311.1399999999999864
 20
34.2526999999999973
 30
0.0
 70
    32
  0
VERTEX
  5
51F1
  8
241
 10
311.1399999999999864
 20
34.2623000000000033
 30
0.0
 70
    32
  0
VERTEX
  5
51F2
  8
241
 10
311.1399999999999864
 20
34.2719000000000023
 30
0.0
 70
    32
  0
VERTEX
  5
51F3
  8
241
 10
311.1399999999999864
 20
34.2815000000000012
 30
0.0
 70
    32
  0
VERTEX
  5
51F4
  8
241
 10
311.1399999999999864
 20
34.2911000000000001
 30
0.0
 70
    32
  0
VERTEX
  5
51F5
  8
241
 10
311.1410000000000196
 20
34.3006999999999991
 30
0.0
 70
    32
  0
VERTEX
  5
51F6
  8
241
 10
311.1410000000000196
 20
34.310299999999998
 30
0.0
 70
    32
  0
VERTEX
  5
51F7
  8
241
 10
311.1410000000000196
 20
34.3198000000000008
 30
0.0
 70
    32
  0
VERTEX
  5
51F8
  8
241
 10
311.1410000000000196
 20
34.3293999999999997
 30
0.0
 70
    32
  0
VERTEX
  5
51F9
  8
241
 10
311.1419999999999959
 20
34.3389000000000024
 30
0.0
 70
    32
  0
VERTEX
  5
51FA
  8
241
 10
311.1419999999999959
 20
34.348399999999998
 30
0.0
 70
    32
  0
VERTEX
  5
51FB
  8
241
 10
311.1419999999999959
 20
34.3579000000000008
 30
0.0
 70
    32
  0
VERTEX
  5
51FC
  8
241
 10
311.1419999999999959
 20
34.3673000000000002
 30
0.0
 70
    32
  0
VERTEX
  5
51FD
  8
241
 10
311.1429999999999723
 20
34.3768000000000029
 30
0.0
 70
    32
  0
VERTEX
  5
51FE
  8
241
 10
311.1429999999999723
 20
34.3862000000000023
 30
0.0
 70
    32
  0
VERTEX
  5
51FF
  8
241
 10
311.1429999999999723
 20
34.3956999999999979
 30
0.0
 70
    32
  0
VERTEX
  5
5200
  8
241
 10
311.1429999999999723
 20
34.4050999999999974
 30
0.0
 70
    32
  0
VERTEX
  5
5201
  8
241
 10
311.1440000000000055
 20
34.4144000000000005
 30
0.0
 70
    32
  0
VERTEX
  5
5202
  8
241
 10
311.1440000000000055
 20
34.4238
 30
0.0
 70
    32
  0
VERTEX
  5
5203
  8
241
 10
311.1449999999999818
 20
34.4331999999999994
 30
0.0
 70
    32
  0
VERTEX
  5
5204
  8
241
 10
311.1449999999999818
 20
34.4425000000000026
 30
0.0
 70
    32
  0
VERTEX
  5
5205
  8
241
 10
311.1449999999999818
 20
34.4517999999999986
 30
0.0
 70
    32
  0
VERTEX
  5
5206
  8
241
 10
311.146000000000015
 20
34.4611000000000018
 30
0.0
 70
    32
  0
VERTEX
  5
5207
  8
241
 10
311.146000000000015
 20
34.4703999999999979
 30
0.0
 70
    32
  0
VERTEX
  5
5208
  8
241
 10
311.146000000000015
 20
34.4795999999999978
 30
0.0
 70
    32
  0
VERTEX
  5
5209
  8
241
 10
311.1469999999999914
 20
34.488900000000001
 30
0.0
 70
    32
  0
VERTEX
  5
520A
  8
241
 10
311.1469999999999914
 20
34.4981000000000009
 30
0.0
 70
    32
  0
VERTEX
  5
520B
  8
241
 10
311.1480000000000246
 20
34.5073000000000008
 30
0.0
 70
    32
  0
VERTEX
  5
520C
  8
241
 10
311.1480000000000246
 20
34.5165000000000006
 30
0.0
 70
    32
  0
VERTEX
  5
520D
  8
241
 10
311.1490000000000009
 20
34.5257000000000005
 30
0.0
 70
    32
  0
VERTEX
  5
520E
  8
241
 10
311.1490000000000009
 20
34.5349999999999966
 30
0.0
 70
    32
  0
VERTEX
  5
520F
  8
241
 10
311.1499999999999773
 20
34.5441999999999965
 30
0.0
 70
    32
  0
VERTEX
  5
5210
  8
241
 10
311.1499999999999773
 20
34.5534999999999997
 30
0.0
 70
    32
  0
VERTEX
  5
5211
  8
241
 10
311.1510000000000105
 20
34.5628000000000029
 30
0.0
 70
    32
  0
VERTEX
  5
5212
  8
241
 10
311.1510000000000105
 20
34.5722000000000023
 30
0.0
 70
    32
  0
VERTEX
  5
5213
  8
241
 10
311.1519999999999868
 20
34.5816000000000017
 30
0.0
 70
    32
  0
VERTEX
  5
5214
  8
241
 10
311.1519999999999868
 20
34.5908999999999978
 30
0.0
 70
    32
  0
VERTEX
  5
5215
  8
241
 10
311.15300000000002
 20
34.6004000000000005
 30
0.0
 70
    32
  0
VERTEX
  5
5216
  8
241
 10
311.15300000000002
 20
34.6097999999999999
 30
0.0
 70
    32
  0
VERTEX
  5
5217
  8
241
 10
311.1539999999999964
 20
34.6193000000000097
 30
0.0
 70
    32
  0
VERTEX
  5
5218
  8
241
 10
311.1549999999999727
 20
34.6287999999999982
 30
0.0
 70
    32
  0
VERTEX
  5
5219
  8
241
 10
311.1549999999999727
 20
34.638300000000001
 30
0.0
 70
    32
  0
VERTEX
  5
521A
  8
241
 10
311.1560000000000059
 20
34.6477999999999966
 30
0.0
 70
    32
  0
VERTEX
  5
521B
  8
241
 10
311.1560000000000059
 20
34.6572999999999993
 30
0.0
 70
    32
  0
VERTEX
  5
521C
  8
241
 10
311.1569999999999823
 20
34.6668999999999983
 30
0.0
 70
    32
  0
VERTEX
  5
521D
  8
241
 10
311.1580000000000155
 20
34.6764999999999972
 30
0.0
 70
    32
  0
VERTEX
  5
521E
  8
241
 10
311.1580000000000155
 20
34.6861000000000033
 30
0.0
 70
    32
  0
VERTEX
  5
521F
  8
241
 10
311.1589999999999918
 20
34.6957000000000022
 30
0.0
 70
    32
  0
VERTEX
  5
5220
  8
241
 10
311.160000000000025
 20
34.7053999999999974
 30
0.0
 70
    32
  0
VERTEX
  5
5221
  8
241
 10
311.1610000000000014
 20
34.7150000000000105
 30
0.0
 70
    32
  0
VERTEX
  5
5222
  8
241
 10
311.1610000000000014
 20
34.7246999999999986
 30
0.0
 70
    32
  0
VERTEX
  5
5223
  8
241
 10
311.1619999999999777
 20
34.7344000000000008
 30
0.0
 70
    32
  0
VERTEX
  5
5224
  8
241
 10
311.1630000000000109
 20
34.7441000000000102
 30
0.0
 70
    32
  0
VERTEX
  5
5225
  8
241
 10
311.1639999999999873
 20
34.7537999999999982
 30
0.0
 70
    32
  0
VERTEX
  5
5226
  8
241
 10
311.1639999999999873
 20
34.7635999999999967
 30
0.0
 70
    32
  0
VERTEX
  5
5227
  8
241
 10
311.1650000000000205
 20
34.773299999999999
 30
0.0
 70
    32
  0
VERTEX
  5
5228
  8
241
 10
311.1659999999999968
 20
34.7830999999999975
 30
0.0
 70
    32
  0
VERTEX
  5
5229
  8
241
 10
311.1669999999999732
 20
34.7929000000000102
 30
0.0
 70
    32
  0
VERTEX
  5
522A
  8
241
 10
311.1680000000000064
 20
34.8027000000000015
 30
0.0
 70
    32
  0
VERTEX
  5
522B
  8
241
 10
311.1689999999999827
 20
34.8125
 30
0.0
 70
    32
  0
VERTEX
  5
522C
  8
241
 10
311.1689999999999827
 20
34.8224000000000018
 30
0.0
 70
    32
  0
VERTEX
  5
522D
  8
241
 10
311.1700000000000159
 20
34.8322000000000003
 30
0.0
 70
    32
  0
VERTEX
  5
522E
  8
241
 10
311.1709999999999923
 20
34.8421000000000021
 30
0.0
 70
    32
  0
VERTEX
  5
522F
  8
241
 10
311.1720000000000255
 20
34.8519000000000005
 30
0.0
 70
    32
  0
VERTEX
  5
5230
  8
241
 10
311.1730000000000018
 20
34.8618000000000023
 30
0.0
 70
    32
  0
VERTEX
  5
5231
  8
241
 10
311.1740000000000919
 20
34.871699999999997
 30
0.0
 70
    32
  0
VERTEX
  5
5232
  8
241
 10
311.1750000000000114
 20
34.8815999999999988
 30
0.0
 70
    32
  0
VERTEX
  5
5233
  8
241
 10
311.1759999999999877
 20
34.8915000000000006
 30
0.0
 70
    32
  0
VERTEX
  5
5234
  8
241
 10
311.1770000000000209
 20
34.9014000000000024
 30
0.0
 70
    32
  0
VERTEX
  5
5235
  8
241
 10
311.1779999999999973
 20
34.9114000000000004
 30
0.0
 70
    32
  0
VERTEX
  5
5236
  8
241
 10
311.1789999999999736
 20
34.9213000000000022
 30
0.0
 70
    32
  0
VERTEX
  5
5237
  8
241
 10
311.1800000000000068
 20
34.9311999999999969
 30
0.0
 70
    32
  0
VERTEX
  5
5238
  8
241
 10
311.1809999999999832
 20
34.9412000000000091
 30
0.0
 70
    32
  0
VERTEX
  5
5239
  8
241
 10
311.1820000000000164
 20
34.9512
 30
0.0
 70
    32
  0
VERTEX
  5
523A
  8
241
 10
311.1829999999999927
 20
34.9611000000000018
 30
0.0
 70
    32
  0
VERTEX
  5
523B
  8
241
 10
311.1840000000000259
 20
34.9710999999999999
 30
0.0
 70
    32
  0
VERTEX
  5
523C
  8
241
 10
311.1850000000000023
 20
34.9810999999999979
 30
0.0
 70
    32
  0
VERTEX
  5
523D
  8
241
 10
311.1859999999999786
 20
34.991100000000003
 30
0.0
 70
    32
  0
VERTEX
  5
523E
  8
241
 10
311.1870000000000118
 20
35.001100000000001
 30
0.0
 70
    32
  0
VERTEX
  5
523F
  8
241
 10
311.1879999999999882
 20
35.0110000000000028
 30
0.0
 70
    32
  0
VERTEX
  5
5240
  8
241
 10
311.1899999999999977
 20
35.0210000000000008
 30
0.0
 70
    32
  0
VERTEX
  5
5241
  8
241
 10
311.1909999999999741
 20
35.0309999999999988
 30
0.0
 70
    32
  0
VERTEX
  5
5242
  8
241
 10
311.1920000000000073
 20
35.0411000000000001
 30
0.0
 70
    32
  0
VERTEX
  5
5243
  8
241
 10
311.1929999999999836
 20
35.0510999999999981
 30
0.0
 70
    32
  0
VERTEX
  5
5244
  8
241
 10
311.1940000000000168
 20
35.0611000000000033
 30
0.0
 70
    32
  0
VERTEX
  5
5245
  8
241
 10
311.1949999999999932
 20
35.0711000000000013
 30
0.0
 70
    32
  0
VERTEX
  5
5246
  8
241
 10
311.1970000000000027
 20
35.0810999999999993
 30
0.0
 70
    32
  0
VERTEX
  5
5247
  8
241
 10
311.1979999999999791
 20
35.0910999999999973
 30
0.0
 70
    32
  0
VERTEX
  5
5248
  8
241
 10
311.1990000000000123
 20
35.1011000000000024
 30
0.0
 70
    32
  0
VERTEX
  5
5249
  8
241
 10
311.1999999999999886
 20
35.1111999999999966
 30
0.0
 70
    32
  0
VERTEX
  5
524A
  8
241
 10
311.2019999999999982
 20
35.1212000000000018
 30
0.0
 70
    32
  0
VERTEX
  5
524B
  8
241
 10
311.2029999999999745
 20
35.1311999999999998
 30
0.0
 70
    32
  0
VERTEX
  5
524C
  8
241
 10
311.2040000000000077
 20
35.1411999999999978
 30
0.0
 70
    32
  0
VERTEX
  5
524D
  8
241
 10
311.2060000000000173
 20
35.1512000000000029
 30
0.0
 70
    32
  0
VERTEX
  5
524E
  8
241
 10
311.2069999999999936
 20
35.1612000000000009
 30
0.0
 70
    32
  0
VERTEX
  5
524F
  8
241
 10
311.2080000000000268
 20
35.1711999999999989
 30
0.0
 70
    32
  0
VERTEX
  5
5250
  8
241
 10
311.2099999999999795
 20
35.1813000000000002
 30
0.0
 70
    32
  0
VERTEX
  5
5251
  8
241
 10
311.2110000000000127
 20
35.1912999999999982
 30
0.0
 70
    32
  0
VERTEX
  5
5252
  8
241
 10
311.2119999999999891
 20
35.2013000000000034
 30
0.0
 70
    32
  0
VERTEX
  5
5253
  8
241
 10
311.2139999999999986
 20
35.2113000000000014
 30
0.0
 70
    32
  0
VERTEX
  5
5254
  8
241
 10
311.214999999999975
 20
35.2212000000000103
 30
0.0
 70
    32
  0
VERTEX
  5
5255
  8
241
 10
311.2169999999999845
 20
35.2312000000000012
 30
0.0
 70
    32
  0
VERTEX
  5
5256
  8
241
 10
311.2180000000000177
 20
35.2411999999999992
 30
0.0
 70
    32
  0
VERTEX
  5
5257
  8
241
 10
311.2189999999999941
 20
35.2511999999999972
 30
0.0
 70
    32
  0
VERTEX
  5
5258
  8
241
 10
311.2210000000000036
 20
35.2612000000000094
 30
0.0
 70
    32
  0
VERTEX
  5
5259
  8
241
 10
311.22199999999998
 20
35.271099999999997
 30
0.0
 70
    32
  0
VERTEX
  5
525A
  8
241
 10
311.2239999999999895
 20
35.2811000000000021
 30
0.0
 70
    32
  0
VERTEX
  5
525B
  8
241
 10
311.2250000000000227
 20
35.2909999999999968
 30
0.0
 70
    32
  0
VERTEX
  5
525C
  8
241
 10
311.2269999999999754
 20
35.3010000000000019
 30
0.0
 70
    32
  0
VERTEX
  5
525D
  8
241
 10
311.2280000000000086
 20
35.3108999999999966
 30
0.0
 70
    32
  0
VERTEX
  5
525E
  8
241
 10
311.2300000000000182
 20
35.3207999999999984
 30
0.0
 70
    32
  0
VERTEX
  5
525F
  8
241
 10
311.2309999999999945
 20
35.3307000000000002
 30
0.0
 70
    32
  0
VERTEX
  5
5260
  8
241
 10
311.2330000000000041
 20
35.340600000000002
 30
0.0
 70
    32
  0
VERTEX
  5
5261
  8
241
 10
311.2350000000000136
 20
35.3504999999999967
 30
0.0
 70
    32
  0
VERTEX
  5
5262
  8
241
 10
311.23599999999999
 20
35.3603999999999985
 30
0.0
 70
    32
  0
VERTEX
  5
5263
  8
241
 10
311.2379999999999995
 20
35.3703000000000003
 30
0.0
 70
    32
  0
VERTEX
  5
5264
  8
241
 10
311.2389999999999759
 20
35.3802000000000021
 30
0.0
 70
    32
  0
VERTEX
  5
5265
  8
241
 10
311.2409999999999854
 20
35.3900000000000006
 30
0.0
 70
    32
  0
VERTEX
  5
5266
  8
241
 10
311.2420000000000186
 20
35.399799999999999
 30
0.0
 70
    32
  0
VERTEX
  5
5267
  8
241
 10
311.2440000000000282
 20
35.4097000000000008
 30
0.0
 70
    32
  0
VERTEX
  5
5268
  8
241
 10
311.2459999999999809
 20
35.4194999999999993
 30
0.0
 70
    32
  0
VERTEX
  5
5269
  8
241
 10
311.2470000000000141
 20
35.4292999999999978
 30
0.0
 70
    32
  0
VERTEX
  5
526A
  8
241
 10
311.2490000000000236
 20
35.4391000000000034
 30
0.0
 70
    32
  0
VERTEX
  5
526B
  8
241
 10
311.2509999999999764
 20
35.4487999999999985
 30
0.0
 70
    32
  0
VERTEX
  5
526C
  8
241
 10
311.2520000000000095
 20
35.458599999999997
 30
0.0
 70
    32
  0
VERTEX
  5
526D
  8
241
 10
311.2540000000000191
 20
35.4682999999999993
 30
0.0
 70
    32
  0
VERTEX
  5
526E
  8
241
 10
311.2559999999999718
 20
35.4780000000000015
 30
0.0
 70
    32
  0
VERTEX
  5
526F
  8
241
 10
311.257000000000005
 20
35.4878
 30
0.0
 70
    32
  0
VERTEX
  5
5270
  8
241
 10
311.2590000000000146
 20
35.497399999999999
 30
0.0
 70
    32
  0
VERTEX
  5
5271
  8
241
 10
311.2610000000000241
 20
35.5071000000000012
 30
0.0
 70
    32
  0
VERTEX
  5
5272
  8
241
 10
311.2629999999999768
 20
35.5168000000000106
 30
0.0
 70
    32
  0
VERTEX
  5
5273
  8
241
 10
311.26400000000001
 20
35.5264000000000024
 30
0.0
 70
    32
  0
VERTEX
  5
5274
  8
241
 10
311.2659999999999059
 20
35.5360000000000014
 30
0.0
 70
    32
  0
VERTEX
  5
5275
  8
241
 10
311.2679999999999723
 20
35.5456000000000003
 30
0.0
 70
    32
  0
VERTEX
  5
5276
  8
241
 10
311.2699999999999818
 20
35.5551999999999992
 30
0.0
 70
    32
  0
VERTEX
  5
5277
  8
241
 10
311.271000000000015
 20
35.5647999999999982
 30
0.0
 70
    32
  0
VERTEX
  5
5278
  8
241
 10
311.2729999999999109
 20
35.5743000000000009
 30
0.0
 70
    32
  0
VERTEX
  5
5279
  8
241
 10
311.2749999999999773
 20
35.5838999999999999
 30
0.0
 70
    32
  0
VERTEX
  5
527A
  8
241
 10
311.2769999999999868
 20
35.5934000000000097
 30
0.0
 70
    32
  0
VERTEX
  5
527B
  8
241
 10
311.2789999999999964
 20
35.6028999999999982
 30
0.0
 70
    32
  0
VERTEX
  5
527C
  8
241
 10
311.2799999999999727
 20
35.6122999999999976
 30
0.0
 70
    32
  0
VERTEX
  5
527D
  8
241
 10
311.2819999999999823
 20
35.6218000000000004
 30
0.0
 70
    32
  0
VERTEX
  5
527E
  8
241
 10
311.2839999999999918
 20
35.6311999999999998
 30
0.0
 70
    32
  0
VERTEX
  5
527F
  8
241
 10
311.2860000000000014
 20
35.6405999999999992
 30
0.0
 70
    32
  0
VERTEX
  5
5280
  8
241
 10
311.2880000000000109
 20
35.6499000000000024
 30
0.0
 70
    32
  0
VERTEX
  5
5281
  8
241
 10
311.2900000000000205
 20
35.6593000000000018
 30
0.0
 70
    32
  0
VERTEX
  5
5282
  8
241
 10
311.2909999999999968
 20
35.6685999999999979
 30
0.0
 70
    32
  0
VERTEX
  5
5283
  8
241
 10
311.2930000000000064
 20
35.6779000000000011
 30
0.0
 70
    32
  0
VERTEX
  5
5284
  8
241
 10
311.2950000000000159
 20
35.6871999999999971
 30
0.0
 70
    32
  0
VERTEX
  5
5285
  8
241
 10
311.2970000000000255
 20
35.696399999999997
 30
0.0
 70
    32
  0
VERTEX
  5
5286
  8
241
 10
311.2989999999999782
 20
35.7057000000000002
 30
0.0
 70
    32
  0
VERTEX
  5
5287
  8
241
 10
311.3009999999999877
 20
35.7149000000000001
 30
0.0
 70
    32
  0
VERTEX
  5
5288
  8
241
 10
311.3029999999999973
 20
35.7239999999999966
 30
0.0
 70
    32
  0
VERTEX
  5
5289
  8
241
 10
311.3050000000000068
 20
35.7331999999999965
 30
0.0
 70
    32
  0
VERTEX
  5
528A
  8
241
 10
311.3059999999999832
 20
35.7423000000000002
 30
0.0
 70
    32
  0
VERTEX
  5
528B
  8
241
 10
311.3079999999999927
 20
35.7513999999999967
 30
0.0
 70
    32
  0
VERTEX
  5
528C
  8
241
 10
311.3100000000000023
 20
35.7603999999999971
 30
0.0
 70
    32
  0
VERTEX
  5
528D
  8
241
 10
311.3120000000000118
 20
35.7695000000000007
 30
0.0
 70
    32
  0
VERTEX
  5
528E
  8
241
 10
311.3140000000000214
 20
35.7785000000000011
 30
0.0
 70
    32
  0
VERTEX
  5
528F
  8
241
 10
311.3159999999999741
 20
35.7875000000000014
 30
0.0
 70
    32
  0
VERTEX
  5
5290
  8
241
 10
311.3179999999999836
 20
35.7965000000000018
 30
0.0
 70
    32
  0
VERTEX
  5
5291
  8
241
 10
311.3199999999999932
 20
35.8055000000000092
 30
0.0
 70
    32
  0
VERTEX
  5
5292
  8
241
 10
311.3220000000000027
 20
35.8145000000000024
 30
0.0
 70
    32
  0
VERTEX
  5
5293
  8
241
 10
311.3240000000000123
 20
35.823599999999999
 30
0.0
 70
    32
  0
VERTEX
  5
5294
  8
241
 10
311.3260000000000218
 20
35.8325999999999993
 30
0.0
 70
    32
  0
VERTEX
  5
5295
  8
241
 10
311.3279999999999745
 20
35.841700000000003
 30
0.0
 70
    32
  0
VERTEX
  5
5296
  8
241
 10
311.3299999999999841
 20
35.8507000000000033
 30
0.0
 70
    32
  0
VERTEX
  5
5297
  8
241
 10
311.3319999999999936
 20
35.8597999999999999
 30
0.0
 70
    32
  0
VERTEX
  5
5298
  8
241
 10
311.3340000000000032
 20
35.8688999999999965
 30
0.0
 70
    32
  0
VERTEX
  5
5299
  8
241
 10
311.3360000000000127
 20
35.8778999999999968
 30
0.0
 70
    32
  0
VERTEX
  5
529A
  8
241
 10
311.3380000000000223
 20
35.8870000000000005
 30
0.0
 70
    32
  0
VERTEX
  5
529B
  8
241
 10
311.339999999999975
 20
35.896099999999997
 30
0.0
 70
    32
  0
VERTEX
  5
529C
  8
241
 10
311.3419999999999845
 20
35.9052000000000007
 30
0.0
 70
    32
  0
VERTEX
  5
529D
  8
241
 10
311.3450000000000273
 20
35.9144000000000005
 30
0.0
 70
    32
  0
VERTEX
  5
529E
  8
241
 10
311.34699999999998
 20
35.9234999999999971
 30
0.0
 70
    32
  0
VERTEX
  5
529F
  8
241
 10
311.3489999999999895
 20
35.9326000000000008
 30
0.0
 70
    32
  0
VERTEX
  5
52A0
  8
241
 10
311.3509999999999991
 20
35.9416999999999973
 30
0.0
 70
    32
  0
VERTEX
  5
52A1
  8
241
 10
311.3530000000000086
 20
35.9508999999999972
 30
0.0
 70
    32
  0
VERTEX
  5
52A2
  8
241
 10
311.3550000000000182
 20
35.9600000000000009
 30
0.0
 70
    32
  0
VERTEX
  5
52A3
  8
241
 10
311.3580000000000041
 20
35.9692000000000007
 30
0.0
 70
    32
  0
VERTEX
  5
52A4
  8
241
 10
311.3600000000000136
 20
35.9782999999999973
 30
0.0
 70
    32
  0
VERTEX
  5
52A5
  8
241
 10
311.3620000000000232
 20
35.9874999999999972
 30
0.0
 70
    32
  0
VERTEX
  5
52A6
  8
241
 10
311.3639999999999759
 20
35.996699999999997
 30
0.0
 70
    32
  0
VERTEX
  5
52A7
  8
241
 10
311.3670000000000186
 20
36.0058999999999969
 30
0.0
 70
    32
  0
VERTEX
  5
52A8
  8
241
 10
311.3690000000000282
 20
36.0150999999999968
 30
0.0
 70
    32
  0
VERTEX
  5
52A9
  8
241
 10
311.3709999999999809
 20
36.0242000000000004
 30
0.0
 70
    32
  0
VERTEX
  5
52AA
  8
241
 10
311.3729999999999905
 20
36.0334000000000003
 30
0.0
 70
    32
  0
VERTEX
  5
52AB
  8
241
 10
311.3759999999999764
 20
36.0426000000000002
 30
0.0
 70
    32
  0
VERTEX
  5
52AC
  8
241
 10
311.3779999999999859
 20
36.0519000000000034
 30
0.0
 70
    32
  0
VERTEX
  5
52AD
  8
241
 10
311.3799999999999955
 20
36.0611000000000104
 30
0.0
 70
    32
  0
VERTEX
  5
52AE
  8
241
 10
311.3829999999999814
 20
36.0703000000000031
 30
0.0
 70
    32
  0
VERTEX
  5
52AF
  8
241
 10
311.3849999999999909
 20
36.0795000000000101
 30
0.0
 70
    32
  0
VERTEX
  5
52B0
  8
241
 10
311.3870000000000005
 20
36.0887999999999991
 30
0.0
 70
    32
  0
VERTEX
  5
52B1
  8
241
 10
311.3899999999999864
 20
36.097999999999999
 30
0.0
 70
    32
  0
VERTEX
  5
52B2
  8
241
 10
311.3919999999999959
 20
36.1071999999999989
 30
0.0
 70
    32
  0
VERTEX
  5
52B3
  8
241
 10
311.3949999999999818
 20
36.116500000000002
 30
0.0
 70
    32
  0
VERTEX
  5
52B4
  8
241
 10
311.3969999999999914
 20
36.1257999999999981
 30
0.0
 70
    32
  0
VERTEX
  5
52B5
  8
241
 10
311.3990000000000009
 20
36.134999999999998
 30
0.0
 70
    32
  0
VERTEX
  5
52B6
  8
241
 10
311.4019999999999868
 20
36.1443000000000012
 30
0.0
 70
    32
  0
VERTEX
  5
52B7
  8
241
 10
311.4039999999999964
 20
36.1535000000000011
 30
0.0
 70
    32
  0
VERTEX
  5
52B8
  8
241
 10
311.4069999999999823
 20
36.1627999999999972
 30
0.0
 70
    32
  0
VERTEX
  5
52B9
  8
241
 10
311.4089999999999918
 20
36.1721000000000004
 30
0.0
 70
    32
  0
VERTEX
  5
52BA
  8
241
 10
311.4119999999999777
 20
36.1813999999999965
 30
0.0
 70
    32
  0
VERTEX
  5
52BB
  8
241
 10
311.4139999999999873
 20
36.1906999999999996
 30
0.0
 70
    32
  0
VERTEX
  5
52BC
  8
241
 10
311.4169999999999732
 20
36.2000000000000028
 30
0.0
 70
    32
  0
VERTEX
  5
52BD
  8
241
 10
311.4190000000000964
 20
36.2092999999999989
 30
0.0
 70
    32
  0
VERTEX
  5
52BE
  8
241
 10
311.4220000000000255
 20
36.2186000000000021
 30
0.0
 70
    32
  0
VERTEX
  5
52BF
  8
241
 10
311.4240000000000919
 20
36.2278999999999982
 30
0.0
 70
    32
  0
VERTEX
  5
52C0
  8
241
 10
311.4270000000000209
 20
36.2372000000000014
 30
0.0
 70
    32
  0
VERTEX
  5
52C1
  8
241
 10
311.4300000000000068
 20
36.2464999999999975
 30
0.0
 70
    32
  0
VERTEX
  5
52C2
  8
241
 10
311.4320000000000164
 20
36.2558000000000007
 30
0.0
 70
    32
  0
VERTEX
  5
52C3
  8
241
 10
311.4350000000000023
 20
36.2650999999999968
 30
0.0
 70
    32
  0
VERTEX
  5
52C4
  8
241
 10
311.4370000000000118
 20
36.2745000000000033
 30
0.0
 70
    32
  0
VERTEX
  5
52C5
  8
241
 10
311.4399999999999977
 20
36.2837999999999994
 30
0.0
 70
    32
  0
VERTEX
  5
52C6
  8
241
 10
311.4429999999999836
 20
36.2931000000000026
 30
0.0
 70
    32
  0
VERTEX
  5
52C7
  8
241
 10
311.4449999999999932
 20
36.302500000000002
 30
0.0
 70
    32
  0
VERTEX
  5
52C8
  8
241
 10
311.4479999999999791
 20
36.3117999999999981
 30
0.0
 70
    32
  0
VERTEX
  5
52C9
  8
241
 10
311.4510000000000218
 20
36.3211999999999975
 30
0.0
 70
    32
  0
VERTEX
  5
52CA
  8
241
 10
311.4529999999999745
 20
36.3305000000000007
 30
0.0
 70
    32
  0
VERTEX
  5
52CB
  8
241
 10
311.4559999999999036
 20
36.3399000000000001
 30
0.0
 70
    32
  0
VERTEX
  5
52CC
  8
241
 10
311.4590000000000032
 20
36.3492000000000104
 30
0.0
 70
    32
  0
VERTEX
  5
52CD
  8
241
 10
311.4619999999999891
 20
36.3586000000000027
 30
0.0
 70
    32
  0
VERTEX
  5
52CE
  8
241
 10
311.4639999999999986
 20
36.3678999999999988
 30
0.0
 70
    32
  0
VERTEX
  5
52CF
  8
241
 10
311.4669999999999845
 20
36.3772999999999982
 30
0.0
 70
    32
  0
VERTEX
  5
52D0
  8
241
 10
311.4700000000000273
 20
36.3866999999999976
 30
0.0
 70
    32
  0
VERTEX
  5
52D1
  8
241
 10
311.4730000000000132
 20
36.3960000000000008
 30
0.0
 70
    32
  0
VERTEX
  5
52D2
  8
241
 10
311.4759999999999991
 20
36.4054000000000002
 30
0.0
 70
    32
  0
VERTEX
  5
52D3
  8
241
 10
311.4780000000000086
 20
36.4147999999999996
 30
0.0
 70
    32
  0
VERTEX
  5
52D4
  8
241
 10
311.4809999999999945
 20
36.4241000000000028
 30
0.0
 70
    32
  0
VERTEX
  5
52D5
  8
241
 10
311.4839999999999804
 20
36.4335000000000022
 30
0.0
 70
    32
  0
VERTEX
  5
52D6
  8
241
 10
311.4870000000000232
 20
36.4429000000000016
 30
0.0
 70
    32
  0
VERTEX
  5
52D7
  8
241
 10
311.4900000000000091
 20
36.452300000000001
 30
0.0
 70
    32
  0
VERTEX
  5
52D8
  8
241
 10
311.492999999999995
 20
36.4617000000000004
 30
0.0
 70
    32
  0
VERTEX
  5
52D9
  8
241
 10
311.4959999999999809
 20
36.4709999999999965
 30
0.0
 70
    32
  0
VERTEX
  5
52DA
  8
241
 10
311.4990000000000236
 20
36.480400000000003
 30
0.0
 70
    32
  0
VERTEX
  5
52DB
  8
241
 10
311.5020000000000095
 20
36.4898000000000025
 30
0.0
 70
    32
  0
VERTEX
  5
52DC
  8
241
 10
311.5040000000000191
 20
36.4992000000000019
 30
0.0
 70
    32
  0
VERTEX
  5
52DD
  8
241
 10
311.507000000000005
 20
36.5086000000000013
 30
0.0
 70
    32
  0
VERTEX
  5
52DE
  8
241
 10
311.5099999999999909
 20
36.5180000000000007
 30
0.0
 70
    32
  0
VERTEX
  5
52DF
  8
241
 10
311.5129999999999768
 20
36.5274000000000001
 30
0.0
 70
    32
  0
VERTEX
  5
52E0
  8
241
 10
311.5159999999999059
 20
36.5367999999999995
 30
0.0
 70
    32
  0
VERTEX
  5
52E1
  8
241
 10
311.5190000000000055
 20
36.5461999999999989
 30
0.0
 70
    32
  0
VERTEX
  5
52E2
  8
241
 10
311.5219999999999914
 20
36.5555999999999983
 30
0.0
 70
    32
  0
VERTEX
  5
52E3
  8
241
 10
311.5249999999999773
 20
36.5649999999999977
 30
0.0
 70
    32
  0
VERTEX
  5
52E4
  8
241
 10
311.52800000000002
 20
36.5743999999999971
 30
0.0
 70
    32
  0
VERTEX
  5
52E5
  8
241
 10
311.5319999999999823
 20
36.5837999999999965
 30
0.0
 70
    32
  0
VERTEX
  5
52E6
  8
241
 10
311.535000000000025
 20
36.5932000000000102
 30
0.0
 70
    32
  0
VERTEX
  5
52E7
  8
241
 10
311.5380000000000109
 20
36.6026000000000025
 30
0.0
 70
    32
  0
VERTEX
  5
52E8
  8
241
 10
311.5409999999999968
 20
36.6120000000000019
 30
0.0
 70
    32
  0
VERTEX
  5
52E9
  8
241
 10
311.5439999999999827
 20
36.6214000000000013
 30
0.0
 70
    32
  0
VERTEX
  5
52EA
  8
241
 10
311.5470000000000255
 20
36.6308000000000007
 30
0.0
 70
    32
  0
VERTEX
  5
52EB
  8
241
 10
311.5500000000000114
 20
36.6402000000000001
 30
0.0
 70
    32
  0
VERTEX
  5
52EC
  8
241
 10
311.5529999999999973
 20
36.6495999999999995
 30
0.0
 70
    32
  0
VERTEX
  5
52ED
  8
241
 10
311.5570000000000164
 20
36.6589999999999989
 30
0.0
 70
    32
  0
VERTEX
  5
52EE
  8
241
 10
311.5600000000000023
 20
36.6683999999999983
 30
0.0
 70
    32
  0
VERTEX
  5
52EF
  8
241
 10
311.5629999999999882
 20
36.6777999999999977
 30
0.0
 70
    32
  0
VERTEX
  5
52F0
  8
241
 10
311.5659999999999741
 20
36.6871999999999971
 30
0.0
 70
    32
  0
VERTEX
  5
52F1
  8
241
 10
311.5690000000000168
 20
36.6965999999999966
 30
0.0
 70
    32
  0
VERTEX
  5
52F2
  8
241
 10
311.5729999999999791
 20
36.7060000000000031
 30
0.0
 70
    32
  0
VERTEX
  5
52F3
  8
241
 10
311.5760000000000218
 20
36.7154000000000025
 30
0.0
 70
    32
  0
VERTEX
  5
52F4
  8
241
 10
311.5790000000000077
 20
36.7248999999999981
 30
0.0
 70
    32
  0
VERTEX
  5
52F5
  8
241
 10
311.5819999999999936
 20
36.7342999999999975
 30
0.0
 70
    32
  0
VERTEX
  5
52F6
  8
241
 10
311.5860000000000127
 20
36.7436999999999969
 30
0.0
 70
    32
  0
VERTEX
  5
52F7
  8
241
 10
311.5889999999999986
 20
36.7531000000000034
 30
0.0
 70
    32
  0
VERTEX
  5
52F8
  8
241
 10
311.5919999999999845
 20
36.7625000000000028
 30
0.0
 70
    32
  0
VERTEX
  5
52F9
  8
241
 10
311.5960000000000036
 20
36.7719000000000023
 30
0.0
 70
    32
  0
VERTEX
  5
52FA
  8
241
 10
311.5989999999999895
 20
36.7813000000000017
 30
0.0
 70
    32
  0
VERTEX
  5
52FB
  8
241
 10
311.6019999999999754
 20
36.7907000000000011
 30
0.0
 70
    32
  0
VERTEX
  5
52FC
  8
241
 10
311.6059999999999945
 20
36.8001000000000005
 30
0.0
 70
    32
  0
VERTEX
  5
52FD
  8
241
 10
311.6089999999999804
 20
36.8094999999999999
 30
0.0
 70
    32
  0
VERTEX
  5
52FE
  8
241
 10
311.6120000000000232
 20
36.8188999999999993
 30
0.0
 70
    32
  0
VERTEX
  5
52FF
  8
241
 10
311.6159999999999854
 20
36.8282999999999987
 30
0.0
 70
    32
  0
VERTEX
  5
5300
  8
241
 10
311.6190000000000282
 20
36.8376999999999981
 30
0.0
 70
    32
  0
VERTEX
  5
5301
  8
241
 10
311.6229999999999905
 20
36.8470999999999975
 30
0.0
 70
    32
  0
VERTEX
  5
5302
  8
241
 10
311.6259999999999764
 20
36.8564000000000007
 30
0.0
 70
    32
  0
VERTEX
  5
5303
  8
241
 10
311.6290000000000191
 20
36.8658000000000001
 30
0.0
 70
    32
  0
VERTEX
  5
5304
  8
241
 10
311.6329999999999814
 20
36.8751999999999995
 30
0.0
 70
    32
  0
VERTEX
  5
5305
  8
241
 10
311.6360000000000241
 20
36.8845999999999989
 30
0.0
 70
    32
  0
VERTEX
  5
5306
  8
241
 10
311.6399999999999864
 20
36.8939999999999984
 30
0.0
 70
    32
  0
VERTEX
  5
5307
  8
241
 10
311.6429999999999723
 20
36.9033999999999978
 30
0.0
 70
    32
  0
VERTEX
  5
5308
  8
241
 10
311.6469999999999914
 20
36.9127999999999972
 30
0.0
 70
    32
  0
VERTEX
  5
5309
  8
241
 10
311.6499999999999773
 20
36.9221000000000004
 30
0.0
 70
    32
  0
VERTEX
  5
530A
  8
241
 10
311.6539999999999964
 20
36.9314999999999998
 30
0.0
 70
    32
  0
VERTEX
  5
530B
  8
241
 10
311.6569999999999823
 20
36.9408999999999992
 30
0.0
 70
    32
  0
VERTEX
  5
530C
  8
241
 10
311.6610000000000014
 20
36.9502999999999986
 30
0.0
 70
    32
  0
VERTEX
  5
530D
  8
241
 10
311.6650000000000205
 20
36.9596000000000018
 30
0.0
 70
    32
  0
VERTEX
  5
530E
  8
241
 10
311.6680000000000064
 20
36.9690000000000012
 30
0.0
 70
    32
  0
VERTEX
  5
530F
  8
241
 10
311.6720000000000255
 20
36.9784000000000006
 30
0.0
 70
    32
  0
VERTEX
  5
5310
  8
241
 10
311.6750000000000114
 20
36.9876999999999967
 30
0.0
 70
    32
  0
VERTEX
  5
5311
  8
241
 10
311.6789999999999736
 20
36.9971000000000032
 30
0.0
 70
    32
  0
VERTEX
  5
5312
  8
241
 10
311.6829999999999927
 20
37.0063999999999993
 30
0.0
 70
    32
  0
VERTEX
  5
5313
  8
241
 10
311.6859999999999786
 20
37.0157999999999987
 30
0.0
 70
    32
  0
VERTEX
  5
5314
  8
241
 10
311.6899999999999977
 20
37.0251999999999981
 30
0.0
 70
    32
  0
VERTEX
  5
5315
  8
241
 10
311.6940000000000168
 20
37.0345000000000013
 30
0.0
 70
    32
  0
VERTEX
  5
5316
  8
241
 10
311.6970000000000027
 20
37.0437999999999974
 30
0.0
 70
    32
  0
VERTEX
  5
5317
  8
241
 10
311.7010000000000218
 20
37.0531999999999968
 30
0.0
 70
    32
  0
VERTEX
  5
5318
  8
241
 10
311.7049999999999841
 20
37.0625
 30
0.0
 70
    32
  0
VERTEX
  5
5319
  8
241
 10
311.7080000000000268
 20
37.0718999999999994
 30
0.0
 70
    32
  0
VERTEX
  5
531A
  8
241
 10
311.7119999999999891
 20
37.0812000000000026
 30
0.0
 70
    32
  0
VERTEX
  5
531B
  8
241
 10
311.7160000000000082
 20
37.0904999999999987
 30
0.0
 70
    32
  0
VERTEX
  5
531C
  8
241
 10
311.7200000000000273
 20
37.0998999999999981
 30
0.0
 70
    32
  0
VERTEX
  5
531D
  8
241
 10
311.7230000000000132
 20
37.1092000000000013
 30
0.0
 70
    32
  0
VERTEX
  5
531E
  8
241
 10
311.7269999999999754
 20
37.1184999999999974
 30
0.0
 70
    32
  0
VERTEX
  5
531F
  8
241
 10
311.7309999999999945
 20
37.1278000000000006
 30
0.0
 70
    32
  0
VERTEX
  5
5320
  8
241
 10
311.7350000000000136
 20
37.1370999999999967
 30
0.0
 70
    32
  0
VERTEX
  5
5321
  8
241
 10
311.7379999999999995
 20
37.1463999999999999
 30
0.0
 70
    32
  0
VERTEX
  5
5322
  8
241
 10
311.7420000000000186
 20
37.1557000000000031
 30
0.0
 70
    32
  0
VERTEX
  5
5323
  8
241
 10
311.7459999999999809
 20
37.1649999999999991
 30
0.0
 70
    32
  0
VERTEX
  5
5324
  8
241
 10
311.75
 20
37.1743000000000023
 30
0.0
 70
    32
  0
VERTEX
  5
5325
  8
241
 10
311.7540000000000191
 20
37.1835999999999984
 30
0.0
 70
    32
  0
VERTEX
  5
5326
  8
241
 10
311.7579999999999814
 20
37.1929000000000016
 30
0.0
 70
    32
  0
VERTEX
  5
5327
  8
241
 10
311.7620000000000005
 20
37.2021999999999977
 30
0.0
 70
    32
  0
VERTEX
  5
5328
  8
241
 10
311.7649999999999864
 20
37.2113999999999976
 30
0.0
 70
    32
  0
VERTEX
  5
5329
  8
241
 10
311.7690000000000055
 20
37.2207000000000008
 30
0.0
 70
    32
  0
VERTEX
  5
532A
  8
241
 10
311.7730000000000246
 20
37.2299999999999969
 30
0.0
 70
    32
  0
VERTEX
  5
532B
  8
241
 10
311.7769999999999868
 20
37.2391999999999967
 30
0.0
 70
    32
  0
VERTEX
  5
532C
  8
241
 10
311.7810000000000059
 20
37.2484999999999999
 30
0.0
 70
    32
  0
VERTEX
  5
532D
  8
241
 10
311.785000000000025
 20
37.2578000000000031
 30
0.0
 70
    32
  0
SEQEND
  5
532E
  8
241
  0
POLYLINE
  5
532F
  8
241
 66
     1
 10
0.0
 20
0.0
 30
0.0
 70
     8
  0
VERTEX
  5
5330
  8
241
 10
311.785000000000025
 20
37.2578000000000031
 30
0.0
 70
    32
  0
VERTEX
  5
5331
  8
241
 10
311.7980000000000018
 20
37.2884000000000029
 30
0.0
 70
    32
  0
VERTEX
  5
5332
  8
241
 10
311.8109999999999786
 20
37.3188999999999993
 30
0.0
 70
    32
  0
VERTEX
  5
5333
  8
241
 10
311.8249999999999886
 20
37.349499999999999
 30
0.0
 70
    32
  0
VERTEX
  5
5334
  8
241
 10
311.8380000000000223
 20
37.3798999999999992
 30
0.0
 70
    32
  0
VERTEX
  5
5335
  8
241
 10
311.8519999999999754
 20
37.4104000000000028
 30
0.0
 70
    32
  0
VERTEX
  5
5336
  8
241
 10
311.8650000000000091
 20
37.440800000000003
 30
0.0
 70
    32
  0
VERTEX
  5
5337
  8
241
 10
311.8790000000000191
 20
37.4710999999999999
 30
0.0
 70
    32
  0
VERTEX
  5
5338
  8
241
 10
311.8929999999999723
 20
37.5013999999999967
 30
0.0
 70
    32
  0
VERTEX
  5
5339
  8
241
 10
311.9069999999999823
 20
37.5315999999999974
 30
0.0
 70
    32
  0
VERTEX
  5
533A
  8
241
 10
311.9209999999999923
 20
37.5617999999999981
 30
0.0
 70
    32
  0
VERTEX
  5
533B
  8
241
 10
311.9350000000000023
 20
37.5919999999999987
 30
0.0
 70
    32
  0
VERTEX
  5
533C
  8
241
 10
311.9490000000000123
 20
37.6221000000000032
 30
0.0
 70
    32
  0
VERTEX
  5
533D
  8
241
 10
311.9639999999999986
 20
37.6520999999999972
 30
0.0
 70
    32
  0
VERTEX
  5
533E
  8
241
 10
311.9780000000000086
 20
37.6822000000000017
 30
0.0
 70
    32
  0
VERTEX
  5
533F
  8
241
 10
311.992999999999995
 20
37.7120999999999995
 30
0.0
 70
    32
  0
VERTEX
  5
5340
  8
241
 10
312.0079999999999814
 20
37.7419999999999973
 30
0.0
 70
    32
  0
VERTEX
  5
5341
  8
241
 10
312.0219999999999914
 20
37.7719000000000023
 30
0.0
 70
    32
  0
VERTEX
  5
5342
  8
241
 10
312.0369999999999777
 20
37.8016999999999967
 30
0.0
 70
    32
  0
VERTEX
  5
5343
  8
241
 10
312.0520000000000209
 20
37.8314000000000021
 30
0.0
 70
    32
  0
VERTEX
  5
5344
  8
241
 10
312.0670000000000073
 20
37.8611000000000004
 30
0.0
 70
    32
  0
VERTEX
  5
5345
  8
241
 10
312.0819999999999936
 20
37.8907999999999987
 30
0.0
 70
    32
  0
VERTEX
  5
5346
  8
241
 10
312.0980000000000132
 20
37.9204000000000008
 30
0.0
 70
    32
  0
VERTEX
  5
5347
  8
241
 10
312.1129999999999995
 20
37.9500000000000028
 30
0.0
 70
    32
  0
VERTEX
  5
5348
  8
241
 10
312.1279999999999859
 20
37.9795000000000016
 30
0.0
 70
    32
  0
VERTEX
  5
5349
  8
241
 10
312.1440000000000055
 20
38.008899999999997
 30
0.0
 70
    32
  0
VERTEX
  5
534A
  8
241
 10
312.160000000000025
 20
38.0382999999999996
 30
0.0
 70
    32
  0
VERTEX
  5
534B
  8
241
 10
312.1750000000000114
 20
38.0677000000000021
 30
0.0
 70
    32
  0
VERTEX
  5
534C
  8
241
 10
312.1909999999999741
 20
38.096899999999998
 30
0.0
 70
    32
  0
VERTEX
  5
534D
  8
241
 10
312.2069999999999936
 20
38.1261999999999972
 30
0.0
 70
    32
  0
VERTEX
  5
534E
  8
241
 10
312.2230000000000132
 20
38.1554000000000002
 30
0.0
 70
    32
  0
VERTEX
  5
534F
  8
241
 10
312.2389999999999759
 20
38.1844999999999999
 30
0.0
 70
    32
  0
VERTEX
  5
5350
  8
241
 10
312.2559999999999718
 20
38.2135999999999996
 30
0.0
 70
    32
  0
VERTEX
  5
5351
  8
241
 10
312.2719999999999914
 20
38.2426000000000101
 30
0.0
 70
    32
  0
VERTEX
  5
5352
  8
241
 10
312.2880000000000109
 20
38.2715999999999994
 30
0.0
 70
    32
  0
VERTEX
  5
5353
  8
241
 10
312.3050000000000068
 20
38.3004999999999995
 30
0.0
 70
    32
  0
VERTEX
  5
5354
  8
241
 10
312.3220000000000027
 20
38.3293999999999997
 30
0.0
 70
    32
  0
VERTEX
  5
5355
  8
241
 10
312.3380000000000223
 20
38.3581999999999965
 30
0.0
 70
    32
  0
VERTEX
  5
5356
  8
241
 10
312.3550000000000182
 20
38.3868999999999971
 30
0.0
 70
    32
  0
VERTEX
  5
5357
  8
241
 10
312.3720000000000141
 20
38.4155999999999977
 30
0.0
 70
    32
  0
VERTEX
  5
5358
  8
241
 10
312.38900000000001
 20
38.4442999999999984
 30
0.0
 70
    32
  0
VERTEX
  5
5359
  8
241
 10
312.4060000000000059
 20
38.4729000000000028
 30
0.0
 70
    32
  0
VERTEX
  5
535A
  8
241
 10
312.4230000000000018
 20
38.5013999999999967
 30
0.0
 70
    32
  0
VERTEX
  5
535B
  8
241
 10
312.4409999999999741
 20
38.5298999999999978
 30
0.0
 70
    32
  0
VERTEX
  5
535C
  8
241
 10
312.4580000000000268
 20
38.5583000000000027
 30
0.0
 70
    32
  0
VERTEX
  5
535D
  8
241
 10
312.4759999999999991
 20
38.5865999999999971
 30
0.0
 70
    32
  0
VERTEX
  5
535E
  8
241
 10
312.492999999999995
 20
38.6148999999999987
 30
0.0
 70
    32
  0
VERTEX
  5
535F
  8
241
 10
312.5110000000000241
 20
38.6432000000000002
 30
0.0
 70
    32
  0
VERTEX
  5
5360
  8
241
 10
312.5289999999999964
 20
38.6713999999999984
 30
0.0
 70
    32
  0
VERTEX
  5
5361
  8
241
 10
312.5470000000000255
 20
38.6995000000000005
 30
0.0
 70
    32
  0
VERTEX
  5
5362
  8
241
 10
312.5649999999999977
 20
38.7274999999999991
 30
0.0
 70
    32
  0
VERTEX
  5
5363
  8
241
 10
312.5830000000000268
 20
38.7556000000000012
 30
0.0
 70
    32
  0
VERTEX
  5
5364
  8
241
 10
312.6009999999999991
 20
38.7834999999999965
 30
0.0
 70
    32
  0
VERTEX
  5
5365
  8
241
 10
312.6190000000000282
 20
38.811399999999999
 30
0.0
 70
    32
  0
VERTEX
  5
5366
  8
241
 10
312.6379999999999768
 20
38.8391999999999982
 30
0.0
 70
    32
  0
VERTEX
  5
5367
  8
241
 10
312.6560000000000059
 20
38.8669999999999973
 30
0.0
 70
    32
  0
VERTEX
  5
5368
  8
241
 10
312.6750000000000114
 20
38.8947000000000003
 30
0.0
 70
    32
  0
VERTEX
  5
5369
  8
241
 10
312.6929999999999836
 20
38.9222999999999999
 30
0.0
 70
    32
  0
VERTEX
  5
536A
  8
241
 10
312.7119999999999891
 20
38.9498999999999995
 30
0.0
 70
    32
  0
VERTEX
  5
536B
  8
241
 10
312.7309999999999945
 20
38.9774999999999991
 30
0.0
 70
    32
  0
VERTEX
  5
536C
  8
241
 10
312.75
 20
39.0048999999999992
 30
0.0
 70
    32
  0
VERTEX
  5
536D
  8
241
 10
312.7690000000000055
 20
39.0322999999999993
 30
0.0
 70
    32
  0
VERTEX
  5
536E
  8
241
 10
312.7880000000000109
 20
39.0596999999999994
 30
0.0
 70
    32
  0
VERTEX
  5
536F
  8
241
 10
312.8070000000000164
 20
39.0870000000000104
 30
0.0
 70
    32
  0
VERTEX
  5
5370
  8
241
 10
312.8260000000000218
 20
39.1141999999999967
 30
0.0
 70
    32
  0
VERTEX
  5
5371
  8
241
 10
312.8460000000000036
 20
39.1413000000000011
 30
0.0
 70
    32
  0
VERTEX
  5
5372
  8
241
 10
312.8650000000000091
 20
39.1683999999999983
 30
0.0
 70
    32
  0
VERTEX
  5
5373
  8
241
 10
312.8849999999999909
 20
39.1953999999999994
 30
0.0
 70
    32
  0
VERTEX
  5
5374
  8
241
 10
312.9039999999999964
 20
39.2224000000000004
 30
0.0
 70
    32
  0
VERTEX
  5
5375
  8
241
 10
312.9239999999999782
 20
39.2492999999999981
 30
0.0
 70
    32
  0
VERTEX
  5
5376
  8
241
 10
312.9440000000000168
 20
39.2760999999999996
 30
0.0
 70
    32
  0
VERTEX
  5
5377
  8
241
 10
312.9639999999999986
 20
39.3029000000000011
 30
0.0
 70
    32
  0
VERTEX
  5
5378
  8
241
 10
312.9840000000000941
 20
39.3295999999999992
 30
0.0
 70
    32
  0
VERTEX
  5
5379
  8
241
 10
313.0040000000000191
 20
39.3562000000000012
 30
0.0
 70
    32
  0
VERTEX
  5
537A
  8
241
 10
313.0240000000000009
 20
39.3828000000000102
 30
0.0
 70
    32
  0
VERTEX
  5
537B
  8
241
 10
313.0450000000000159
 20
39.4091999999999985
 30
0.0
 70
    32
  0
VERTEX
  5
537C
  8
241
 10
313.0649999999999977
 20
39.4356000000000009
 30
0.0
 70
    32
  0
VERTEX
  5
537D
  8
241
 10
313.0849999999999795
 20
39.4617999999999967
 30
0.0
 70
    32
  0
VERTEX
  5
537E
  8
241
 10
313.1059999999999945
 20
39.4879999999999995
 30
0.0
 70
    32
  0
VERTEX
  5
537F
  8
241
 10
313.1259999999999764
 20
39.5140999999999991
 30
0.0
 70
    32
  0
VERTEX
  5
5380
  8
241
 10
313.1469999999999914
 20
39.5399999999999991
 30
0.0
 70
    32
  0
VERTEX
  5
5381
  8
241
 10
313.1680000000000064
 20
39.5658999999999992
 30
0.0
 70
    32
  0
VERTEX
  5
5382
  8
241
 10
313.1879999999999882
 20
39.591700000000003
 30
0.0
 70
    32
  0
VERTEX
  5
5383
  8
241
 10
313.2090000000000032
 20
39.6174000000000106
 30
0.0
 70
    32
  0
VERTEX
  5
5384
  8
241
 10
313.2300000000000182
 20
39.6430000000000007
 30
0.0
 70
    32
  0
VERTEX
  5
5385
  8
241
 10
313.2509999999999764
 20
39.6685000000000016
 30
0.0
 70
    32
  0
VERTEX
  5
5386
  8
241
 10
313.2719999999999914
 20
39.6938999999999993
 30
0.0
 70
    32
  0
VERTEX
  5
5387
  8
241
 10
313.2930000000000064
 20
39.7192000000000007
 30
0.0
 70
    32
  0
VERTEX
  5
5388
  8
241
 10
313.3140000000000214
 20
39.7443999999999988
 30
0.0
 70
    32
  0
VERTEX
  5
5389
  8
241
 10
313.3349999999999795
 20
39.769599999999997
 30
0.0
 70
    32
  0
VERTEX
  5
538A
  8
241
 10
313.3570000000000277
 20
39.7946000000000026
 30
0.0
 70
    32
  0
VERTEX
  5
538B
  8
241
 10
313.3779999999999859
 20
39.8194999999999979
 30
0.0
 70
    32
  0
VERTEX
  5
538C
  8
241
 10
313.3990000000000009
 20
39.8444000000000003
 30
0.0
 70
    32
  0
VERTEX
  5
538D
  8
241
 10
313.4209999999999923
 20
39.8691000000000031
 30
0.0
 70
    32
  0
VERTEX
  5
538E
  8
241
 10
313.4420000000000073
 20
39.8937999999999988
 30
0.0
 70
    32
  0
VERTEX
  5
538F
  8
241
 10
313.4639999999999986
 20
39.9183000000000021
 30
0.0
 70
    32
  0
VERTEX
  5
5390
  8
241
 10
313.48599999999999
 20
39.9427999999999983
 30
0.0
 70
    32
  0
VERTEX
  5
5391
  8
241
 10
313.507000000000005
 20
39.9671000000000021
 30
0.0
 70
    32
  0
VERTEX
  5
5392
  8
241
 10
313.5289999999999964
 20
39.9913999999999987
 30
0.0
 70
    32
  0
VERTEX
  5
5393
  8
241
 10
313.5509999999999877
 20
40.0155999999999992
 30
0.0
 70
    32
  0
VERTEX
  5
5394
  8
241
 10
313.5729999999999791
 20
40.0396000000000001
 30
0.0
 70
    32
  0
VERTEX
  5
5395
  8
241
 10
313.5950000000000273
 20
40.0635999999999868
 30
0.0
 70
    32
  0
VERTEX
  5
5396
  8
241
 10
313.6170000000000186
 20
40.0874999999999986
 30
0.0
 70
    32
  0
VERTEX
  5
5397
  8
241
 10
313.63900000000001
 20
40.1113
 30
0.0
 70
    32
  0
VERTEX
  5
5398
  8
241
 10
313.6610000000000014
 20
40.1349000000000018
 30
0.0
 70
    32
  0
VERTEX
  5
5399
  8
241
 10
313.6829999999999927
 20
40.1584999999999894
 30
0.0
 70
    32
  0
VERTEX
  5
539A
  8
241
 10
313.7049999999999841
 20
40.1820000000000022
 30
0.0
 70
    32
  0
VERTEX
  5
539B
  8
241
 10
313.7269999999999754
 20
40.2053999999999903
 30
0.0
 70
    32
  0
VERTEX
  5
539C
  8
241
 10
313.75
 20
40.2287000000000035
 30
0.0
 70
    32
  0
VERTEX
  5
539D
  8
241
 10
313.7719999999999914
 20
40.2518999999999991
 30
0.0
 70
    32
  0
VERTEX
  5
539E
  8
241
 10
313.7950000000000159
 20
40.2749999999999915
 30
0.0
 70
    32
  0
VERTEX
  5
539F
  8
241
 10
313.8170000000000073
 20
40.2980000000000018
 30
0.0
 70
    32
  0
VERTEX
  5
53A0
  8
241
 10
313.839999999999975
 20
40.3209000000000017
 30
0.0
 70
    32
  0
VERTEX
  5
53A1
  8
241
 10
313.8620000000000232
 20
40.3436999999999983
 30
0.0
 70
    32
  0
VERTEX
  5
53A2
  8
241
 10
313.8849999999999909
 20
40.3663999999999987
 30
0.0
 70
    32
  0
VERTEX
  5
53A3
  8
241
 10
313.9080000000000155
 20
40.3890000000000029
 30
0.0
 70
    32
  0
VERTEX
  5
53A4
  8
241
 10
313.9309999999999832
 20
40.4114999999999966
 30
0.0
 70
    32
  0
VERTEX
  5
53A5
  8
241
 10
313.9529999999999745
 20
40.4339000000000013
 30
0.0
 70
    32
  0
VERTEX
  5
53A6
  8
241
 10
313.9759999999999991
 20
40.4562000000000026
 30
0.0
 70
    32
  0
VERTEX
  5
53A7
  8
241
 10
313.9990000000000236
 20
40.4783999999999935
 30
0.0
 70
    32
  0
VERTEX
  5
53A8
  8
241
 10
314.0219999999999914
 20
40.5005000000000024
 30
0.0
 70
    32
  0
VERTEX
  5
53A9
  8
241
 10
314.0450000000000159
 20
40.5224999999999866
 30
0.0
 70
    32
  0
VERTEX
  5
53AA
  8
241
 10
314.0679999999999836
 20
40.5444000000000031
 30
0.0
 70
    32
  0
VERTEX
  5
53AB
  8
241
 10
314.0919999999999845
 20
40.566200000000002
 30
0.0
 70
    32
  0
VERTEX
  5
53AC
  8
241
 10
314.1150000000000091
 20
40.5878999999999976
 30
0.0
 70
    32
  0
VERTEX
  5
53AD
  8
241
 10
314.1379999999999768
 20
40.609499999999997
 30
0.0
 70
    32
  0
VERTEX
  5
53AE
  8
241
 10
314.1610000000000014
 20
40.6310000000000002
 30
0.0
 70
    32
  0
VERTEX
  5
53AF
  8
241
 10
314.1850000000000023
 20
40.6524000000000001
 30
0.0
 70
    32
  0
VERTEX
  5
53B0
  8
241
 10
314.2080000000000268
 20
40.6736999999999895
 30
0.0
 70
    32
  0
VERTEX
  5
53B1
  8
241
 10
314.2320000000000277
 20
40.694899999999997
 30
0.0
 70
    32
  0
VERTEX
  5
53B2
  8
241
 10
314.2549999999999955
 20
40.7160000000000011
 30
0.0
 70
    32
  0
VERTEX
  5
53B3
  8
241
 10
314.2789999999999964
 20
40.7370000000000019
 30
0.0
 70
    32
  0
VERTEX
  5
53B4
  8
241
 10
314.3020000000000209
 20
40.7578999999999994
 30
0.0
 70
    32
  0
VERTEX
  5
53B5
  8
241
 10
314.3260000000000218
 20
40.7786999999999935
 30
0.0
 70
    32
  0
VERTEX
  5
53B6
  8
241
 10
314.3500000000000227
 20
40.7993999999999915
 30
0.0
 70
    32
  0
VERTEX
  5
53B7
  8
241
 10
314.3729999999999905
 20
40.8199999999999932
 30
0.0
 70
    32
  0
VERTEX
  5
53B8
  8
241
 10
314.3969999999999914
 20
40.8404999999999987
 30
0.0
 70
    32
  0
VERTEX
  5
53B9
  8
241
 10
314.4209999999999923
 20
40.8609000000000009
 30
0.0
 70
    32
  0
VERTEX
  5
53BA
  8
241
 10
314.4449999999999932
 20
40.8811999999999927
 30
0.0
 70
    32
  0
VERTEX
  5
53BB
  8
241
 10
314.4689999999999941
 20
40.9012999999999991
 30
0.0
 70
    32
  0
VERTEX
  5
53BC
  8
241
 10
314.492999999999995
 20
40.9213999999999913
 30
0.0
 70
    32
  0
VERTEX
  5
53BD
  8
241
 10
314.5169999999999959
 20
40.9414000000000016
 30
0.0
 70
    32
  0
VERTEX
  5
53BE
  8
241
 10
314.5409999999999968
 20
40.9613000000000014
 30
0.0
 70
    32
  0
VERTEX
  5
53BF
  8
241
 10
314.5649999999999977
 20
40.9810000000000016
 30
0.0
 70
    32
  0
VERTEX
  5
53C0
  8
241
 10
314.5889999999999986
 20
41.0007000000000019
 30
0.0
 70
    32
  0
VERTEX
  5
53C1
  8
241
 10
314.6129999999999995
 20
41.0202999999999989
 30
0.0
 70
    32
  0
VERTEX
  5
53C2
  8
241
 10
314.6379999999999768
 20
41.0397999999999925
 30
0.0
 70
    32
  0
VERTEX
  5
53C3
  8
241
 10
314.6619999999999777
 20
41.0591000000000008
 30
0.0
 70
    32
  0
VERTEX
  5
53C4
  8
241
 10
314.6859999999999786
 20
41.078400000000002
 30
0.0
 70
    32
  0
VERTEX
  5
53C5
  8
241
 10
314.7110000000000127
 20
41.0974999999999966
 30
0.0
 70
    32
  0
VERTEX
  5
53C6
  8
241
 10
314.7350000000000136
 20
41.1165999999999912
 30
0.0
 70
    32
  0
VERTEX
  5
53C7
  8
241
 10
314.7590000000000146
 20
41.1355000000000004
 30
0.0
 70
    32
  0
VERTEX
  5
53C8
  8
241
 10
314.7839999999999918
 20
41.1544000000000025
 30
0.0
 70
    32
  0
VERTEX
  5
53C9
  8
241
 10
314.8079999999999927
 20
41.1730999999999909
 30
0.0
 70
    32
  0
VERTEX
  5
53CA
  8
241
 10
314.8330000000000268
 20
41.1916999999999902
 30
0.0
 70
    32
  0
VERTEX
  5
53CB
  8
241
 10
314.8580000000000041
 20
41.2102999999999966
 30
0.0
 70
    32
  0
VERTEX
  5
53CC
  8
241
 10
314.882000000000005
 20
41.2287000000000035
 30
0.0
 70
    32
  0
VERTEX
  5
53CD
  8
241
 10
314.9069999999999823
 20
41.2469999999999928
 30
0.0
 70
    32
  0
VERTEX
  5
53CE
  8
241
 10
314.9320000000000164
 20
41.2652000000000001
 30
0.0
 70
    32
  0
VERTEX
  5
53CF
  8
241
 10
314.9560000000000173
 20
41.283299999999997
 30
0.0
 70
    32
  0
VERTEX
  5
53D0
  8
241
 10
314.9809999999999945
 20
41.3012999999999977
 30
0.0
 70
    32
  0
VERTEX
  5
53D1
  8
241
 10
315.0059999999999718
 20
41.3192000000000021
 30
0.0
 70
    32
  0
VERTEX
  5
53D2
  8
241
 10
315.0310000000000059
 20
41.3370000000000033
 30
0.0
 70
    32
  0
VERTEX
  5
53D3
  8
241
 10
315.0559999999999832
 20
41.3547000000000011
 30
0.0
 70
    32
  0
VERTEX
  5
53D4
  8
241
 10
315.0810000000000173
 20
41.3723000000000027
 30
0.0
 70
    32
  0
VERTEX
  5
53D5
  8
241
 10
315.1059999999999945
 20
41.389800000000001
 30
0.0
 70
    32
  0
VERTEX
  5
53D6
  8
241
 10
315.1309999999999718
 20
41.4070999999999998
 30
0.0
 70
    32
  0
VERTEX
  5
53D7
  8
241
 10
315.1560000000000059
 20
41.4243999999999915
 30
0.0
 70
    32
  0
VERTEX
  5
53D8
  8
241
 10
315.1809999999999832
 20
41.4414999999999907
 30
0.0
 70
    32
  0
VERTEX
  5
53D9
  8
241
 10
315.2060000000000173
 20
41.4585999999999899
 30
0.0
 70
    32
  0
VERTEX
  5
53DA
  8
241
 10
315.2309999999999945
 20
41.4754999999999896
 30
0.0
 70
    32
  0
VERTEX
  5
53DB
  8
241
 10
315.2559999999999718
 20
41.4924000000000035
 30
0.0
 70
    32
  0
VERTEX
  5
53DC
  8
241
 10
315.2810000000000059
 20
41.5090999999999894
 30
0.0
 70
    32
  0
VERTEX
  5
53DD
  8
241
 10
315.3070000000000164
 20
41.5256999999999934
 30
0.0
 70
    32
  0
VERTEX
  5
53DE
  8
241
 10
315.3319999999999936
 20
41.5422000000000011
 30
0.0
 70
    32
  0
VERTEX
  5
53DF
  8
241
 10
315.3570000000000277
 20
41.5585999999999913
 30
0.0
 70
    32
  0
VERTEX
  5
53E0
  8
241
 10
315.3829999999999814
 20
41.5748999999999995
 30
0.0
 70
    32
  0
VERTEX
  5
53E1
  8
241
 10
315.4080000000000155
 20
41.5910999999999973
 30
0.0
 70
    32
  0
VERTEX
  5
53E2
  8
241
 10
315.4329999999999927
 20
41.6071999999999989
 30
0.0
 70
    32
  0
VERTEX
  5
53E3
  8
241
 10
315.4590000000000032
 20
41.6231999999999971
 30
0.0
 70
    32
  0
VERTEX
  5
53E4
  8
241
 10
315.4839999999999804
 20
41.6390000000000029
 30
0.0
 70
    32
  0
VERTEX
  5
53E5
  8
241
 10
315.5099999999999909
 20
41.6548000000000016
 30
0.0
 70
    32
  0
VERTEX
  5
53E6
  8
241
 10
315.535000000000025
 20
41.6704000000000008
 30
0.0
 70
    32
  0
VERTEX
  5
53E7
  8
241
 10
315.5609999999999786
 20
41.6859999999999999
 30
0.0
 70
    32
  0
VERTEX
  5
53E8
  8
241
 10
315.5869999999999891
 20
41.7013999999999925
 30
0.0
 70
    32
  0
VERTEX
  5
53E9
  8
241
 10
315.6120000000000232
 20
41.716700000000003
 30
0.0
 70
    32
  0
VERTEX
  5
53EA
  8
241
 10
315.6379999999999768
 20
41.7319999999999993
 30
0.0
 70
    32
  0
VERTEX
  5
53EB
  8
241
 10
315.6630000000000109
 20
41.7471000000000032
 30
0.0
 70
    32
  0
VERTEX
  5
53EC
  8
241
 10
315.6890000000000214
 20
41.7620000000000005
 30
0.0
 70
    32
  0
VERTEX
  5
53ED
  8
241
 10
315.714999999999975
 20
41.7768999999999977
 30
0.0
 70
    32
  0
VERTEX
  5
53EE
  8
241
 10
315.7400000000000091
 20
41.7916999999999987
 30
0.0
 70
    32
  0
VERTEX
  5
53EF
  8
241
 10
315.7660000000000196
 20
41.8062999999999931
 30
0.0
 70
    32
  0
VERTEX
  5
53F0
  8
241
 10
315.7919999999999732
 20
41.8207999999999984
 30
0.0
 70
    32
  0
VERTEX
  5
53F1
  8
241
 10
315.8179999999999836
 20
41.8352000000000004
 30
0.0
 70
    32
  0
VERTEX
  5
53F2
  8
241
 10
315.8430000000000177
 20
41.8494999999999919
 30
0.0
 70
    32
  0
VERTEX
  5
53F3
  8
241
 10
315.8690000000000282
 20
41.8637000000000015
 30
0.0
 70
    32
  0
VERTEX
  5
53F4
  8
241
 10
315.8949999999999818
 20
41.8776999999999902
 30
0.0
 70
    32
  0
VERTEX
  5
53F5
  8
241
 10
315.9209999999999923
 20
41.8916999999999931
 30
0.0
 70
    32
  0
VERTEX
  5
53F6
  8
241
 10
315.9470000000000027
 20
41.9055000000000035
 30
0.0
 70
    32
  0
VERTEX
  5
53F7
  8
241
 10
315.9730000000000132
 20
41.9191999999999894
 30
0.0
 70
    32
  0
VERTEX
  5
53F8
  8
241
 10
315.9979999999999905
 20
41.9328000000000003
 30
0.0
 70
    32
  0
VERTEX
  5
53F9
  8
241
 10
316.0240000000000009
 20
41.9463000000000008
 30
0.0
 70
    32
  0
VERTEX
  5
53FA
  8
241
 10
316.0500000000000114
 20
41.9596999999999909
 30
0.0
 70
    32
  0
VERTEX
  5
53FB
  8
241
 10
316.0760000000000218
 20
41.9729000000000028
 30
0.0
 70
    32
  0
VERTEX
  5
53FC
  8
241
 10
316.1020000000000891
 20
41.9861000000000004
 30
0.0
 70
    32
  0
VERTEX
  5
53FD
  8
241
 10
316.1279999999999859
 20
41.9990999999999985
 30
0.0
 70
    32
  0
VERTEX
  5
53FE
  8
241
 10
316.1539999999999964
 20
42.0120000000000005
 30
0.0
 70
    32
  0
VERTEX
  5
53FF
  8
241
 10
316.1800000000000068
 20
42.024799999999999
 30
0.0
 70
    32
  0
VERTEX
  5
5400
  8
241
 10
316.2060000000000173
 20
42.037399999999991
 30
0.0
 70
    32
  0
VERTEX
  5
5401
  8
241
 10
316.2320000000000277
 20
42.0499999999999972
 30
0.0
 70
    32
  0
VERTEX
  5
5402
  8
241
 10
316.2579999999999814
 20
42.0623999999999967
 30
0.0
 70
    32
  0
VERTEX
  5
5403
  8
241
 10
316.2839999999999918
 20
42.0748000000000033
 30
0.0
 70
    32
  0
VERTEX
  5
5404
  8
241
 10
316.3090000000000259
 20
42.0870000000000033
 30
0.0
 70
    32
  0
VERTEX
  5
5405
  8
241
 10
316.3349999999999795
 20
42.0990999999999929
 30
0.0
 70
    32
  0
VERTEX
  5
5406
  8
241
 10
316.36099999999999
 20
42.1109999999999971
 30
0.0
 70
    32
  0
VERTEX
  5
5407
  8
241
 10
316.3870000000000005
 20
42.1229000000000013
 30
0.0
 70
    32
  0
VERTEX
  5
5408
  8
241
 10
316.4130000000000109
 20
42.1345999999999989
 30
0.0
 70
    32
  0
VERTEX
  5
5409
  8
241
 10
316.4399999999999977
 20
42.1462999999999894
 30
0.0
 70
    32
  0
VERTEX
  5
540A
  8
241
 10
316.4660000000000082
 20
42.1578000000000017
 30
0.0
 70
    32
  0
VERTEX
  5
540B
  8
241
 10
316.4920000000000186
 20
42.1691999999999965
 30
0.0
 70
    32
  0
VERTEX
  5
540C
  8
241
 10
316.5179999999999723
 20
42.1805000000000021
 30
0.0
 70
    32
  0
VERTEX
  5
540D
  8
241
 10
316.5439999999999827
 20
42.1916000000000011
 30
0.0
 70
    32
  0
VERTEX
  5
540E
  8
241
 10
316.5699999999999932
 20
42.2027000000000001
 30
0.0
 70
    32
  0
VERTEX
  5
540F
  8
241
 10
316.5960000000000036
 20
42.2135999999999925
 30
0.0
 70
    32
  0
VERTEX
  5
5410
  8
241
 10
316.6220000000000141
 20
42.224499999999999
 30
0.0
 70
    32
  0
VERTEX
  5
5411
  8
241
 10
316.6480000000000246
 20
42.2351999999999919
 30
0.0
 70
    32
  0
VERTEX
  5
5412
  8
241
 10
316.6739999999999782
 20
42.2458000000000027
 30
0.0
 70
    32
  0
VERTEX
  5
5413
  8
241
 10
316.6999999999999886
 20
42.2561999999999998
 30
0.0
 70
    32
  0
VERTEX
  5
5414
  8
241
 10
316.7259999999999991
 20
42.2665999999999897
 30
0.0
 70
    32
  0
VERTEX
  5
5415
  8
241
 10
316.7520000000000095
 20
42.2768000000000015
 30
0.0
 70
    32
  0
VERTEX
  5
5416
  8
241
 10
316.77800000000002
 20
42.2869999999999919
 30
0.0
 70
    32
  0
VERTEX
  5
5417
  8
241
 10
316.8039999999999736
 20
42.296999999999997
 30
0.0
 70
    32
  0
VERTEX
  5
5418
  8
241
 10
316.8299999999999841
 20
42.3068999999999988
 30
0.0
 70
    32
  0
VERTEX
  5
5419
  8
241
 10
316.8559999999999945
 20
42.3166000000000011
 30
0.0
 70
    32
  0
VERTEX
  5
541A
  8
241
 10
316.8829999999999814
 20
42.3263000000000034
 30
0.0
 70
    32
  0
VERTEX
  5
541B
  8
241
 10
316.9089999999999918
 20
42.3357999999999919
 30
0.0
 70
    32
  0
VERTEX
  5
541C
  8
241
 10
316.9350000000000023
 20
42.3453000000000017
 30
0.0
 70
    32
  0
VERTEX
  5
541D
  8
241
 10
316.9610000000000127
 20
42.3545999999999907
 30
0.0
 70
    32
  0
VERTEX
  5
541E
  8
241
 10
316.9870000000000232
 20
42.3637999999999906
 30
0.0
 70
    32
  0
VERTEX
  5
541F
  8
241
 10
317.0129999999999768
 20
42.3729000000000013
 30
0.0
 70
    32
  0
VERTEX
  5
5420
  8
241
 10
317.0389999999999873
 20
42.3817999999999913
 30
0.0
 70
    32
  0
VERTEX
  5
5421
  8
241
 10
317.0649999999999977
 20
42.3907000000000025
 30
0.0
 70
    32
  0
VERTEX
  5
5422
  8
241
 10
317.0910000000000082
 20
42.3993999999999929
 30
0.0
 70
    32
  0
VERTEX
  5
5423
  8
241
 10
317.1170000000000186
 20
42.4080999999999904
 30
0.0
 70
    32
  0
VERTEX
  5
5424
  8
241
 10
317.1429999999999723
 20
42.4166000000000025
 30
0.0
 70
    32
  0
VERTEX
  5
5425
  8
241
 10
317.1689999999999827
 20
42.4249000000000009
 30
0.0
 70
    32
  0
VERTEX
  5
5426
  8
241
 10
317.1960000000000264
 20
42.4331999999999923
 30
0.0
 70
    32
  0
VERTEX
  5
5427
  8
241
 10
317.22199999999998
 20
42.4414000000000016
 30
0.0
 70
    32
  0
VERTEX
  5
5428
  8
241
 10
317.2479999999999905
 20
42.44939999999999
 30
0.0
 70
    32
  0
VERTEX
  5
5429
  8
241
 10
317.2740000000000009
 20
42.4572999999999965
 30
0.0
 70
    32
  0
VERTEX
  5
542A
  8
241
 10
317.3000000000000114
 20
42.4650999999999925
 30
0.0
 70
    32
  0
VERTEX
  5
542B
  8
241
 10
317.3259999999999081
 20
42.4727999999999923
 30
0.0
 70
    32
  0
VERTEX
  5
542C
  8
241
 10
317.3519999999999754
 20
42.480400000000003
 30
0.0
 70
    32
  0
VERTEX
  5
542D
  8
241
 10
317.3779999999999859
 20
42.4879000000000033
 30
0.0
 70
    32
  0
VERTEX
  5
542E
  8
241
 10
317.4039999999999964
 20
42.4951999999999899
 30
0.0
 70
    32
  0
VERTEX
  5
542F
  8
241
 10
317.4300000000000068
 20
42.5024000000000015
 30
0.0
 70
    32
  0
VERTEX
  5
5430
  8
241
 10
317.4560000000000173
 20
42.5095999999999989
 30
0.0
 70
    32
  0
VERTEX
  5
5431
  8
241
 10
317.4820000000000277
 20
42.5165999999999968
 30
0.0
 70
    32
  0
VERTEX
  5
5432
  8
241
 10
317.5079999999999814
 20
42.5234000000000023
 30
0.0
 70
    32
  0
VERTEX
  5
5433
  8
241
 10
317.5339999999999918
 20
42.5302000000000007
 30
0.0
 70
    32
  0
VERTEX
  5
5434
  8
241
 10
317.5600000000000023
 20
42.5367999999999995
 30
0.0
 70
    32
  0
VERTEX
  5
5435
  8
241
 10
317.5860000000000127
 20
42.5433999999999983
 30
0.0
 70
    32
  0
VERTEX
  5
5436
  8
241
 10
317.6120000000000232
 20
42.5497999999999905
 30
0.0
 70
    32
  0
VERTEX
  5
5437
  8
241
 10
317.6379999999999768
 20
42.5560999999999865
 30
0.0
 70
    32
  0
VERTEX
  5
5438
  8
241
 10
317.6639999999999873
 20
42.5623000000000005
 30
0.0
 70
    32
  0
VERTEX
  5
5439
  8
241
 10
317.6899999999999977
 20
42.5682999999999865
 30
0.0
 70
    32
  0
VERTEX
  5
543A
  8
241
 10
317.7160000000000082
 20
42.5743000000000009
 30
0.0
 70
    32
  0
VERTEX
  5
543B
  8
241
 10
317.7420000000000186
 20
42.5801000000000016
 30
0.0
 70
    32
  0
VERTEX
  5
543C
  8
241
 10
317.7679999999999723
 20
42.585799999999999
 30
0.0
 70
    32
  0
VERTEX
  5
543D
  8
241
 10
317.7939999999999827
 20
42.5914000000000001
 30
0.0
 70
    32
  0
VERTEX
  5
543E
  8
241
 10
317.8190000000000168
 20
42.5968999999999909
 30
0.0
 70
    32
  0
VERTEX
  5
543F
  8
241
 10
317.8450000000000273
 20
42.6022999999999925
 30
0.0
 70
    32
  0
VERTEX
  5
5440
  8
241
 10
317.8709999999999809
 20
42.6075999999999979
 30
0.0
 70
    32
  0
VERTEX
  5
5441
  8
241
 10
317.8969999999999914
 20
42.6126999999999896
 30
0.0
 70
    32
  0
VERTEX
  5
5442
  8
241
 10
317.9230000000000018
 20
42.6176999999999992
 30
0.0
 70
    32
  0
VERTEX
  5
5443
  8
241
 10
317.9490000000000123
 20
42.6225999999999985
 30
0.0
 70
    32
  0
VERTEX
  5
5444
  8
241
 10
317.9750000000000227
 20
42.6273999999999873
 30
0.0
 70
    32
  0
VERTEX
  5
5445
  8
241
 10
318.0
 20
42.632099999999987
 30
0.0
 70
    32
  0
VERTEX
  5
5446
  8
241
 10
318.0260000000000105
 20
42.6366000000000014
 30
0.0
 70
    32
  0
VERTEX
  5
5447
  8
241
 10
318.0520000000000209
 20
42.6411000000000016
 30
0.0
 70
    32
  0
VERTEX
  5
5448
  8
241
 10
318.0779999999999745
 20
42.6454000000000022
 30
0.0
 70
    32
  0
VERTEX
  5
5449
  8
241
 10
318.1030000000000086
 20
42.6495999999999995
 30
0.0
 70
    32
  0
VERTEX
  5
544A
  8
241
 10
318.1290000000000191
 20
42.6536999999999935
 30
0.0
 70
    32
  0
VERTEX
  5
544B
  8
241
 10
318.1549999999999727
 20
42.6576999999999913
 30
0.0
 70
    32
  0
VERTEX
  5
544C
  8
241
 10
318.1809999999999832
 20
42.6614999999999895
 30
0.0
 70
    32
  0
VERTEX
  5
544D
  8
241
 10
318.2060000000000173
 20
42.665300000000002
 30
0.0
 70
    32
  0
VERTEX
  5
544E
  8
241
 10
318.2320000000000277
 20
42.6689000000000007
 30
0.0
 70
    32
  0
VERTEX
  5
544F
  8
241
 10
318.2579999999999814
 20
42.6724000000000032
 30
0.0
 70
    32
  0
VERTEX
  5
5450
  8
241
 10
318.2830000000000155
 20
42.6758000000000024
 30
0.0
 70
    32
  0
VERTEX
  5
5451
  8
241
 10
318.3090000000000259
 20
42.6790999999999912
 30
0.0
 70
    32
  0
VERTEX
  5
5452
  8
241
 10
318.3340000000000032
 20
42.6822000000000017
 30
0.0
 70
    32
  0
VERTEX
  5
5453
  8
241
 10
318.3600000000000136
 20
42.685299999999998
 30
0.0
 70
    32
  0
VERTEX
  5
5454
  8
241
 10
318.3849999999999909
 20
42.6882000000000019
 30
0.0
 70
    32
  0
VERTEX
  5
5455
  8
241
 10
318.4110000000000014
 20
42.6910000000000025
 30
0.0
 70
    32
  0
VERTEX
  5
5456
  8
241
 10
318.4359999999999786
 20
42.6936999999999998
 30
0.0
 70
    32
  0
VERTEX
  5
5457
  8
241
 10
318.4610000000000127
 20
42.6963000000000008
 30
0.0
 70
    32
  0
VERTEX
  5
5458
  8
241
 10
318.4870000000000232
 20
42.6987000000000023
 30
0.0
 70
    32
  0
VERTEX
  5
5459
  8
241
 10
318.5120000000000005
 20
42.7010999999999896
 30
0.0
 70
    32
  0
VERTEX
  5
545A
  8
241
 10
318.5369999999999777
 20
42.7032999999999987
 30
0.0
 70
    32
  0
VERTEX
  5
545B
  8
241
 10
318.5629999999999882
 20
42.7053999999999903
 30
0.0
 70
    32
  0
VERTEX
  5
545C
  8
241
 10
318.5880000000000223
 20
42.7073999999999927
 30
0.0
 70
    32
  0
VERTEX
  5
545D
  8
241
 10
318.6129999999999995
 20
42.7092999999999918
 30
0.0
 70
    32
  0
VERTEX
  5
545E
  8
241
 10
318.6379999999999768
 20
42.7109999999999914
 30
0.0
 70
    32
  0
VERTEX
  5
545F
  8
241
 10
318.6630000000000109
 20
42.7126999999999981
 30
0.0
 70
    32
  0
VERTEX
  5
5460
  8
241
 10
318.6879999999999882
 20
42.7141999999999911
 30
0.0
 70
    32
  0
VERTEX
  5
5461
  8
241
 10
318.7130000000000223
 20
42.715600000000002
 30
0.0
 70
    32
  0
VERTEX
  5
5462
  8
241
 10
318.7379999999999995
 20
42.7169000000000025
 30
0.0
 70
    32
  0
VERTEX
  5
5463
  8
241
 10
318.7629999999999768
 20
42.7180999999999997
 30
0.0
 70
    32
  0
VERTEX
  5
5464
  8
241
 10
318.7880000000000109
 20
42.7192000000000007
 30
0.0
 70
    32
  0
VERTEX
  5
5465
  8
241
 10
318.8129999999999882
 20
42.7201999999999984
 30
0.0
 70
    32
  0
VERTEX
  5
5466
  8
241
 10
318.8379999999999086
 20
42.7209999999999965
 30
0.0
 70
    32
  0
VERTEX
  5
5467
  8
241
 10
318.8629999999999995
 20
42.7218000000000018
 30
0.0
 70
    32
  0
VERTEX
  5
5468
  8
241
 10
318.8870000000000005
 20
42.7224000000000004
 30
0.0
 70
    32
  0
VERTEX
  5
5469
  8
241
 10
318.9119999999999777
 20
42.7229000000000028
 30
0.0
 70
    32
  0
VERTEX
  5
546A
  8
241
 10
318.9370000000000118
 20
42.7233000000000018
 30
0.0
 70
    32
  0
VERTEX
  5
546B
  8
241
 10
318.9610000000000127
 20
42.7235999999999905
 30
0.0
 70
    32
  0
VERTEX
  5
546C
  8
241
 10
318.98599999999999
 20
42.7237999999999971
 30
0.0
 70
    32
  0
VERTEX
  5
546D
  8
241
 10
319.0110000000000241
 20
42.7239000000000004
 30
0.0
 70
    32
  0
VERTEX
  5
546E
  8
241
 10
319.035000000000025
 20
42.7237999999999971
 30
0.0
 70
    32
  0
VERTEX
  5
546F
  8
241
 10
319.0600000000000023
 20
42.7237000000000009
 30
0.0
 70
    32
  0
SEQEND
  5
5470
  8
241
  0
LINE
  5
4156
  8
241
  6
CONTINUOUS
 10
336.0000000000001137
 20
54.9999999263914319
 30
0.0
 11
336.0000000000002842
 21
29.5999999999997989
 31
0.0
  0
LINE
  5
4167
  8
246
  6
PHANTOM2
 10
300.6999999999999886
 20
-12.7000000000006104
 30
0.0
 11
288.4544412563067226
 21
-12.7000000000006104
 31
0.0
  0
LINE
  5
4168
  8
246
  6
PHANTOM2
 10
300.6999999999999886
 20
12.6999999999992497
 30
0.0
 11
288.4544412563067226
 21
12.6999999999992497
 31
0.0
  0
LINE
  5
4169
  8
246
  6
PHANTOM2
 10
300.6999999999999886
 20
12.6999999999992497
 30
0.0
 11
300.6999999999999886
 21
-12.7000000000006104
 31
0.0
  0
LINE
  5
416A
  8
246
  6
PHANTOM2
 10
383.8535105086821773
 20
-11.4852813742392605
 30
0.0
 11
373.709999999999809
 21
-11.4852813742393192
 31
0.0
  0
LINE
  5
416B
  8
246
  6
PHANTOM2
 10
373.709999999999809
 20
-11.4852813742393192
 30
0.0
 11
373.709999999999809
 21
12.6999999999992497
 31
0.0
  0
LINE
  5
416C
  8
246
  6
PHANTOM2
 10
373.709999999999809
 20
12.6999999999992497
 30
0.0
 11
383.5455587436935048
 21
12.6999999999992497
 31
0.0
  0
ARC
  5
416D
  8
246
  6
PHANTOM2
 10
336.0000000000001137
 20
-0.0000000000007976
 30
0.0
 40
49.2124999999997925
 50
194.9552483166424111
 51
346.5037698927420138
  0
ARC
  5
416E
  8
246
  6
PHANTOM2
 10
336.0000000000001137
 20
0.0
 30
0.0
 40
49.2124999999997996
 50
14.9552483166425105
 51
165.0447516833575037
  0
LINE
  5
416F
  8
243
  6
HIDDEN2
 10
38.099999999999973
 20
29.5999999999999091
 30
0.0
 11
124.9999999999999005
 21
29.5999999999999091
 31
0.0
  0
LINE
  5
417D
  8
246
  6
PHANTOM2
 10
40.0000000000000924
 20
-62.5000000000000995
 30
0.0
 11
119.0
 21
-62.5000000000000995
 31
0.0
  0
ARC
  5
417E
  8
246
  6
PHANTOM2
 10
40.0000000000000924
 20
-57.5000000000000995
 30
0.0
 40
5.0
 50
180.0
 51
270.0
  0
ARC
  5
417F
  8
246
  6
PHANTOM2
 10
119.0
 20
-56.5000000000000995
 30
0.0
 40
6.0
 50
270.0
 51
0.0
  0
LINE
  5
4180
  8
246
  6
PHANTOM2
 10
40.0
 20
62.5
 30
0.0
 11
119.0
 21
62.5
 31
0.0
  0
ARC
  5
4181
  8
246
  6
PHANTOM2
 10
119.0
 20
56.5
 30
0.0
 40
6.0
 50
0.0000000000032569
 51
90.0
  0
ARC
  5
4182
  8
246
  6
PHANTOM2
 10
40.0
 20
57.5
 30
0.0
 40
5.0
 50
90.0
 51
180.0
  0
LINE
  5
4326
  8
245
  6
CENTER2
 10
56.9999999999985505
 20
49.4999999999978968
 30
0.0
 11
56.9999999999985505
 21
35.499999999997911
 31
0.0
  0
CIRCLE
  5
4327
  8
242
  6
CONTINUOUS
 10
56.9999999999985505
 20
42.4999999999978968
 30
0.0
 40
5.125
  0
CIRCLE
  5
4328
  8
241
  6
CONTINUOUS
 10
56.9999999999985505
 20
42.4999999999978968
 30
0.0
 40
6.0
  0
LINE
  5
4329
  8
241
  6
CONTINUOUS
 10
59.9999999999985505
 20
40.7679491899978999
 30
0.0
 11
56.9999999999985505
 21
39.0358983899979108
 31
0.0
  0
LINE
  5
432A
  8
241
  6
CONTINUOUS
 10
56.9999999999985505
 20
45.964101619997912
 30
0.0
 11
59.9999999999985505
 21
44.2320508099979222
 31
0.0
  0
LINE
  5
432B
  8
241
  6
CONTINUOUS
 10
53.9999999999985505
 20
44.2320508099979222
 30
0.0
 11
56.9999999999985505
 21
45.964101619997912
 31
0.0
  0
LINE
  5
432C
  8
241
  6
CONTINUOUS
 10
53.9999999999985505
 20
40.7679491899978999
 30
0.0
 11
53.9999999999985505
 21
44.2320508099979222
 31
0.0
  0
LINE
  5
432D
  8
241
  6
CONTINUOUS
 10
56.9999999999985505
 20
39.0358983899979108
 30
0.0
 11
53.9999999999985505
 21
40.7679491899978999
 31
0.0
  0
LINE
  5
432E
  8
241
  6
CONTINUOUS
 10
59.9999999999985505
 20
44.2320508099979222
 30
0.0
 11
59.9999999999985505
 21
40.7679491899978999
 31
0.0
  0
LINE
  5
433F
  8
245
  6
CENTER2
 10
83.9999999999982805
 20
49.4021824765326585
 30
0.0
 11
83.9999999999982805
 21
35.4021824765326585
 31
0.0
  0
CIRCLE
  5
4340
  8
242
  6
CONTINUOUS
 10
83.9999999999982805
 20
42.4021824765326585
 30
0.0
 40
5.125
  0
CIRCLE
  5
4341
  8
241
  6
CONTINUOUS
 10
83.9999999999982805
 20
42.4021824765326585
 30
0.0
 40
6.0
  0
LINE
  5
4342
  8
241
  6
CONTINUOUS
 10
86.9999999999982805
 20
40.6701316665326615
 30
0.0
 11
83.9999999999982805
 21
38.9380808665326583
 31
0.0
  0
LINE
  5
4343
  8
241
  6
CONTINUOUS
 10
83.9999999999982805
 20
45.8662840965326382
 30
0.0
 11
86.9999999999982805
 21
44.1342332865326625
 31
0.0
  0
LINE
  5
4344
  8
241
  6
CONTINUOUS
 10
80.9999999999982947
 20
44.1342332865326625
 30
0.0
 11
83.9999999999982805
 21
45.8662840965326382
 31
0.0
  0
LINE
  5
4345
  8
241
  6
CONTINUOUS
 10
80.9999999999982947
 20
40.6701316665326615
 30
0.0
 11
80.9999999999982947
 21
44.1342332865326625
 31
0.0
  0
LINE
  5
4346
  8
241
  6
CONTINUOUS
 10
83.9999999999982805
 20
38.9380808665326583
 30
0.0
 11
80.9999999999982947
 21
40.6701316665326615
 31
0.0
  0
LINE
  5
4347
  8
241
  6
CONTINUOUS
 10
86.9999999999982805
 20
44.1342332865326625
 30
0.0
 11
86.9999999999982805
 21
40.6701316665326615
 31
0.0
  0
LINE
  5
4358
  8
245
  6
CENTER2
 10
110.9999999999996021
 20
49.5000000000000284
 30
0.0
 11
110.9999999999996021
 21
35.5000000000000426
 31
0.0
  0
CIRCLE
  5
4359
  8
242
  6
CONTINUOUS
 10
110.9999999999996021
 20
42.5000000000000284
 30
0.0
 40
5.125
  0
CIRCLE
  5
435A
  8
241
  6
CONTINUOUS
 10
110.9999999999996021
 20
42.5000000000000284
 30
0.0
 40
6.0
  0
LINE
  5
435B
  8
241
  6
CONTINUOUS
 10
113.9999999999996021
 20
40.7679491900000315
 30
0.0
 11
110.9999999999996021
 21
39.0358983900000425
 31
0.0
  0
LINE
  5
435C
  8
241
  6
CONTINUOUS
 10
110.9999999999996021
 20
45.9641016200000365
 30
0.0
 11
113.9999999999996021
 21
44.2320508100000467
 31
0.0
  0
LINE
  5
435D
  8
241
  6
CONTINUOUS
 10
107.9999999999996021
 20
44.2320508100000467
 30
0.0
 11
110.9999999999996021
 21
45.9641016200000365
 31
0.0
  0
LINE
  5
435E
  8
241
  6
CONTINUOUS
 10
107.9999999999996021
 20
40.7679491900000315
 30
0.0
 11
107.9999999999996021
 21
44.2320508100000467
 31
0.0
  0
LINE
  5
435F
  8
241
  6
CONTINUOUS
 10
110.9999999999996021
 20
39.0358983900000425
 30
0.0
 11
107.9999999999996021
 21
40.7679491900000315
 31
0.0
  0
LINE
  5
4360
  8
241
  6
CONTINUOUS
 10
113.9999999999996021
 20
44.2320508100000467
 30
0.0
 11
113.9999999999996021
 21
40.7679491900000315
 31
0.0
  0
TEXT
  5
4383
  8
241
  6
CONTINUOUS
 10
-105.0
 20
91.0
 30
0.0
 40
5.0
  1
BCV50Y-180-BH1.000R-5
  7
YOKO
  0
LINE
  5
48B0
  8
250
  6
CONTINUOUS
 10
113.1167690812381039
 20
0.0000000000000001
 30
0.0
 11
148.0000000000015916
 21
0.0000000000000057
 31
0.0
  0
LINE
  5
48B1
  8
250
  6
CONTINUOUS
 10
125.4999999999997016
 20
54.9993749508622116
 30
0.0
 11
148.0000000000015916
 21
54.9993749508622329
 31
0.0
  0
LINE
  5
48B2
  8
250
  6
CONTINUOUS
 10
147.0000000000015916
 20
2.2300000000000062
 30
0.0
 11
147.0000000000015916
 21
52.7693749508622219
 31
0.0
  0
LINE
  5
48B6
  8
250
  6
CONTINUOUS
 10
146.6283333333348935
 20
52.7693749508622219
 30
0.0
 11
147.0000000000015916
 21
54.9993749508622329
 31
0.0
  0
LINE
  5
48B7
  8
250
  6
CONTINUOUS
 10
147.3716666666682897
 20
52.7693749508622219
 30
0.0
 11
147.0000000000015916
 21
54.9993749508622329
 31
0.0
  0
LINE
  5
48B8
  8
250
  6
CONTINUOUS
 10
147.0000000000015916
 20
54.9993749508622329
 30
0.0
 11
147.0000000000015916
 21
52.7693749508622219
 31
0.0
  0
LINE
  5
48B9
  8
250
  6
CONTINUOUS
 10
147.3716666666682897
 20
2.230000000000004
 30
0.0
 11
147.0000000000015916
 21
0.0000000000000055
 31
0.0
  0
LINE
  5
48BA
  8
250
  6
CONTINUOUS
 10
146.6283333333348935
 20
2.230000000000004
 30
0.0
 11
147.0000000000015916
 21
0.0000000000000055
 31
0.0
  0
LINE
  5
48BB
  8
250
  6
CONTINUOUS
 10
147.0000000000015916
 20
0.0000000000000055
 30
0.0
 11
147.0000000000015916
 21
2.230000000000004
 31
0.0
  0
TEXT
  5
48BC
  8
250
  6
CONTINUOUS
 10
146.0000000000015916
 20
21.4996874754310703
 30
0.0
 40
2.799999999999998
  1
2.165
 50
90.0
  0
LINE
  5
48BD
  8
250
  6
CONTINUOUS
 10
0.0
 20
-35.4249999999999972
 30
0.0
 11
-0.0000000000000026
 21
-78.0
 31
0.0
  0
LINE
  5
48BE
  8
250
  6
CONTINUOUS
 10
124.9999999999999005
 20
19.4705627484772812
 30
0.0
 11
124.9999999999999005
 21
-78.0
 31
0.0
  0
LINE
  5
48BF
  8
250
  6
CONTINUOUS
 10
2.229999999999996
 20
-77.0
 30
0.0
 11
122.7699999999997971
 21
-77.0
 31
0.0
  0
LINE
  5
48C3
  8
250
  6
CONTINUOUS
 10
122.7699999999997971
 20
-76.6283333333333303
 30
0.0
 11
124.9999999999999005
 21
-77.0
 31
0.0
  0
LINE
  5
48C4
  8
250
  6
CONTINUOUS
 10
122.7699999999997971
 20
-77.3716666666666555
 30
0.0
 11
124.9999999999999005
 21
-77.0
 31
0.0
  0
LINE
  5
48C5
  8
250
  6
CONTINUOUS
 10
124.9999999999999005
 20
-77.0
 30
0.0
 11
122.7699999999997971
 21
-77.0
 31
0.0
  0
LINE
  5
48C6
  8
250
  6
CONTINUOUS
 10
2.229999999999996
 20
-77.3716666666666555
 30
0.0
 11
-0.0000000000000026
 21
-77.0
 31
0.0
  0
LINE
  5
48C7
  8
250
  6
CONTINUOUS
 10
2.229999999999996
 20
-76.6283333333333303
 30
0.0
 11
-0.0000000000000026
 21
-77.0
 31
0.0
  0
LINE
  5
48C8
  8
250
  6
CONTINUOUS
 10
-0.0000000000000026
 20
-77.0
 30
0.0
 11
2.229999999999996
 21
-77.0
 31
0.0
  0
TEXT
  5
48C9
  8
250
  6
CONTINUOUS
 10
56.8999999999999702
 20
-75.9999999999999858
 30
0.0
 40
2.799999999999998
  1
4.921
  0
LINE
  5
48CA
  8
250
  6
CONTINUOUS
 10
361.3999999999999773
 20
55.4999999263915385
 30
0.0
 11
361.3999999999999773
 21
78.0
 31
0.0
  0
LINE
  5
48CB
  8
250
  6
CONTINUOUS
 10
336.0000099224762948
 20
55.4999999999984581
 30
0.0
 11
336.0000099224762948
 21
78.0
 31
0.0
  0
LINE
  5
48CC
  8
250
  6
CONTINUOUS
 10
359.1700000000000728
 20
77.0
 30
0.0
 11
338.2300099224764267
 21
77.0
 31
0.0
  0
LINE
  5
48D0
  8
250
  6
CONTINUOUS
 10
338.2300099224764267
 20
76.6283333333333303
 30
0.0
 11
336.0000099224762948
 21
77.0
 31
0.0
  0
LINE
  5
48D1
  8
250
  6
CONTINUOUS
 10
338.2300099224764267
 20
77.3716666666666555
 30
0.0
 11
336.0000099224762948
 21
77.0
 31
0.0
  0
LINE
  5
48D2
  8
250
  6
CONTINUOUS
 10
336.0000099224762948
 20
77.0
 30
0.0
 11
338.2300099224764267
 21
77.0
 31
0.0
  0
LINE
  5
48D3
  8
250
  6
CONTINUOUS
 10
359.1700000000000728
 20
77.3716666666666555
 30
0.0
 11
361.3999999999999773
 21
77.0
 31
0.0
  0
LINE
  5
48D4
  8
250
  6
CONTINUOUS
 10
359.1700000000000728
 20
76.6283333333333303
 30
0.0
 11
361.3999999999999773
 21
77.0
 31
0.0
  0
LINE
  5
48D5
  8
250
  6
CONTINUOUS
 10
361.3999999999999773
 20
77.0
 30
0.0
 11
359.1700000000000728
 21
77.0
 31
0.0
  0
TEXT
  5
48D6
  8
250
  6
CONTINUOUS
 10
341.0333382945715925
 20
78.0000000000000142
 30
0.0
 40
2.799999999999998
  1
üá1.000
  0
LINE
  5
48D7
  8
250
  6
CONTINUOUS
 10
288.0248041551681126
 20
36.480864623114627
 30
0.0
 11
383.9751958448330242
 21
-36.4808646231139875
 31
0.0
  0
LINE
  5
48DB
  8
250
  6
CONTINUOUS
 10
287.7998378145078959
 20
36.1850162553972012
 30
0.0
 11
286.2497139488635867
 21
37.8306626670758916
 31
0.0
  0
LINE
  5
48DC
  8
250
  6
CONTINUOUS
 10
288.2497704958283862
 20
36.7767129908320598
 30
0.0
 11
286.2497139488635867
 21
37.8306626670758916
 31
0.0
  0
LINE
  5
48DD
  8
250
  6
CONTINUOUS
 10
286.2497139488635867
 20
37.8306626670758916
 30
0.0
 11
288.0248041551682832
 21
36.480864623114627
 31
0.0
  0
LINE
  5
48DE
  8
250
  6
CONTINUOUS
 10
384.2001621854931273
 20
-36.1850162553965973
 30
0.0
 11
385.750286051137607
 21
-37.8306626670752735
 31
0.0
  0
LINE
  5
48DF
  8
250
  6
CONTINUOUS
 10
383.7502295041728075
 20
-36.7767129908314487
 30
0.0
 11
385.750286051137607
 21
-37.8306626670752735
 31
0.0
  0
LINE
  5
48E0
  8
250
  6
CONTINUOUS
 10
385.750286051137607
 20
-37.8306626670752735
 30
0.0
 11
383.9751958448327969
 21
-36.4808646231140372
 31
0.0
  0
TEXT
  5
48E1
  8
250
  6
CONTINUOUS
 10
344.8722670415072002
 20
-3.982765874667924
 30
0.0
 40
2.799999999999998
  1
(\U+22054.92)
 50
322.7502436766250185
  0
LINE
  5
555B
  8
241
 10
304.0
 20
14.9999999999999805
 30
0.0
 11
393.0
 21
14.9999999999999805
 31
0.0
  0
LINE
  5
555F
  8
241
 10
376.7722854440818878
 20
-27.8323961923564411
 30
0.0
 11
307.6434086744947081
 21
-27.8323961923564482
 31
0.0
  0
VIEWPORT
  5
22
 67
     1
  8
0
 10
261.517699115044195
 20
148.5
 30
0.0
 40
523.0353982300885036
 41
297.0
 68
     1
 69
     1
1001
ACAD
1000
MVIEW
1002
{
1070
    16
1010
0.0
1020
0.0
1030
0.0
1010
0.0
1020
0.0
1030
1.0
1040
0.0
1040
297.0
1040
261.517699115044195
1040
148.5
1040
50.0
1040
0.0
1040
0.0
1070
     0
1070
   100
1070
     1
1070
     1
1070
     0
1070
     0
1070
     0
1070
     0
1040
0.0
1040
0.0
1040
0.0
1040
1.0
1040
1.0
1040
10.0
1040
10.0
1070
     0
1002
{
1002
}
1002
}
1001
GENIUS_GENODEF_13
1002
{
1000
HIER
1070
     0
1002
}
1002
{
1000
MANEDIT
1070
     0
1002
}
1002
{
1000
NOSEL
1070
     0
1002
}
1002
{
1000
BEHIND
1070
     0
1002
}
1002
{
1000
OTHER
1070
     0
1002
}
1002
{
1000
REACTOR
1002
}
1001
GENIUS_GENOBJ-N-SDF_13
1002
{
1000
OWNER
1000
GEN
1002
}
1001
GENIUS_GENSCREG_15
1000
PF
1040
1.0
1000
DF
1040
1.0
1000
MIN
1011
0.0
1021
0.0
1031
0.0
1021
0.0
1031
0.0
1000
MAX
1011
523.0353982300885036
1021
0.0
1031
0.0
1021
297.0
1031
0.0
1000
FLAGS
1070
     4
  0
ENDSEC
  0
EOF
