  0
SECTION
  2
HEADER
  9
$ACADVER
  1
AC1009
  9
$INSBASE
 10
0.0
 20
0.0
 30
0.0
  9
$EXTMIN
 10
-104.0476190476189942
 20
-79.8356798226962496
 30
0.0
  9
$EXTMAX
 10
382.5634484377018794
 20
96.0
 30
0.0
  9
$LIMMIN
 10
0.0
 20
0.0
  9
$LIMMAX
 10
297.0
 20
210.0
  9
$ORTHOMODE
 70
     0
  9
$REGENMODE
 70
     1
  9
$FILLMODE
 70
     1
  9
$QTEXTMODE
 70
     0
  9
$MIRRTEXT
 70
     1
  9
$DRAGMODE
 70
     2
  9
$LTSCALE
 40
10.0
  9
$OSMODE
 70
   807
  9
$ATTMODE
 70
     1
  9
$TEXTSIZE
 40
3.0
  9
$TRACEWID
 40
1.0
  9
$TEXTSTYLE
  7
YOKO
  9
$CLAYER
  8
240
  9
$CELTYPE
  6
BYLAYER
  9
$CECOLOR
 62
   256
  9
$DIMSCALE
 40
1.0
  9
$DIMASZ
 40
2.0
  9
$DIMEXO
 40
2.0
  9
$DIMDLI
 40
7.0
  9
$DIMRND
 40
0.0
  9
$DIMDLE
 40
0.0
  9
$DIMEXE
 40
2.0
  9
$DIMTP
 40
0.0
  9
$DIMTM
 40
0.01
  9
$DIMTXT
 40
4.0
  9
$DIMCEN
 40
0.0
  9
$DIMTSZ
 40
0.0
  9
$DIMTOL
 70
     0
  9
$DIMLIM
 70
     0
  9
$DIMTIH
 70
     0
  9
$DIMTOH
 70
     0
  9
$DIMSE1
 70
     0
  9
$DIMSE2
 70
     0
  9
$DIMTAD
 70
     3
  9
$DIMZIN
 70
     8
  9
$DIMBLK
  1
OPEN
  9
$DIMASO
 70
     1
  9
$DIMSHO
 70
     1
  9
$DIMPOST
  1

  9
$DIMAPOST
  1

  9
$DIMALT
 70
     0
  9
$DIMALTD
 70
     2
  9
$DIMALTF
 40
25.3999999999999986
  9
$DIMLFAC
 40
1.0
  9
$DIMTOFL
 70
     1
  9
$DIMTVP
 40
0.0
  9
$DIMTIX
 70
     1
  9
$DIMSOXD
 70
     0
  9
$DIMSAH
 70
     0
  9
$DIMBLK1
  1

  9
$DIMBLK2
  1

  9
$DIMSTYLE
  2
BIGT
  9
$DIMCLRD
 70
   256
  9
$DIMCLRE
 70
   256
  9
$DIMCLRT
 70
   256
  9
$DIMTFAC
 40
1.0
  9
$DIMGAP
 40
1.0
  9
$LUNITS
 70
     2
  9
$LUPREC
 70
     3
  9
$SKETCHINC
 40
1.0
  9
$FILLETRAD
 40
0.0
  9
$AUNITS
 70
     0
  9
$AUPREC
 70
     3
  9
$MENU
  1
.
  9
$ELEVATION
 40
0.0
  9
$PELEVATION
 40
0.0
  9
$THICKNESS
 40
0.0
  9
$LIMCHECK
 70
     0
  9
$BLIPMODE
 70
     0
  9
$CHAMFERA
 40
0.25
  9
$CHAMFERB
 40
0.25
  9
$SKPOLY
 70
     0
  9
$TDCREATE
 40
2458179.5640046298503876
  9
$TDUPDATE
 40
2458186.5783449080772698
  9
$TDINDWG
 40
0.1308795602
  9
$TDUSRTIMER
 40
0.1308793866
  9
$USRTIMER
 70
     1
  9
$ANGBASE
 50
0.0
  9
$ANGDIR
 70
     0
  9
$PDMODE
 70
     0
  9
$PDSIZE
 40
-5.0
  9
$PLINEWID
 40
0.0
  9
$COORDS
 70
     1
  9
$SPLFRAME
 70
     0
  9
$SPLINETYPE
 70
     6
  9
$SPLINESEGS
 70
     4
  9
$ATTDIA
 70
     1
  9
$ATTREQ
 70
     1
  9
$HANDLING
 70
     1
  9
$HANDSEED
  5
34F2
  9
$SURFTAB1
 70
     6
  9
$SURFTAB2
 70
     6
  9
$SURFTYPE
 70
     6
  9
$SURFU
 70
     6
  9
$SURFV
 70
     6
  9
$UCSNAME
  2

  9
$UCSORG
 10
0.0
 20
0.0
 30
0.0
  9
$UCSXDIR
 10
1.0
 20
0.0
 30
0.0
  9
$UCSYDIR
 10
0.0
 20
1.0
 30
0.0
  9
$PUCSNAME
  2

  9
$PUCSORG
 10
0.0
 20
0.0
 30
0.0
  9
$PUCSXDIR
 10
1.0
 20
0.0
 30
0.0
  9
$PUCSYDIR
 10
0.0
 20
1.0
 30
0.0
  9
$USERI1
 70
     1
  9
$USERI2
 70
     0
  9
$USERI3
 70
     0
  9
$USERI4
 70
     0
  9
$USERI5
 70
     0
  9
$USERR1
 40
0.0
  9
$USERR2
 40
0.0
  9
$USERR3
 40
0.0
  9
$USERR4
 40
0.0
  9
$USERR5
 40
0.0
  9
$WORLDVIEW
 70
     1
  9
$SHADEDGE
 70
     3
  9
$SHADEDIF
 70
    70
  9
$TILEMODE
 70
     1
  9
$MAXACTVP
 70
    16
  9
$PLIMCHECK
 70
     0
  9
$PEXTMIN
 10
1.0000000000000000E+20
 20
1.0000000000000000E+20
 30
1.0000000000000000E+20
  9
$PEXTMAX
 10
-1.0000000000000000E+20
 20
-1.0000000000000000E+20
 30
-1.0000000000000000E+20
  9
$PLIMMIN
 10
0.0
 20
0.0
  9
$PLIMMAX
 10
420.0
 20
297.0
  9
$UNITMODE
 70
     0
  9
$VISRETAIN
 70
     1
  9
$PLINEGEN
 70
     0
  9
$PSLTSCALE
 70
     1
  0
ENDSEC
  0
SECTION
  2
TABLES
  0
TABLE
  2
VPORT
 70
     1
  0
VPORT
  2
*ACTIVE
 70
     0
 10
0.0
 20
0.0
 11
1.0
 21
1.0
 12
138.7891306148879096
 22
-6.7190581915734811
 13
0.0
 23
0.0
 14
7.0
 24
7.0
 15
7.0
 25
7.0
 16
0.0
 26
0.0
 36
1.0
 17
0.0
 27
0.0
 37
0.0
 40
295.8897458672223024
 41
1.8592342342342341
 42
50.0
 43
0.0
 44
0.0
 50
0.0
 51
0.0
 71
     0
 72
  2000
 73
     1
 74
     0
 75
     0
 76
     0
 77
     0
 78
     0
  0
ENDTAB
  0
TABLE
  2
LTYPE
 70
    16
  0
LTYPE
  2
CONTINUOUS
 70
     0
  3
Solid line
 72
    65
 73
     0
 40
0.0
  0
LTYPE
  2
CENTER2
 70
     0
  3
___ _ ___ _ ___ _ ___ _ ___ _ ___ _ ___ _ ___ _
 72
    65
 73
     4
 40
1.125
 49
0.75
 49
-0.125
 49
0.125
 49
-0.125
  0
LTYPE
  2
HIDDEN2
 70
     0
  3
_ _ _ _ _ _ _ _ _ _ _ _ _ _ _ _ _ _ _ _ _ _ _ _
 72
    65
 73
     2
 40
0.1875
 49
0.125
 49
-0.0625
  0
LTYPE
  2
PHANTOM2
 70
     0
  3
___ _ _ ___ _ _ ___ _ _ ___ _ _ ___ _ _ ___ _ _
 72
    65
 73
     6
 40
1.25
 49
0.625
 49
-0.125
 49
0.125
 49
-0.125
 49
0.125
 49
-0.125
  0
LTYPE
  2
HIDDEN
 70
     0
  3
Hidden __ __ __ __ __ __ __ __ __ __ __ __ __ _
 72
    65
 73
     2
 40
0.375
 49
0.25
 49
-0.125
  0
LTYPE
  2
CENTER
 70
     0
  3
Center ____ _ ____ _ ____ _ ____ _ ____ _ ____
 72
    65
 73
     4
 40
2.0
 49
1.25
 49
-0.25
 49
0.25
 49
-0.25
  0
LTYPE
  2
AMCONSTR
 70
     0
  3
_______________________
 72
    65
 73
     2
 40
9999.0
 49
9999.0
 49
0.0
  0
LTYPE
  2
AMZIGZAG2
 70
     0
  3
/\/-/\/-/\/-/\/-/\/-/\/
 72
    65
 73
     2
 40
0.4401
 49
0.0001
 49
-0.4400000000000001
  0
LTYPE
  2
ACANSTGB
 70
     0
  3
__ . . __ . .
 72
    65
 73
     6
 40
0.35433070866
 49
0.15748031496
 49
-0.03937007874
 49
0.03937007874
 49
-0.03937007874
 49
0.03937007874
 49
-0.03937007874
  0
LTYPE
  2
ACANSTGL
 70
     0
  3
_ _ _ _ _
 72
    65
 73
     2
 40
0.11811023622
 49
0.07874015748
 49
-0.03937007874
  0
ENDTAB
  0
TABLE
  2
LAYER
 70
     9
  0
LAYER
  2
0
 70
     0
 62
     7
  6
CONTINUOUS
  0
LAYER
  2
240
 70
     0
 62
     4
  6
CONTINUOUS
  0
LAYER
  2
245
 70
     0
 62
     2
  6
CENTER2
  0
LAYER
  2
241
 70
     0
 62
   211
  6
CONTINUOUS
  0
LAYER
  2
242
 70
     0
 62
     3
  6
CONTINUOUS
  0
LAYER
  2
243
 70
     0
 62
   211
  6
HIDDEN2
  0
LAYER
  2
246
 70
     0
 62
     3
  6
PHANTOM2
  0
LAYER
  2
247
 70
     0
 62
    60
  6
CONTINUOUS
  0
LAYER
  2
250
 70
     0
 62
     3
  6
CONTINUOUS
  0
ENDTAB
  0
TABLE
  2
STYLE
 70
     5
  0
STYLE
  2
STANDARD
 70
     0
 40
0.0
 41
1.0
 50
0.0
 71
     0
 42
3.0
  3
romans.shx
  4
extfont.shx
  0
STYLE
  2
YOKO
 70
     0
 40
0.0
 41
1.0
 50
0.0
 71
     0
 42
3.0
  3
romans.shx
  4
extfont.shx
  0
STYLE
  2

 70
     1
 40
0.0
 41
1.0
 50
0.0
 71
     0
 42
3.0
  3
genltshp.shx
  4

  0
STYLE
  2
ACANSGDT
 70
     0
 40
0.0
 41
1.0
 50
0.0
 71
     0
 42
3.0
  3
amgdt.shx
  4

  0
ENDTAB
  0
TABLE
  2
VIEW
 70
     0
  0
ENDTAB
  0
TABLE
  2
UCS
 70
     0
  0
ENDTAB
  0
TABLE
  2
APPID
 70
    42
  0
APPID
  2
ACAD
 70
     0
  0
APPID
  2
ACADANNOTATIVE
 70
     0
  0
APPID
  2
GLOBAL
 70
     0
  0
APPID
  2
DETAIL
 70
     0
  0
APPID
  2
GRPNAME
 70
     0
  0
APPID
  2
GPARA
 70
     0
  0
APPID
  2
MCAD_NO_VIS
 70
     0
  0
APPID
  2
ACAD_TEMP_GRAPHIC
 70
     0
  0
APPID
  2
ACATTRIBSERVICES
 70
     0
  0
APPID
  2
GENIUS_GENSCREG_15
 70
     0
  0
APPID
  2
GENIUS_GENODEF_13
 70
     0
  0
APPID
  2
GENIUS_GENOBJ-N-SDF_13
 70
     0
  0
APPID
  2
GENIUS_GENREC_14
 70
     0
  0
APPID
  2
GENIUS_GENOBJ-N-REC_13
 70
     0
  0
APPID
  2
GENIUS_GENDIMSH_14
 70
     0
  0
APPID
  2
GENIUS_GENOBJ-N-DIM_13
 70
     0
  0
APPID
  2
GENIUS_GENDIM_13
 70
     0
  0
APPID
  2
GENIUS_GENDTOL_13
 70
     0
  0
APPID
  2
GENIUS_GENOLIS_13
 70
     0
  0
APPID
  2
GENIUS_GENOENT_13
 70
     0
  0
APPID
  2
GENIUS_GENOBJ-F-FEM_13
 70
     0
  0
APPID
  2
GENIUS_GENOREF_13
 70
     0
  0
APPID
  2
GENIUS_GEFFEM_13
 70
     0
  0
APPID
  2
GENIUS_GEFFEMP_13
 70
     0
  0
APPID
  2
AD_DRAW
 70
     0
  0
APPID
  2
DESIGNERASSEMBLIES
 70
     0
  0
APPID
  2
ACADM_DIM_EDIT
 70
     0
  0
APPID
  2
AMDT_DM_ADJ
 70
     0
  0
APPID
  2
ACAD_NAV_VCDISPLAY
 70
     0
  0
APPID
  2
ITEMNAME
 70
     0
  0
APPID
  2
GENIUS_GENOBJ-N-FIL_13
 70
     0
  0
APPID
  2
ACAECLAYERSTANDARD
 70
     0
  0
APPID
  2
ACAD_DSTYLE_DIMJAG
 70
     0
  0
APPID
  2
ACAD_DSTYLE_DIMTALN
 70
     0
  0
APPID
  2
ACAD_DSTYLE_DIMBREAK
 70
     0
  0
APPID
  2
ACAD_PSEXT
 70
     0
  0
APPID
  2
GRADE_0
 70
     0
  0
APPID
  2
ACAD_DSTYLE_DIMINSPECT
 70
     0
  0
APPID
  2
ACADANNOMONITORALERTICONDI
 70
     0
  0
APPID
  2
ACAD_EXEMPT_FROM_CAD_STANDARDS
 70
     0
  0
APPID
  2
ACAD_DSTYLE_DIMRADIAL_EXTENSION
 70
     0
  0
APPID
  2
ACAD_MLEADERVER
 70
     0
  0
ENDTAB
  0
TABLE
  2
DIMSTYLE
 70
     7
  0
DIMSTYLE
  2
BIGT
 70
     0
  3

  4

  5

  6

  7

 40
1.0
 41
2.2299999999999991
 42
0.5
 43
7.0
 44
1.0
 45
0.0
 46
0.0
 47
0.0
 48
0.01
140
2.799999999999998
141
0.0
142
0.0
143
25.3999999999999986
144
1.0
145
0.0
146
1.0
147
1.0
 71
     0
 72
     0
 73
     0
 74
     0
 75
     0
 76
     0
 77
     3
 78
     9
170
     0
171
     2
172
     1
173
     0
174
     1
175
     0
176
   256
177
   256
178
    40
  0
DIMSTYLE
  2
AM_ANSI
 70
     0
  3

  4
mm
  5

  6

  7

 40
1.0
 41
0.12
 42
0.05
 43
0.5
 44
0.1
 45
0.0
 46
0.0
 47
0.1
 48
0.1
140
0.12
141
0.0
142
0.0
143
25.3999999999999986
144
1.0
145
0.0
146
0.71
147
0.06
 71
     0
 72
     0
 73
     1
 74
     1
 75
     0
 76
     0
 77
     0
 78
     7
170
     0
171
     2
172
     0
173
     0
174
     0
175
     0
176
   256
177
   256
178
     2
  0
DIMSTYLE
  2
AM_ANSI$3
 70
     0
  3

  4
mm
  5

  6

  7

 40
1.0
 41
0.12
 42
0.05
 43
0.5
 44
0.1
 45
0.0
 46
0.0
 47
0.1
 48
0.1
140
0.12
141
0.0
142
0.0
143
25.3999999999999986
144
1.0
145
0.0
146
0.71
147
0.06
 71
     0
 72
     0
 73
     1
 74
     1
 75
     0
 76
     0
 77
     0
 78
     7
170
     0
171
     2
172
     0
173
     0
174
     0
175
     0
176
   256
177
   256
178
     2
  0
DIMSTYLE
  2
AM_ANSI$4
 70
     0
  3

  4
mm
  5

  6

  7

 40
1.0
 41
0.12
 42
0.05
 43
0.5
 44
0.1
 45
0.0
 46
0.0
 47
0.1
 48
0.1
140
0.12
141
0.0
142
0.0
143
25.3999999999999986
144
1.0
145
0.0
146
0.71
147
0.06
 71
     0
 72
     0
 73
     1
 74
     1
 75
     0
 76
     0
 77
     0
 78
     7
170
     0
171
     2
172
     0
173
     0
174
     0
175
     0
176
   256
177
   256
178
     2
  0
DIMSTYLE
  2
AM_ANSI$7
 70
     0
  3

  4
mm
  5

  6

  7

 40
1.0
 41
0.12
 42
0.05
 43
0.5
 44
0.1
 45
0.0
 46
0.0
 47
0.1
 48
0.1
140
0.12
141
0.0
142
0.0
143
25.3999999999999986
144
1.0
145
0.0
146
0.71
147
0.06
 71
     0
 72
     0
 73
     1
 74
     1
 75
     0
 76
     0
 77
     0
 78
     7
170
     0
171
     2
172
     0
173
     0
174
     0
175
     0
176
   256
177
   256
178
     2
  0
DIMSTYLE
  2
AM_ANSI$SF
 70
     0
  3

  4
mm
  5

  6

  7

 40
1.0
 41
0.12
 42
0.05
 43
0.5
 44
0.1
 45
0.0
 46
0.0
 47
0.1
 48
0.1
140
0.12
141
0.0
142
0.0
143
25.3999999999999986
144
1.0
145
0.0
146
0.71
147
0.06
 71
     0
 72
     0
 73
     1
 74
     1
 75
     1
 76
     1
 77
     0
 78
     7
170
     0
171
     2
172
     0
173
     0
174
     0
175
     0
176
   256
177
   256
178
     2
  0
DIMSTYLE
  2
AM_ANSI$SH
 70
     0
  3

  4
mm
  5

  6
GENAXEH
  7

 40
1.0
 41
0.12
 42
0.05
 43
0.5
 44
0.1
 45
0.0
 46
0.0
 47
0.1
 48
0.1
140
0.12
141
0.0
142
0.0
143
25.3999999999999986
144
1.0
145
0.0
146
0.71
147
0.06
 71
     0
 72
     0
 73
     1
 74
     1
 75
     1
 76
     1
 77
     0
 78
     7
170
     0
171
     2
172
     0
173
     1
174
     0
175
     0
176
   256
177
   256
178
     2
  0
ENDTAB
  0
ENDSEC
  0
SECTION
  2
BLOCKS
  0
BLOCK
  8
0
  2
$MODEL_SPACE
 70
     0
 10
0.0
 20
0.0
 30
0.0
  3
$MODEL_SPACE
  1

  0
ENDBLK
  5
3345
  8
0
  0
BLOCK
 67
     1
  8
0
  2
$PAPER_SPACE
 70
     0
 10
0.0
 20
0.0
 30
0.0
  3
$PAPER_SPACE
  1

  0
ENDBLK
  5
3341
 67
     1
  8
0
  0
BLOCK
  8
0
  2
_OPEN
 70
     0
 10
0.0
 20
0.0
 30
0.0
  3
_OPEN
  1

  0
LINE
  5
595
  8
0
  6
BYBLOCK
 62
     0
 10
-1.0
 20
0.1666666666666666
 30
0.0
 11
0.0
 21
0.0
 31
0.0
  0
LINE
  5
596
  8
0
  6
BYBLOCK
 62
     0
 10
-1.0
 20
-0.1666666666666666
 30
0.0
 11
0.0
 21
0.0
 31
0.0
  0
LINE
  5
597
  8
0
  6
BYBLOCK
 62
     0
 10
0.0
 20
0.0
 30
0.0
 11
-1.0
 21
0.0
 31
0.0
  0
ENDBLK
  5
599
  8
0
  0
BLOCK
  8
0
  2
GENAXEH
 70
     0
 10
0.0
 20
0.0
 30
0.0
  3
GENAXEH
  1

  0
LINE
  5
3475
  8
0
 10
-1.0
 20
0.0
 30
0.0
 11
1.0
 21
0.0
 31
0.0
  0
ENDBLK
  5
3477
  8
0
  0
BLOCK
  8
0
  2
_ACMFILLEDHALF
 70
     0
 10
0.0
 20
0.0
 30
0.0
  3
_ACMFILLEDHALF
  1

  0
TRACE
  5
3485
  8
240
 62
     0
 10
-0.8
 20
0.0
 30
0.0
 11
-1.0
 21
0.166666666
 31
0.0
 12
0.0
 22
0.0
 32
0.0
 13
0.0
 23
0.0
 33
0.0
  0
LINE
  5
3486
  8
240
 62
     0
 10
-1.0
 20
0.0
 30
0.0
 11
-0.8
 21
0.0
 31
0.0
  0
ENDBLK
  5
3484
  8
0
  0
ENDSEC
  0
SECTION
  2
ENTITIES
  0
LINE
  5
1404
  8
245
  6
CENTER2
 10
-103.5999999999999943
 20
0.0
 30
0.0
 11
112.2771485598696017
 21
0.0
 31
0.0
1001
GRPNAME
1000
PASTMD0L
  0
LINE
  5
1405
  8
240
  6
CONTINUOUS
 10
0.0
 20
34.9250000000000114
 30
0.0
 11
-101.5999999999999943
 21
20.1083333297216917
 31
0.0
1001
GRPNAME
1000
PASTMD0L
  0
LINE
  5
1406
  8
240
  6
CONTINUOUS
 10
0.0
 20
-34.9250000000000114
 30
0.0
 11
-101.5999999999999943
 21
-20.1083333297217202
 31
0.0
1001
GRPNAME
1000
PASTMD0L
  0
LINE
  5
1407
  8
240
  6
CONTINUOUS
 10
-101.5999999999999943
 20
20.1083333297216917
 30
0.0
 11
-101.5999999999999943
 21
-20.1083333297217202
 31
0.0
1001
GRPNAME
1000
PASTMD0L
  0
LINE
  5
1408
  8
241
  6
CONTINUOUS
 10
7.5938332300000013
 20
49.2124999999999702
 30
0.0
 11
7.5938332300000013
 21
12.6999999999964803
 31
0.0
1001
GRPNAME
1000
PASTMD0L
  0
LINE
  5
1409
  8
241
  6
CONTINUOUS
 10
9.2000000000000028
 20
45.6449999999999818
 30
0.0
 11
9.2000000000000028
 21
12.6999999999954802
 31
0.0
1001
GRPNAME
1000
PASTMD0L
  0
LINE
  5
140A
  8
241
  6
CONTINUOUS
 10
13.0399999999999903
 20
45.6449999999999818
 30
0.0
 11
13.0399999999999903
 21
12.6999999999930893
 31
0.0
1001
GRPNAME
1000
PASTMD0L
  0
LINE
  5
140B
  8
241
  6
CONTINUOUS
 10
14.6461667700000007
 20
49.2124999999999702
 30
0.0
 11
14.6461667700000007
 21
12.6999999999920892
 31
0.0
1001
GRPNAME
1000
PASTMD0L
  0
LINE
  5
140C
  8
241
  6
CONTINUOUS
 10
1.5
 20
34.9250000000000114
 30
0.0
 11
1.5
 21
-34.9250000000000114
 31
0.0
1001
GRPNAME
1000
PASTMD0L
  0
LINE
  5
140D
  8
241
  6
CONTINUOUS
 10
9.1999999999999993
 20
-12.6999999999962405
 30
0.0
 11
9.2000000000000028
 21
-45.6450000000000031
 31
0.0
1001
GRPNAME
1000
PASTMD0L
  0
LINE
  5
140E
  8
241
  6
CONTINUOUS
 10
7.5938332300000013
 20
-49.2124999999999986
 30
0.0
 11
7.5938332300000004
 21
-12.6999999999969209
 31
0.0
1001
GRPNAME
1000
PASTMD0L
  0
LINE
  5
140F
  8
241
  6
CONTINUOUS
 10
13.0399999999999903
 20
-45.6450000000000031
 30
0.0
 11
13.0399999999999903
 21
-12.6999999999946294
 31
0.0
1001
GRPNAME
1000
PASTMD0L
  0
LINE
  5
1410
  8
241
  6
CONTINUOUS
 10
14.6461667700000007
 20
-49.2124999999999986
 30
0.0
 11
14.6461667700000007
 21
-12.6999999999939508
 31
0.0
1001
GRPNAME
1000
PASTMD0L
  0
LINE
  5
1411
  8
240
  6
CONTINUOUS
 10
1.5
 20
-49.2124999999999986
 30
0.0
 11
1.5
 21
-34.9250000000000114
 31
0.0
1001
GRPNAME
1000
PASTMD0L
  0
LINE
  5
1412
  8
240
  6
CONTINUOUS
 10
19.0500000000000114
 20
-49.2124999999999986
 30
0.0
 11
19.0500000000001108
 21
-45.0000000000000568
 31
0.0
1001
GRPNAME
1000
PASTMD0L
  0
LINE
  5
1413
  8
240
  6
CONTINUOUS
 10
14.6461667700000007
 20
-49.2124999999999986
 30
0.0
 11
19.0500000000000114
 21
-49.2124999999999986
 31
0.0
1001
GRPNAME
1000
PASTMD0L
  0
LINE
  5
1414
  8
240
  6
CONTINUOUS
 10
1.5
 20
-49.2124999999999986
 30
0.0
 11
7.5938332300000013
 21
-49.2124999999999986
 31
0.0
1001
GRPNAME
1000
PASTMD0L
  0
LINE
  5
1415
  8
240
  6
CONTINUOUS
 10
9.2000000000000028
 20
-45.6450000000000031
 30
0.0
 11
13.0399999999999903
 21
-45.6450000000000031
 31
0.0
1001
GRPNAME
1000
PASTMD0L
  0
LINE
  5
1416
  8
240
  6
CONTINUOUS
 10
9.2000000000000028
 20
-46.4305375499999897
 30
0.0
 11
7.5938332300000013
 21
-49.2124999999999986
 31
0.0
1001
GRPNAME
1000
PASTMD0L
  0
LINE
  5
1417
  8
240
  6
CONTINUOUS
 10
9.2000000000000028
 20
-45.6450000000000031
 30
0.0
 11
9.2000000000000028
 21
-46.4305375499999897
 31
0.0
1001
GRPNAME
1000
PASTMD0L
  0
LINE
  5
1418
  8
240
  6
CONTINUOUS
 10
13.0399999999999903
 20
-46.4305375499999897
 30
0.0
 11
14.6461667700000007
 21
-49.2124999999999986
 31
0.0
1001
GRPNAME
1000
PASTMD0L
  0
LINE
  5
1419
  8
240
  6
CONTINUOUS
 10
13.0399999999999903
 20
-45.6450000000000031
 30
0.0
 11
13.0399999999999903
 21
-46.4305375499999897
 31
0.0
1001
GRPNAME
1000
PASTMD0L
  0
LINE
  5
141A
  8
241
  6
CONTINUOUS
 10
0.0
 20
-34.9250000000000114
 30
0.0
 11
0.0
 21
34.9250000000000114
 31
0.0
1001
GRPNAME
1000
PASTMD0L
  0
LINE
  5
141B
  8
240
  6
CONTINUOUS
 10
0.0
 20
-34.9250000000000114
 30
0.0
 11
1.5
 21
-34.9250000000000114
 31
0.0
  0
LINE
  5
141C
  8
240
  6
CONTINUOUS
 10
1.5
 20
49.2124999999999702
 30
0.0
 11
1.5
 21
34.9250000000000114
 31
0.0
1001
GRPNAME
1000
PASTMD0L
  0
LINE
  5
141D
  8
240
  6
CONTINUOUS
 10
19.0500000000000114
 20
49.2124999999999702
 30
0.0
 11
19.0500000000000291
 21
45.0000000000000924
 31
0.0
1001
GRPNAME
1000
PASTMD0L
  0
LINE
  5
141E
  8
240
  6
CONTINUOUS
 10
0.0
 20
34.9250000000000114
 30
0.0
 11
1.5
 21
34.9250000000000114
 31
0.0
  0
LINE
  5
141F
  8
240
  6
CONTINUOUS
 10
14.6461667700000007
 20
49.2124999999999702
 30
0.0
 11
19.0500000000000114
 21
49.2124999999999702
 31
0.0
1001
GRPNAME
1000
PASTMD0L
  0
LINE
  5
1420
  8
240
  6
CONTINUOUS
 10
1.5
 20
49.2124999999999702
 30
0.0
 11
7.5938332300000013
 21
49.2124999999999702
 31
0.0
1001
GRPNAME
1000
PASTMD0L
  0
LINE
  5
1421
  8
240
  6
CONTINUOUS
 10
9.2000000000000028
 20
45.6449999999999818
 30
0.0
 11
13.0399999999999903
 21
45.6449999999999818
 31
0.0
1001
GRPNAME
1000
PASTMD0L
  0
LINE
  5
1422
  8
240
  6
CONTINUOUS
 10
9.2000000000000028
 20
45.6449999999999818
 30
0.0
 11
9.2000000000000028
 21
46.4305375499999897
 31
0.0
1001
GRPNAME
1000
PASTMD0L
  0
LINE
  5
1423
  8
240
  6
CONTINUOUS
 10
9.2000000000000028
 20
46.4305375499999897
 30
0.0
 11
7.5938332300000013
 21
49.2124999999999702
 31
0.0
1001
GRPNAME
1000
PASTMD0L
  0
LINE
  5
1424
  8
240
  6
CONTINUOUS
 10
13.0399999999999903
 20
45.6449999999999818
 30
0.0
 11
13.0399999999999903
 21
46.4305375499999897
 31
0.0
1001
GRPNAME
1000
PASTMD0L
  0
LINE
  5
1425
  8
240
  6
CONTINUOUS
 10
13.0399999999999903
 20
46.4305375499999897
 30
0.0
 11
14.6461667700000007
 21
49.2124999999999702
 31
0.0
1001
GRPNAME
1000
PASTMD0L
  0
TEXT
  5
1426
  8
250
  6
CONTINUOUS
 10
-73.8675778919675849
 20
-37.357738943014617
 30
0.0
 40
2.799999999999998
  1
BCV50Y
  7
YOKO
1001
ITEMNAME
1000
LNSP3
  0
LINE
  5
1427
  8
250
  6
CONTINUOUS
 10
-57.0612186589336901
 20
-38.3577389430146312
 30
0.0
 11
-75.0612186589336829
 21
-38.3577389430146312
 31
0.0
1001
ITEMNAME
1000
LNSP2
  0
LINE
  5
1428
  8
250
  6
CONTINUOUS
 10
-52.088904974520247
 20
-29.0818615630252886
 30
0.0
 11
-50.7999999989336928
 21
-27.5166666630146288
 31
0.0
  0
LINE
  5
1429
  8
250
  6
CONTINUOUS
 10
-51.5116036569175506
 20
-29.4152796686203608
 30
0.0
 11
-50.7999999989336928
 21
-27.5166666630146288
 31
0.0
  0
LINE
  5
142A
  8
250
  6
CONTINUOUS
 10
-50.7999999989336928
 20
-27.5166666630146288
 30
0.0
 11
-51.8002543157188811
 21
-29.2485706158228211
 31
0.0
  0
LINE
  5
142B
  8
250
  6
CONTINUOUS
 10
-51.8002543157188811
 20
-29.2485706158228211
 30
0.0
 11
-57.0612186589336901
 21
-38.3577389430146312
 31
0.0
1001
ACAD
1000
DSTYLE
1002
{
1070
     6
1000
OPEN
1070
    41
1040
2.0
1070
    42
1040
2.0
1070
    44
1040
2.0
1070
   140
1040
4.0
1070
   343
1005
0
1002
}
  0
LINE
  5
142C
  8
247
  6
CONTINUOUS
 10
5.4999999999999432
 20
-26.75
 30
0.0
 11
5.5
 21
-22.1153846156700489
 31
0.0
  0
LINE
  5
142D
  8
247
  6
CONTINUOUS
 10
3.0
 20
-25.9548934999879783
 30
0.0
 11
5.0999999999160082
 21
-26.5570588100573595
 31
0.0
  0
LINE
  5
142E
  8
247
  6
CONTINUOUS
 10
3.996153846113998
 20
-25.3251514035190404
 30
0.0
 11
3.996153846113998
 21
-26.24053601886704
 31
0.0
  0
ARC
  5
142F
  8
247
  6
CONTINUOUS
 10
3.3847190672940992
 20
-25.0872634019468101
 30
0.0
 40
0.3876715809326743
 50
72.9978896752921997
 51
172.9241662185135908
  0
ARC
  5
1430
  8
247
  6
CONTINUOUS
 10
3.305223131028014
 20
-25.3824775568041296
 30
0.0
 40
0.6933047965358772
 50
4.7429368522022122
 51
73.8492262732667513
1001
GENIUS_GENOBJ-N-FIL_13
1002
{
1000
OWNER
1000
GEN
1002
}
1001
GENIUS_GENODEF_13
1002
{
1000
HIER
1070
     0
1002
}
1002
{
1000
MANEDIT
1070
     0
1002
}
1002
{
1000
NOSEL
1070
     0
1002
}
1002
{
1000
BEHIND
1070
     0
1002
}
1002
{
1000
OTHER
1070
     0
1002
}
1002
{
1000
REACTOR
1002
}
  0
LINE
  5
1431
  8
247
  6
CONTINUOUS
 10
5.0999999999160082
 20
-25.6416741947093705
 30
0.0
 11
5.0999999999160082
 21
-26.5570588100573595
 31
0.0
  0
LINE
  5
1432
  8
247
  6
CONTINUOUS
 10
3.0
 20
-25.9548934999879783
 30
0.0
 11
3.0
 21
-25.0395088846399894
 31
0.0
  0
ARC
  5
1433
  8
247
  6
CONTINUOUS
 10
4.3874169627678707
 20
-25.3783064762668609
 30
0.0
 40
0.394857301075386
 50
65.990941652528889
 51
172.2634434590690944
  0
ARC
  5
1434
  8
247
  6
CONTINUOUS
 10
4.391200327332565
 20
-25.7124466104269302
 30
0.0
 40
0.7123241612361686
 50
5.701985164259785
 51
77.2773384368220064
1001
GENIUS_GENOBJ-N-FIL_13
1002
{
1000
OWNER
1000
GEN
1002
}
1001
GENIUS_GENODEF_13
1002
{
1000
HIER
1070
     0
1002
}
1002
{
1000
MANEDIT
1070
     0
1002
}
1002
{
1000
NOSEL
1070
     0
1002
}
1002
{
1000
BEHIND
1070
     0
1002
}
1002
{
1000
OTHER
1070
     0
1002
}
1002
{
1000
REACTOR
1002
}
  0
LINE
  5
1435
  8
247
  6
CONTINUOUS
 10
5.0999999999160082
 20
-24.6839818870633998
 30
0.0
 11
3.0
 21
-24.0818165769940116
 31
0.0
  0
LINE
  5
1436
  8
247
  6
CONTINUOUS
 10
3.0
 20
-22.5856627309079805
 30
0.0
 11
3.0
 21
-22.9816783643036011
 31
0.0
  0
LINE
  5
1437
  8
247
  6
CONTINUOUS
 10
5.0999999999160082
 20
-23.6087396539439816
 30
0.0
 11
5.0999999999160082
 21
-23.1779704231919901
 31
0.0
  0
ARC
  5
1438
  8
247
  6
CONTINUOUS
 10
4.4582995950833562
 20
-22.3818165770699693
 30
0.0
 40
1.576855057639547
 50
202.3594881415291127
 51
254.9932485428464872
  0
ARC
  5
1439
  8
247
  6
CONTINUOUS
 10
3.5658188585381341
 20
-22.8475113661332294
 30
0.0
 40
0.6234706797009447
 50
94.9945893190753168
 51
155.1663289573039037
1001
GENIUS_GENOBJ-N-FIL_13
1002
{
1000
OWNER
1000
GEN
1002
}
1001
GENIUS_GENODEF_13
1002
{
1000
HIER
1070
     0
1002
}
1002
{
1000
MANEDIT
1070
     0
1002
}
1002
{
1000
NOSEL
1070
     0
1002
}
1002
{
1000
BEHIND
1070
     0
1002
}
1002
{
1000
OTHER
1070
     0
1002
}
1002
{
1000
REACTOR
1002
}
  0
ARC
  5
143A
  8
247
  6
CONTINUOUS
 10
4.1621021219694381
 20
-23.4441839510328016
 30
0.0
 40
0.9749472149106978
 50
15.8460965557808002
 51
82.325137004169278
  0
ARC
  5
143B
  8
247
  6
CONTINUOUS
 10
4.3714704019710631
 20
-23.035211638772239
 30
0.0
 40
0.9271945638692008
 50
249.7136016704968995
 51
321.7887456564109243
1001
GENIUS_GENOBJ-N-FIL_13
1002
{
1000
OWNER
1000
GEN
1002
}
1001
GENIUS_GENODEF_13
1002
{
1000
HIER
1070
     0
1002
}
1002
{
1000
MANEDIT
1070
     0
1002
}
1002
{
1000
NOSEL
1070
     0
1002
}
1002
{
1000
BEHIND
1070
     0
1002
}
1002
{
1000
OTHER
1070
     0
1002
}
1002
{
1000
REACTOR
1002
}
  0
LINE
  5
143C
  8
247
  6
CONTINUOUS
 10
4.2923076922559744
 20
-22.9625858078159588
 30
0.0
 11
4.2923076922559744
 21
-22.4779704232199684
 31
0.0
  0
ARC
  5
143D
  8
247
  6
CONTINUOUS
 10
4.25
 20
-26.75
 30
0.0
 40
1.25
 50
180.0
 51
0.0
  0
LINE
  5
143E
  8
247
  6
CONTINUOUS
 10
3.0
 20
-26.75
 30
0.0
 11
3.0
 21
-26.3038461539140407
 31
0.0
  0
ARC
  5
143F
  8
247
  6
CONTINUOUS
 10
4.25
 20
-22.1153846156700489
 30
0.0
 40
1.25
 50
0.0
 51
180.0
  0
LINE
  5
1440
  8
241
  6
CONTINUOUS
 10
19.0500000000000114
 20
-45.0000000000000568
 30
0.0
 11
19.0500000000000114
 21
45.0000000000000924
 31
0.0
  0
LINE
  5
1441
  8
241
  6
CONTINUOUS
 10
18.5499999999901384
 20
12.6999999999896591
 30
0.0
 11
3.700000000003171
 21
12.6999999999989104
 31
0.0
  0
LINE
  5
1442
  8
241
  6
CONTINUOUS
 10
18.5499999999931688
 20
-12.6999999999923006
 30
0.0
 11
3.7000000000030551
 21
-12.6999999999985693
 31
0.0
  0
LINE
  5
1443
  8
241
  6
CONTINUOUS
 10
3.7000000000030551
 20
-12.6999999999985693
 30
0.0
 11
1.5000000000001099
 21
-14.8999999999995207
 31
0.0
  0
LINE
  5
1444
  8
241
  6
CONTINUOUS
 10
3.700000000003171
 20
12.6999999999989104
 30
0.0
 11
1.5000000000001701
 21
14.89999999999986
 31
0.0
  0
LINE
  5
14B6
  8
241
 10
18.5500000000002387
 20
-12.6999999999993598
 30
0.0
 11
19.0500000000002387
 21
-13.1999999999993598
 31
0.0
  0
LINE
  5
14B7
  8
241
  6
CONTINUOUS
 10
18.5500000000001712
 20
12.6999999999997009
 30
0.0
 11
19.0500000000001712
 21
13.1999999999997009
 31
0.0
  0
LINE
  5
1526
  8
240
  6
CONTINUOUS
 10
34.9999999999997726
 20
-55.0
 30
0.0
 11
34.9999999999997726
 21
-45.0
 31
0.0
  0
LINE
  5
1527
  8
240
  6
CONTINUOUS
 10
124.9999999999997016
 20
-55.0
 30
0.0
 11
34.9999999999997726
 21
-55.0000000431780975
 31
0.0
  0
LINE
  5
1529
  8
240
  6
CONTINUOUS
 10
73.8345837044781064
 20
30.8653674714505613
 30
0.0
 11
34.9999999999997229
 21
45.0
 31
0.0
  0
LINE
  5
152A
  8
245
  6
CENTER2
 10
120.0439999999996985
 20
-42.5000000000000568
 30
0.0
 11
46.6391682721785514
 21
-42.4999999999971365
 31
0.0
  0
LINE
  5
1532
  8
240
  6
CONTINUOUS
 10
19.0500000000001108
 20
-45.0000000000000568
 30
0.0
 11
34.9999999999997726
 21
-45.0
 31
0.0
  0
LINE
  5
153A
  8
240
  6
CONTINUOUS
 10
34.9999999999997726
 20
45.0000000000000924
 30
0.0
 11
19.0500000000000291
 21
45.0000000000000924
 31
0.0
  0
LINE
  5
153B
  8
240
  6
CONTINUOUS
 10
96.9999999999997584
 20
13.0
 30
0.0
 11
88.4380957667929124
 21
21.5619042332047002
 31
0.0
  0
LINE
  5
153C
  8
240
  6
CONTINUOUS
 10
96.9999999999997584
 20
13.0
 30
0.0
 11
121.4852813742383972
 21
-11.4852813742381805
 31
0.0
  0
ARC
  5
1543
  8
240
  6
CONTINUOUS
 10
112.9999999999999005
 20
-19.9705627484768087
 30
0.0
 40
12.0
 50
0.0
 51
45.0
  0
LINE
  5
1549
  8
240
  6
CONTINUOUS
 10
124.9999999999997016
 20
-55.0
 30
0.0
 11
124.9999999999999005
 21
-19.9705627484769295
 31
0.0
  0
ARC
  5
1553
  8
240
  6
CONTINUOUS
 10
60.1537343645063487
 20
-6.722457169082416
 30
0.0
 40
40.0001274981875881
 50
45.00004048745636
 51
69.9999595125459848
  0
ARC
  5
1855
  8
240
  6
CONTINUOUS
 10
341.9999352779669266
 20
-18.0900328373948014
 30
0.0
 40
30.0000647220395997
 50
326.1778754502846027
 51
359.9999624183852234
  0
ARC
  5
1856
  8
240
  6
CONTINUOUS
 10
314.9999999999998863
 20
-12.0000000000002292
 30
0.0
 40
57.0000000000000071
 50
0.5173965914213535
 51
36.0723019337879194
  0
LINE
  5
1857
  8
245
  6
CENTER2
 10
248.2902874637331934
 20
0.0000000000000568
 30
0.0
 11
382.5634484377018794
 21
-0.0000000000003411
 31
0.0
  0
ARC
  5
185A
  8
240
  6
CONTINUOUS
 10
314.9999999999998863
 20
12.9999999999997708
 30
0.0
 40
32.0000000000000071
 50
164.4808680774125094
 51
180.0
  0
LINE
  5
185B
  8
245
  6
CENTER2
 10
315.0
 20
-66.835678822696309
 30
0.0
 11
314.9999999999997158
 21
66.3601898131756798
 31
0.0
  0
ARC
  5
185D
  8
240
  6
CONTINUOUS
 10
314.9999999999998863
 20
12.9999999999997708
 30
0.0
 40
32.0000000000000426
 50
90.0
 51
146.0622099371094862
  0
POLYLINE
  5
2943
  8
240
 66
     1
 10
0.0
 20
0.0
 30
0.0
 70
     8
  0
VERTEX
  5
2944
  8
240
 10
284.1669999999999732
 20
21.5619000000000014
 30
0.0
 70
    32
  0
VERTEX
  5
2945
  8
240
 10
284.1759999999999877
 20
21.594100000000001
 30
0.0
 70
    32
  0
VERTEX
  5
2946
  8
240
 10
284.1850000000000023
 20
21.6263000000000005
 30
0.0
 70
    32
  0
VERTEX
  5
2947
  8
240
 10
284.1940000000000168
 20
21.6584000000000003
 30
0.0
 70
    32
  0
VERTEX
  5
2948
  8
240
 10
284.2029999999999745
 20
21.6905000000000001
 30
0.0
 70
    32
  0
VERTEX
  5
2949
  8
240
 10
284.2119999999999891
 20
21.7225000000000001
 30
0.0
 70
    32
  0
VERTEX
  5
294A
  8
240
 10
284.2210000000000036
 20
21.7545000000000002
 30
0.0
 70
    32
  0
VERTEX
  5
294B
  8
240
 10
284.2300000000000182
 20
21.7865000000000002
 30
0.0
 70
    32
  0
VERTEX
  5
294C
  8
240
 10
284.2389999999999759
 20
21.8184000000000005
 30
0.0
 70
    32
  0
VERTEX
  5
294D
  8
240
 10
284.2479999999999905
 20
21.8503000000000007
 30
0.0
 70
    32
  0
VERTEX
  5
294E
  8
240
 10
284.257000000000005
 20
21.882200000000001
 30
0.0
 70
    32
  0
VERTEX
  5
294F
  8
240
 10
284.2669999999999959
 20
21.9140000000000015
 30
0.0
 70
    32
  0
VERTEX
  5
2950
  8
240
 10
284.2760000000000105
 20
21.9457999999999984
 30
0.0
 70
    32
  0
VERTEX
  5
2951
  8
240
 10
284.285000000000025
 20
21.9774999999999991
 30
0.0
 70
    32
  0
VERTEX
  5
2952
  8
240
 10
284.2939999999999827
 20
22.0091999999999999
 30
0.0
 70
    32
  0
VERTEX
  5
2953
  8
240
 10
284.3039999999999736
 20
22.0409000000000006
 30
0.0
 70
    32
  0
VERTEX
  5
2954
  8
240
 10
284.3129999999999882
 20
22.0725000000000016
 30
0.0
 70
    32
  0
VERTEX
  5
2955
  8
240
 10
284.3220000000000027
 20
22.104099999999999
 30
0.0
 70
    32
  0
VERTEX
  5
2956
  8
240
 10
284.3319999999999936
 20
22.1356999999999999
 30
0.0
 70
    32
  0
VERTEX
  5
2957
  8
240
 10
284.3410000000000082
 20
22.1672000000000011
 30
0.0
 70
    32
  0
VERTEX
  5
2958
  8
240
 10
284.3509999999999991
 20
22.1986999999999988
 30
0.0
 70
    32
  0
VERTEX
  5
2959
  8
240
 10
284.3600000000000136
 20
22.2301000000000002
 30
0.0
 70
    32
  0
VERTEX
  5
295A
  8
240
 10
284.3700000000000045
 20
22.2616000000000014
 30
0.0
 70
    32
  0
VERTEX
  5
295B
  8
240
 10
284.3790000000000191
 20
22.2928999999999995
 30
0.0
 70
    32
  0
VERTEX
  5
295C
  8
240
 10
284.38900000000001
 20
22.3243000000000009
 30
0.0
 70
    32
  0
VERTEX
  5
295D
  8
240
 10
284.3980000000000246
 20
22.355599999999999
 30
0.0
 70
    32
  0
VERTEX
  5
295E
  8
240
 10
284.4080000000000155
 20
22.3868000000000009
 30
0.0
 70
    32
  0
VERTEX
  5
295F
  8
240
 10
284.4169999999999732
 20
22.4179999999999993
 30
0.0
 70
    32
  0
VERTEX
  5
2960
  8
240
 10
284.4270000000000209
 20
22.4492000000000012
 30
0.0
 70
    32
  0
VERTEX
  5
2961
  8
240
 10
284.4370000000000118
 20
22.4803999999999995
 30
0.0
 70
    32
  0
VERTEX
  5
2962
  8
240
 10
284.4460000000000264
 20
22.5115000000000016
 30
0.0
 70
    32
  0
VERTEX
  5
2963
  8
240
 10
284.4559999999999036
 20
22.5426000000000002
 30
0.0
 70
    32
  0
VERTEX
  5
2964
  8
240
 10
284.4660000000000082
 20
22.573599999999999
 30
0.0
 70
    32
  0
VERTEX
  5
2965
  8
240
 10
284.4750000000000227
 20
22.6046000000000014
 30
0.0
 70
    32
  0
VERTEX
  5
2966
  8
240
 10
284.4850000000000136
 20
22.6356000000000002
 30
0.0
 70
    32
  0
VERTEX
  5
2967
  8
240
 10
284.4950000000000045
 20
22.6664999999999992
 30
0.0
 70
    32
  0
VERTEX
  5
2968
  8
240
 10
284.5049999999999955
 20
22.6973999999999982
 30
0.0
 70
    32
  0
VERTEX
  5
2969
  8
240
 10
284.5149999999999864
 20
22.7282000000000011
 30
0.0
 70
    32
  0
VERTEX
  5
296A
  8
240
 10
284.5240000000000009
 20
22.7590000000000003
 30
0.0
 70
    32
  0
VERTEX
  5
296B
  8
240
 10
284.5339999999999918
 20
22.7897999999999996
 30
0.0
 70
    32
  0
VERTEX
  5
296C
  8
240
 10
284.5439999999999827
 20
22.8204999999999991
 30
0.0
 70
    32
  0
VERTEX
  5
296D
  8
240
 10
284.5539999999999736
 20
22.8511999999999986
 30
0.0
 70
    32
  0
VERTEX
  5
296E
  8
240
 10
284.5640000000000214
 20
22.8819000000000017
 30
0.0
 70
    32
  0
VERTEX
  5
296F
  8
240
 10
284.5740000000000123
 20
22.9125000000000014
 30
0.0
 70
    32
  0
VERTEX
  5
2970
  8
240
 10
284.5840000000000032
 20
22.9431000000000012
 30
0.0
 70
    32
  0
VERTEX
  5
2971
  8
240
 10
284.5939999999999941
 20
22.9736000000000011
 30
0.0
 70
    32
  0
VERTEX
  5
2972
  8
240
 10
284.603999999999985
 20
23.0041000000000011
 30
0.0
 70
    32
  0
VERTEX
  5
2973
  8
240
 10
284.6140000000000896
 20
23.0346000000000011
 30
0.0
 70
    32
  0
VERTEX
  5
2974
  8
240
 10
284.6240000000000236
 20
23.0650000000000013
 30
0.0
 70
    32
  0
VERTEX
  5
2975
  8
240
 10
284.6340000000000146
 20
23.0954000000000015
 30
0.0
 70
    32
  0
VERTEX
  5
2976
  8
240
 10
284.6440000000000055
 20
23.1256999999999984
 30
0.0
 70
    32
  0
VERTEX
  5
2977
  8
240
 10
284.6539999999999964
 20
23.1559999999999988
 30
0.0
 70
    32
  0
VERTEX
  5
2978
  8
240
 10
284.6650000000000205
 20
23.1862999999999992
 30
0.0
 70
    32
  0
VERTEX
  5
2979
  8
240
 10
284.6750000000000114
 20
23.2164999999999999
 30
0.0
 70
    32
  0
VERTEX
  5
297A
  8
240
 10
284.6850000000000023
 20
23.2467000000000006
 30
0.0
 70
    32
  0
VERTEX
  5
297B
  8
240
 10
284.6949999999999932
 20
23.2769000000000013
 30
0.0
 70
    32
  0
VERTEX
  5
297C
  8
240
 10
284.7049999999999841
 20
23.3069999999999986
 30
0.0
 70
    32
  0
VERTEX
  5
297D
  8
240
 10
284.7160000000000082
 20
23.3369999999999997
 30
0.0
 70
    32
  0
VERTEX
  5
297E
  8
240
 10
284.7259999999999991
 20
23.3671000000000006
 30
0.0
 70
    32
  0
VERTEX
  5
297F
  8
240
 10
284.73599999999999
 20
23.3970999999999982
 30
0.0
 70
    32
  0
VERTEX
  5
2980
  8
240
 10
284.7459999999999809
 20
23.4269999999999996
 30
0.0
 70
    32
  0
VERTEX
  5
2981
  8
240
 10
284.757000000000005
 20
23.4570000000000007
 30
0.0
 70
    32
  0
VERTEX
  5
2982
  8
240
 10
284.7669999999999959
 20
23.4867999999999988
 30
0.0
 70
    32
  0
VERTEX
  5
2983
  8
240
 10
284.7769999999999868
 20
23.5167000000000002
 30
0.0
 70
    32
  0
VERTEX
  5
2984
  8
240
 10
284.7880000000000109
 20
23.5465000000000018
 30
0.0
 70
    32
  0
VERTEX
  5
2985
  8
240
 10
284.7980000000000018
 20
23.5762
 30
0.0
 70
    32
  0
VERTEX
  5
2986
  8
240
 10
284.8090000000000259
 20
23.6060000000000016
 30
0.0
 70
    32
  0
VERTEX
  5
2987
  8
240
 10
284.8190000000000168
 20
23.6356000000000002
 30
0.0
 70
    32
  0
VERTEX
  5
2988
  8
240
 10
284.8299999999999841
 20
23.6652999999999984
 30
0.0
 70
    32
  0
VERTEX
  5
2989
  8
240
 10
284.839999999999975
 20
23.6949000000000005
 30
0.0
 70
    32
  0
VERTEX
  5
298A
  8
240
 10
284.8509999999999991
 20
23.724499999999999
 30
0.0
 70
    32
  0
VERTEX
  5
298B
  8
240
 10
284.86099999999999
 20
23.7540000000000013
 30
0.0
 70
    32
  0
VERTEX
  5
298C
  8
240
 10
284.8720000000000141
 20
23.7835000000000001
 30
0.0
 70
    32
  0
VERTEX
  5
298D
  8
240
 10
284.882000000000005
 20
23.8128999999999991
 30
0.0
 70
    32
  0
VERTEX
  5
298E
  8
240
 10
284.8929999999999723
 20
23.8423000000000016
 30
0.0
 70
    32
  0
VERTEX
  5
298F
  8
240
 10
284.90300000000002
 20
23.8717000000000006
 30
0.0
 70
    32
  0
VERTEX
  5
2990
  8
240
 10
284.9139999999999873
 20
23.9009999999999998
 30
0.0
 70
    32
  0
VERTEX
  5
2991
  8
240
 10
284.9250000000000114
 20
23.930299999999999
 30
0.0
 70
    32
  0
VERTEX
  5
2992
  8
240
 10
284.9350000000000023
 20
23.9594999999999985
 30
0.0
 70
    32
  0
VERTEX
  5
2993
  8
240
 10
284.9460000000000264
 20
23.9888000000000012
 30
0.0
 70
    32
  0
VERTEX
  5
2994
  8
240
 10
284.9569999999999936
 20
24.0179000000000009
 30
0.0
 70
    32
  0
VERTEX
  5
2995
  8
240
 10
284.9669999999999845
 20
24.0470000000000006
 30
0.0
 70
    32
  0
VERTEX
  5
2996
  8
240
 10
284.9780000000000086
 20
24.0761000000000003
 30
0.0
 70
    32
  0
VERTEX
  5
2997
  8
240
 10
284.9889999999999759
 20
24.1052
 30
0.0
 70
    32
  0
VERTEX
  5
2998
  8
240
 10
285.0
 20
24.1341999999999999
 30
0.0
 70
    32
  0
VERTEX
  5
2999
  8
240
 10
285.0099999999999909
 20
24.1631999999999998
 30
0.0
 70
    32
  0
VERTEX
  5
299A
  8
240
 10
285.021000000000015
 20
24.1920999999999999
 30
0.0
 70
    32
  0
VERTEX
  5
299B
  8
240
 10
285.0319999999999823
 20
24.2210000000000001
 30
0.0
 70
    32
  0
VERTEX
  5
299C
  8
240
 10
285.0430000000000064
 20
24.2498000000000005
 30
0.0
 70
    32
  0
VERTEX
  5
299D
  8
240
 10
285.0539999999999736
 20
24.2786000000000008
 30
0.0
 70
    32
  0
VERTEX
  5
299E
  8
240
 10
285.0640000000000214
 20
24.3074000000000012
 30
0.0
 70
    32
  0
VERTEX
  5
299F
  8
240
 10
285.0749999999999886
 20
24.3360999999999983
 30
0.0
 70
    32
  0
VERTEX
  5
29A0
  8
240
 10
285.0860000000000127
 20
24.3647999999999989
 30
0.0
 70
    32
  0
VERTEX
  5
29A1
  8
240
 10
285.09699999999998
 20
24.3934999999999995
 30
0.0
 70
    32
  0
VERTEX
  5
29A2
  8
240
 10
285.1080000000000041
 20
24.4221000000000004
 30
0.0
 70
    32
  0
VERTEX
  5
29A3
  8
240
 10
285.1190000000000282
 20
24.4506000000000014
 30
0.0
 70
    32
  0
VERTEX
  5
29A4
  8
240
 10
285.1299999999999955
 20
24.4791999999999987
 30
0.0
 70
    32
  0
VERTEX
  5
29A5
  8
240
 10
285.1409999999999059
 20
24.5076000000000001
 30
0.0
 70
    32
  0
VERTEX
  5
29A6
  8
240
 10
285.1519999999999868
 20
24.5361000000000011
 30
0.0
 70
    32
  0
VERTEX
  5
29A7
  8
240
 10
285.1630000000000109
 20
24.5644999999999989
 30
0.0
 70
    32
  0
VERTEX
  5
29A8
  8
240
 10
285.1739999999999782
 20
24.5929000000000002
 30
0.0
 70
    32
  0
VERTEX
  5
29A9
  8
240
 10
285.1850000000000023
 20
24.6212000000000018
 30
0.0
 70
    32
  0
VERTEX
  5
29AA
  8
240
 10
285.1960000000000264
 20
24.6494999999999997
 30
0.0
 70
    32
  0
VERTEX
  5
29AB
  8
240
 10
285.2069999999999936
 20
24.6777000000000015
 30
0.0
 70
    32
  0
VERTEX
  5
29AC
  8
240
 10
285.2180000000000177
 20
24.7058999999999997
 30
0.0
 70
    32
  0
VERTEX
  5
29AD
  8
240
 10
285.228999999999985
 20
24.7341000000000015
 30
0.0
 70
    32
  0
VERTEX
  5
29AE
  8
240
 10
285.2400000000000091
 20
24.7622
 30
0.0
 70
    32
  0
VERTEX
  5
29AF
  8
240
 10
285.2509999999999764
 20
24.7902999999999984
 30
0.0
 70
    32
  0
VERTEX
  5
29B0
  8
240
 10
285.2620000000000005
 20
24.8183000000000007
 30
0.0
 70
    32
  0
VERTEX
  5
29B1
  8
240
 10
285.2740000000000009
 20
24.8462999999999994
 30
0.0
 70
    32
  0
VERTEX
  5
29B2
  8
240
 10
285.285000000000025
 20
24.8743000000000016
 30
0.0
 70
    32
  0
VERTEX
  5
29B3
  8
240
 10
285.2959999999999923
 20
24.9022000000000006
 30
0.0
 70
    32
  0
VERTEX
  5
29B4
  8
240
 10
285.3070000000000164
 20
24.9300999999999995
 30
0.0
 70
    32
  0
VERTEX
  5
29B5
  8
240
 10
285.3179999999999836
 20
24.9578999999999986
 30
0.0
 70
    32
  0
VERTEX
  5
29B6
  8
240
 10
285.3290000000000077
 20
24.9857000000000014
 30
0.0
 70
    32
  0
VERTEX
  5
29B7
  8
240
 10
285.3410000000000082
 20
25.0134000000000007
 30
0.0
 70
    32
  0
VERTEX
  5
29B8
  8
240
 10
285.3520000000000891
 20
25.0411000000000001
 30
0.0
 70
    32
  0
VERTEX
  5
29B9
  8
240
 10
285.3629999999999995
 20
25.0687999999999995
 30
0.0
 70
    32
  0
VERTEX
  5
29BA
  8
240
 10
285.3740000000000236
 20
25.0963999999999992
 30
0.0
 70
    32
  0
VERTEX
  5
29BB
  8
240
 10
285.3860000000000241
 20
25.1239999999999988
 30
0.0
 70
    32
  0
VERTEX
  5
29BC
  8
240
 10
285.3969999999999914
 20
25.1515999999999984
 30
0.0
 70
    32
  0
VERTEX
  5
29BD
  8
240
 10
285.4080000000000155
 20
25.1790999999999983
 30
0.0
 70
    32
  0
VERTEX
  5
29BE
  8
240
 10
285.4200000000000159
 20
25.2064999999999984
 30
0.0
 70
    32
  0
VERTEX
  5
29BF
  8
240
 10
285.4309999999999832
 20
25.2340000000000018
 30
0.0
 70
    32
  0
VERTEX
  5
29C0
  8
240
 10
285.4420000000000073
 20
25.2612999999999985
 30
0.0
 70
    32
  0
VERTEX
  5
29C1
  8
240
 10
285.4540000000000077
 20
25.2886999999999986
 30
0.0
 70
    32
  0
VERTEX
  5
29C2
  8
240
 10
285.464999999999975
 20
25.3159999999999989
 30
0.0
 70
    32
  0
VERTEX
  5
29C3
  8
240
 10
285.4759999999999991
 20
25.3431999999999995
 30
0.0
 70
    32
  0
VERTEX
  5
29C4
  8
240
 10
285.4879999999999995
 20
25.3704000000000001
 30
0.0
 70
    32
  0
VERTEX
  5
29C5
  8
240
 10
285.4990000000000236
 20
25.3976000000000006
 30
0.0
 70
    32
  0
VERTEX
  5
29C6
  8
240
 10
285.5110000000000241
 20
25.4248000000000012
 30
0.0
 70
    32
  0
VERTEX
  5
29C7
  8
240
 10
285.5219999999999914
 20
25.4517999999999986
 30
0.0
 70
    32
  0
VERTEX
  5
29C8
  8
240
 10
285.5330000000000155
 20
25.4788999999999994
 30
0.0
 70
    32
  0
VERTEX
  5
29C9
  8
240
 10
285.5450000000000159
 20
25.5059000000000005
 30
0.0
 70
    32
  0
VERTEX
  5
29CA
  8
240
 10
285.5559999999999832
 20
25.5329000000000015
 30
0.0
 70
    32
  0
VERTEX
  5
29CB
  8
240
 10
285.5679999999999836
 20
25.5597999999999992
 30
0.0
 70
    32
  0
VERTEX
  5
29CC
  8
240
 10
285.5790000000000077
 20
25.5867000000000004
 30
0.0
 70
    32
  0
VERTEX
  5
29CD
  8
240
 10
285.5910000000000082
 20
25.6134999999999984
 30
0.0
 70
    32
  0
VERTEX
  5
29CE
  8
240
 10
285.6019999999999754
 20
25.6402999999999999
 30
0.0
 70
    32
  0
VERTEX
  5
29CF
  8
240
 10
285.6139999999999759
 20
25.6670000000000016
 30
0.0
 70
    32
  0
VERTEX
  5
29D0
  8
240
 10
285.625
 20
25.6937999999999995
 30
0.0
 70
    32
  0
VERTEX
  5
29D1
  8
240
 10
285.6370000000000005
 20
25.7204000000000015
 30
0.0
 70
    32
  0
VERTEX
  5
29D2
  8
240
 10
285.6480000000000246
 20
25.7470999999999997
 30
0.0
 70
    32
  0
VERTEX
  5
29D3
  8
240
 10
285.660000000000025
 20
25.7735999999999983
 30
0.0
 70
    32
  0
VERTEX
  5
29D4
  8
240
 10
285.6720000000000255
 20
25.8002000000000002
 30
0.0
 70
    32
  0
VERTEX
  5
29D5
  8
240
 10
285.6829999999999927
 20
25.8266999999999989
 30
0.0
 70
    32
  0
VERTEX
  5
29D6
  8
240
 10
285.6949999999999932
 20
25.8532000000000011
 30
0.0
 70
    32
  0
VERTEX
  5
29D7
  8
240
 10
285.7060000000000173
 20
25.8795999999999999
 30
0.0
 70
    32
  0
VERTEX
  5
29D8
  8
240
 10
285.7180000000000177
 20
25.905899999999999
 30
0.0
 70
    32
  0
VERTEX
  5
29D9
  8
240
 10
285.7300000000000182
 20
25.9323000000000015
 30
0.0
 70
    32
  0
VERTEX
  5
29DA
  8
240
 10
285.7409999999999854
 20
25.9586000000000006
 30
0.0
 70
    32
  0
VERTEX
  5
29DB
  8
240
 10
285.7529999999999859
 20
25.9847999999999999
 30
0.0
 70
    32
  0
VERTEX
  5
29DC
  8
240
 10
285.7649999999999864
 20
26.0109999999999992
 30
0.0
 70
    32
  0
VERTEX
  5
29DD
  8
240
 10
285.7760000000000105
 20
26.0371999999999986
 30
0.0
 70
    32
  0
VERTEX
  5
29DE
  8
240
 10
285.7880000000000109
 20
26.0633000000000017
 30
0.0
 70
    32
  0
VERTEX
  5
29DF
  8
240
 10
285.8000000000000114
 20
26.0894000000000013
 30
0.0
 70
    32
  0
VERTEX
  5
29E0
  8
240
 10
285.8109999999999786
 20
26.1154000000000011
 30
0.0
 70
    32
  0
VERTEX
  5
29E1
  8
240
 10
285.8229999999999791
 20
26.1414000000000009
 30
0.0
 70
    32
  0
VERTEX
  5
29E2
  8
240
 10
285.8349999999999795
 20
26.1674000000000007
 30
0.0
 70
    32
  0
VERTEX
  5
29E3
  8
240
 10
285.8460000000000036
 20
26.1933000000000007
 30
0.0
 70
    32
  0
VERTEX
  5
29E4
  8
240
 10
285.8580000000000041
 20
26.219100000000001
 30
0.0
 70
    32
  0
VERTEX
  5
29E5
  8
240
 10
285.8700000000000045
 20
26.245000000000001
 30
0.0
 70
    32
  0
VERTEX
  5
29E6
  8
240
 10
285.8809999999999718
 20
26.2707000000000015
 30
0.0
 70
    32
  0
VERTEX
  5
29E7
  8
240
 10
285.8929999999999723
 20
26.2965000000000018
 30
0.0
 70
    32
  0
VERTEX
  5
29E8
  8
240
 10
285.9049999999999727
 20
26.3221999999999987
 30
0.0
 70
    32
  0
VERTEX
  5
29E9
  8
240
 10
285.9169999999999732
 20
26.3477999999999994
 30
0.0
 70
    32
  0
VERTEX
  5
29EA
  8
240
 10
285.9290000000000873
 20
26.3734000000000002
 30
0.0
 70
    32
  0
VERTEX
  5
29EB
  8
240
 10
285.9399999999999977
 20
26.3990000000000009
 30
0.0
 70
    32
  0
VERTEX
  5
29EC
  8
240
 10
285.9519999999999982
 20
26.4244999999999983
 30
0.0
 70
    32
  0
VERTEX
  5
29ED
  8
240
 10
285.9639999999999986
 20
26.4499999999999993
 30
0.0
 70
    32
  0
VERTEX
  5
29EE
  8
240
 10
285.9759999999999991
 20
26.4754000000000005
 30
0.0
 70
    32
  0
VERTEX
  5
29EF
  8
240
 10
285.9870000000000232
 20
26.5008000000000017
 30
0.0
 70
    32
  0
VERTEX
  5
29F0
  8
240
 10
285.9990000000000236
 20
26.5261999999999993
 30
0.0
 70
    32
  0
VERTEX
  5
29F1
  8
240
 10
286.0110000000000241
 20
26.5515000000000008
 30
0.0
 70
    32
  0
VERTEX
  5
29F2
  8
240
 10
286.0229999999999109
 20
26.5766999999999989
 30
0.0
 70
    32
  0
VERTEX
  5
29F3
  8
240
 10
286.035000000000025
 20
26.6020000000000003
 30
0.0
 70
    32
  0
VERTEX
  5
29F4
  8
240
 10
286.0470000000000255
 20
26.6270999999999987
 30
0.0
 70
    32
  0
VERTEX
  5
29F5
  8
240
 10
286.0579999999999927
 20
26.6523000000000003
 30
0.0
 70
    32
  0
VERTEX
  5
29F6
  8
240
 10
286.0699999999999932
 20
26.6773999999999987
 30
0.0
 70
    32
  0
VERTEX
  5
29F7
  8
240
 10
286.0819999999999936
 20
26.7024000000000008
 30
0.0
 70
    32
  0
VERTEX
  5
29F8
  8
240
 10
286.0939999999999941
 20
26.7273999999999994
 30
0.0
 70
    32
  0
VERTEX
  5
29F9
  8
240
 10
286.1059999999999945
 20
26.7524000000000015
 30
0.0
 70
    32
  0
VERTEX
  5
29FA
  8
240
 10
286.117999999999995
 20
26.7773000000000003
 30
0.0
 70
    32
  0
VERTEX
  5
29FB
  8
240
 10
286.1299999999999955
 20
26.8021999999999991
 30
0.0
 70
    32
  0
VERTEX
  5
29FC
  8
240
 10
286.1410000000000196
 20
26.8270000000000017
 30
0.0
 70
    32
  0
VERTEX
  5
29FD
  8
240
 10
286.15300000000002
 20
26.8518000000000008
 30
0.0
 70
    32
  0
VERTEX
  5
29FE
  8
240
 10
286.1650000000000205
 20
26.8765000000000001
 30
0.0
 70
    32
  0
VERTEX
  5
29FF
  8
240
 10
286.1770000000000209
 20
26.9011999999999993
 30
0.0
 70
    32
  0
VERTEX
  5
2A00
  8
240
 10
286.1890000000000214
 20
26.9258999999999986
 30
0.0
 70
    32
  0
VERTEX
  5
2A01
  8
240
 10
286.2010000000000218
 20
26.9505000000000017
 30
0.0
 70
    32
  0
VERTEX
  5
2A02
  8
240
 10
286.2130000000000223
 20
26.9750000000000014
 30
0.0
 70
    32
  0
VERTEX
  5
2A03
  8
240
 10
286.2250000000000227
 20
26.9996000000000009
 30
0.0
 70
    32
  0
VERTEX
  5
2A04
  8
240
 10
286.2370000000000232
 20
27.0240000000000009
 30
0.0
 70
    32
  0
VERTEX
  5
2A05
  8
240
 10
286.2490000000000236
 20
27.0485000000000007
 30
0.0
 70
    32
  0
VERTEX
  5
2A06
  8
240
 10
286.2610000000000241
 20
27.0729000000000006
 30
0.0
 70
    32
  0
VERTEX
  5
2A07
  8
240
 10
286.2729999999999109
 20
27.0972000000000008
 30
0.0
 70
    32
  0
VERTEX
  5
2A08
  8
240
 10
286.2839999999999918
 20
27.1215000000000011
 30
0.0
 70
    32
  0
VERTEX
  5
2A09
  8
240
 10
286.2959999999999923
 20
27.1458000000000013
 30
0.0
 70
    32
  0
VERTEX
  5
2A0A
  8
240
 10
286.3079999999999927
 20
27.1700000000000017
 30
0.0
 70
    32
  0
VERTEX
  5
2A0B
  8
240
 10
286.3199999999999932
 20
27.1941999999999986
 30
0.0
 70
    32
  0
VERTEX
  5
2A0C
  8
240
 10
286.3319999999999936
 20
27.2182999999999993
 30
0.0
 70
    32
  0
VERTEX
  5
2A0D
  8
240
 10
286.3439999999999941
 20
27.2423999999999999
 30
0.0
 70
    32
  0
VERTEX
  5
2A0E
  8
240
 10
286.3559999999999945
 20
27.2664000000000009
 30
0.0
 70
    32
  0
VERTEX
  5
2A0F
  8
240
 10
286.367999999999995
 20
27.2904000000000018
 30
0.0
 70
    32
  0
VERTEX
  5
2A10
  8
240
 10
286.3799999999999955
 20
27.3143999999999991
 30
0.0
 70
    32
  0
VERTEX
  5
2A11
  8
240
 10
286.3919999999999959
 20
27.3383000000000003
 30
0.0
 70
    32
  0
VERTEX
  5
2A12
  8
240
 10
286.4039999999999964
 20
27.3622000000000014
 30
0.0
 70
    32
  0
VERTEX
  5
2A13
  8
240
 10
286.4159999999999968
 20
27.3859999999999992
 30
0.0
 70
    32
  0
VERTEX
  5
2A14
  8
240
 10
286.4279999999999973
 20
27.4098000000000006
 30
0.0
 70
    32
  0
VERTEX
  5
2A15
  8
240
 10
286.4399999999999977
 20
27.4334999999999987
 30
0.0
 70
    32
  0
VERTEX
  5
2A16
  8
240
 10
286.4519999999999982
 20
27.4572000000000003
 30
0.0
 70
    32
  0
VERTEX
  5
2A17
  8
240
 10
286.4639999999999986
 20
27.4807999999999986
 30
0.0
 70
    32
  0
VERTEX
  5
2A18
  8
240
 10
286.4759999999999991
 20
27.5044000000000004
 30
0.0
 70
    32
  0
VERTEX
  5
2A19
  8
240
 10
286.4879999999999995
 20
27.5279999999999987
 30
0.0
 70
    32
  0
VERTEX
  5
2A1A
  8
240
 10
286.5
 20
27.5515000000000008
 30
0.0
 70
    32
  0
VERTEX
  5
2A1B
  8
240
 10
286.5120000000000005
 20
27.5748999999999995
 30
0.0
 70
    32
  0
VERTEX
  5
2A1C
  8
240
 10
286.5240000000000009
 20
27.5984000000000016
 30
0.0
 70
    32
  0
VERTEX
  5
2A1D
  8
240
 10
286.5360000000000014
 20
27.6217000000000006
 30
0.0
 70
    32
  0
VERTEX
  5
2A1E
  8
240
 10
286.5480000000000018
 20
27.6450999999999993
 30
0.0
 70
    32
  0
VERTEX
  5
2A1F
  8
240
 10
286.5600000000000023
 20
27.6683999999999983
 30
0.0
 70
    32
  0
VERTEX
  5
2A20
  8
240
 10
286.5720000000000027
 20
27.6916000000000011
 30
0.0
 70
    32
  0
VERTEX
  5
2A21
  8
240
 10
286.5840000000000032
 20
27.7148000000000003
 30
0.0
 70
    32
  0
VERTEX
  5
2A22
  8
240
 10
286.5960000000000036
 20
27.7379999999999995
 30
0.0
 70
    32
  0
VERTEX
  5
2A23
  8
240
 10
286.6080000000000041
 20
27.761099999999999
 30
0.0
 70
    32
  0
VERTEX
  5
2A24
  8
240
 10
286.6200000000000045
 20
27.7840999999999987
 30
0.0
 70
    32
  0
VERTEX
  5
2A25
  8
240
 10
286.632000000000005
 20
27.8070999999999984
 30
0.0
 70
    32
  0
VERTEX
  5
2A26
  8
240
 10
286.6440000000000055
 20
27.8301000000000016
 30
0.0
 70
    32
  0
VERTEX
  5
2A27
  8
240
 10
286.6560000000000059
 20
27.8531000000000013
 30
0.0
 70
    32
  0
VERTEX
  5
2A28
  8
240
 10
286.6680000000000064
 20
27.8759000000000015
 30
0.0
 70
    32
  0
VERTEX
  5
2A29
  8
240
 10
286.6800000000000068
 20
27.8988000000000014
 30
0.0
 70
    32
  0
VERTEX
  5
2A2A
  8
240
 10
286.6920000000000073
 20
27.9216000000000015
 30
0.0
 70
    32
  0
VERTEX
  5
2A2B
  8
240
 10
286.7040000000000077
 20
27.9442999999999984
 30
0.0
 70
    32
  0
VERTEX
  5
2A2C
  8
240
 10
286.7160000000000082
 20
27.9669999999999987
 30
0.0
 70
    32
  0
VERTEX
  5
2A2D
  8
240
 10
286.7280000000000086
 20
27.9896999999999991
 30
0.0
 70
    32
  0
VERTEX
  5
2A2E
  8
240
 10
286.7400000000000091
 20
28.0122999999999998
 30
0.0
 70
    32
  0
VERTEX
  5
2A2F
  8
240
 10
286.7520000000000095
 20
28.0349000000000004
 30
0.0
 70
    32
  0
VERTEX
  5
2A30
  8
240
 10
286.76400000000001
 20
28.0574000000000012
 30
0.0
 70
    32
  0
VERTEX
  5
2A31
  8
240
 10
286.7760000000000105
 20
28.0798999999999985
 30
0.0
 70
    32
  0
VERTEX
  5
2A32
  8
240
 10
286.7880000000000109
 20
28.1022999999999996
 30
0.0
 70
    32
  0
VERTEX
  5
2A33
  8
240
 10
286.8000000000000114
 20
28.1247000000000007
 30
0.0
 70
    32
  0
VERTEX
  5
2A34
  8
240
 10
286.8120000000000118
 20
28.1470999999999982
 30
0.0
 70
    32
  0
VERTEX
  5
2A35
  8
240
 10
286.8240000000000123
 20
28.1693999999999996
 30
0.0
 70
    32
  0
VERTEX
  5
2A36
  8
240
 10
286.8360000000000127
 20
28.1916000000000011
 30
0.0
 70
    32
  0
VERTEX
  5
2A37
  8
240
 10
286.8480000000000132
 20
28.2137999999999991
 30
0.0
 70
    32
  0
VERTEX
  5
2A38
  8
240
 10
286.8600000000000136
 20
28.2360000000000007
 30
0.0
 70
    32
  0
VERTEX
  5
2A39
  8
240
 10
286.8720000000000141
 20
28.2580999999999989
 30
0.0
 70
    32
  0
VERTEX
  5
2A3A
  8
240
 10
286.8840000000000146
 20
28.2802000000000007
 30
0.0
 70
    32
  0
VERTEX
  5
2A3B
  8
240
 10
286.8959999999999013
 20
28.3021999999999991
 30
0.0
 70
    32
  0
VERTEX
  5
2A3C
  8
240
 10
286.9080000000000155
 20
28.3242000000000012
 30
0.0
 70
    32
  0
VERTEX
  5
2A3D
  8
240
 10
286.9200000000000159
 20
28.3460999999999999
 30
0.0
 70
    32
  0
VERTEX
  5
2A3E
  8
240
 10
286.9320000000000164
 20
28.3679999999999986
 30
0.0
 70
    32
  0
VERTEX
  5
2A3F
  8
240
 10
286.9440000000000168
 20
28.3899000000000008
 30
0.0
 70
    32
  0
VERTEX
  5
2A40
  8
240
 10
286.9559999999999036
 20
28.4116999999999997
 30
0.0
 70
    32
  0
VERTEX
  5
2A41
  8
240
 10
286.9680000000000177
 20
28.4333999999999989
 30
0.0
 70
    32
  0
VERTEX
  5
2A42
  8
240
 10
286.9800000000000182
 20
28.4551000000000016
 30
0.0
 70
    32
  0
VERTEX
  5
2A43
  8
240
 10
286.9920000000000186
 20
28.4768000000000008
 30
0.0
 70
    32
  0
VERTEX
  5
2A44
  8
240
 10
287.0040000000000191
 20
28.4984000000000002
 30
0.0
 70
    32
  0
VERTEX
  5
2A45
  8
240
 10
287.0160000000000196
 20
28.5199999999999996
 30
0.0
 70
    32
  0
VERTEX
  5
2A46
  8
240
 10
287.02800000000002
 20
28.5414999999999992
 30
0.0
 70
    32
  0
VERTEX
  5
2A47
  8
240
 10
287.0389999999999873
 20
28.5629999999999988
 30
0.0
 70
    32
  0
VERTEX
  5
2A48
  8
240
 10
287.0509999999999877
 20
28.5843999999999987
 30
0.0
 70
    32
  0
VERTEX
  5
2A49
  8
240
 10
287.0629999999999882
 20
28.6057999999999986
 30
0.0
 70
    32
  0
VERTEX
  5
2A4A
  8
240
 10
287.0749999999999886
 20
28.6271999999999984
 30
0.0
 70
    32
  0
VERTEX
  5
2A4B
  8
240
 10
287.0869999999999891
 20
28.6484999999999985
 30
0.0
 70
    32
  0
VERTEX
  5
2A4C
  8
240
 10
287.0989999999999895
 20
28.6696999999999989
 30
0.0
 70
    32
  0
VERTEX
  5
2A4D
  8
240
 10
287.11099999999999
 20
28.6908999999999992
 30
0.0
 70
    32
  0
VERTEX
  5
2A4E
  8
240
 10
287.1229999999999905
 20
28.7120999999999995
 30
0.0
 70
    32
  0
VERTEX
  5
2A4F
  8
240
 10
287.1349999999999909
 20
28.7332000000000001
 30
0.0
 70
    32
  0
VERTEX
  5
2A50
  8
240
 10
287.1469999999999914
 20
28.7543000000000006
 30
0.0
 70
    32
  0
VERTEX
  5
2A51
  8
240
 10
287.1589999999999918
 20
28.7753000000000014
 30
0.0
 70
    32
  0
VERTEX
  5
2A52
  8
240
 10
287.1709999999999923
 20
28.7962999999999987
 30
0.0
 70
    32
  0
VERTEX
  5
2A53
  8
240
 10
287.1820000000000164
 20
28.8171999999999997
 30
0.0
 70
    32
  0
VERTEX
  5
2A54
  8
240
 10
287.1940000000000168
 20
28.8381000000000007
 30
0.0
 70
    32
  0
VERTEX
  5
2A55
  8
240
 10
287.2060000000000173
 20
28.8588999999999984
 30
0.0
 70
    32
  0
VERTEX
  5
2A56
  8
240
 10
287.2180000000000177
 20
28.8796999999999997
 30
0.0
 70
    32
  0
VERTEX
  5
2A57
  8
240
 10
287.2300000000000182
 20
28.900500000000001
 30
0.0
 70
    32
  0
VERTEX
  5
2A58
  8
240
 10
287.2420000000000186
 20
28.9211999999999989
 30
0.0
 70
    32
  0
VERTEX
  5
2A59
  8
240
 10
287.2540000000000191
 20
28.9418000000000006
 30
0.0
 70
    32
  0
VERTEX
  5
2A5A
  8
240
 10
287.2660000000000196
 20
28.9623999999999988
 30
0.0
 70
    32
  0
VERTEX
  5
2A5B
  8
240
 10
287.2769999999999868
 20
28.9830000000000005
 30
0.0
 70
    32
  0
VERTEX
  5
2A5C
  8
240
 10
287.2889999999999873
 20
29.0034999999999989
 30
0.0
 70
    32
  0
VERTEX
  5
2A5D
  8
240
 10
287.3009999999999877
 20
29.0240000000000009
 30
0.0
 70
    32
  0
VERTEX
  5
2A5E
  8
240
 10
287.3129999999999882
 20
29.0443999999999996
 30
0.0
 70
    32
  0
VERTEX
  5
2A5F
  8
240
 10
287.3249999999999886
 20
29.0648000000000017
 30
0.0
 70
    32
  0
VERTEX
  5
2A60
  8
240
 10
287.3369999999999891
 20
29.0851000000000006
 30
0.0
 70
    32
  0
VERTEX
  5
2A61
  8
240
 10
287.3480000000000132
 20
29.1053999999999995
 30
0.0
 70
    32
  0
VERTEX
  5
2A62
  8
240
 10
287.3600000000000136
 20
29.1256999999999984
 30
0.0
 70
    32
  0
VERTEX
  5
2A63
  8
240
 10
287.3720000000000141
 20
29.1458000000000013
 30
0.0
 70
    32
  0
VERTEX
  5
2A64
  8
240
 10
287.3840000000000146
 20
29.1660000000000004
 30
0.0
 70
    32
  0
VERTEX
  5
2A65
  8
240
 10
287.3949999999999818
 20
29.1860999999999997
 30
0.0
 70
    32
  0
VERTEX
  5
2A66
  8
240
 10
287.4069999999999823
 20
29.2060999999999993
 30
0.0
 70
    32
  0
VERTEX
  5
2A67
  8
240
 10
287.4189999999999827
 20
29.2261999999999986
 30
0.0
 70
    32
  0
VERTEX
  5
2A68
  8
240
 10
287.4309999999999832
 20
29.2460999999999984
 30
0.0
 70
    32
  0
VERTEX
  5
2A69
  8
240
 10
287.4420000000000073
 20
29.2659999999999982
 30
0.0
 70
    32
  0
VERTEX
  5
2A6A
  8
240
 10
287.4540000000000077
 20
29.2859000000000016
 30
0.0
 70
    32
  0
VERTEX
  5
2A6B
  8
240
 10
287.4660000000000082
 20
29.3057000000000016
 30
0.0
 70
    32
  0
VERTEX
  5
2A6C
  8
240
 10
287.4780000000000086
 20
29.3255000000000017
 30
0.0
 70
    32
  0
VERTEX
  5
2A6D
  8
240
 10
287.4889999999999759
 20
29.3451999999999984
 30
0.0
 70
    32
  0
VERTEX
  5
2A6E
  8
240
 10
287.5009999999999195
 20
29.3648999999999987
 30
0.0
 70
    32
  0
VERTEX
  5
2A6F
  8
240
 10
287.5129999999999768
 20
29.3845999999999989
 30
0.0
 70
    32
  0
VERTEX
  5
2A70
  8
240
 10
287.5240000000000009
 20
29.4040999999999997
 30
0.0
 70
    32
  0
VERTEX
  5
2A71
  8
240
 10
287.5360000000000014
 20
29.4237000000000002
 30
0.0
 70
    32
  0
VERTEX
  5
2A72
  8
240
 10
287.5480000000000018
 20
29.4432000000000009
 30
0.0
 70
    32
  0
VERTEX
  5
2A73
  8
240
 10
287.5590000000000259
 20
29.4625999999999983
 30
0.0
 70
    32
  0
VERTEX
  5
2A74
  8
240
 10
287.5710000000000264
 20
29.4819999999999993
 30
0.0
 70
    32
  0
VERTEX
  5
2A75
  8
240
 10
287.5830000000000268
 20
29.5014000000000003
 30
0.0
 70
    32
  0
VERTEX
  5
2A76
  8
240
 10
287.5939999999999941
 20
29.5207000000000015
 30
0.0
 70
    32
  0
VERTEX
  5
2A77
  8
240
 10
287.6059999999999945
 20
29.5399999999999991
 30
0.0
 70
    32
  0
VERTEX
  5
2A78
  8
240
 10
287.617999999999995
 20
29.5592000000000006
 30
0.0
 70
    32
  0
VERTEX
  5
2A79
  8
240
 10
287.6290000000000191
 20
29.5783999999999985
 30
0.0
 70
    32
  0
VERTEX
  5
2A7A
  8
240
 10
287.6409999999999059
 20
29.5975000000000001
 30
0.0
 70
    32
  0
VERTEX
  5
2A7B
  8
240
 10
287.6519999999999868
 20
29.6165999999999983
 30
0.0
 70
    32
  0
VERTEX
  5
2A7C
  8
240
 10
287.6639999999999873
 20
29.6356000000000002
 30
0.0
 70
    32
  0
VERTEX
  5
2A7D
  8
240
 10
287.6759999999999877
 20
29.6545999999999985
 30
0.0
 70
    32
  0
VERTEX
  5
2A7E
  8
240
 10
287.6870000000000118
 20
29.6735000000000007
 30
0.0
 70
    32
  0
VERTEX
  5
2A7F
  8
240
 10
287.6990000000000123
 20
29.6923999999999992
 30
0.0
 70
    32
  0
VERTEX
  5
2A80
  8
240
 10
287.7099999999999795
 20
29.7112000000000016
 30
0.0
 70
    32
  0
VERTEX
  5
2A81
  8
240
 10
287.72199999999998
 20
29.7300000000000004
 30
0.0
 70
    32
  0
VERTEX
  5
2A82
  8
240
 10
287.7330000000000041
 20
29.7487999999999992
 30
0.0
 70
    32
  0
VERTEX
  5
2A83
  8
240
 10
287.7450000000000045
 20
29.7674999999999983
 30
0.0
 70
    32
  0
VERTEX
  5
2A84
  8
240
 10
287.7559999999999718
 20
29.7861000000000011
 30
0.0
 70
    32
  0
VERTEX
  5
2A85
  8
240
 10
287.7679999999999723
 20
29.8048000000000002
 30
0.0
 70
    32
  0
VERTEX
  5
2A86
  8
240
 10
287.7789999999999964
 20
29.8232999999999997
 30
0.0
 70
    32
  0
VERTEX
  5
2A87
  8
240
 10
287.7909999999999968
 20
29.8417999999999992
 30
0.0
 70
    32
  0
VERTEX
  5
2A88
  8
240
 10
287.8020000000000209
 20
29.8602999999999987
 30
0.0
 70
    32
  0
VERTEX
  5
2A89
  8
240
 10
287.8129999999999882
 20
29.8786999999999985
 30
0.0
 70
    32
  0
VERTEX
  5
2A8A
  8
240
 10
287.8249999999999886
 20
29.8970999999999982
 30
0.0
 70
    32
  0
VERTEX
  5
2A8B
  8
240
 10
287.8360000000000127
 20
29.9154000000000018
 30
0.0
 70
    32
  0
VERTEX
  5
2A8C
  8
240
 10
287.8480000000000132
 20
29.9337000000000018
 30
0.0
 70
    32
  0
VERTEX
  5
2A8D
  8
240
 10
287.8589999999999804
 20
29.9518999999999984
 30
0.0
 70
    32
  0
VERTEX
  5
2A8E
  8
240
 10
287.8700000000000045
 20
29.9700999999999986
 30
0.0
 70
    32
  0
VERTEX
  5
2A8F
  8
240
 10
287.882000000000005
 20
29.9881999999999991
 30
0.0
 70
    32
  0
VERTEX
  5
2A90
  8
240
 10
287.8929999999999723
 20
30.0062999999999995
 30
0.0
 70
    32
  0
VERTEX
  5
2A91
  8
240
 10
287.9039999999999964
 20
30.0244
 30
0.0
 70
    32
  0
VERTEX
  5
2A92
  8
240
 10
287.9159999999999968
 20
30.0424000000000007
 30
0.0
 70
    32
  0
VERTEX
  5
2A93
  8
240
 10
287.9270000000000209
 20
30.0603000000000016
 30
0.0
 70
    32
  0
VERTEX
  5
2A94
  8
240
 10
287.9379999999999882
 20
30.0781999999999989
 30
0.0
 70
    32
  0
VERTEX
  5
2A95
  8
240
 10
287.9499999999999886
 20
30.0960000000000001
 30
0.0
 70
    32
  0
VERTEX
  5
2A96
  8
240
 10
287.9610000000000127
 20
30.1138000000000012
 30
0.0
 70
    32
  0
VERTEX
  5
2A97
  8
240
 10
287.97199999999998
 20
30.1315999999999988
 30
0.0
 70
    32
  0
VERTEX
  5
2A98
  8
240
 10
287.9830000000000041
 20
30.1493000000000002
 30
0.0
 70
    32
  0
VERTEX
  5
2A99
  8
240
 10
287.9950000000000045
 20
30.1670000000000016
 30
0.0
 70
    32
  0
VERTEX
  5
2A9A
  8
240
 10
288.0059999999999718
 20
30.1845999999999997
 30
0.0
 70
    32
  0
VERTEX
  5
2A9B
  8
240
 10
288.0169999999999959
 20
30.2022000000000013
 30
0.0
 70
    32
  0
VERTEX
  5
2A9C
  8
240
 10
288.02800000000002
 20
30.2196999999999996
 30
0.0
 70
    32
  0
VERTEX
  5
2A9D
  8
240
 10
288.0389999999999873
 20
30.2371000000000016
 30
0.0
 70
    32
  0
VERTEX
  5
2A9E
  8
240
 10
288.0500000000000114
 20
30.2545999999999999
 30
0.0
 70
    32
  0
VERTEX
  5
2A9F
  8
240
 10
288.0620000000000118
 20
30.2718999999999987
 30
0.0
 70
    32
  0
VERTEX
  5
2AA0
  8
240
 10
288.0729999999999791
 20
30.2893000000000008
 30
0.0
 70
    32
  0
VERTEX
  5
2AA1
  8
240
 10
288.0840000000000032
 20
30.3064999999999998
 30
0.0
 70
    32
  0
VERTEX
  5
2AA2
  8
240
 10
288.0950000000000273
 20
30.3237999999999985
 30
0.0
 70
    32
  0
VERTEX
  5
2AA3
  8
240
 10
288.1059999999999945
 20
30.3410000000000011
 30
0.0
 70
    32
  0
VERTEX
  5
2AA4
  8
240
 10
288.1170000000000186
 20
30.3581000000000003
 30
0.0
 70
    32
  0
VERTEX
  5
2AA5
  8
240
 10
288.1279999999999859
 20
30.3751999999999995
 30
0.0
 70
    32
  0
VERTEX
  5
2AA6
  8
240
 10
288.13900000000001
 20
30.392199999999999
 30
0.0
 70
    32
  0
VERTEX
  5
2AA7
  8
240
 10
288.1499999999999773
 20
30.4091999999999985
 30
0.0
 70
    32
  0
VERTEX
  5
2AA8
  8
240
 10
288.1610000000000014
 20
30.4261000000000017
 30
0.0
 70
    32
  0
VERTEX
  5
2AA9
  8
240
 10
288.1720000000000823
 20
30.4430000000000014
 30
0.0
 70
    32
  0
VERTEX
  5
2AAA
  8
240
 10
288.1829999999999927
 20
30.4599000000000011
 30
0.0
 70
    32
  0
VERTEX
  5
2AAB
  8
240
 10
288.1940000000000168
 20
30.476700000000001
 30
0.0
 70
    32
  0
VERTEX
  5
2AAC
  8
240
 10
288.2049999999999841
 20
30.4934000000000012
 30
0.0
 70
    32
  0
VERTEX
  5
2AAD
  8
240
 10
288.2160000000000082
 20
30.5101000000000013
 30
0.0
 70
    32
  0
VERTEX
  5
2AAE
  8
240
 10
288.2269999999999754
 20
30.5268000000000015
 30
0.0
 70
    32
  0
VERTEX
  5
2AAF
  8
240
 10
288.2379999999999995
 20
30.5433999999999983
 30
0.0
 70
    32
  0
VERTEX
  5
2AB0
  8
240
 10
288.2479999999999905
 20
30.5599999999999987
 30
0.0
 70
    32
  0
VERTEX
  5
2AB1
  8
240
 10
288.2590000000000146
 20
30.5764999999999993
 30
0.0
 70
    32
  0
VERTEX
  5
2AB2
  8
240
 10
288.2699999999999818
 20
30.5929000000000002
 30
0.0
 70
    32
  0
VERTEX
  5
2AB3
  8
240
 10
288.2810000000000059
 20
30.6093000000000011
 30
0.0
 70
    32
  0
VERTEX
  5
2AB4
  8
240
 10
288.2919999999999732
 20
30.6256999999999984
 30
0.0
 70
    32
  0
VERTEX
  5
2AB5
  8
240
 10
288.3020000000000209
 20
30.6419999999999995
 30
0.0
 70
    32
  0
VERTEX
  5
2AB6
  8
240
 10
288.3129999999999882
 20
30.6583000000000006
 30
0.0
 70
    32
  0
VERTEX
  5
2AB7
  8
240
 10
288.3240000000000123
 20
30.6744999999999983
 30
0.0
 70
    32
  0
VERTEX
  5
2AB8
  8
240
 10
288.3349999999999795
 20
30.6906999999999996
 30
0.0
 70
    32
  0
VERTEX
  5
2AB9
  8
240
 10
288.3450000000000273
 20
30.7068000000000012
 30
0.0
 70
    32
  0
VERTEX
  5
2ABA
  8
240
 10
288.3559999999999945
 20
30.7228999999999992
 30
0.0
 70
    32
  0
VERTEX
  5
2ABB
  8
240
 10
288.3670000000000186
 20
30.738900000000001
 30
0.0
 70
    32
  0
VERTEX
  5
2ABC
  8
240
 10
288.3770000000000095
 20
30.7548999999999992
 30
0.0
 70
    32
  0
VERTEX
  5
2ABD
  8
240
 10
288.3879999999999768
 20
30.7708000000000013
 30
0.0
 70
    32
  0
VERTEX
  5
2ABE
  8
240
 10
288.3990000000000009
 20
30.7866999999999997
 30
0.0
 70
    32
  0
VERTEX
  5
2ABF
  8
240
 10
288.4089999999999918
 20
30.8024999999999984
 30
0.0
 70
    32
  0
VERTEX
  5
2AC0
  8
240
 10
288.4200000000000159
 20
30.8183000000000007
 30
0.0
 70
    32
  0
VERTEX
  5
2AC1
  8
240
 10
288.4300000000000068
 20
30.8339999999999996
 30
0.0
 70
    32
  0
VERTEX
  5
2AC2
  8
240
 10
288.4409999999999741
 20
30.8496999999999986
 30
0.0
 70
    32
  0
VERTEX
  5
2AC3
  8
240
 10
288.4510000000000218
 20
30.8654000000000011
 30
0.0
 70
    32
  0
SEQEND
  5
2AC4
  8
240
  0
ARC
  5
1860
  8
240
  6
CONTINUOUS
 10
315.0
 20
-12.0000000000002292
 30
0.0
 40
57.0000000000000711
 50
48.7659929482050316
 51
90.0
  0
ARC
  5
1861
  8
240
 10
314.9985134675039831
 20
-12.0013323244846806
 30
0.0
 40
57.0019860070799211
 50
36.0725045781563409
 51
45.2258854790928595
  0
POLYLINE
  5
2AC5
  8
240
 66
     1
 10
0.0
 20
0.0
 30
0.0
 70
     8
  0
VERTEX
  5
2AC6
  8
240
 10
352.5710000000000264
 20
30.8654000000000011
 30
0.0
 70
    32
  0
VERTEX
  5
2AC7
  8
240
 10
352.5769999999999982
 20
30.8599999999999994
 30
0.0
 70
    32
  0
VERTEX
  5
2AC8
  8
240
 10
352.5830000000000268
 20
30.8546000000000014
 30
0.0
 70
    32
  0
VERTEX
  5
2AC9
  8
240
 10
352.5889999999999986
 20
30.8491
 30
0.0
 70
    32
  0
VERTEX
  5
2ACA
  8
240
 10
352.5950000000000273
 20
30.8436999999999983
 30
0.0
 70
    32
  0
VERTEX
  5
2ACB
  8
240
 10
352.6019999999999754
 20
30.8383000000000003
 30
0.0
 70
    32
  0
VERTEX
  5
2ACC
  8
240
 10
352.6080000000000041
 20
30.8328999999999986
 30
0.0
 70
    32
  0
VERTEX
  5
2ACD
  8
240
 10
352.6139999999999759
 20
30.8275000000000006
 30
0.0
 70
    32
  0
VERTEX
  5
2ACE
  8
240
 10
352.6200000000000045
 20
30.8219999999999992
 30
0.0
 70
    32
  0
VERTEX
  5
2ACF
  8
240
 10
352.6259999999999764
 20
30.8166000000000011
 30
0.0
 70
    32
  0
VERTEX
  5
2AD0
  8
240
 10
352.633000000000095
 20
30.8110999999999997
 30
0.0
 70
    32
  0
VERTEX
  5
2AD1
  8
240
 10
352.63900000000001
 20
30.8057000000000016
 30
0.0
 70
    32
  0
VERTEX
  5
2AD2
  8
240
 10
352.6449999999999818
 20
30.8002000000000002
 30
0.0
 70
    32
  0
VERTEX
  5
2AD3
  8
240
 10
352.6510000000000105
 20
30.7946999999999989
 30
0.0
 70
    32
  0
VERTEX
  5
2AD4
  8
240
 10
352.6569999999999823
 20
30.7893000000000008
 30
0.0
 70
    32
  0
VERTEX
  5
2AD5
  8
240
 10
352.6639999999999873
 20
30.7837999999999994
 30
0.0
 70
    32
  0
VERTEX
  5
2AD6
  8
240
 10
352.6700000000000159
 20
30.7783000000000015
 30
0.0
 70
    32
  0
VERTEX
  5
2AD7
  8
240
 10
352.6759999999999877
 20
30.7728000000000002
 30
0.0
 70
    32
  0
VERTEX
  5
2AD8
  8
240
 10
352.6820000000000164
 20
30.7672999999999988
 30
0.0
 70
    32
  0
VERTEX
  5
2AD9
  8
240
 10
352.6890000000000214
 20
30.7618000000000009
 30
0.0
 70
    32
  0
VERTEX
  5
2ADA
  8
240
 10
352.6949999999999932
 20
30.7562999999999995
 30
0.0
 70
    32
  0
VERTEX
  5
2ADB
  8
240
 10
352.7010000000000218
 20
30.7508000000000017
 30
0.0
 70
    32
  0
VERTEX
  5
2ADC
  8
240
 10
352.7069999999999936
 20
30.7453000000000003
 30
0.0
 70
    32
  0
VERTEX
  5
2ADD
  8
240
 10
352.7139999999999986
 20
30.7397999999999989
 30
0.0
 70
    32
  0
VERTEX
  5
2ADE
  8
240
 10
352.7200000000000841
 20
30.7343000000000011
 30
0.0
 70
    32
  0
VERTEX
  5
2ADF
  8
240
 10
352.7259999999999991
 20
30.7286999999999999
 30
0.0
 70
    32
  0
VERTEX
  5
2AE0
  8
240
 10
352.7320000000000277
 20
30.7231999999999985
 30
0.0
 70
    32
  0
VERTEX
  5
2AE1
  8
240
 10
352.7389999999999759
 20
30.7176000000000009
 30
0.0
 70
    32
  0
VERTEX
  5
2AE2
  8
240
 10
352.7450000000000045
 20
30.7120999999999995
 30
0.0
 70
    32
  0
VERTEX
  5
2AE3
  8
240
 10
352.7509999999999764
 20
30.7064999999999984
 30
0.0
 70
    32
  0
VERTEX
  5
2AE4
  8
240
 10
352.7569999999998913
 20
30.7010000000000005
 30
0.0
 70
    32
  0
VERTEX
  5
2AE5
  8
240
 10
352.76400000000001
 20
30.6953999999999994
 30
0.0
 70
    32
  0
VERTEX
  5
2AE6
  8
240
 10
352.7699999999999818
 20
30.6898000000000017
 30
0.0
 70
    32
  0
VERTEX
  5
2AE7
  8
240
 10
352.7760000000000105
 20
30.6843000000000004
 30
0.0
 70
    32
  0
VERTEX
  5
2AE8
  8
240
 10
352.7830000000000155
 20
30.6786999999999992
 30
0.0
 70
    32
  0
VERTEX
  5
2AE9
  8
240
 10
352.7889999999999873
 20
30.6731000000000016
 30
0.0
 70
    32
  0
VERTEX
  5
2AEA
  8
240
 10
352.7950000000000159
 20
30.6675000000000004
 30
0.0
 70
    32
  0
VERTEX
  5
2AEB
  8
240
 10
352.8020000000000209
 20
30.6618999999999993
 30
0.0
 70
    32
  0
VERTEX
  5
2AEC
  8
240
 10
352.8079999999999927
 20
30.6563000000000017
 30
0.0
 70
    32
  0
VERTEX
  5
2AED
  8
240
 10
352.8140000000000214
 20
30.6507000000000005
 30
0.0
 70
    32
  0
VERTEX
  5
2AEE
  8
240
 10
352.8210000000000264
 20
30.6450999999999993
 30
0.0
 70
    32
  0
VERTEX
  5
2AEF
  8
240
 10
352.8269999999999982
 20
30.6395000000000017
 30
0.0
 70
    32
  0
VERTEX
  5
2AF0
  8
240
 10
352.8330000000000268
 20
30.6338000000000008
 30
0.0
 70
    32
  0
VERTEX
  5
2AF1
  8
240
 10
352.839999999999975
 20
30.6281999999999996
 30
0.0
 70
    32
  0
VERTEX
  5
2AF2
  8
240
 10
352.8460000000000036
 20
30.6225999999999985
 30
0.0
 70
    32
  0
VERTEX
  5
2AF3
  8
240
 10
352.8519999999999754
 20
30.6169000000000011
 30
0.0
 70
    32
  0
VERTEX
  5
2AF4
  8
240
 10
352.8589999999999804
 20
30.6113
 30
0.0
 70
    32
  0
VERTEX
  5
2AF5
  8
240
 10
352.8650000000000091
 20
30.605599999999999
 30
0.0
 70
    32
  0
VERTEX
  5
2AF6
  8
240
 10
352.8709999999999809
 20
30.6000000000000014
 30
0.0
 70
    32
  0
VERTEX
  5
2AF7
  8
240
 10
352.8780000000000996
 20
30.5943000000000005
 30
0.0
 70
    32
  0
VERTEX
  5
2AF8
  8
240
 10
352.8840000000000146
 20
30.5885999999999996
 30
0.0
 70
    32
  0
VERTEX
  5
2AF9
  8
240
 10
352.8910000000000196
 20
30.5829999999999984
 30
0.0
 70
    32
  0
VERTEX
  5
2AFA
  8
240
 10
352.8969999999999914
 20
30.577300000000001
 30
0.0
 70
    32
  0
VERTEX
  5
2AFB
  8
240
 10
352.90300000000002
 20
30.5716000000000001
 30
0.0
 70
    32
  0
VERTEX
  5
2AFC
  8
240
 10
352.910000000000025
 20
30.5658999999999992
 30
0.0
 70
    32
  0
VERTEX
  5
2AFD
  8
240
 10
352.9159999999999968
 20
30.5601999999999983
 30
0.0
 70
    32
  0
VERTEX
  5
2AFE
  8
240
 10
352.9220000000000255
 20
30.5545000000000009
 30
0.0
 70
    32
  0
VERTEX
  5
2AFF
  8
240
 10
352.9289999999999736
 20
30.5488
 30
0.0
 70
    32
  0
VERTEX
  5
2B00
  8
240
 10
352.9350000000000023
 20
30.543099999999999
 30
0.0
 70
    32
  0
VERTEX
  5
2B01
  8
240
 10
352.9420000000000073
 20
30.5374000000000017
 30
0.0
 70
    32
  0
VERTEX
  5
2B02
  8
240
 10
352.9479999999999791
 20
30.531600000000001
 30
0.0
 70
    32
  0
VERTEX
  5
2B03
  8
240
 10
352.9549999999999841
 20
30.5259
 30
0.0
 70
    32
  0
VERTEX
  5
2B04
  8
240
 10
352.9610000000000127
 20
30.5201999999999991
 30
0.0
 70
    32
  0
VERTEX
  5
2B05
  8
240
 10
352.9669999999999845
 20
30.5143999999999984
 30
0.0
 70
    32
  0
VERTEX
  5
2B06
  8
240
 10
352.9739999999999895
 20
30.508700000000001
 30
0.0
 70
    32
  0
VERTEX
  5
2B07
  8
240
 10
352.9800000000000182
 20
30.5029000000000003
 30
0.0
 70
    32
  0
VERTEX
  5
2B08
  8
240
 10
352.9870000000000232
 20
30.4971999999999994
 30
0.0
 70
    32
  0
VERTEX
  5
2B09
  8
240
 10
352.9930000000001087
 20
30.4913999999999987
 30
0.0
 70
    32
  0
VERTEX
  5
2B0A
  8
240
 10
353.0
 20
30.4857000000000014
 30
0.0
 70
    32
  0
VERTEX
  5
2B0B
  8
240
 10
353.0059999999999718
 20
30.4799000000000007
 30
0.0
 70
    32
  0
VERTEX
  5
2B0C
  8
240
 10
353.0129999999999768
 20
30.4741
 30
0.0
 70
    32
  0
VERTEX
  5
2B0D
  8
240
 10
353.0190000000000055
 20
30.4682999999999993
 30
0.0
 70
    32
  0
VERTEX
  5
2B0E
  8
240
 10
353.0249999999999773
 20
30.4624999999999986
 30
0.0
 70
    32
  0
VERTEX
  5
2B0F
  8
240
 10
353.0319999999999823
 20
30.4567000000000014
 30
0.0
 70
    32
  0
VERTEX
  5
2B10
  8
240
 10
353.0380000000000109
 20
30.4509000000000007
 30
0.0
 70
    32
  0
VERTEX
  5
2B11
  8
240
 10
353.0450000000000159
 20
30.4451000000000001
 30
0.0
 70
    32
  0
VERTEX
  5
2B12
  8
240
 10
353.0509999999999877
 20
30.4392999999999994
 30
0.0
 70
    32
  0
VERTEX
  5
2B13
  8
240
 10
353.0579999999999927
 20
30.4334999999999987
 30
0.0
 70
    32
  0
VERTEX
  5
2B14
  8
240
 10
353.0640000000000214
 20
30.4277000000000015
 30
0.0
 70
    32
  0
VERTEX
  5
2B15
  8
240
 10
353.0710000000000264
 20
30.4219000000000008
 30
0.0
 70
    32
  0
VERTEX
  5
2B16
  8
240
 10
353.0769999999999982
 20
30.4160000000000004
 30
0.0
 70
    32
  0
VERTEX
  5
2B17
  8
240
 10
353.0840000000000032
 20
30.4101999999999997
 30
0.0
 70
    32
  0
VERTEX
  5
2B18
  8
240
 10
353.089999999999975
 20
30.4042999999999992
 30
0.0
 70
    32
  0
VERTEX
  5
2B19
  8
240
 10
353.09699999999998
 20
30.3984999999999985
 30
0.0
 70
    32
  0
VERTEX
  5
2B1A
  8
240
 10
353.1030000000000086
 20
30.3926000000000016
 30
0.0
 70
    32
  0
VERTEX
  5
2B1B
  8
240
 10
353.1100000000000136
 20
30.3868000000000009
 30
0.0
 70
    32
  0
VERTEX
  5
2B1C
  8
240
 10
353.1159999999999854
 20
30.3809000000000005
 30
0.0
 70
    32
  0
VERTEX
  5
2B1D
  8
240
 10
353.1230000000001041
 20
30.375
 30
0.0
 70
    32
  0
VERTEX
  5
2B1E
  8
240
 10
353.1290000000000191
 20
30.3691999999999993
 30
0.0
 70
    32
  0
VERTEX
  5
2B1F
  8
240
 10
353.1360000000000241
 20
30.3632999999999988
 30
0.0
 70
    32
  0
VERTEX
  5
2B20
  8
240
 10
353.1429999999999723
 20
30.3573999999999984
 30
0.0
 70
    32
  0
VERTEX
  5
2B21
  8
240
 10
353.1490000000000009
 20
30.3515000000000015
 30
0.0
 70
    32
  0
VERTEX
  5
2B22
  8
240
 10
353.1560000000000059
 20
30.345600000000001
 30
0.0
 70
    32
  0
VERTEX
  5
2B23
  8
240
 10
353.1619999999999777
 20
30.3397000000000006
 30
0.0
 70
    32
  0
VERTEX
  5
2B24
  8
240
 10
353.1690000000000964
 20
30.3338000000000001
 30
0.0
 70
    32
  0
VERTEX
  5
2B25
  8
240
 10
353.1750000000000114
 20
30.3278999999999996
 30
0.0
 70
    32
  0
VERTEX
  5
2B26
  8
240
 10
353.1820000000000164
 20
30.3219999999999992
 30
0.0
 70
    32
  0
VERTEX
  5
2B27
  8
240
 10
353.1880000000001019
 20
30.3159999999999989
 30
0.0
 70
    32
  0
VERTEX
  5
2B28
  8
240
 10
353.1949999999999932
 20
30.3100999999999985
 30
0.0
 70
    32
  0
VERTEX
  5
2B29
  8
240
 10
353.2019999999999982
 20
30.3042000000000016
 30
0.0
 70
    32
  0
VERTEX
  5
2B2A
  8
240
 10
353.2080000000000268
 20
30.2982000000000014
 30
0.0
 70
    32
  0
VERTEX
  5
2B2B
  8
240
 10
353.214999999999975
 20
30.2923000000000009
 30
0.0
 70
    32
  0
VERTEX
  5
2B2C
  8
240
 10
353.2210000000000036
 20
30.2863000000000007
 30
0.0
 70
    32
  0
VERTEX
  5
2B2D
  8
240
 10
353.2280000000000086
 20
30.2804000000000002
 30
0.0
 70
    32
  0
VERTEX
  5
2B2E
  8
240
 10
353.2339999999999804
 20
30.2744
 30
0.0
 70
    32
  0
VERTEX
  5
2B2F
  8
240
 10
353.2409999999999854
 20
30.2683999999999997
 30
0.0
 70
    32
  0
VERTEX
  5
2B30
  8
240
 10
353.2479999999999905
 20
30.2624999999999993
 30
0.0
 70
    32
  0
VERTEX
  5
2B31
  8
240
 10
353.2540000000000191
 20
30.2564999999999991
 30
0.0
 70
    32
  0
VERTEX
  5
2B32
  8
240
 10
353.2610000000000241
 20
30.2504999999999988
 30
0.0
 70
    32
  0
VERTEX
  5
2B33
  8
240
 10
353.2669999999999959
 20
30.2444999999999986
 30
0.0
 70
    32
  0
VERTEX
  5
2B34
  8
240
 10
353.2740000000000009
 20
30.2384999999999984
 30
0.0
 70
    32
  0
VERTEX
  5
2B35
  8
240
 10
353.2810000000000059
 20
30.2325000000000017
 30
0.0
 70
    32
  0
VERTEX
  5
2B36
  8
240
 10
353.2869999999999777
 20
30.2265000000000015
 30
0.0
 70
    32
  0
VERTEX
  5
2B37
  8
240
 10
353.2939999999999827
 20
30.2205000000000013
 30
0.0
 70
    32
  0
VERTEX
  5
2B38
  8
240
 10
353.3009999999999877
 20
30.214500000000001
 30
0.0
 70
    32
  0
VERTEX
  5
2B39
  8
240
 10
353.3069999999999027
 20
30.2085000000000008
 30
0.0
 70
    32
  0
VERTEX
  5
2B3A
  8
240
 10
353.3140000000000214
 20
30.2024000000000008
 30
0.0
 70
    32
  0
VERTEX
  5
2B3B
  8
240
 10
353.3210000000000264
 20
30.1964000000000006
 30
0.0
 70
    32
  0
VERTEX
  5
2B3C
  8
240
 10
353.3269999999999982
 20
30.1904000000000003
 30
0.0
 70
    32
  0
VERTEX
  5
2B3D
  8
240
 10
353.3340000000000032
 20
30.1843000000000004
 30
0.0
 70
    32
  0
VERTEX
  5
2B3E
  8
240
 10
353.339999999999975
 20
30.1783000000000001
 30
0.0
 70
    32
  0
VERTEX
  5
2B3F
  8
240
 10
353.34699999999998
 20
30.1722000000000001
 30
0.0
 70
    32
  0
VERTEX
  5
2B40
  8
240
 10
353.353999999999985
 20
30.1661999999999999
 30
0.0
 70
    32
  0
VERTEX
  5
2B41
  8
240
 10
353.3600000000000136
 20
30.1600999999999999
 30
0.0
 70
    32
  0
VERTEX
  5
2B42
  8
240
 10
353.3670000000000186
 20
30.1539999999999999
 30
0.0
 70
    32
  0
VERTEX
  5
2B43
  8
240
 10
353.3740000000000236
 20
30.1479999999999997
 30
0.0
 70
    32
  0
VERTEX
  5
2B44
  8
240
 10
353.3799999999999955
 20
30.1418999999999997
 30
0.0
 70
    32
  0
VERTEX
  5
2B45
  8
240
 10
353.3869999999998868
 20
30.1357999999999997
 30
0.0
 70
    32
  0
SEQEND
  5
2B46
  8
240
  0
ARC
  5
1863
  8
240
  6
CONTINUOUS
 10
314.9985134675039831
 20
-12.0013323244846806
 30
0.0
 40
57.0019860070799211
 50
45.2258463844496319
 51
47.6649097071175305
  0
POLYLINE
  5
1864
  8
241
  6
CONTINUOUS
 66
     1
 10
0.0
 20
0.0
 30
0.0
 70
     8
  0
VERTEX
  5
2B47
  8
241
 10
305.5319999999999823
 20
-36.6000000000000014
 30
0.0
 70
    32
  0
VERTEX
  5
2B48
  8
241
 10
305.5059999999999718
 20
-36.682699999999997
 30
0.0
 70
    32
  0
VERTEX
  5
2B49
  8
241
 10
305.4790000000000987
 20
-36.7652000000000001
 30
0.0
 70
    32
  0
VERTEX
  5
2B4A
  8
241
 10
305.4519999999999982
 20
-36.8472999999999971
 30
0.0
 70
    32
  0
VERTEX
  5
2B4B
  8
241
 10
305.4239999999999782
 20
-36.9290999999999983
 30
0.0
 70
    32
  0
VERTEX
  5
2B4C
  8
241
 10
305.3949999999999818
 20
-37.0105999999999966
 30
0.0
 70
    32
  0
VERTEX
  5
2B4D
  8
241
 10
305.3650000000000091
 20
-37.0917999999999992
 30
0.0
 70
    32
  0
VERTEX
  5
2B4E
  8
241
 10
305.3349999999999795
 20
-37.172699999999999
 30
0.0
 70
    32
  0
VERTEX
  5
2B4F
  8
241
 10
305.3050000000000068
 20
-37.2531999999999996
 30
0.0
 70
    32
  0
VERTEX
  5
2B50
  8
241
 10
305.2730000000000246
 20
-37.3333999999999975
 30
0.0
 70
    32
  0
VERTEX
  5
2B51
  8
241
 10
305.2409999999999854
 20
-37.4132999999999996
 30
0.0
 70
    32
  0
VERTEX
  5
2B52
  8
241
 10
305.2080000000000268
 20
-37.4926999999999992
 30
0.0
 70
    32
  0
VERTEX
  5
2B53
  8
241
 10
305.1750000000000114
 20
-37.5718999999999994
 30
0.0
 70
    32
  0
VERTEX
  5
2B54
  8
241
 10
305.1410000000000196
 20
-37.6505999999999972
 30
0.0
 70
    32
  0
VERTEX
  5
2B55
  8
241
 10
305.1059999999999945
 20
-37.7289999999999992
 30
0.0
 70
    32
  0
VERTEX
  5
2B56
  8
241
 10
305.0710000000000264
 20
-37.8070000000000022
 30
0.0
 70
    32
  0
VERTEX
  5
2B57
  8
241
 10
305.035000000000025
 20
-37.8845999999999989
 30
0.0
 70
    32
  0
VERTEX
  5
2B58
  8
241
 10
304.9979999999999905
 20
-37.9617999999999967
 30
0.0
 70
    32
  0
VERTEX
  5
2B59
  8
241
 10
304.9610000000000127
 20
-38.0386000000000024
 30
0.0
 70
    32
  0
VERTEX
  5
2B5A
  8
241
 10
304.9230000000000018
 20
-38.1148999999999987
 30
0.0
 70
    32
  0
VERTEX
  5
2B5B
  8
241
 10
304.8849999999999909
 20
-38.1908999999999992
 30
0.0
 70
    32
  0
VERTEX
  5
2B5C
  8
241
 10
304.8460000000000036
 20
-38.2663999999999973
 30
0.0
 70
    32
  0
VERTEX
  5
2B5D
  8
241
 10
304.8059999999999832
 20
-38.3415000000000106
 30
0.0
 70
    32
  0
VERTEX
  5
2B5E
  8
241
 10
304.7660000000000196
 20
-38.4162000000000106
 30
0.0
 70
    32
  0
VERTEX
  5
2B5F
  8
241
 10
304.7250000000000227
 20
-38.4904000000000011
 30
0.0
 70
    32
  0
VERTEX
  5
2B60
  8
241
 10
304.6829999999999927
 20
-38.5641000000000034
 30
0.0
 70
    32
  0
VERTEX
  5
2B61
  8
241
 10
304.6410000000000196
 20
-38.6373999999999995
 30
0.0
 70
    32
  0
VERTEX
  5
2B62
  8
241
 10
304.5980000000000132
 20
-38.7102000000000004
 30
0.0
 70
    32
  0
VERTEX
  5
2B63
  8
241
 10
304.5550000000000068
 20
-38.7826000000000022
 30
0.0
 70
    32
  0
VERTEX
  5
2B64
  8
241
 10
304.5110000000000241
 20
-38.8545000000000016
 30
0.0
 70
    32
  0
VERTEX
  5
2B65
  8
241
 10
304.4660000000000082
 20
-38.9258000000000024
 30
0.0
 70
    32
  0
VERTEX
  5
2B66
  8
241
 10
304.4209999999999923
 20
-38.996699999999997
 30
0.0
 70
    32
  0
VERTEX
  5
2B67
  8
241
 10
304.375
 20
-39.0671000000000035
 30
0.0
 70
    32
  0
VERTEX
  5
2B68
  8
241
 10
304.3290000000000077
 20
-39.1370000000000005
 30
0.0
 70
    32
  0
VERTEX
  5
2B69
  8
241
 10
304.2819999999999823
 20
-39.2064000000000021
 30
0.0
 70
    32
  0
VERTEX
  5
2B6A
  8
241
 10
304.2339999999999804
 20
-39.2751999999999981
 30
0.0
 70
    32
  0
VERTEX
  5
2B6B
  8
241
 10
304.1859999999999786
 20
-39.3434999999999988
 30
0.0
 70
    32
  0
VERTEX
  5
2B6C
  8
241
 10
304.1379999999999768
 20
-39.4112999999999971
 30
0.0
 70
    32
  0
VERTEX
  5
2B6D
  8
241
 10
304.0880000000000223
 20
-39.4786000000000001
 30
0.0
 70
    32
  0
VERTEX
  5
2B6E
  8
241
 10
304.0389999999999873
 20
-39.5452999999999975
 30
0.0
 70
    32
  0
VERTEX
  5
2B6F
  8
241
 10
303.9879999999999995
 20
-39.6114999999999995
 30
0.0
 70
    32
  0
VERTEX
  5
2B70
  8
241
 10
303.9379999999999882
 20
-39.6771000000000029
 30
0.0
 70
    32
  0
VERTEX
  5
2B71
  8
241
 10
303.8860000000000241
 20
-39.7421000000000006
 30
0.0
 70
    32
  0
VERTEX
  5
2B72
  8
241
 10
303.8340000000000032
 20
-39.8066000000000031
 30
0.0
 70
    32
  0
VERTEX
  5
2B73
  8
241
 10
303.7819999999999823
 20
-39.8704999999999998
 30
0.0
 70
    32
  0
VERTEX
  5
2B74
  8
241
 10
303.728999999999985
 20
-39.933799999999998
 30
0.0
 70
    32
  0
VERTEX
  5
2B75
  8
241
 10
303.6759999999999877
 20
-39.9964999999999975
 30
0.0
 70
    32
  0
VERTEX
  5
2B76
  8
241
 10
303.6220000000000141
 20
-40.0587000000000018
 30
0.0
 70
    32
  0
VERTEX
  5
2B77
  8
241
 10
303.5670000000000073
 20
-40.1201999999999899
 30
0.0
 70
    32
  0
VERTEX
  5
2B78
  8
241
 10
303.5120000000000005
 20
-40.1811999999999898
 30
0.0
 70
    32
  0
VERTEX
  5
2B79
  8
241
 10
303.4569999999999936
 20
-40.241500000000002
 30
0.0
 70
    32
  0
VERTEX
  5
2B7A
  8
241
 10
303.4010000000000105
 20
-40.3012000000000015
 30
0.0
 70
    32
  0
VERTEX
  5
2B7B
  8
241
 10
303.3439999999999941
 20
-40.3603000000000023
 30
0.0
 70
    32
  0
VERTEX
  5
2B7C
  8
241
 10
303.2869999999999777
 20
-40.4187999999999903
 30
0.0
 70
    32
  0
VERTEX
  5
2B7D
  8
241
 10
303.2300000000000182
 20
-40.476700000000001
 30
0.0
 70
    32
  0
VERTEX
  5
2B7E
  8
241
 10
303.1720000000000255
 20
-40.5339000000000027
 30
0.0
 70
    32
  0
VERTEX
  5
2B7F
  8
241
 10
303.1140000000000896
 20
-40.5904999999999987
 30
0.0
 70
    32
  0
VERTEX
  5
2B80
  8
241
 10
303.0550000000000068
 20
-40.6463999999999928
 30
0.0
 70
    32
  0
VERTEX
  5
2B81
  8
241
 10
302.9950000000000045
 20
-40.7017000000000024
 30
0.0
 70
    32
  0
VERTEX
  5
2B82
  8
241
 10
302.9359999999999786
 20
-40.7563000000000031
 30
0.0
 70
    32
  0
VERTEX
  5
2B83
  8
241
 10
302.875
 20
-40.810299999999998
 30
0.0
 70
    32
  0
VERTEX
  5
2B84
  8
241
 10
302.8149999999999977
 20
-40.863599999999991
 30
0.0
 70
    32
  0
VERTEX
  5
2B85
  8
241
 10
302.7540000000000191
 20
-40.9162000000000035
 30
0.0
 70
    32
  0
VERTEX
  5
2B86
  8
241
 10
302.6920000000000073
 20
-40.9682000000000031
 30
0.0
 70
    32
  0
VERTEX
  5
2B87
  8
241
 10
302.6299999999999955
 20
-41.0195000000000007
 30
0.0
 70
    32
  0
VERTEX
  5
2B88
  8
241
 10
302.5679999999999836
 20
-41.0700999999999894
 30
0.0
 70
    32
  0
VERTEX
  5
2B89
  8
241
 10
302.5049999999999955
 20
-41.1199999999999974
 30
0.0
 70
    32
  0
VERTEX
  5
2B8A
  8
241
 10
302.4420000000000073
 20
-41.1691999999999894
 30
0.0
 70
    32
  0
VERTEX
  5
2B8B
  8
241
 10
302.3779999999999859
 20
-41.2177000000000007
 30
0.0
 70
    32
  0
VERTEX
  5
2B8C
  8
241
 10
302.3140000000000214
 20
-41.265500000000003
 30
0.0
 70
    32
  0
VERTEX
  5
2B8D
  8
241
 10
302.25
 20
-41.3126000000000033
 30
0.0
 70
    32
  0
VERTEX
  5
2B8E
  8
241
 10
302.1850000000000023
 20
-41.3590000000000018
 30
0.0
 70
    32
  0
VERTEX
  5
2B8F
  8
241
 10
302.1200000000000045
 20
-41.4046999999999912
 30
0.0
 70
    32
  0
VERTEX
  5
2B90
  8
241
 10
302.0539999999999736
 20
-41.4496999999999929
 30
0.0
 70
    32
  0
VERTEX
  5
2B91
  8
241
 10
301.9889999999999759
 20
-41.4938999999999893
 30
0.0
 70
    32
  0
VERTEX
  5
2B92
  8
241
 10
301.9220000000000255
 20
-41.5375000000000014
 30
0.0
 70
    32
  0
VERTEX
  5
2B93
  8
241
 10
301.8559999999999945
 20
-41.5801999999999907
 30
0.0
 70
    32
  0
VERTEX
  5
2B94
  8
241
 10
301.7889999999999873
 20
-41.6223000000000027
 30
0.0
 70
    32
  0
VERTEX
  5
2B95
  8
241
 10
301.7210000000000036
 20
-41.6636000000000024
 30
0.0
 70
    32
  0
VERTEX
  5
2B96
  8
241
 10
301.6539999999999964
 20
-41.7042000000000002
 30
0.0
 70
    32
  0
VERTEX
  5
2B97
  8
241
 10
301.5860000000000127
 20
-41.7439999999999998
 30
0.0
 70
    32
  0
VERTEX
  5
2B98
  8
241
 10
301.5179999999999723
 20
-41.7830999999999904
 30
0.0
 70
    32
  0
VERTEX
  5
2B99
  8
241
 10
301.4490000000000123
 20
-41.8213999999999899
 30
0.0
 70
    32
  0
VERTEX
  5
2B9A
  8
241
 10
301.3799999999999955
 20
-41.8590000000000018
 30
0.0
 70
    32
  0
VERTEX
  5
2B9B
  8
241
 10
301.3109999999999786
 20
-41.8958000000000013
 30
0.0
 70
    32
  0
VERTEX
  5
2B9C
  8
241
 10
301.2409999999999854
 20
-41.9318000000000026
 30
0.0
 70
    32
  0
VERTEX
  5
2B9D
  8
241
 10
301.1709999999999923
 20
-41.9671000000000021
 30
0.0
 70
    32
  0
VERTEX
  5
2B9E
  8
241
 10
301.1009999999999991
 20
-42.0016000000000034
 30
0.0
 70
    32
  0
VERTEX
  5
2B9F
  8
241
 10
301.0310000000000059
 20
-42.0352999999999923
 30
0.0
 70
    32
  0
VERTEX
  5
2BA0
  8
241
 10
300.9599999999999795
 20
-42.0683000000000007
 30
0.0
 70
    32
  0
VERTEX
  5
2BA1
  8
241
 10
300.88900000000001
 20
-42.1004000000000005
 30
0.0
 70
    32
  0
VERTEX
  5
2BA2
  8
241
 10
300.8179999999999836
 20
-42.1317999999999984
 30
0.0
 70
    32
  0
VERTEX
  5
2BA3
  8
241
 10
300.7470000000000141
 20
-42.162399999999991
 30
0.0
 70
    32
  0
VERTEX
  5
2BA4
  8
241
 10
300.6750000000000114
 20
-42.192300000000003
 30
0.0
 70
    32
  0
VERTEX
  5
2BA5
  8
241
 10
300.6030000000000086
 20
-42.2212999999999923
 30
0.0
 70
    32
  0
VERTEX
  5
2BA6
  8
241
 10
300.5310000000000059
 20
-42.2494999999999905
 30
0.0
 70
    32
  0
VERTEX
  5
2BA7
  8
241
 10
300.4580000000000268
 20
-42.277000000000001
 30
0.0
 70
    32
  0
VERTEX
  5
2BA8
  8
241
 10
300.3859999999999104
 20
-42.303600000000003
 30
0.0
 70
    32
  0
VERTEX
  5
2BA9
  8
241
 10
300.3129999999999882
 20
-42.329500000000003
 30
0.0
 70
    32
  0
VERTEX
  5
2BAA
  8
241
 10
300.2400000000000091
 20
-42.3545000000000016
 30
0.0
 70
    32
  0
VERTEX
  5
2BAB
  8
241
 10
300.1659999999999968
 20
-42.3787999999999911
 30
0.0
 70
    32
  0
VERTEX
  5
2BAC
  8
241
 10
300.0930000000000177
 20
-42.4021999999999935
 30
0.0
 70
    32
  0
VERTEX
  5
2BAD
  8
241
 10
300.0190000000000055
 20
-42.4247999999999905
 30
0.0
 70
    32
  0
VERTEX
  5
2BAE
  8
241
 10
299.9449999999999932
 20
-42.4465999999999894
 30
0.0
 70
    32
  0
VERTEX
  5
2BAF
  8
241
 10
299.8709999999999809
 20
-42.4675999999999974
 30
0.0
 70
    32
  0
VERTEX
  5
2BB0
  8
241
 10
299.7970000000000255
 20
-42.4878
 30
0.0
 70
    32
  0
VERTEX
  5
2BB1
  8
241
 10
299.7230000000000132
 20
-42.5071999999999974
 30
0.0
 70
    32
  0
VERTEX
  5
2BB2
  8
241
 10
299.6480000000000246
 20
-42.5257000000000005
 30
0.0
 70
    32
  0
VERTEX
  5
2BB3
  8
241
 10
299.5740000000000123
 20
-42.5433999999999983
 30
0.0
 70
    32
  0
VERTEX
  5
2BB4
  8
241
 10
299.4990000000000805
 20
-42.5602999999999909
 30
0.0
 70
    32
  0
VERTEX
  5
2BB5
  8
241
 10
299.4239999999999782
 20
-42.5763999999999996
 30
0.0
 70
    32
  0
VERTEX
  5
2BB6
  8
241
 10
299.3489999999999895
 20
-42.591700000000003
 30
0.0
 70
    32
  0
VERTEX
  5
2BB7
  8
241
 10
299.2740000000000009
 20
-42.6060999999999908
 30
0.0
 70
    32
  0
VERTEX
  5
2BB8
  8
241
 10
299.1979999999999791
 20
-42.6197000000000017
 30
0.0
 70
    32
  0
VERTEX
  5
2BB9
  8
241
 10
299.1229999999999905
 20
-42.6325000000000003
 30
0.0
 70
    32
  0
VERTEX
  5
2BBA
  8
241
 10
299.0470000000000255
 20
-42.6443999999999903
 30
0.0
 70
    32
  0
VERTEX
  5
2BBB
  8
241
 10
298.97199999999998
 20
-42.6555000000000035
 30
0.0
 70
    32
  0
VERTEX
  5
2BBC
  8
241
 10
298.896000000000015
 20
-42.6657999999999973
 30
0.0
 70
    32
  0
VERTEX
  5
2BBD
  8
241
 10
298.8199999999999932
 20
-42.6751999999999967
 30
0.0
 70
    32
  0
VERTEX
  5
2BBE
  8
241
 10
298.7450000000000045
 20
-42.6837999999999909
 30
0.0
 70
    32
  0
VERTEX
  5
2BBF
  8
241
 10
298.6689999999999827
 20
-42.6916000000000011
 30
0.0
 70
    32
  0
VERTEX
  5
2BC0
  8
241
 10
298.5930000000000177
 20
-42.6985000000000028
 30
0.0
 70
    32
  0
VERTEX
  5
2BC1
  8
241
 10
298.5169999999999959
 20
-42.7045999999999921
 30
0.0
 70
    32
  0
VERTEX
  5
2BC2
  8
241
 10
298.4399999999999977
 20
-42.7098999999999975
 30
0.0
 70
    32
  0
VERTEX
  5
2BC3
  8
241
 10
298.3639999999999759
 20
-42.7143000000000015
 30
0.0
 70
    32
  0
VERTEX
  5
2BC4
  8
241
 10
298.2880000000000109
 20
-42.7179000000000002
 30
0.0
 70
    32
  0
VERTEX
  5
2BC5
  8
241
 10
298.2119999999999891
 20
-42.7207000000000008
 30
0.0
 70
    32
  0
VERTEX
  5
2BC6
  8
241
 10
298.1360000000000241
 20
-42.7225999999999999
 30
0.0
 70
    32
  0
VERTEX
  5
2BC7
  8
241
 10
298.0600000000000023
 20
-42.7237000000000009
 30
0.0
 70
    32
  0
SEQEND
  5
2BC8
  8
241
  0
POLYLINE
  5
1868
  8
241
  6
CONTINUOUS
 66
     1
 10
0.0
 20
0.0
 30
0.0
 70
     8
  0
VERTEX
  5
2BC9
  8
241
 10
304.0
 20
-31.6189999999999998
 30
0.0
 70
    32
  0
VERTEX
  5
2BCA
  8
241
 10
303.992999999999995
 20
-31.873899999999999
 30
0.0
 70
    32
  0
VERTEX
  5
2BCB
  8
241
 10
303.9710000000000036
 20
-32.128300000000003
 30
0.0
 70
    32
  0
VERTEX
  5
2BCC
  8
241
 10
303.9350000000000023
 20
-32.3813999999999993
 30
0.0
 70
    32
  0
VERTEX
  5
2BCD
  8
241
 10
303.8849999999999909
 20
-32.6326999999999998
 30
0.0
 70
    32
  0
VERTEX
  5
2BCE
  8
241
 10
303.8199999999999932
 20
-32.8815000000000026
 30
0.0
 70
    32
  0
VERTEX
  5
2BCF
  8
241
 10
303.7420000000000186
 20
-33.1272999999999982
 30
0.0
 70
    32
  0
VERTEX
  5
2BD0
  8
241
 10
303.6490000000000009
 20
-33.3695000000000022
 30
0.0
 70
    32
  0
VERTEX
  5
2BD1
  8
241
 10
303.5430000000000064
 20
-33.6075000000000017
 30
0.0
 70
    32
  0
VERTEX
  5
2BD2
  8
241
 10
303.4239999999999782
 20
-33.840600000000002
 30
0.0
 70
    32
  0
VERTEX
  5
2BD3
  8
241
 10
303.2919999999999732
 20
-34.0683999999999969
 30
0.0
 70
    32
  0
VERTEX
  5
2BD4
  8
241
 10
303.146000000000015
 20
-34.290300000000002
 30
0.0
 70
    32
  0
VERTEX
  5
2BD5
  8
241
 10
302.9889999999999759
 20
-34.5058000000000007
 30
0.0
 70
    32
  0
VERTEX
  5
2BD6
  8
241
 10
302.8190000000000168
 20
-34.7143000000000015
 30
0.0
 70
    32
  0
VERTEX
  5
2BD7
  8
241
 10
302.6379999999999768
 20
-34.9153999999999982
 30
0.0
 70
    32
  0
VERTEX
  5
2BD8
  8
241
 10
302.4460000000000264
 20
-35.1084999999999994
 30
0.0
 70
    32
  0
VERTEX
  5
2BD9
  8
241
 10
302.242999999999995
 20
-35.2931999999999988
 30
0.0
 70
    32
  0
VERTEX
  5
2BDA
  8
241
 10
302.0289999999999964
 20
-35.4690999999999974
 30
0.0
 70
    32
  0
VERTEX
  5
2BDB
  8
241
 10
301.8059999999999832
 20
-35.6356999999999999
 30
0.0
 70
    32
  0
VERTEX
  5
2BDC
  8
241
 10
301.5740000000000123
 20
-35.7926000000000002
 30
0.0
 70
    32
  0
VERTEX
  5
2BDD
  8
241
 10
301.3330000000000268
 20
-35.9393999999999991
 30
0.0
 70
    32
  0
VERTEX
  5
2BDE
  8
241
 10
301.0849999999999795
 20
-36.0758999999999972
 30
0.0
 70
    32
  0
VERTEX
  5
2BDF
  8
241
 10
300.8279999999999745
 20
-36.2015999999999991
 30
0.0
 70
    32
  0
VERTEX
  5
2BE0
  8
241
 10
300.5649999999999977
 20
-36.3162999999999982
 30
0.0
 70
    32
  0
VERTEX
  5
2BE1
  8
241
 10
300.2959999999999923
 20
-36.4196000000000026
 30
0.0
 70
    32
  0
VERTEX
  5
2BE2
  8
241
 10
300.021000000000015
 20
-36.5114000000000019
 30
0.0
 70
    32
  0
VERTEX
  5
2BE3
  8
241
 10
299.7420000000000186
 20
-36.5914000000000001
 30
0.0
 70
    32
  0
VERTEX
  5
2BE4
  8
241
 10
299.4580000000000268
 20
-36.659399999999998
 30
0.0
 70
    32
  0
VERTEX
  5
2BE5
  8
241
 10
299.1709999999999923
 20
-36.7152999999999992
 30
0.0
 70
    32
  0
VERTEX
  5
2BE6
  8
241
 10
298.8799999999999955
 20
-36.758899999999997
 30
0.0
 70
    32
  0
VERTEX
  5
2BE7
  8
241
 10
298.5880000000000223
 20
-36.7901000000000025
 30
0.0
 70
    32
  0
VERTEX
  5
2BE8
  8
241
 10
298.2940000000000964
 20
-36.8089000000000013
 30
0.0
 70
    32
  0
VERTEX
  5
2BE9
  8
241
 10
298.0
 20
-36.815100000000001
 30
0.0
 70
    32
  0
VERTEX
  5
2BEA
  8
241
 10
297.7060000000000173
 20
-36.8089000000000013
 30
0.0
 70
    32
  0
VERTEX
  5
2BEB
  8
241
 10
297.4119999999999777
 20
-36.7901000000000025
 30
0.0
 70
    32
  0
VERTEX
  5
2BEC
  8
241
 10
297.1200000000000045
 20
-36.758899999999997
 30
0.0
 70
    32
  0
VERTEX
  5
2BED
  8
241
 10
296.8290000000000077
 20
-36.7152999999999992
 30
0.0
 70
    32
  0
VERTEX
  5
2BEE
  8
241
 10
296.5419999999999732
 20
-36.659399999999998
 30
0.0
 70
    32
  0
VERTEX
  5
2BEF
  8
241
 10
296.2579999999999814
 20
-36.5914000000000001
 30
0.0
 70
    32
  0
VERTEX
  5
2BF0
  8
241
 10
295.978999999999985
 20
-36.5114000000000019
 30
0.0
 70
    32
  0
VERTEX
  5
2BF1
  8
241
 10
295.7040000000000077
 20
-36.4196000000000026
 30
0.0
 70
    32
  0
VERTEX
  5
2BF2
  8
241
 10
295.4350000000000023
 20
-36.3162999999999982
 30
0.0
 70
    32
  0
VERTEX
  5
2BF3
  8
241
 10
295.1720000000000255
 20
-36.2015999999999991
 30
0.0
 70
    32
  0
VERTEX
  5
2BF4
  8
241
 10
294.9150000000000205
 20
-36.0758999999999972
 30
0.0
 70
    32
  0
VERTEX
  5
2BF5
  8
241
 10
294.6670000000000869
 20
-35.9393999999999991
 30
0.0
 70
    32
  0
VERTEX
  5
2BF6
  8
241
 10
294.4259999999999877
 20
-35.7926000000000002
 30
0.0
 70
    32
  0
VERTEX
  5
2BF7
  8
241
 10
294.1940000000000168
 20
-35.6356999999999999
 30
0.0
 70
    32
  0
VERTEX
  5
2BF8
  8
241
 10
293.9710000000000036
 20
-35.4690999999999974
 30
0.0
 70
    32
  0
VERTEX
  5
2BF9
  8
241
 10
293.757000000000005
 20
-35.2931999999999988
 30
0.0
 70
    32
  0
VERTEX
  5
2BFA
  8
241
 10
293.5540000000000873
 20
-35.1084999999999994
 30
0.0
 70
    32
  0
VERTEX
  5
2BFB
  8
241
 10
293.3620000000000232
 20
-34.9153999999999982
 30
0.0
 70
    32
  0
VERTEX
  5
2BFC
  8
241
 10
293.1809999999999832
 20
-34.7143000000000015
 30
0.0
 70
    32
  0
VERTEX
  5
2BFD
  8
241
 10
293.0109999999999104
 20
-34.5058000000000007
 30
0.0
 70
    32
  0
VERTEX
  5
2BFE
  8
241
 10
292.853999999999985
 20
-34.290300000000002
 30
0.0
 70
    32
  0
VERTEX
  5
2BFF
  8
241
 10
292.7080000000000268
 20
-34.0683999999999969
 30
0.0
 70
    32
  0
VERTEX
  5
2C00
  8
241
 10
292.5760000000000218
 20
-33.840600000000002
 30
0.0
 70
    32
  0
VERTEX
  5
2C01
  8
241
 10
292.4569999999999936
 20
-33.6075000000000017
 30
0.0
 70
    32
  0
VERTEX
  5
2C02
  8
241
 10
292.3509999999999991
 20
-33.3695000000000022
 30
0.0
 70
    32
  0
VERTEX
  5
2C03
  8
241
 10
292.2579999999999814
 20
-33.1272999999999982
 30
0.0
 70
    32
  0
VERTEX
  5
2C04
  8
241
 10
292.1800000000000068
 20
-32.8815000000000026
 30
0.0
 70
    32
  0
VERTEX
  5
2C05
  8
241
 10
292.1150000000000091
 20
-32.6326999999999998
 30
0.0
 70
    32
  0
VERTEX
  5
2C06
  8
241
 10
292.0649999999999977
 20
-32.3813999999999993
 30
0.0
 70
    32
  0
VERTEX
  5
2C07
  8
241
 10
292.0289999999999964
 20
-32.128300000000003
 30
0.0
 70
    32
  0
VERTEX
  5
2C08
  8
241
 10
292.007000000000005
 20
-31.873899999999999
 30
0.0
 70
    32
  0
VERTEX
  5
2C09
  8
241
 10
292.0
 20
-31.6189999999999998
 30
0.0
 70
    32
  0
VERTEX
  5
2C0A
  8
241
 10
292.007000000000005
 20
-31.3640000000000008
 30
0.0
 70
    32
  0
VERTEX
  5
2C0B
  8
241
 10
292.0289999999999964
 20
-31.1097000000000001
 30
0.0
 70
    32
  0
VERTEX
  5
2C0C
  8
241
 10
292.0649999999999977
 20
-30.8566000000000003
 30
0.0
 70
    32
  0
VERTEX
  5
2C0D
  8
241
 10
292.1150000000000091
 20
-30.6052999999999997
 30
0.0
 70
    32
  0
VERTEX
  5
2C0E
  8
241
 10
292.1800000000000068
 20
-30.3564000000000007
 30
0.0
 70
    32
  0
VERTEX
  5
2C0F
  8
241
 10
292.2579999999999814
 20
-30.1106000000000016
 30
0.0
 70
    32
  0
VERTEX
  5
2C10
  8
241
 10
292.3509999999999991
 20
-29.8685000000000009
 30
0.0
 70
    32
  0
VERTEX
  5
2C11
  8
241
 10
292.4569999999999936
 20
-29.6305000000000014
 30
0.0
 70
    32
  0
VERTEX
  5
2C12
  8
241
 10
292.5760000000000218
 20
-29.3973000000000013
 30
0.0
 70
    32
  0
VERTEX
  5
2C13
  8
241
 10
292.7080000000000268
 20
-29.1694999999999993
 30
0.0
 70
    32
  0
VERTEX
  5
2C14
  8
241
 10
292.853999999999985
 20
-28.9476000000000013
 30
0.0
 70
    32
  0
VERTEX
  5
2C15
  8
241
 10
293.0109999999999104
 20
-28.7321999999999989
 30
0.0
 70
    32
  0
VERTEX
  5
2C16
  8
241
 10
293.1809999999999832
 20
-28.5235999999999983
 30
0.0
 70
    32
  0
VERTEX
  5
2C17
  8
241
 10
293.3620000000000232
 20
-28.3226000000000013
 30
0.0
 70
    32
  0
VERTEX
  5
2C18
  8
241
 10
293.5540000000000873
 20
-28.1295000000000002
 30
0.0
 70
    32
  0
VERTEX
  5
2C19
  8
241
 10
293.757000000000005
 20
-27.9448000000000008
 30
0.0
 70
    32
  0
VERTEX
  5
2C1A
  8
241
 10
293.9710000000000036
 20
-27.7688999999999986
 30
0.0
 70
    32
  0
VERTEX
  5
2C1B
  8
241
 10
294.1940000000000168
 20
-27.6022999999999996
 30
0.0
 70
    32
  0
VERTEX
  5
2C1C
  8
241
 10
294.4259999999999877
 20
-27.4453999999999994
 30
0.0
 70
    32
  0
VERTEX
  5
2C1D
  8
241
 10
294.6670000000000869
 20
-27.2985000000000007
 30
0.0
 70
    32
  0
VERTEX
  5
2C1E
  8
241
 10
294.9150000000000205
 20
-27.1620999999999988
 30
0.0
 70
    32
  0
VERTEX
  5
2C1F
  8
241
 10
295.1720000000000255
 20
-27.0364000000000004
 30
0.0
 70
    32
  0
VERTEX
  5
2C20
  8
241
 10
295.4350000000000023
 20
-26.9217000000000013
 30
0.0
 70
    32
  0
VERTEX
  5
2C21
  8
241
 10
295.7040000000000077
 20
-26.8184000000000005
 30
0.0
 70
    32
  0
VERTEX
  5
2C22
  8
241
 10
295.978999999999985
 20
-26.7266000000000012
 30
0.0
 70
    32
  0
VERTEX
  5
2C23
  8
241
 10
296.2579999999999814
 20
-26.6465999999999994
 30
0.0
 70
    32
  0
VERTEX
  5
2C24
  8
241
 10
296.5419999999999732
 20
-26.5786000000000016
 30
0.0
 70
    32
  0
VERTEX
  5
2C25
  8
241
 10
296.8290000000000077
 20
-26.5227000000000004
 30
0.0
 70
    32
  0
VERTEX
  5
2C26
  8
241
 10
297.1200000000000045
 20
-26.479099999999999
 30
0.0
 70
    32
  0
VERTEX
  5
2C27
  8
241
 10
297.4119999999999777
 20
-26.4479000000000006
 30
0.0
 70
    32
  0
VERTEX
  5
2C28
  8
241
 10
297.7060000000000173
 20
-26.4290999999999983
 30
0.0
 70
    32
  0
VERTEX
  5
2C29
  8
241
 10
298.0
 20
-26.4227999999999987
 30
0.0
 70
    32
  0
VERTEX
  5
2C2A
  8
241
 10
298.2940000000000964
 20
-26.4290999999999983
 30
0.0
 70
    32
  0
VERTEX
  5
2C2B
  8
241
 10
298.5880000000000223
 20
-26.4479000000000006
 30
0.0
 70
    32
  0
VERTEX
  5
2C2C
  8
241
 10
298.8799999999999955
 20
-26.479099999999999
 30
0.0
 70
    32
  0
VERTEX
  5
2C2D
  8
241
 10
299.1709999999999923
 20
-26.5227000000000004
 30
0.0
 70
    32
  0
VERTEX
  5
2C2E
  8
241
 10
299.4580000000000268
 20
-26.5786000000000016
 30
0.0
 70
    32
  0
VERTEX
  5
2C2F
  8
241
 10
299.7420000000000186
 20
-26.6465999999999994
 30
0.0
 70
    32
  0
VERTEX
  5
2C30
  8
241
 10
300.021000000000015
 20
-26.7266000000000012
 30
0.0
 70
    32
  0
VERTEX
  5
2C31
  8
241
 10
300.2959999999999923
 20
-26.8184000000000005
 30
0.0
 70
    32
  0
VERTEX
  5
2C32
  8
241
 10
300.5649999999999977
 20
-26.9217000000000013
 30
0.0
 70
    32
  0
VERTEX
  5
2C33
  8
241
 10
300.8279999999999745
 20
-27.0364000000000004
 30
0.0
 70
    32
  0
VERTEX
  5
2C34
  8
241
 10
301.0849999999999795
 20
-27.1620999999999988
 30
0.0
 70
    32
  0
VERTEX
  5
2C35
  8
241
 10
301.3330000000000268
 20
-27.2985000000000007
 30
0.0
 70
    32
  0
VERTEX
  5
2C36
  8
241
 10
301.5740000000000123
 20
-27.4453999999999994
 30
0.0
 70
    32
  0
VERTEX
  5
2C37
  8
241
 10
301.8059999999999832
 20
-27.6022999999999996
 30
0.0
 70
    32
  0
VERTEX
  5
2C38
  8
241
 10
302.0289999999999964
 20
-27.7688999999999986
 30
0.0
 70
    32
  0
VERTEX
  5
2C39
  8
241
 10
302.242999999999995
 20
-27.9448000000000008
 30
0.0
 70
    32
  0
VERTEX
  5
2C3A
  8
241
 10
302.4460000000000264
 20
-28.1295000000000002
 30
0.0
 70
    32
  0
VERTEX
  5
2C3B
  8
241
 10
302.6379999999999768
 20
-28.3226000000000013
 30
0.0
 70
    32
  0
VERTEX
  5
2C3C
  8
241
 10
302.8190000000000168
 20
-28.5235999999999983
 30
0.0
 70
    32
  0
VERTEX
  5
2C3D
  8
241
 10
302.9889999999999759
 20
-28.7321999999999989
 30
0.0
 70
    32
  0
VERTEX
  5
2C3E
  8
241
 10
303.146000000000015
 20
-28.9476000000000013
 30
0.0
 70
    32
  0
VERTEX
  5
2C3F
  8
241
 10
303.2919999999999732
 20
-29.1694999999999993
 30
0.0
 70
    32
  0
VERTEX
  5
2C40
  8
241
 10
303.4239999999999782
 20
-29.3973000000000013
 30
0.0
 70
    32
  0
VERTEX
  5
2C41
  8
241
 10
303.5430000000000064
 20
-29.6305000000000014
 30
0.0
 70
    32
  0
VERTEX
  5
2C42
  8
241
 10
303.6490000000000009
 20
-29.8685000000000009
 30
0.0
 70
    32
  0
VERTEX
  5
2C43
  8
241
 10
303.7420000000000186
 20
-30.1106000000000016
 30
0.0
 70
    32
  0
VERTEX
  5
2C44
  8
241
 10
303.8199999999999932
 20
-30.3564000000000007
 30
0.0
 70
    32
  0
VERTEX
  5
2C45
  8
241
 10
303.8849999999999909
 20
-30.6052999999999997
 30
0.0
 70
    32
  0
VERTEX
  5
2C46
  8
241
 10
303.9350000000000023
 20
-30.8566000000000003
 30
0.0
 70
    32
  0
VERTEX
  5
2C47
  8
241
 10
303.9710000000000036
 20
-31.1097000000000001
 30
0.0
 70
    32
  0
VERTEX
  5
2C48
  8
241
 10
303.992999999999995
 20
-31.3640000000000008
 30
0.0
 70
    32
  0
VERTEX
  5
2C49
  8
241
 10
304.0
 20
-31.6189999999999998
 30
0.0
 70
    32
  0
SEQEND
  5
2C4A
  8
241
  0
ARC
  5
1869
  8
241
  6
CONTINUOUS
 10
298.0
 20
-34.2647367097488313
 30
0.0
 40
7.8855679433000567
 50
342.773853309975209
 51
161.509206229943004
  0
ARC
  5
186C
  8
240
  6
CONTINUOUS
 10
314.9999999999998863
 20
-23.0000000000002309
 30
0.0
 40
31.9999999999999893
 50
216.1758193363160956
 51
270.0000177661220846
  0
ARC
  5
1872
  8
240
  6
CONTINUOUS
 10
314.9999999999998863
 20
-23.0000000000002309
 30
0.0
 40
31.9999999999999893
 50
180.0
 51
216.1758193363206999
  0
LINE
  5
1874
  8
246
  6
PHANTOM2
 10
279.6999999999998181
 20
-12.7000000000000401
 30
0.0
 11
267.4544412563064952
 21
-12.7000000000000401
 31
0.0
  0
LINE
  5
1875
  8
246
  6
PHANTOM2
 10
279.6999999999998181
 20
12.6999999999998199
 30
0.0
 11
267.4544412563064952
 21
12.6999999999998199
 31
0.0
  0
LINE
  5
1876
  8
246
  6
PHANTOM2
 10
279.6999999999998181
 20
12.6999999999998199
 30
0.0
 11
279.6999999999998181
 21
-12.7000000000000401
 31
0.0
  0
LINE
  5
1877
  8
240
  6
CONTINUOUS
 10
282.9999999999998863
 20
12.9999999999997708
 30
0.0
 11
282.9999999999998863
 21
-9.0000000000002274
 31
0.0
  0
LINE
  5
187A
  8
240
  6
CONTINUOUS
 10
282.9999999999998863
 20
-23.0000000000002309
 30
0.0
 11
282.9999999999998863
 21
-9.0000000000002274
 31
0.0
  0
POLYLINE
  5
2DCD
  8
241
 66
     1
 10
0.0
 20
0.0
 30
0.0
 70
     8
  0
VERTEX
  5
2DCE
  8
241
 10
290.785000000000025
 20
-37.2578000000000031
 30
0.0
 70
    32
  0
VERTEX
  5
2DCF
  8
241
 10
290.7980000000000018
 20
-37.2884000000000029
 30
0.0
 70
    32
  0
VERTEX
  5
2DD0
  8
241
 10
290.8109999999999786
 20
-37.3188999999999993
 30
0.0
 70
    32
  0
VERTEX
  5
2DD1
  8
241
 10
290.8249999999999886
 20
-37.349499999999999
 30
0.0
 70
    32
  0
VERTEX
  5
2DD2
  8
241
 10
290.8380000000000223
 20
-37.3798999999999992
 30
0.0
 70
    32
  0
VERTEX
  5
2DD3
  8
241
 10
290.8519999999999754
 20
-37.4104000000000028
 30
0.0
 70
    32
  0
VERTEX
  5
2DD4
  8
241
 10
290.8650000000000091
 20
-37.440800000000003
 30
0.0
 70
    32
  0
VERTEX
  5
2DD5
  8
241
 10
290.8790000000000191
 20
-37.4710999999999999
 30
0.0
 70
    32
  0
VERTEX
  5
2DD6
  8
241
 10
290.8929999999999723
 20
-37.5013999999999967
 30
0.0
 70
    32
  0
VERTEX
  5
2DD7
  8
241
 10
290.9069999999999823
 20
-37.5315999999999974
 30
0.0
 70
    32
  0
VERTEX
  5
2DD8
  8
241
 10
290.9209999999999923
 20
-37.5617999999999981
 30
0.0
 70
    32
  0
VERTEX
  5
2DD9
  8
241
 10
290.9350000000000023
 20
-37.5919999999999987
 30
0.0
 70
    32
  0
VERTEX
  5
2DDA
  8
241
 10
290.9490000000000123
 20
-37.6221000000000032
 30
0.0
 70
    32
  0
VERTEX
  5
2DDB
  8
241
 10
290.9639999999999986
 20
-37.6520999999999972
 30
0.0
 70
    32
  0
VERTEX
  5
2DDC
  8
241
 10
290.9780000000000086
 20
-37.6822000000000017
 30
0.0
 70
    32
  0
VERTEX
  5
2DDD
  8
241
 10
290.992999999999995
 20
-37.7120999999999995
 30
0.0
 70
    32
  0
VERTEX
  5
2DDE
  8
241
 10
291.0079999999999814
 20
-37.7419999999999973
 30
0.0
 70
    32
  0
VERTEX
  5
2DDF
  8
241
 10
291.0219999999999914
 20
-37.7719000000000023
 30
0.0
 70
    32
  0
VERTEX
  5
2DE0
  8
241
 10
291.0369999999999777
 20
-37.8016999999999967
 30
0.0
 70
    32
  0
VERTEX
  5
2DE1
  8
241
 10
291.0520000000000209
 20
-37.8314000000000021
 30
0.0
 70
    32
  0
VERTEX
  5
2DE2
  8
241
 10
291.0670000000000073
 20
-37.8611000000000004
 30
0.0
 70
    32
  0
VERTEX
  5
2DE3
  8
241
 10
291.0819999999999936
 20
-37.8907999999999987
 30
0.0
 70
    32
  0
VERTEX
  5
2DE4
  8
241
 10
291.0980000000000132
 20
-37.9204000000000008
 30
0.0
 70
    32
  0
VERTEX
  5
2DE5
  8
241
 10
291.1129999999999995
 20
-37.9500000000000028
 30
0.0
 70
    32
  0
VERTEX
  5
2DE6
  8
241
 10
291.1279999999999859
 20
-37.9795000000000016
 30
0.0
 70
    32
  0
VERTEX
  5
2DE7
  8
241
 10
291.1440000000000055
 20
-38.008899999999997
 30
0.0
 70
    32
  0
VERTEX
  5
2DE8
  8
241
 10
291.160000000000025
 20
-38.0382999999999996
 30
0.0
 70
    32
  0
VERTEX
  5
2DE9
  8
241
 10
291.1750000000000114
 20
-38.0677000000000021
 30
0.0
 70
    32
  0
VERTEX
  5
2DEA
  8
241
 10
291.1909999999999741
 20
-38.096899999999998
 30
0.0
 70
    32
  0
VERTEX
  5
2DEB
  8
241
 10
291.2069999999999936
 20
-38.1261999999999972
 30
0.0
 70
    32
  0
VERTEX
  5
2DEC
  8
241
 10
291.2230000000000132
 20
-38.1554000000000002
 30
0.0
 70
    32
  0
VERTEX
  5
2DED
  8
241
 10
291.2389999999999759
 20
-38.1844999999999999
 30
0.0
 70
    32
  0
VERTEX
  5
2DEE
  8
241
 10
291.2559999999999718
 20
-38.2135999999999996
 30
0.0
 70
    32
  0
VERTEX
  5
2DEF
  8
241
 10
291.2719999999999914
 20
-38.2426000000000101
 30
0.0
 70
    32
  0
VERTEX
  5
2DF0
  8
241
 10
291.2880000000000109
 20
-38.2715999999999994
 30
0.0
 70
    32
  0
VERTEX
  5
2DF1
  8
241
 10
291.3050000000000068
 20
-38.3004999999999995
 30
0.0
 70
    32
  0
VERTEX
  5
2DF2
  8
241
 10
291.3220000000000027
 20
-38.3293999999999997
 30
0.0
 70
    32
  0
VERTEX
  5
2DF3
  8
241
 10
291.3380000000000223
 20
-38.3581999999999965
 30
0.0
 70
    32
  0
VERTEX
  5
2DF4
  8
241
 10
291.3550000000000182
 20
-38.3868999999999971
 30
0.0
 70
    32
  0
VERTEX
  5
2DF5
  8
241
 10
291.3720000000000141
 20
-38.4155999999999977
 30
0.0
 70
    32
  0
VERTEX
  5
2DF6
  8
241
 10
291.38900000000001
 20
-38.4442999999999984
 30
0.0
 70
    32
  0
VERTEX
  5
2DF7
  8
241
 10
291.4060000000000059
 20
-38.4729000000000028
 30
0.0
 70
    32
  0
VERTEX
  5
2DF8
  8
241
 10
291.4230000000000018
 20
-38.5013999999999967
 30
0.0
 70
    32
  0
VERTEX
  5
2DF9
  8
241
 10
291.4409999999999741
 20
-38.5298999999999978
 30
0.0
 70
    32
  0
VERTEX
  5
2DFA
  8
241
 10
291.4580000000000268
 20
-38.5583000000000027
 30
0.0
 70
    32
  0
VERTEX
  5
2DFB
  8
241
 10
291.4759999999999991
 20
-38.5865999999999971
 30
0.0
 70
    32
  0
VERTEX
  5
2DFC
  8
241
 10
291.492999999999995
 20
-38.6148999999999987
 30
0.0
 70
    32
  0
VERTEX
  5
2DFD
  8
241
 10
291.5110000000000241
 20
-38.6432000000000002
 30
0.0
 70
    32
  0
VERTEX
  5
2DFE
  8
241
 10
291.5289999999999964
 20
-38.6713999999999984
 30
0.0
 70
    32
  0
VERTEX
  5
2DFF
  8
241
 10
291.5470000000000255
 20
-38.6995000000000005
 30
0.0
 70
    32
  0
VERTEX
  5
2E00
  8
241
 10
291.5649999999999977
 20
-38.7274999999999991
 30
0.0
 70
    32
  0
VERTEX
  5
2E01
  8
241
 10
291.5830000000000268
 20
-38.7556000000000012
 30
0.0
 70
    32
  0
VERTEX
  5
2E02
  8
241
 10
291.6009999999999991
 20
-38.7834999999999965
 30
0.0
 70
    32
  0
VERTEX
  5
2E03
  8
241
 10
291.6190000000000282
 20
-38.811399999999999
 30
0.0
 70
    32
  0
VERTEX
  5
2E04
  8
241
 10
291.6379999999999768
 20
-38.8391999999999982
 30
0.0
 70
    32
  0
VERTEX
  5
2E05
  8
241
 10
291.6560000000000059
 20
-38.8669999999999973
 30
0.0
 70
    32
  0
VERTEX
  5
2E06
  8
241
 10
291.6750000000000114
 20
-38.8947000000000003
 30
0.0
 70
    32
  0
VERTEX
  5
2E07
  8
241
 10
291.6929999999999836
 20
-38.9222999999999999
 30
0.0
 70
    32
  0
VERTEX
  5
2E08
  8
241
 10
291.7119999999999891
 20
-38.9498999999999995
 30
0.0
 70
    32
  0
VERTEX
  5
2E09
  8
241
 10
291.7309999999999945
 20
-38.9774999999999991
 30
0.0
 70
    32
  0
VERTEX
  5
2E0A
  8
241
 10
291.75
 20
-39.0048999999999992
 30
0.0
 70
    32
  0
VERTEX
  5
2E0B
  8
241
 10
291.7690000000000055
 20
-39.0322999999999993
 30
0.0
 70
    32
  0
VERTEX
  5
2E0C
  8
241
 10
291.7880000000000109
 20
-39.0596999999999994
 30
0.0
 70
    32
  0
VERTEX
  5
2E0D
  8
241
 10
291.8070000000000164
 20
-39.0870000000000104
 30
0.0
 70
    32
  0
VERTEX
  5
2E0E
  8
241
 10
291.8260000000000218
 20
-39.1141999999999967
 30
0.0
 70
    32
  0
VERTEX
  5
2E0F
  8
241
 10
291.8460000000000036
 20
-39.1413000000000011
 30
0.0
 70
    32
  0
VERTEX
  5
2E10
  8
241
 10
291.8650000000000091
 20
-39.1683999999999983
 30
0.0
 70
    32
  0
VERTEX
  5
2E11
  8
241
 10
291.8849999999999909
 20
-39.1953999999999994
 30
0.0
 70
    32
  0
VERTEX
  5
2E12
  8
241
 10
291.9039999999999964
 20
-39.2224000000000004
 30
0.0
 70
    32
  0
VERTEX
  5
2E13
  8
241
 10
291.9239999999999782
 20
-39.2492999999999981
 30
0.0
 70
    32
  0
VERTEX
  5
2E14
  8
241
 10
291.9440000000000168
 20
-39.2760999999999996
 30
0.0
 70
    32
  0
VERTEX
  5
2E15
  8
241
 10
291.9639999999999986
 20
-39.3029000000000011
 30
0.0
 70
    32
  0
VERTEX
  5
2E16
  8
241
 10
291.9839999999999804
 20
-39.3295999999999992
 30
0.0
 70
    32
  0
VERTEX
  5
2E17
  8
241
 10
292.0040000000000191
 20
-39.3562000000000012
 30
0.0
 70
    32
  0
VERTEX
  5
2E18
  8
241
 10
292.0240000000000009
 20
-39.3828000000000102
 30
0.0
 70
    32
  0
VERTEX
  5
2E19
  8
241
 10
292.0450000000000159
 20
-39.4091999999999985
 30
0.0
 70
    32
  0
VERTEX
  5
2E1A
  8
241
 10
292.0649999999999977
 20
-39.4356000000000009
 30
0.0
 70
    32
  0
VERTEX
  5
2E1B
  8
241
 10
292.0849999999999795
 20
-39.4617999999999967
 30
0.0
 70
    32
  0
VERTEX
  5
2E1C
  8
241
 10
292.1059999999999945
 20
-39.4879999999999995
 30
0.0
 70
    32
  0
VERTEX
  5
2E1D
  8
241
 10
292.1259999999999764
 20
-39.5140999999999991
 30
0.0
 70
    32
  0
VERTEX
  5
2E1E
  8
241
 10
292.1469999999999914
 20
-39.5399999999999991
 30
0.0
 70
    32
  0
VERTEX
  5
2E1F
  8
241
 10
292.1680000000000064
 20
-39.5658999999999992
 30
0.0
 70
    32
  0
VERTEX
  5
2E20
  8
241
 10
292.1879999999999882
 20
-39.591700000000003
 30
0.0
 70
    32
  0
VERTEX
  5
2E21
  8
241
 10
292.2090000000000032
 20
-39.6174000000000106
 30
0.0
 70
    32
  0
VERTEX
  5
2E22
  8
241
 10
292.2300000000000182
 20
-39.6430000000000007
 30
0.0
 70
    32
  0
VERTEX
  5
2E23
  8
241
 10
292.2509999999999764
 20
-39.6685000000000016
 30
0.0
 70
    32
  0
VERTEX
  5
2E24
  8
241
 10
292.2719999999999914
 20
-39.6938999999999993
 30
0.0
 70
    32
  0
VERTEX
  5
2E25
  8
241
 10
292.2930000000000064
 20
-39.7192000000000007
 30
0.0
 70
    32
  0
VERTEX
  5
2E26
  8
241
 10
292.3140000000000214
 20
-39.7443999999999988
 30
0.0
 70
    32
  0
VERTEX
  5
2E27
  8
241
 10
292.3349999999999795
 20
-39.769599999999997
 30
0.0
 70
    32
  0
VERTEX
  5
2E28
  8
241
 10
292.3570000000000277
 20
-39.7946000000000026
 30
0.0
 70
    32
  0
VERTEX
  5
2E29
  8
241
 10
292.3779999999999859
 20
-39.8194999999999979
 30
0.0
 70
    32
  0
VERTEX
  5
2E2A
  8
241
 10
292.3990000000000009
 20
-39.8444000000000003
 30
0.0
 70
    32
  0
VERTEX
  5
2E2B
  8
241
 10
292.4209999999999923
 20
-39.8691000000000031
 30
0.0
 70
    32
  0
VERTEX
  5
2E2C
  8
241
 10
292.4420000000000073
 20
-39.8937999999999988
 30
0.0
 70
    32
  0
VERTEX
  5
2E2D
  8
241
 10
292.4639999999999986
 20
-39.9183000000000021
 30
0.0
 70
    32
  0
VERTEX
  5
2E2E
  8
241
 10
292.48599999999999
 20
-39.9427999999999983
 30
0.0
 70
    32
  0
VERTEX
  5
2E2F
  8
241
 10
292.507000000000005
 20
-39.9671000000000021
 30
0.0
 70
    32
  0
VERTEX
  5
2E30
  8
241
 10
292.5289999999999964
 20
-39.9913999999999987
 30
0.0
 70
    32
  0
VERTEX
  5
2E31
  8
241
 10
292.5509999999999877
 20
-40.0155999999999992
 30
0.0
 70
    32
  0
VERTEX
  5
2E32
  8
241
 10
292.5729999999999791
 20
-40.0396000000000001
 30
0.0
 70
    32
  0
VERTEX
  5
2E33
  8
241
 10
292.5950000000000273
 20
-40.0635999999999868
 30
0.0
 70
    32
  0
VERTEX
  5
2E34
  8
241
 10
292.6170000000000186
 20
-40.0874999999999986
 30
0.0
 70
    32
  0
VERTEX
  5
2E35
  8
241
 10
292.63900000000001
 20
-40.1113
 30
0.0
 70
    32
  0
VERTEX
  5
2E36
  8
241
 10
292.6610000000000014
 20
-40.1349000000000018
 30
0.0
 70
    32
  0
VERTEX
  5
2E37
  8
241
 10
292.6829999999999927
 20
-40.1584999999999894
 30
0.0
 70
    32
  0
VERTEX
  5
2E38
  8
241
 10
292.7049999999999841
 20
-40.1820000000000022
 30
0.0
 70
    32
  0
VERTEX
  5
2E39
  8
241
 10
292.7269999999999754
 20
-40.2053999999999903
 30
0.0
 70
    32
  0
VERTEX
  5
2E3A
  8
241
 10
292.75
 20
-40.2287000000000035
 30
0.0
 70
    32
  0
VERTEX
  5
2E3B
  8
241
 10
292.7719999999999914
 20
-40.2518999999999991
 30
0.0
 70
    32
  0
VERTEX
  5
2E3C
  8
241
 10
292.7950000000000159
 20
-40.2749999999999915
 30
0.0
 70
    32
  0
VERTEX
  5
2E3D
  8
241
 10
292.8170000000000073
 20
-40.2980000000000018
 30
0.0
 70
    32
  0
VERTEX
  5
2E3E
  8
241
 10
292.839999999999975
 20
-40.3209000000000017
 30
0.0
 70
    32
  0
VERTEX
  5
2E3F
  8
241
 10
292.8620000000000232
 20
-40.3436999999999983
 30
0.0
 70
    32
  0
VERTEX
  5
2E40
  8
241
 10
292.8849999999999909
 20
-40.3663999999999987
 30
0.0
 70
    32
  0
VERTEX
  5
2E41
  8
241
 10
292.9080000000000155
 20
-40.3890000000000029
 30
0.0
 70
    32
  0
VERTEX
  5
2E42
  8
241
 10
292.9309999999999832
 20
-40.4114999999999966
 30
0.0
 70
    32
  0
VERTEX
  5
2E43
  8
241
 10
292.9529999999999745
 20
-40.4339000000000013
 30
0.0
 70
    32
  0
VERTEX
  5
2E44
  8
241
 10
292.9759999999999991
 20
-40.4562000000000026
 30
0.0
 70
    32
  0
VERTEX
  5
2E45
  8
241
 10
292.9990000000000236
 20
-40.4783999999999935
 30
0.0
 70
    32
  0
VERTEX
  5
2E46
  8
241
 10
293.0219999999999914
 20
-40.5005000000000024
 30
0.0
 70
    32
  0
VERTEX
  5
2E47
  8
241
 10
293.0450000000000159
 20
-40.5224999999999866
 30
0.0
 70
    32
  0
VERTEX
  5
2E48
  8
241
 10
293.0679999999999836
 20
-40.5444000000000031
 30
0.0
 70
    32
  0
VERTEX
  5
2E49
  8
241
 10
293.0919999999999845
 20
-40.566200000000002
 30
0.0
 70
    32
  0
VERTEX
  5
2E4A
  8
241
 10
293.1150000000000091
 20
-40.5878999999999976
 30
0.0
 70
    32
  0
VERTEX
  5
2E4B
  8
241
 10
293.1379999999999768
 20
-40.609499999999997
 30
0.0
 70
    32
  0
VERTEX
  5
2E4C
  8
241
 10
293.1610000000000014
 20
-40.6310000000000002
 30
0.0
 70
    32
  0
VERTEX
  5
2E4D
  8
241
 10
293.1850000000000023
 20
-40.6524000000000001
 30
0.0
 70
    32
  0
VERTEX
  5
2E4E
  8
241
 10
293.2080000000000268
 20
-40.6736999999999895
 30
0.0
 70
    32
  0
VERTEX
  5
2E4F
  8
241
 10
293.2320000000000277
 20
-40.694899999999997
 30
0.0
 70
    32
  0
VERTEX
  5
2E50
  8
241
 10
293.2549999999999955
 20
-40.7160000000000011
 30
0.0
 70
    32
  0
VERTEX
  5
2E51
  8
241
 10
293.2789999999999964
 20
-40.7370000000000019
 30
0.0
 70
    32
  0
VERTEX
  5
2E52
  8
241
 10
293.3020000000000209
 20
-40.7578999999999994
 30
0.0
 70
    32
  0
VERTEX
  5
2E53
  8
241
 10
293.3260000000000218
 20
-40.7786999999999935
 30
0.0
 70
    32
  0
VERTEX
  5
2E54
  8
241
 10
293.3500000000000227
 20
-40.7993999999999915
 30
0.0
 70
    32
  0
VERTEX
  5
2E55
  8
241
 10
293.3729999999999905
 20
-40.8199999999999932
 30
0.0
 70
    32
  0
VERTEX
  5
2E56
  8
241
 10
293.3969999999999914
 20
-40.8404999999999987
 30
0.0
 70
    32
  0
VERTEX
  5
2E57
  8
241
 10
293.4209999999999923
 20
-40.8609000000000009
 30
0.0
 70
    32
  0
VERTEX
  5
2E58
  8
241
 10
293.4449999999999932
 20
-40.8811999999999927
 30
0.0
 70
    32
  0
VERTEX
  5
2E59
  8
241
 10
293.4689999999999941
 20
-40.9012999999999991
 30
0.0
 70
    32
  0
VERTEX
  5
2E5A
  8
241
 10
293.492999999999995
 20
-40.9213999999999913
 30
0.0
 70
    32
  0
VERTEX
  5
2E5B
  8
241
 10
293.5169999999999959
 20
-40.9414000000000016
 30
0.0
 70
    32
  0
VERTEX
  5
2E5C
  8
241
 10
293.5409999999999968
 20
-40.9613000000000014
 30
0.0
 70
    32
  0
VERTEX
  5
2E5D
  8
241
 10
293.5649999999999977
 20
-40.9810000000000016
 30
0.0
 70
    32
  0
VERTEX
  5
2E5E
  8
241
 10
293.5889999999999986
 20
-41.0007000000000019
 30
0.0
 70
    32
  0
VERTEX
  5
2E5F
  8
241
 10
293.6129999999999995
 20
-41.0202999999999989
 30
0.0
 70
    32
  0
VERTEX
  5
2E60
  8
241
 10
293.6379999999999768
 20
-41.0397999999999925
 30
0.0
 70
    32
  0
VERTEX
  5
2E61
  8
241
 10
293.6619999999999777
 20
-41.0591000000000008
 30
0.0
 70
    32
  0
VERTEX
  5
2E62
  8
241
 10
293.6859999999999786
 20
-41.078400000000002
 30
0.0
 70
    32
  0
VERTEX
  5
2E63
  8
241
 10
293.7110000000000127
 20
-41.0974999999999966
 30
0.0
 70
    32
  0
VERTEX
  5
2E64
  8
241
 10
293.7350000000000136
 20
-41.1165999999999912
 30
0.0
 70
    32
  0
VERTEX
  5
2E65
  8
241
 10
293.7590000000000146
 20
-41.1355000000000004
 30
0.0
 70
    32
  0
VERTEX
  5
2E66
  8
241
 10
293.7839999999999918
 20
-41.1544000000000025
 30
0.0
 70
    32
  0
VERTEX
  5
2E67
  8
241
 10
293.8079999999999927
 20
-41.1730999999999909
 30
0.0
 70
    32
  0
VERTEX
  5
2E68
  8
241
 10
293.8330000000000268
 20
-41.1916999999999902
 30
0.0
 70
    32
  0
VERTEX
  5
2E69
  8
241
 10
293.8580000000000041
 20
-41.2102999999999966
 30
0.0
 70
    32
  0
VERTEX
  5
2E6A
  8
241
 10
293.882000000000005
 20
-41.2287000000000035
 30
0.0
 70
    32
  0
VERTEX
  5
2E6B
  8
241
 10
293.9069999999999823
 20
-41.2469999999999928
 30
0.0
 70
    32
  0
VERTEX
  5
2E6C
  8
241
 10
293.9320000000000164
 20
-41.2652000000000001
 30
0.0
 70
    32
  0
VERTEX
  5
2E6D
  8
241
 10
293.9560000000000173
 20
-41.283299999999997
 30
0.0
 70
    32
  0
VERTEX
  5
2E6E
  8
241
 10
293.9809999999999945
 20
-41.3012999999999977
 30
0.0
 70
    32
  0
VERTEX
  5
2E6F
  8
241
 10
294.0059999999999718
 20
-41.3192000000000021
 30
0.0
 70
    32
  0
VERTEX
  5
2E70
  8
241
 10
294.0310000000000059
 20
-41.3370000000000033
 30
0.0
 70
    32
  0
VERTEX
  5
2E71
  8
241
 10
294.0559999999999832
 20
-41.3547000000000011
 30
0.0
 70
    32
  0
VERTEX
  5
2E72
  8
241
 10
294.0809999999999036
 20
-41.3723000000000027
 30
0.0
 70
    32
  0
VERTEX
  5
2E73
  8
241
 10
294.1059999999999945
 20
-41.389800000000001
 30
0.0
 70
    32
  0
VERTEX
  5
2E74
  8
241
 10
294.1309999999999718
 20
-41.4070999999999998
 30
0.0
 70
    32
  0
VERTEX
  5
2E75
  8
241
 10
294.1560000000000059
 20
-41.4243999999999915
 30
0.0
 70
    32
  0
VERTEX
  5
2E76
  8
241
 10
294.1809999999999832
 20
-41.4414999999999907
 30
0.0
 70
    32
  0
VERTEX
  5
2E77
  8
241
 10
294.2060000000000173
 20
-41.4585999999999899
 30
0.0
 70
    32
  0
VERTEX
  5
2E78
  8
241
 10
294.2309999999999945
 20
-41.4754999999999896
 30
0.0
 70
    32
  0
VERTEX
  5
2E79
  8
241
 10
294.2559999999999718
 20
-41.4924000000000035
 30
0.0
 70
    32
  0
VERTEX
  5
2E7A
  8
241
 10
294.2810000000000059
 20
-41.5090999999999894
 30
0.0
 70
    32
  0
VERTEX
  5
2E7B
  8
241
 10
294.3070000000000164
 20
-41.5256999999999934
 30
0.0
 70
    32
  0
VERTEX
  5
2E7C
  8
241
 10
294.3319999999999936
 20
-41.5422000000000011
 30
0.0
 70
    32
  0
VERTEX
  5
2E7D
  8
241
 10
294.3570000000000277
 20
-41.5585999999999913
 30
0.0
 70
    32
  0
VERTEX
  5
2E7E
  8
241
 10
294.3829999999999814
 20
-41.5748999999999995
 30
0.0
 70
    32
  0
VERTEX
  5
2E7F
  8
241
 10
294.4080000000000155
 20
-41.5910999999999973
 30
0.0
 70
    32
  0
VERTEX
  5
2E80
  8
241
 10
294.4329999999999927
 20
-41.6071999999999989
 30
0.0
 70
    32
  0
VERTEX
  5
2E81
  8
241
 10
294.4590000000000032
 20
-41.6231999999999971
 30
0.0
 70
    32
  0
VERTEX
  5
2E82
  8
241
 10
294.4840000000000941
 20
-41.6390000000000029
 30
0.0
 70
    32
  0
VERTEX
  5
2E83
  8
241
 10
294.5099999999999909
 20
-41.6548000000000016
 30
0.0
 70
    32
  0
VERTEX
  5
2E84
  8
241
 10
294.535000000000025
 20
-41.6704000000000008
 30
0.0
 70
    32
  0
VERTEX
  5
2E85
  8
241
 10
294.5609999999999786
 20
-41.6859999999999999
 30
0.0
 70
    32
  0
VERTEX
  5
2E86
  8
241
 10
294.5869999999999891
 20
-41.7013999999999925
 30
0.0
 70
    32
  0
VERTEX
  5
2E87
  8
241
 10
294.6120000000000232
 20
-41.716700000000003
 30
0.0
 70
    32
  0
VERTEX
  5
2E88
  8
241
 10
294.6379999999999768
 20
-41.7319999999999993
 30
0.0
 70
    32
  0
VERTEX
  5
2E89
  8
241
 10
294.6630000000000109
 20
-41.7471000000000032
 30
0.0
 70
    32
  0
VERTEX
  5
2E8A
  8
241
 10
294.6890000000000214
 20
-41.7620000000000005
 30
0.0
 70
    32
  0
VERTEX
  5
2E8B
  8
241
 10
294.714999999999975
 20
-41.7768999999999977
 30
0.0
 70
    32
  0
VERTEX
  5
2E8C
  8
241
 10
294.7400000000000091
 20
-41.7916999999999987
 30
0.0
 70
    32
  0
VERTEX
  5
2E8D
  8
241
 10
294.7659999999999059
 20
-41.8062999999999931
 30
0.0
 70
    32
  0
VERTEX
  5
2E8E
  8
241
 10
294.7919999999999732
 20
-41.8207999999999984
 30
0.0
 70
    32
  0
VERTEX
  5
2E8F
  8
241
 10
294.8179999999999836
 20
-41.8352000000000004
 30
0.0
 70
    32
  0
VERTEX
  5
2E90
  8
241
 10
294.8430000000000177
 20
-41.8494999999999919
 30
0.0
 70
    32
  0
VERTEX
  5
2E91
  8
241
 10
294.8690000000000282
 20
-41.8637000000000015
 30
0.0
 70
    32
  0
VERTEX
  5
2E92
  8
241
 10
294.8949999999999818
 20
-41.8776999999999902
 30
0.0
 70
    32
  0
VERTEX
  5
2E93
  8
241
 10
294.9209999999999923
 20
-41.8916999999999931
 30
0.0
 70
    32
  0
VERTEX
  5
2E94
  8
241
 10
294.9470000000000027
 20
-41.9055000000000035
 30
0.0
 70
    32
  0
VERTEX
  5
2E95
  8
241
 10
294.9730000000000132
 20
-41.9191999999999894
 30
0.0
 70
    32
  0
VERTEX
  5
2E96
  8
241
 10
294.9979999999999905
 20
-41.9328000000000003
 30
0.0
 70
    32
  0
VERTEX
  5
2E97
  8
241
 10
295.0240000000000009
 20
-41.9463000000000008
 30
0.0
 70
    32
  0
VERTEX
  5
2E98
  8
241
 10
295.0500000000000114
 20
-41.9596999999999909
 30
0.0
 70
    32
  0
VERTEX
  5
2E99
  8
241
 10
295.0760000000000218
 20
-41.9729000000000028
 30
0.0
 70
    32
  0
VERTEX
  5
2E9A
  8
241
 10
295.1019999999999754
 20
-41.9861000000000004
 30
0.0
 70
    32
  0
VERTEX
  5
2E9B
  8
241
 10
295.1279999999999859
 20
-41.9990999999999985
 30
0.0
 70
    32
  0
VERTEX
  5
2E9C
  8
241
 10
295.1539999999999964
 20
-42.0120000000000005
 30
0.0
 70
    32
  0
VERTEX
  5
2E9D
  8
241
 10
295.1800000000000068
 20
-42.024799999999999
 30
0.0
 70
    32
  0
VERTEX
  5
2E9E
  8
241
 10
295.2059999999999036
 20
-42.037399999999991
 30
0.0
 70
    32
  0
VERTEX
  5
2E9F
  8
241
 10
295.2320000000000277
 20
-42.0499999999999972
 30
0.0
 70
    32
  0
VERTEX
  5
2EA0
  8
241
 10
295.2579999999999814
 20
-42.0623999999999967
 30
0.0
 70
    32
  0
VERTEX
  5
2EA1
  8
241
 10
295.2839999999999918
 20
-42.0748000000000033
 30
0.0
 70
    32
  0
VERTEX
  5
2EA2
  8
241
 10
295.3090000000000259
 20
-42.0870000000000033
 30
0.0
 70
    32
  0
VERTEX
  5
2EA3
  8
241
 10
295.3349999999999795
 20
-42.0990999999999929
 30
0.0
 70
    32
  0
VERTEX
  5
2EA4
  8
241
 10
295.36099999999999
 20
-42.1109999999999971
 30
0.0
 70
    32
  0
VERTEX
  5
2EA5
  8
241
 10
295.3870000000000005
 20
-42.1229000000000013
 30
0.0
 70
    32
  0
VERTEX
  5
2EA6
  8
241
 10
295.4130000000000109
 20
-42.1345999999999989
 30
0.0
 70
    32
  0
VERTEX
  5
2EA7
  8
241
 10
295.4399999999999977
 20
-42.1462999999999894
 30
0.0
 70
    32
  0
VERTEX
  5
2EA8
  8
241
 10
295.4660000000000082
 20
-42.1578000000000017
 30
0.0
 70
    32
  0
VERTEX
  5
2EA9
  8
241
 10
295.4920000000000186
 20
-42.1691999999999965
 30
0.0
 70
    32
  0
VERTEX
  5
2EAA
  8
241
 10
295.5179999999999723
 20
-42.1805000000000021
 30
0.0
 70
    32
  0
VERTEX
  5
2EAB
  8
241
 10
295.5439999999999827
 20
-42.1916000000000011
 30
0.0
 70
    32
  0
VERTEX
  5
2EAC
  8
241
 10
295.5699999999999932
 20
-42.2027000000000001
 30
0.0
 70
    32
  0
VERTEX
  5
2EAD
  8
241
 10
295.5960000000000036
 20
-42.2135999999999925
 30
0.0
 70
    32
  0
VERTEX
  5
2EAE
  8
241
 10
295.6220000000000141
 20
-42.224499999999999
 30
0.0
 70
    32
  0
VERTEX
  5
2EAF
  8
241
 10
295.6479999999999109
 20
-42.2351999999999919
 30
0.0
 70
    32
  0
VERTEX
  5
2EB0
  8
241
 10
295.6739999999999782
 20
-42.2458000000000027
 30
0.0
 70
    32
  0
VERTEX
  5
2EB1
  8
241
 10
295.6999999999999886
 20
-42.2561999999999998
 30
0.0
 70
    32
  0
VERTEX
  5
2EB2
  8
241
 10
295.7259999999999991
 20
-42.2665999999999897
 30
0.0
 70
    32
  0
VERTEX
  5
2EB3
  8
241
 10
295.7520000000000095
 20
-42.2768000000000015
 30
0.0
 70
    32
  0
VERTEX
  5
2EB4
  8
241
 10
295.77800000000002
 20
-42.2869999999999919
 30
0.0
 70
    32
  0
VERTEX
  5
2EB5
  8
241
 10
295.8039999999999736
 20
-42.296999999999997
 30
0.0
 70
    32
  0
VERTEX
  5
2EB6
  8
241
 10
295.8299999999999841
 20
-42.3068999999999988
 30
0.0
 70
    32
  0
VERTEX
  5
2EB7
  8
241
 10
295.8559999999999945
 20
-42.3166000000000011
 30
0.0
 70
    32
  0
VERTEX
  5
2EB8
  8
241
 10
295.8829999999999814
 20
-42.3263000000000034
 30
0.0
 70
    32
  0
VERTEX
  5
2EB9
  8
241
 10
295.9089999999999918
 20
-42.3357999999999919
 30
0.0
 70
    32
  0
VERTEX
  5
2EBA
  8
241
 10
295.9350000000000023
 20
-42.3453000000000017
 30
0.0
 70
    32
  0
VERTEX
  5
2EBB
  8
241
 10
295.9610000000000127
 20
-42.3545999999999907
 30
0.0
 70
    32
  0
VERTEX
  5
2EBC
  8
241
 10
295.9870000000000232
 20
-42.3637999999999906
 30
0.0
 70
    32
  0
VERTEX
  5
2EBD
  8
241
 10
296.0129999999999768
 20
-42.3729000000000013
 30
0.0
 70
    32
  0
VERTEX
  5
2EBE
  8
241
 10
296.0389999999999873
 20
-42.3817999999999913
 30
0.0
 70
    32
  0
VERTEX
  5
2EBF
  8
241
 10
296.0649999999999977
 20
-42.3907000000000025
 30
0.0
 70
    32
  0
VERTEX
  5
2EC0
  8
241
 10
296.0910000000000082
 20
-42.3993999999999929
 30
0.0
 70
    32
  0
VERTEX
  5
2EC1
  8
241
 10
296.1170000000000186
 20
-42.4080999999999904
 30
0.0
 70
    32
  0
VERTEX
  5
2EC2
  8
241
 10
296.1429999999999723
 20
-42.4166000000000025
 30
0.0
 70
    32
  0
VERTEX
  5
2EC3
  8
241
 10
296.1689999999999827
 20
-42.4249000000000009
 30
0.0
 70
    32
  0
VERTEX
  5
2EC4
  8
241
 10
296.1960000000000264
 20
-42.4331999999999923
 30
0.0
 70
    32
  0
VERTEX
  5
2EC5
  8
241
 10
296.22199999999998
 20
-42.4414000000000016
 30
0.0
 70
    32
  0
VERTEX
  5
2EC6
  8
241
 10
296.2479999999999905
 20
-42.44939999999999
 30
0.0
 70
    32
  0
VERTEX
  5
2EC7
  8
241
 10
296.2740000000000009
 20
-42.4572999999999965
 30
0.0
 70
    32
  0
VERTEX
  5
2EC8
  8
241
 10
296.3000000000000114
 20
-42.4650999999999925
 30
0.0
 70
    32
  0
VERTEX
  5
2EC9
  8
241
 10
296.3260000000000218
 20
-42.4727999999999923
 30
0.0
 70
    32
  0
VERTEX
  5
2ECA
  8
241
 10
296.3519999999999754
 20
-42.480400000000003
 30
0.0
 70
    32
  0
VERTEX
  5
2ECB
  8
241
 10
296.3779999999999859
 20
-42.4879000000000033
 30
0.0
 70
    32
  0
VERTEX
  5
2ECC
  8
241
 10
296.4039999999999964
 20
-42.4951999999999899
 30
0.0
 70
    32
  0
VERTEX
  5
2ECD
  8
241
 10
296.4300000000000068
 20
-42.5024000000000015
 30
0.0
 70
    32
  0
VERTEX
  5
2ECE
  8
241
 10
296.4560000000000173
 20
-42.5095999999999989
 30
0.0
 70
    32
  0
VERTEX
  5
2ECF
  8
241
 10
296.4820000000000277
 20
-42.5165999999999968
 30
0.0
 70
    32
  0
VERTEX
  5
2ED0
  8
241
 10
296.5079999999999814
 20
-42.5234000000000023
 30
0.0
 70
    32
  0
VERTEX
  5
2ED1
  8
241
 10
296.5339999999999918
 20
-42.5302000000000007
 30
0.0
 70
    32
  0
VERTEX
  5
2ED2
  8
241
 10
296.5600000000000023
 20
-42.5367999999999995
 30
0.0
 70
    32
  0
VERTEX
  5
2ED3
  8
241
 10
296.5860000000000127
 20
-42.5433999999999983
 30
0.0
 70
    32
  0
VERTEX
  5
2ED4
  8
241
 10
296.6120000000000232
 20
-42.5497999999999905
 30
0.0
 70
    32
  0
VERTEX
  5
2ED5
  8
241
 10
296.6379999999999768
 20
-42.5560999999999865
 30
0.0
 70
    32
  0
VERTEX
  5
2ED6
  8
241
 10
296.6639999999999873
 20
-42.5623000000000005
 30
0.0
 70
    32
  0
VERTEX
  5
2ED7
  8
241
 10
296.6899999999999977
 20
-42.5682999999999865
 30
0.0
 70
    32
  0
VERTEX
  5
2ED8
  8
241
 10
296.7160000000000082
 20
-42.5743000000000009
 30
0.0
 70
    32
  0
VERTEX
  5
2ED9
  8
241
 10
296.7420000000000186
 20
-42.5801000000000016
 30
0.0
 70
    32
  0
VERTEX
  5
2EDA
  8
241
 10
296.7679999999999723
 20
-42.585799999999999
 30
0.0
 70
    32
  0
VERTEX
  5
2EDB
  8
241
 10
296.7939999999999827
 20
-42.5914000000000001
 30
0.0
 70
    32
  0
VERTEX
  5
2EDC
  8
241
 10
296.8190000000000168
 20
-42.5968999999999909
 30
0.0
 70
    32
  0
VERTEX
  5
2EDD
  8
241
 10
296.8450000000000273
 20
-42.6022999999999925
 30
0.0
 70
    32
  0
VERTEX
  5
2EDE
  8
241
 10
296.8709999999999809
 20
-42.6075999999999979
 30
0.0
 70
    32
  0
VERTEX
  5
2EDF
  8
241
 10
296.8969999999999914
 20
-42.6126999999999896
 30
0.0
 70
    32
  0
VERTEX
  5
2EE0
  8
241
 10
296.9230000000000018
 20
-42.6176999999999992
 30
0.0
 70
    32
  0
VERTEX
  5
2EE1
  8
241
 10
296.9490000000000123
 20
-42.6225999999999985
 30
0.0
 70
    32
  0
VERTEX
  5
2EE2
  8
241
 10
296.9750000000000227
 20
-42.6273999999999873
 30
0.0
 70
    32
  0
VERTEX
  5
2EE3
  8
241
 10
297.0
 20
-42.632099999999987
 30
0.0
 70
    32
  0
VERTEX
  5
2EE4
  8
241
 10
297.0260000000000105
 20
-42.6366000000000014
 30
0.0
 70
    32
  0
VERTEX
  5
2EE5
  8
241
 10
297.0520000000000209
 20
-42.6411000000000016
 30
0.0
 70
    32
  0
VERTEX
  5
2EE6
  8
241
 10
297.0779999999999745
 20
-42.6454000000000022
 30
0.0
 70
    32
  0
VERTEX
  5
2EE7
  8
241
 10
297.1030000000000086
 20
-42.6495999999999995
 30
0.0
 70
    32
  0
VERTEX
  5
2EE8
  8
241
 10
297.1290000000000191
 20
-42.6536999999999935
 30
0.0
 70
    32
  0
VERTEX
  5
2EE9
  8
241
 10
297.1549999999999727
 20
-42.6576999999999913
 30
0.0
 70
    32
  0
VERTEX
  5
2EEA
  8
241
 10
297.1809999999999832
 20
-42.6614999999999895
 30
0.0
 70
    32
  0
VERTEX
  5
2EEB
  8
241
 10
297.2059999999999036
 20
-42.665300000000002
 30
0.0
 70
    32
  0
VERTEX
  5
2EEC
  8
241
 10
297.2320000000000277
 20
-42.6689000000000007
 30
0.0
 70
    32
  0
VERTEX
  5
2EED
  8
241
 10
297.2579999999999814
 20
-42.6724000000000032
 30
0.0
 70
    32
  0
VERTEX
  5
2EEE
  8
241
 10
297.2830000000000155
 20
-42.6758000000000024
 30
0.0
 70
    32
  0
VERTEX
  5
2EEF
  8
241
 10
297.3090000000000259
 20
-42.6790999999999912
 30
0.0
 70
    32
  0
VERTEX
  5
2EF0
  8
241
 10
297.3340000000000032
 20
-42.6822000000000017
 30
0.0
 70
    32
  0
VERTEX
  5
2EF1
  8
241
 10
297.3600000000000136
 20
-42.685299999999998
 30
0.0
 70
    32
  0
VERTEX
  5
2EF2
  8
241
 10
297.3849999999999909
 20
-42.6882000000000019
 30
0.0
 70
    32
  0
VERTEX
  5
2EF3
  8
241
 10
297.4110000000000014
 20
-42.6910000000000025
 30
0.0
 70
    32
  0
VERTEX
  5
2EF4
  8
241
 10
297.4359999999999786
 20
-42.6936999999999998
 30
0.0
 70
    32
  0
VERTEX
  5
2EF5
  8
241
 10
297.4610000000000127
 20
-42.6963000000000008
 30
0.0
 70
    32
  0
VERTEX
  5
2EF6
  8
241
 10
297.4870000000000232
 20
-42.6987000000000023
 30
0.0
 70
    32
  0
VERTEX
  5
2EF7
  8
241
 10
297.5120000000000005
 20
-42.7010999999999896
 30
0.0
 70
    32
  0
VERTEX
  5
2EF8
  8
241
 10
297.5369999999999777
 20
-42.7032999999999987
 30
0.0
 70
    32
  0
VERTEX
  5
2EF9
  8
241
 10
297.5629999999999882
 20
-42.7053999999999903
 30
0.0
 70
    32
  0
VERTEX
  5
2EFA
  8
241
 10
297.5880000000000223
 20
-42.7073999999999927
 30
0.0
 70
    32
  0
VERTEX
  5
2EFB
  8
241
 10
297.6129999999999995
 20
-42.7092999999999918
 30
0.0
 70
    32
  0
VERTEX
  5
2EFC
  8
241
 10
297.6379999999999768
 20
-42.7109999999999914
 30
0.0
 70
    32
  0
VERTEX
  5
2EFD
  8
241
 10
297.6630000000000109
 20
-42.7126999999999981
 30
0.0
 70
    32
  0
VERTEX
  5
2EFE
  8
241
 10
297.6879999999999882
 20
-42.7141999999999911
 30
0.0
 70
    32
  0
VERTEX
  5
2EFF
  8
241
 10
297.7130000000000223
 20
-42.715600000000002
 30
0.0
 70
    32
  0
VERTEX
  5
2F00
  8
241
 10
297.7379999999999995
 20
-42.7169000000000025
 30
0.0
 70
    32
  0
VERTEX
  5
2F01
  8
241
 10
297.7629999999999768
 20
-42.7180999999999997
 30
0.0
 70
    32
  0
VERTEX
  5
2F02
  8
241
 10
297.7880000000000109
 20
-42.7192000000000007
 30
0.0
 70
    32
  0
VERTEX
  5
2F03
  8
241
 10
297.8129999999999882
 20
-42.7201999999999984
 30
0.0
 70
    32
  0
VERTEX
  5
2F04
  8
241
 10
297.8379999999999086
 20
-42.7209999999999965
 30
0.0
 70
    32
  0
VERTEX
  5
2F05
  8
241
 10
297.8629999999999995
 20
-42.7218000000000018
 30
0.0
 70
    32
  0
VERTEX
  5
2F06
  8
241
 10
297.8870000000000005
 20
-42.7224000000000004
 30
0.0
 70
    32
  0
VERTEX
  5
2F07
  8
241
 10
297.9119999999999777
 20
-42.7229000000000028
 30
0.0
 70
    32
  0
VERTEX
  5
2F08
  8
241
 10
297.9370000000000118
 20
-42.7233000000000018
 30
0.0
 70
    32
  0
VERTEX
  5
2F09
  8
241
 10
297.9610000000000127
 20
-42.7235999999999905
 30
0.0
 70
    32
  0
VERTEX
  5
2F0A
  8
241
 10
297.98599999999999
 20
-42.7237999999999971
 30
0.0
 70
    32
  0
VERTEX
  5
2F0B
  8
241
 10
298.0110000000000241
 20
-42.7239000000000004
 30
0.0
 70
    32
  0
VERTEX
  5
2F0C
  8
241
 10
298.0350000000000819
 20
-42.7237999999999971
 30
0.0
 70
    32
  0
VERTEX
  5
2F0D
  8
241
 10
298.0600000000000023
 20
-42.7237000000000009
 30
0.0
 70
    32
  0
SEQEND
  5
2F0E
  8
241
  0
POLYLINE
  5
2F0F
  8
241
 66
     1
 10
0.0
 20
0.0
 30
0.0
 70
     8
  0
VERTEX
  5
2F10
  8
241
 10
290.5219999999999914
 20
-31.7637999999999998
 30
0.0
 70
    32
  0
VERTEX
  5
2F11
  8
241
 10
290.5179999999999723
 20
-31.773299999999999
 30
0.0
 70
    32
  0
VERTEX
  5
2F12
  8
241
 10
290.5149999999999864
 20
-31.7828000000000017
 30
0.0
 70
    32
  0
VERTEX
  5
2F13
  8
241
 10
290.5120000000000005
 20
-31.7924000000000007
 30
0.0
 70
    32
  0
VERTEX
  5
2F14
  8
241
 10
290.5090000000000146
 20
-31.8018999999999998
 30
0.0
 70
    32
  0
VERTEX
  5
2F15
  8
241
 10
290.5059999999999718
 20
-31.811399999999999
 30
0.0
 70
    32
  0
VERTEX
  5
2F16
  8
241
 10
290.5029999999999859
 20
-31.8209000000000017
 30
0.0
 70
    32
  0
VERTEX
  5
2F17
  8
241
 10
290.5
 20
-31.8305000000000007
 30
0.0
 70
    32
  0
VERTEX
  5
2F18
  8
241
 10
290.4970000000000141
 20
-31.8399999999999999
 30
0.0
 70
    32
  0
VERTEX
  5
2F19
  8
241
 10
290.492999999999995
 20
-31.849499999999999
 30
0.0
 70
    32
  0
VERTEX
  5
2F1A
  8
241
 10
290.4900000000000091
 20
-31.8590000000000018
 30
0.0
 70
    32
  0
VERTEX
  5
2F1B
  8
241
 10
290.4870000000000232
 20
-31.8686000000000007
 30
0.0
 70
    32
  0
VERTEX
  5
2F1C
  8
241
 10
290.4839999999999804
 20
-31.8780999999999999
 30
0.0
 70
    32
  0
VERTEX
  5
2F1D
  8
241
 10
290.4809999999999945
 20
-31.8875999999999991
 30
0.0
 70
    32
  0
VERTEX
  5
2F1E
  8
241
 10
290.4780000000000086
 20
-31.8972000000000016
 30
0.0
 70
    32
  0
VERTEX
  5
2F1F
  8
241
 10
290.4750000000000227
 20
-31.9067000000000007
 30
0.0
 70
    32
  0
VERTEX
  5
2F20
  8
241
 10
290.47199999999998
 20
-31.9161999999999999
 30
0.0
 70
    32
  0
VERTEX
  5
2F21
  8
241
 10
290.4700000000000273
 20
-31.9256999999999991
 30
0.0
 70
    32
  0
VERTEX
  5
2F22
  8
241
 10
290.4669999999999845
 20
-31.9353000000000016
 30
0.0
 70
    32
  0
VERTEX
  5
2F23
  8
241
 10
290.4639999999999986
 20
-31.9448000000000008
 30
0.0
 70
    32
  0
VERTEX
  5
2F24
  8
241
 10
290.4610000000000127
 20
-31.9542999999999999
 30
0.0
 70
    32
  0
VERTEX
  5
2F25
  8
241
 10
290.4580000000000268
 20
-31.9638999999999989
 30
0.0
 70
    32
  0
VERTEX
  5
2F26
  8
241
 10
290.4549999999999841
 20
-31.9734000000000016
 30
0.0
 70
    32
  0
VERTEX
  5
2F27
  8
241
 10
290.4519999999999982
 20
-31.9829000000000008
 30
0.0
 70
    32
  0
VERTEX
  5
2F28
  8
241
 10
290.4490000000000123
 20
-31.9923999999999999
 30
0.0
 70
    32
  0
VERTEX
  5
2F29
  8
241
 10
290.4460000000000264
 20
-32.0020000000000095
 30
0.0
 70
    32
  0
VERTEX
  5
2F2A
  8
241
 10
290.4440000000000168
 20
-32.0114999999999981
 30
0.0
 70
    32
  0
VERTEX
  5
2F2B
  8
241
 10
290.4409999999999741
 20
-32.0210000000000008
 30
0.0
 70
    32
  0
VERTEX
  5
2F2C
  8
241
 10
290.4379999999999882
 20
-32.0305000000000106
 30
0.0
 70
    32
  0
VERTEX
  5
2F2D
  8
241
 10
290.4350000000000023
 20
-32.0401000000000025
 30
0.0
 70
    32
  0
VERTEX
  5
2F2E
  8
241
 10
290.4329999999999927
 20
-32.0495999999999981
 30
0.0
 70
    32
  0
VERTEX
  5
2F2F
  8
241
 10
290.4300000000000068
 20
-32.0591000000000008
 30
0.0
 70
    32
  0
VERTEX
  5
2F30
  8
241
 10
290.4270000000000209
 20
-32.0686000000000107
 30
0.0
 70
    32
  0
VERTEX
  5
2F31
  8
241
 10
290.4240000000000919
 20
-32.0780999999999992
 30
0.0
 70
    32
  0
VERTEX
  5
2F32
  8
241
 10
290.4220000000000255
 20
-32.0876000000000019
 30
0.0
 70
    32
  0
VERTEX
  5
2F33
  8
241
 10
290.4189999999999827
 20
-32.0970999999999975
 30
0.0
 70
    32
  0
VERTEX
  5
2F34
  8
241
 10
290.4159999999999968
 20
-32.1066000000000003
 30
0.0
 70
    32
  0
VERTEX
  5
2F35
  8
241
 10
290.4139999999999873
 20
-32.116100000000003
 30
0.0
 70
    32
  0
VERTEX
  5
2F36
  8
241
 10
290.4110000000000014
 20
-32.1255999999999986
 30
0.0
 70
    32
  0
VERTEX
  5
2F37
  8
241
 10
290.4080000000000155
 20
-32.1351000000000013
 30
0.0
 70
    32
  0
VERTEX
  5
2F38
  8
241
 10
290.4060000000000059
 20
-32.144599999999997
 30
0.0
 70
    32
  0
VERTEX
  5
2F39
  8
241
 10
290.40300000000002
 20
-32.1540999999999997
 30
0.0
 70
    32
  0
VERTEX
  5
2F3A
  8
241
 10
290.4010000000000105
 20
-32.1636000000000024
 30
0.0
 70
    32
  0
VERTEX
  5
2F3B
  8
241
 10
290.3980000000000246
 20
-32.173099999999998
 30
0.0
 70
    32
  0
VERTEX
  5
2F3C
  8
241
 10
290.3949999999999818
 20
-32.1826000000000008
 30
0.0
 70
    32
  0
VERTEX
  5
2F3D
  8
241
 10
290.3929999999999723
 20
-32.1920000000000002
 30
0.0
 70
    32
  0
VERTEX
  5
2F3E
  8
241
 10
290.3899999999999864
 20
-32.2015000000000029
 30
0.0
 70
    32
  0
VERTEX
  5
2F3F
  8
241
 10
290.3879999999999768
 20
-32.2109999999999985
 30
0.0
 70
    32
  0
VERTEX
  5
2F40
  8
241
 10
290.3849999999999909
 20
-32.2203999999999979
 30
0.0
 70
    32
  0
VERTEX
  5
2F41
  8
241
 10
290.3829999999999814
 20
-32.2299000000000007
 30
0.0
 70
    32
  0
VERTEX
  5
2F42
  8
241
 10
290.3799999999999955
 20
-32.2394000000000105
 30
0.0
 70
    32
  0
VERTEX
  5
2F43
  8
241
 10
290.3779999999999859
 20
-32.2488000000000099
 30
0.0
 70
    32
  0
VERTEX
  5
2F44
  8
241
 10
290.3759999999999764
 20
-32.2582000000000093
 30
0.0
 70
    32
  0
VERTEX
  5
2F45
  8
241
 10
290.3729999999999905
 20
-32.2676999999999978
 30
0.0
 70
    32
  0
VERTEX
  5
2F46
  8
241
 10
290.3709999999999809
 20
-32.2770999999999972
 30
0.0
 70
    32
  0
VERTEX
  5
2F47
  8
241
 10
290.367999999999995
 20
-32.2866
 30
0.0
 70
    32
  0
VERTEX
  5
2F48
  8
241
 10
290.3659999999999854
 20
-32.2959999999999994
 30
0.0
 70
    32
  0
VERTEX
  5
2F49
  8
241
 10
290.3639999999999759
 20
-32.3053999999999988
 30
0.0
 70
    32
  0
VERTEX
  5
2F4A
  8
241
 10
290.36099999999999
 20
-32.3147999999999982
 30
0.0
 70
    32
  0
VERTEX
  5
2F4B
  8
241
 10
290.3589999999999804
 20
-32.3241999999999976
 30
0.0
 70
    32
  0
VERTEX
  5
2F4C
  8
241
 10
290.3570000000000277
 20
-32.333599999999997
 30
0.0
 70
    32
  0
VERTEX
  5
2F4D
  8
241
 10
290.353999999999985
 20
-32.3430000000000106
 30
0.0
 70
    32
  0
VERTEX
  5
2F4E
  8
241
 10
290.3519999999999754
 20
-32.35240000000001
 30
0.0
 70
    32
  0
VERTEX
  5
2F4F
  8
241
 10
290.3500000000000227
 20
-32.3618000000000023
 30
0.0
 70
    32
  0
VERTEX
  5
2F50
  8
241
 10
290.34699999999998
 20
-32.3712000000000018
 30
0.0
 70
    32
  0
VERTEX
  5
2F51
  8
241
 10
290.3450000000000273
 20
-32.3804999999999978
 30
0.0
 70
    32
  0
VERTEX
  5
2F52
  8
241
 10
290.3430000000000177
 20
-32.3898999999999972
 30
0.0
 70
    32
  0
VERTEX
  5
2F53
  8
241
 10
290.3410000000000082
 20
-32.3992999999999967
 30
0.0
 70
    32
  0
VERTEX
  5
2F54
  8
241
 10
290.3380000000000223
 20
-32.4085999999999999
 30
0.0
 70
    32
  0
VERTEX
  5
2F55
  8
241
 10
290.3360000000000127
 20
-32.4179999999999993
 30
0.0
 70
    32
  0
VERTEX
  5
2F56
  8
241
 10
290.3340000000000032
 20
-32.4273000000000025
 30
0.0
 70
    32
  0
VERTEX
  5
2F57
  8
241
 10
290.3319999999999936
 20
-32.4365999999999985
 30
0.0
 70
    32
  0
VERTEX
  5
2F58
  8
241
 10
290.3299999999999841
 20
-32.445999999999998
 30
0.0
 70
    32
  0
VERTEX
  5
2F59
  8
241
 10
290.3279999999999745
 20
-32.4553000000000011
 30
0.0
 70
    32
  0
VERTEX
  5
2F5A
  8
241
 10
290.3249999999999886
 20
-32.4645999999999972
 30
0.0
 70
    32
  0
VERTEX
  5
2F5B
  8
241
 10
290.3229999999999791
 20
-32.4739000000000004
 30
0.0
 70
    32
  0
VERTEX
  5
2F5C
  8
241
 10
290.3209999999999127
 20
-32.4831999999999965
 30
0.0
 70
    32
  0
VERTEX
  5
2F5D
  8
241
 10
290.3190000000000168
 20
-32.4924999999999997
 30
0.0
 70
    32
  0
VERTEX
  5
2F5E
  8
241
 10
290.3170000000000073
 20
-32.5016999999999996
 30
0.0
 70
    32
  0
VERTEX
  5
2F5F
  8
241
 10
290.3149999999999977
 20
-32.5110000000000028
 30
0.0
 70
    32
  0
VERTEX
  5
2F60
  8
241
 10
290.3129999999999882
 20
-32.5202999999999989
 30
0.0
 70
    32
  0
VERTEX
  5
2F61
  8
241
 10
290.3109999999999786
 20
-32.5294999999999987
 30
0.0
 70
    32
  0
VERTEX
  5
2F62
  8
241
 10
290.3090000000000259
 20
-32.5386999999999986
 30
0.0
 70
    32
  0
VERTEX
  5
2F63
  8
241
 10
290.3070000000000164
 20
-32.5480000000000018
 30
0.0
 70
    32
  0
VERTEX
  5
2F64
  8
241
 10
290.3050000000000068
 20
-32.5572000000000017
 30
0.0
 70
    32
  0
VERTEX
  5
2F65
  8
241
 10
290.3029999999999973
 20
-32.5664000000000016
 30
0.0
 70
    32
  0
VERTEX
  5
2F66
  8
241
 10
290.3009999999999877
 20
-32.5756000000000014
 30
0.0
 70
    32
  0
VERTEX
  5
2F67
  8
241
 10
290.2989999999999782
 20
-32.5848000000000013
 30
0.0
 70
    32
  0
VERTEX
  5
2F68
  8
241
 10
290.2970000000000255
 20
-32.5940000000000012
 30
0.0
 70
    32
  0
VERTEX
  5
2F69
  8
241
 10
290.2950000000000159
 20
-32.6032000000000011
 30
0.0
 70
    32
  0
VERTEX
  5
2F6A
  8
241
 10
290.2930000000000064
 20
-32.6122999999999976
 30
0.0
 70
    32
  0
VERTEX
  5
2F6B
  8
241
 10
290.2909999999999968
 20
-32.6214999999999975
 30
0.0
 70
    32
  0
VERTEX
  5
2F6C
  8
241
 10
290.2900000000000205
 20
-32.6306999999999974
 30
0.0
 70
    32
  0
VERTEX
  5
2F6D
  8
241
 10
290.2880000000000109
 20
-32.639800000000001
 30
0.0
 70
    32
  0
VERTEX
  5
2F6E
  8
241
 10
290.2860000000000014
 20
-32.6488999999999976
 30
0.0
 70
    32
  0
VERTEX
  5
2F6F
  8
241
 10
290.2839999999999918
 20
-32.6580000000000013
 30
0.0
 70
    32
  0
VERTEX
  5
2F70
  8
241
 10
290.2819999999999823
 20
-32.6670999999999978
 30
0.0
 70
    32
  0
VERTEX
  5
2F71
  8
241
 10
290.2799999999999727
 20
-32.6762000000000015
 30
0.0
 70
    32
  0
VERTEX
  5
2F72
  8
241
 10
290.2789999999999964
 20
-32.685299999999998
 30
0.0
 70
    32
  0
VERTEX
  5
2F73
  8
241
 10
290.2769999999999868
 20
-32.6944000000000017
 30
0.0
 70
    32
  0
VERTEX
  5
2F74
  8
241
 10
290.2749999999999773
 20
-32.7034999999999982
 30
0.0
 70
    32
  0
VERTEX
  5
2F75
  8
241
 10
290.2730000000000246
 20
-32.7124999999999986
 30
0.0
 70
    32
  0
VERTEX
  5
2F76
  8
241
 10
290.2719999999999914
 20
-32.7216000000000022
 30
0.0
 70
    32
  0
VERTEX
  5
2F77
  8
241
 10
290.2699999999999818
 20
-32.7306999999999988
 30
0.0
 70
    32
  0
VERTEX
  5
2F78
  8
241
 10
290.2679999999999723
 20
-32.7398000000000025
 30
0.0
 70
    32
  0
VERTEX
  5
2F79
  8
241
 10
290.2669999999999959
 20
-32.7490000000000094
 30
0.0
 70
    32
  0
VERTEX
  5
2F7A
  8
241
 10
290.2649999999999864
 20
-32.7580999999999989
 30
0.0
 70
    32
  0
VERTEX
  5
2F7B
  8
241
 10
290.2629999999999768
 20
-32.7672999999999988
 30
0.0
 70
    32
  0
VERTEX
  5
2F7C
  8
241
 10
290.2610000000000241
 20
-32.7764999999999986
 30
0.0
 70
    32
  0
VERTEX
  5
2F7D
  8
241
 10
290.2599999999999909
 20
-32.7856999999999985
 30
0.0
 70
    32
  0
VERTEX
  5
2F7E
  8
241
 10
290.2579999999999814
 20
-32.7950000000000017
 30
0.0
 70
    32
  0
VERTEX
  5
2F7F
  8
241
 10
290.2559999999999718
 20
-32.8042000000000016
 30
0.0
 70
    32
  0
VERTEX
  5
2F80
  8
241
 10
290.2549999999999955
 20
-32.8134999999999977
 30
0.0
 70
    32
  0
VERTEX
  5
2F81
  8
241
 10
290.2529999999999859
 20
-32.8228000000000009
 30
0.0
 70
    32
  0
VERTEX
  5
2F82
  8
241
 10
290.2520000000000095
 20
-32.832099999999997
 30
0.0
 70
    32
  0
VERTEX
  5
2F83
  8
241
 10
290.25
 20
-32.8414000000000001
 30
0.0
 70
    32
  0
VERTEX
  5
2F84
  8
241
 10
290.2479999999999905
 20
-32.8507999999999996
 30
0.0
 70
    32
  0
VERTEX
  5
2F85
  8
241
 10
290.2470000000000141
 20
-32.860199999999999
 30
0.0
 70
    32
  0
VERTEX
  5
2F86
  8
241
 10
290.2450000000000045
 20
-32.8695000000000022
 30
0.0
 70
    32
  0
VERTEX
  5
2F87
  8
241
 10
290.2440000000000282
 20
-32.8789000000000016
 30
0.0
 70
    32
  0
VERTEX
  5
2F88
  8
241
 10
290.2420000000000186
 20
-32.8883999999999972
 30
0.0
 70
    32
  0
VERTEX
  5
2F89
  8
241
 10
290.2400000000000091
 20
-32.8977999999999966
 30
0.0
 70
    32
  0
VERTEX
  5
2F8A
  8
241
 10
290.2389999999999759
 20
-32.9072000000000031
 30
0.0
 70
    32
  0
VERTEX
  5
2F8B
  8
241
 10
290.2370000000000232
 20
-32.9166999999999987
 30
0.0
 70
    32
  0
VERTEX
  5
2F8C
  8
241
 10
290.23599999999999
 20
-32.9262000000000015
 30
0.0
 70
    32
  0
VERTEX
  5
2F8D
  8
241
 10
290.2339999999999804
 20
-32.9356999999999971
 30
0.0
 70
    32
  0
VERTEX
  5
2F8E
  8
241
 10
290.2330000000000041
 20
-32.9451999999999998
 30
0.0
 70
    32
  0
VERTEX
  5
2F8F
  8
241
 10
290.2309999999999945
 20
-32.9547000000000025
 30
0.0
 70
    32
  0
VERTEX
  5
2F90
  8
241
 10
290.2300000000000182
 20
-32.9643000000000015
 30
0.0
 70
    32
  0
VERTEX
  5
2F91
  8
241
 10
290.2280000000000086
 20
-32.9739000000000004
 30
0.0
 70
    32
  0
VERTEX
  5
2F92
  8
241
 10
290.2270000000000891
 20
-32.9834000000000032
 30
0.0
 70
    32
  0
VERTEX
  5
2F93
  8
241
 10
290.2250000000000227
 20
-32.9930000000000092
 30
0.0
 70
    32
  0
VERTEX
  5
2F94
  8
241
 10
290.2239999999999895
 20
-33.002600000000001
 30
0.0
 70
    32
  0
VERTEX
  5
2F95
  8
241
 10
290.22199999999998
 20
-33.0122
 30
0.0
 70
    32
  0
VERTEX
  5
2F96
  8
241
 10
290.2210000000000036
 20
-33.0219000000000023
 30
0.0
 70
    32
  0
VERTEX
  5
2F97
  8
241
 10
290.2200000000000273
 20
-33.0315000000000012
 30
0.0
 70
    32
  0
VERTEX
  5
2F98
  8
241
 10
290.2180000000000177
 20
-33.0412000000000106
 30
0.0
 70
    32
  0
VERTEX
  5
2F99
  8
241
 10
290.2169999999999845
 20
-33.0508999999999986
 30
0.0
 70
    32
  0
VERTEX
  5
2F9A
  8
241
 10
290.214999999999975
 20
-33.0604999999999976
 30
0.0
 70
    32
  0
VERTEX
  5
2F9B
  8
241
 10
290.2139999999999986
 20
-33.0701999999999998
 30
0.0
 70
    32
  0
VERTEX
  5
2F9C
  8
241
 10
290.2130000000000223
 20
-33.0799999999999983
 30
0.0
 70
    32
  0
VERTEX
  5
2F9D
  8
241
 10
290.2110000000000127
 20
-33.0897000000000006
 30
0.0
 70
    32
  0
VERTEX
  5
2F9E
  8
241
 10
290.2099999999999795
 20
-33.0994000000000028
 30
0.0
 70
    32
  0
VERTEX
  5
2F9F
  8
241
 10
290.2090000000000032
 20
-33.1092000000000013
 30
0.0
 70
    32
  0
VERTEX
  5
2FA0
  8
241
 10
290.2069999999999936
 20
-33.1188999999999965
 30
0.0
 70
    32
  0
VERTEX
  5
2FA1
  8
241
 10
290.2060000000000173
 20
-33.128700000000002
 30
0.0
 70
    32
  0
VERTEX
  5
2FA2
  8
241
 10
290.2049999999999841
 20
-33.1385000000000005
 30
0.0
 70
    32
  0
VERTEX
  5
2FA3
  8
241
 10
290.2029999999999745
 20
-33.148299999999999
 30
0.0
 70
    32
  0
VERTEX
  5
2FA4
  8
241
 10
290.2019999999999982
 20
-33.1580999999999975
 30
0.0
 70
    32
  0
VERTEX
  5
2FA5
  8
241
 10
290.2010000000000218
 20
-33.1679000000000102
 30
0.0
 70
    32
  0
VERTEX
  5
2FA6
  8
241
 10
290.1999999999999886
 20
-33.1777000000000015
 30
0.0
 70
    32
  0
VERTEX
  5
2FA7
  8
241
 10
290.1979999999999791
 20
-33.1876000000000104
 30
0.0
 70
    32
  0
VERTEX
  5
2FA8
  8
241
 10
290.1970000000000027
 20
-33.1974000000000018
 30
0.0
 70
    32
  0
VERTEX
  5
2FA9
  8
241
 10
290.1960000000000264
 20
-33.2072999999999965
 30
0.0
 70
    32
  0
VERTEX
  5
2FAA
  8
241
 10
290.1949999999999932
 20
-33.2171000000000021
 30
0.0
 70
    32
  0
VERTEX
  5
2FAB
  8
241
 10
290.1929999999999836
 20
-33.2269999999999968
 30
0.0
 70
    32
  0
VERTEX
  5
2FAC
  8
241
 10
290.1920000000000073
 20
-33.2368999999999986
 30
0.0
 70
    32
  0
VERTEX
  5
2FAD
  8
241
 10
290.1909999999999741
 20
-33.2468000000000004
 30
0.0
 70
    32
  0
VERTEX
  5
2FAE
  8
241
 10
290.1899999999999977
 20
-33.2567000000000093
 30
0.0
 70
    32
  0
VERTEX
  5
2FAF
  8
241
 10
290.1890000000000214
 20
-33.2665999999999968
 30
0.0
 70
    32
  0
VERTEX
  5
2FB0
  8
241
 10
290.1879999999999882
 20
-33.2764999999999986
 30
0.0
 70
    32
  0
VERTEX
  5
2FB1
  8
241
 10
290.1859999999999786
 20
-33.2864000000000004
 30
0.0
 70
    32
  0
VERTEX
  5
2FB2
  8
241
 10
290.1850000000000023
 20
-33.2963999999999984
 30
0.0
 70
    32
  0
VERTEX
  5
2FB3
  8
241
 10
290.1840000000000259
 20
-33.3063000000000002
 30
0.0
 70
    32
  0
VERTEX
  5
2FB4
  8
241
 10
290.1829999999999927
 20
-33.316200000000002
 30
0.0
 70
    32
  0
VERTEX
  5
2FB5
  8
241
 10
290.1820000000000164
 20
-33.3262
 30
0.0
 70
    32
  0
VERTEX
  5
2FB6
  8
241
 10
290.1809999999999832
 20
-33.3361999999999981
 30
0.0
 70
    32
  0
VERTEX
  5
2FB7
  8
241
 10
290.1800000000000068
 20
-33.3460999999999999
 30
0.0
 70
    32
  0
VERTEX
  5
2FB8
  8
241
 10
290.1789999999999736
 20
-33.3560999999999979
 30
0.0
 70
    32
  0
VERTEX
  5
2FB9
  8
241
 10
290.1779999999999973
 20
-33.366100000000003
 30
0.0
 70
    32
  0
VERTEX
  5
2FBA
  8
241
 10
290.1770000000000209
 20
-33.376100000000001
 30
0.0
 70
    32
  0
VERTEX
  5
2FBB
  8
241
 10
290.1759999999999877
 20
-33.386099999999999
 30
0.0
 70
    32
  0
VERTEX
  5
2FBC
  8
241
 10
290.1750000000000114
 20
-33.396099999999997
 30
0.0
 70
    32
  0
VERTEX
  5
2FBD
  8
241
 10
290.1739999999999782
 20
-33.4061000000000021
 30
0.0
 70
    32
  0
VERTEX
  5
2FBE
  8
241
 10
290.1730000000000018
 20
-33.4161000000000001
 30
0.0
 70
    32
  0
VERTEX
  5
2FBF
  8
241
 10
290.1720000000000255
 20
-33.4260999999999981
 30
0.0
 70
    32
  0
VERTEX
  5
2FC0
  8
241
 10
290.1709999999999923
 20
-33.4361000000000033
 30
0.0
 70
    32
  0
VERTEX
  5
2FC1
  8
241
 10
290.1700000000000159
 20
-33.4461000000000013
 30
0.0
 70
    32
  0
VERTEX
  5
2FC2
  8
241
 10
290.1689999999999827
 20
-33.4562000000000026
 30
0.0
 70
    32
  0
VERTEX
  5
2FC3
  8
241
 10
290.1680000000000064
 20
-33.4662000000000006
 30
0.0
 70
    32
  0
VERTEX
  5
2FC4
  8
241
 10
290.1669999999999732
 20
-33.4761999999999986
 30
0.0
 70
    32
  0
VERTEX
  5
2FC5
  8
241
 10
290.1669999999999732
 20
-33.4863
 30
0.0
 70
    32
  0
VERTEX
  5
2FC6
  8
241
 10
290.1659999999999968
 20
-33.496299999999998
 30
0.0
 70
    32
  0
VERTEX
  5
2FC7
  8
241
 10
290.1650000000000205
 20
-33.5063999999999993
 30
0.0
 70
    32
  0
VERTEX
  5
2FC8
  8
241
 10
290.1639999999999873
 20
-33.5163999999999973
 30
0.0
 70
    32
  0
VERTEX
  5
2FC9
  8
241
 10
290.1630000000000109
 20
-33.5264999999999986
 30
0.0
 70
    32
  0
VERTEX
  5
2FCA
  8
241
 10
290.1619999999999777
 20
-33.5364999999999966
 30
0.0
 70
    32
  0
VERTEX
  5
2FCB
  8
241
 10
290.1619999999999777
 20
-33.546599999999998
 30
0.0
 70
    32
  0
VERTEX
  5
2FCC
  8
241
 10
290.1610000000000014
 20
-33.5566000000000031
 30
0.0
 70
    32
  0
VERTEX
  5
2FCD
  8
241
 10
290.160000000000025
 20
-33.5666999999999973
 30
0.0
 70
    32
  0
VERTEX
  5
2FCE
  8
241
 10
290.1589999999999918
 20
-33.5767999999999986
 30
0.0
 70
    32
  0
VERTEX
  5
2FCF
  8
241
 10
290.1589999999999918
 20
-33.5867999999999967
 30
0.0
 70
    32
  0
VERTEX
  5
2FD0
  8
241
 10
290.1580000000000155
 20
-33.596899999999998
 30
0.0
 70
    32
  0
VERTEX
  5
2FD1
  8
241
 10
290.1569999999999823
 20
-33.6069999999999993
 30
0.0
 70
    32
  0
VERTEX
  5
2FD2
  8
241
 10
290.1560000000000059
 20
-33.6169999999999973
 30
0.0
 70
    32
  0
VERTEX
  5
2FD3
  8
241
 10
290.1560000000000059
 20
-33.6270999999999987
 30
0.0
 70
    32
  0
VERTEX
  5
2FD4
  8
241
 10
290.1549999999999727
 20
-33.6372
 30
0.0
 70
    32
  0
VERTEX
  5
2FD5
  8
241
 10
290.1539999999999964
 20
-33.647199999999998
 30
0.0
 70
    32
  0
VERTEX
  5
2FD6
  8
241
 10
290.1539999999999964
 20
-33.6572999999999993
 30
0.0
 70
    32
  0
VERTEX
  5
2FD7
  8
241
 10
290.15300000000002
 20
-33.6674000000000007
 30
0.0
 70
    32
  0
VERTEX
  5
2FD8
  8
241
 10
290.15300000000002
 20
-33.6773999999999987
 30
0.0
 70
    32
  0
VERTEX
  5
2FD9
  8
241
 10
290.1519999999999868
 20
-33.6875
 30
0.0
 70
    32
  0
VERTEX
  5
2FDA
  8
241
 10
290.1510000000000105
 20
-33.6976000000000013
 30
0.0
 70
    32
  0
VERTEX
  5
2FDB
  8
241
 10
290.1510000000000105
 20
-33.7075999999999993
 30
0.0
 70
    32
  0
VERTEX
  5
2FDC
  8
241
 10
290.1499999999999773
 20
-33.7177000000000007
 30
0.0
 70
    32
  0
VERTEX
  5
2FDD
  8
241
 10
290.1499999999999773
 20
-33.7276999999999987
 30
0.0
 70
    32
  0
VERTEX
  5
2FDE
  8
241
 10
290.1490000000000009
 20
-33.7378
 30
0.0
 70
    32
  0
VERTEX
  5
2FDF
  8
241
 10
290.1490000000000009
 20
-33.7479000000000013
 30
0.0
 70
    32
  0
VERTEX
  5
2FE0
  8
241
 10
290.1480000000000246
 20
-33.7578999999999994
 30
0.0
 70
    32
  0
VERTEX
  5
2FE1
  8
241
 10
290.1480000000000246
 20
-33.7680000000000007
 30
0.0
 70
    32
  0
VERTEX
  5
2FE2
  8
241
 10
290.1469999999999914
 20
-33.7779999999999987
 30
0.0
 70
    32
  0
VERTEX
  5
2FE3
  8
241
 10
290.1469999999999914
 20
-33.7881
 30
0.0
 70
    32
  0
VERTEX
  5
2FE4
  8
241
 10
290.146000000000015
 20
-33.798099999999998
 30
0.0
 70
    32
  0
VERTEX
  5
2FE5
  8
241
 10
290.146000000000015
 20
-33.8081000000000031
 30
0.0
 70
    32
  0
VERTEX
  5
2FE6
  8
241
 10
290.146000000000015
 20
-33.8181999999999974
 30
0.0
 70
    32
  0
VERTEX
  5
2FE7
  8
241
 10
290.1449999999999818
 20
-33.8282000000000096
 30
0.0
 70
    32
  0
VERTEX
  5
2FE8
  8
241
 10
290.1449999999999818
 20
-33.8382000000000005
 30
0.0
 70
    32
  0
VERTEX
  5
2FE9
  8
241
 10
290.1440000000000055
 20
-33.8483000000000018
 30
0.0
 70
    32
  0
VERTEX
  5
2FEA
  8
241
 10
290.1440000000000055
 20
-33.8582999999999998
 30
0.0
 70
    32
  0
VERTEX
  5
2FEB
  8
241
 10
290.1440000000000055
 20
-33.8682999999999979
 30
0.0
 70
    32
  0
VERTEX
  5
2FEC
  8
241
 10
290.1429999999999723
 20
-33.8783000000000101
 30
0.0
 70
    32
  0
VERTEX
  5
2FED
  8
241
 10
290.1429999999999723
 20
-33.888300000000001
 30
0.0
 70
    32
  0
VERTEX
  5
2FEE
  8
241
 10
290.1429999999999723
 20
-33.898299999999999
 30
0.0
 70
    32
  0
VERTEX
  5
2FEF
  8
241
 10
290.1419999999999959
 20
-33.908299999999997
 30
0.0
 70
    32
  0
VERTEX
  5
2FF0
  8
241
 10
290.1419999999999959
 20
-33.9183000000000092
 30
0.0
 70
    32
  0
VERTEX
  5
2FF1
  8
241
 10
290.1419999999999959
 20
-33.9283000000000001
 30
0.0
 70
    32
  0
VERTEX
  5
2FF2
  8
241
 10
290.1419999999999959
 20
-33.9382000000000019
 30
0.0
 70
    32
  0
VERTEX
  5
2FF3
  8
241
 10
290.1410000000000196
 20
-33.9481999999999999
 30
0.0
 70
    32
  0
VERTEX
  5
2FF4
  8
241
 10
290.1410000000000196
 20
-33.9581999999999979
 30
0.0
 70
    32
  0
VERTEX
  5
2FF5
  8
241
 10
290.1410000000000196
 20
-33.9680999999999997
 30
0.0
 70
    32
  0
VERTEX
  5
2FF6
  8
241
 10
290.1410000000000196
 20
-33.9780999999999977
 30
0.0
 70
    32
  0
VERTEX
  5
2FF7
  8
241
 10
290.1399999999999864
 20
-33.9879999999999995
 30
0.0
 70
    32
  0
VERTEX
  5
2FF8
  8
241
 10
290.1399999999999864
 20
-33.9979000000000013
 30
0.0
 70
    32
  0
VERTEX
  5
2FF9
  8
241
 10
290.1399999999999864
 20
-34.0078999999999994
 30
0.0
 70
    32
  0
VERTEX
  5
2FFA
  8
241
 10
290.1399999999999864
 20
-34.0178000000000011
 30
0.0
 70
    32
  0
VERTEX
  5
2FFB
  8
241
 10
290.1399999999999864
 20
-34.0277000000000029
 30
0.0
 70
    32
  0
VERTEX
  5
2FFC
  8
241
 10
290.1399999999999864
 20
-34.0375999999999976
 30
0.0
 70
    32
  0
VERTEX
  5
2FFD
  8
241
 10
290.1399999999999864
 20
-34.0474999999999994
 30
0.0
 70
    32
  0
VERTEX
  5
2FFE
  8
241
 10
290.13900000000001
 20
-34.0572999999999979
 30
0.0
 70
    32
  0
VERTEX
  5
2FFF
  8
241
 10
290.13900000000001
 20
-34.0671999999999997
 30
0.0
 70
    32
  0
VERTEX
  5
3000
  8
241
 10
290.13900000000001
 20
-34.0771000000000015
 30
0.0
 70
    32
  0
VERTEX
  5
3001
  8
241
 10
290.13900000000001
 20
-34.0869
 30
0.0
 70
    32
  0
VERTEX
  5
3002
  8
241
 10
290.13900000000001
 20
-34.0968000000000018
 30
0.0
 70
    32
  0
VERTEX
  5
3003
  8
241
 10
290.13900000000001
 20
-34.1066000000000003
 30
0.0
 70
    32
  0
VERTEX
  5
3004
  8
241
 10
290.13900000000001
 20
-34.1163999999999987
 30
0.0
 70
    32
  0
VERTEX
  5
3005
  8
241
 10
290.13900000000001
 20
-34.1261999999999972
 30
0.0
 70
    32
  0
VERTEX
  5
3006
  8
241
 10
290.13900000000001
 20
-34.1360000000000099
 30
0.0
 70
    32
  0
VERTEX
  5
3007
  8
241
 10
290.13900000000001
 20
-34.1458000000000013
 30
0.0
 70
    32
  0
VERTEX
  5
3008
  8
241
 10
290.13900000000001
 20
-34.1555999999999997
 30
0.0
 70
    32
  0
VERTEX
  5
3009
  8
241
 10
290.13900000000001
 20
-34.165300000000002
 30
0.0
 70
    32
  0
VERTEX
  5
300A
  8
241
 10
290.13900000000001
 20
-34.1751000000000005
 30
0.0
 70
    32
  0
VERTEX
  5
300B
  8
241
 10
290.13900000000001
 20
-34.1848000000000098
 30
0.0
 70
    32
  0
VERTEX
  5
300C
  8
241
 10
290.13900000000001
 20
-34.1946000000000012
 30
0.0
 70
    32
  0
VERTEX
  5
300D
  8
241
 10
290.13900000000001
 20
-34.2043000000000035
 30
0.0
 70
    32
  0
VERTEX
  5
300E
  8
241
 10
290.13900000000001
 20
-34.2139999999999986
 30
0.0
 70
    32
  0
VERTEX
  5
300F
  8
241
 10
290.13900000000001
 20
-34.2237000000000009
 30
0.0
 70
    32
  0
VERTEX
  5
3010
  8
241
 10
290.1399999999999864
 20
-34.2334000000000032
 30
0.0
 70
    32
  0
VERTEX
  5
3011
  8
241
 10
290.1399999999999864
 20
-34.2430000000000092
 30
0.0
 70
    32
  0
VERTEX
  5
3012
  8
241
 10
290.1399999999999864
 20
-34.2526999999999973
 30
0.0
 70
    32
  0
VERTEX
  5
3013
  8
241
 10
290.1399999999999864
 20
-34.2623000000000033
 30
0.0
 70
    32
  0
VERTEX
  5
3014
  8
241
 10
290.1399999999999864
 20
-34.2719000000000023
 30
0.0
 70
    32
  0
VERTEX
  5
3015
  8
241
 10
290.1399999999999864
 20
-34.2815000000000012
 30
0.0
 70
    32
  0
VERTEX
  5
3016
  8
241
 10
290.1399999999999864
 20
-34.2911000000000001
 30
0.0
 70
    32
  0
VERTEX
  5
3017
  8
241
 10
290.1410000000000196
 20
-34.3006999999999991
 30
0.0
 70
    32
  0
VERTEX
  5
3018
  8
241
 10
290.1410000000000196
 20
-34.310299999999998
 30
0.0
 70
    32
  0
VERTEX
  5
3019
  8
241
 10
290.1410000000000196
 20
-34.3198000000000008
 30
0.0
 70
    32
  0
VERTEX
  5
301A
  8
241
 10
290.1410000000000196
 20
-34.3293999999999997
 30
0.0
 70
    32
  0
VERTEX
  5
301B
  8
241
 10
290.1419999999999959
 20
-34.3389000000000024
 30
0.0
 70
    32
  0
VERTEX
  5
301C
  8
241
 10
290.1419999999999959
 20
-34.348399999999998
 30
0.0
 70
    32
  0
VERTEX
  5
301D
  8
241
 10
290.1419999999999959
 20
-34.3579000000000008
 30
0.0
 70
    32
  0
VERTEX
  5
301E
  8
241
 10
290.1419999999999959
 20
-34.3673000000000002
 30
0.0
 70
    32
  0
VERTEX
  5
301F
  8
241
 10
290.1429999999999723
 20
-34.3768000000000029
 30
0.0
 70
    32
  0
VERTEX
  5
3020
  8
241
 10
290.1429999999999723
 20
-34.3862000000000023
 30
0.0
 70
    32
  0
VERTEX
  5
3021
  8
241
 10
290.1429999999999723
 20
-34.3956999999999979
 30
0.0
 70
    32
  0
VERTEX
  5
3022
  8
241
 10
290.1429999999999723
 20
-34.4050999999999974
 30
0.0
 70
    32
  0
VERTEX
  5
3023
  8
241
 10
290.1440000000000055
 20
-34.4144000000000005
 30
0.0
 70
    32
  0
VERTEX
  5
3024
  8
241
 10
290.1440000000000055
 20
-34.4238
 30
0.0
 70
    32
  0
VERTEX
  5
3025
  8
241
 10
290.1449999999999818
 20
-34.4331999999999994
 30
0.0
 70
    32
  0
VERTEX
  5
3026
  8
241
 10
290.1449999999999818
 20
-34.4425000000000026
 30
0.0
 70
    32
  0
VERTEX
  5
3027
  8
241
 10
290.1449999999999818
 20
-34.4517999999999986
 30
0.0
 70
    32
  0
VERTEX
  5
3028
  8
241
 10
290.146000000000015
 20
-34.4611000000000018
 30
0.0
 70
    32
  0
VERTEX
  5
3029
  8
241
 10
290.146000000000015
 20
-34.4703999999999979
 30
0.0
 70
    32
  0
VERTEX
  5
302A
  8
241
 10
290.146000000000015
 20
-34.4795999999999978
 30
0.0
 70
    32
  0
VERTEX
  5
302B
  8
241
 10
290.1469999999999914
 20
-34.488900000000001
 30
0.0
 70
    32
  0
VERTEX
  5
302C
  8
241
 10
290.1469999999999914
 20
-34.4981000000000009
 30
0.0
 70
    32
  0
VERTEX
  5
302D
  8
241
 10
290.1480000000000246
 20
-34.5073000000000008
 30
0.0
 70
    32
  0
VERTEX
  5
302E
  8
241
 10
290.1480000000000246
 20
-34.5165000000000006
 30
0.0
 70
    32
  0
VERTEX
  5
302F
  8
241
 10
290.1490000000000009
 20
-34.5257000000000005
 30
0.0
 70
    32
  0
VERTEX
  5
3030
  8
241
 10
290.1490000000000009
 20
-34.5349999999999966
 30
0.0
 70
    32
  0
VERTEX
  5
3031
  8
241
 10
290.1499999999999773
 20
-34.5441999999999965
 30
0.0
 70
    32
  0
VERTEX
  5
3032
  8
241
 10
290.1499999999999773
 20
-34.5534999999999997
 30
0.0
 70
    32
  0
VERTEX
  5
3033
  8
241
 10
290.1510000000000105
 20
-34.5628000000000029
 30
0.0
 70
    32
  0
VERTEX
  5
3034
  8
241
 10
290.1510000000000105
 20
-34.5722000000000023
 30
0.0
 70
    32
  0
VERTEX
  5
3035
  8
241
 10
290.1519999999999868
 20
-34.5816000000000017
 30
0.0
 70
    32
  0
VERTEX
  5
3036
  8
241
 10
290.1519999999999868
 20
-34.5908999999999978
 30
0.0
 70
    32
  0
VERTEX
  5
3037
  8
241
 10
290.15300000000002
 20
-34.6004000000000005
 30
0.0
 70
    32
  0
VERTEX
  5
3038
  8
241
 10
290.15300000000002
 20
-34.6097999999999999
 30
0.0
 70
    32
  0
VERTEX
  5
3039
  8
241
 10
290.1539999999999964
 20
-34.6193000000000097
 30
0.0
 70
    32
  0
VERTEX
  5
303A
  8
241
 10
290.1549999999999727
 20
-34.6287999999999982
 30
0.0
 70
    32
  0
VERTEX
  5
303B
  8
241
 10
290.1549999999999727
 20
-34.638300000000001
 30
0.0
 70
    32
  0
VERTEX
  5
303C
  8
241
 10
290.1560000000000059
 20
-34.6477999999999966
 30
0.0
 70
    32
  0
VERTEX
  5
303D
  8
241
 10
290.1560000000000059
 20
-34.6572999999999993
 30
0.0
 70
    32
  0
VERTEX
  5
303E
  8
241
 10
290.1569999999999823
 20
-34.6668999999999983
 30
0.0
 70
    32
  0
VERTEX
  5
303F
  8
241
 10
290.1580000000000155
 20
-34.6764999999999972
 30
0.0
 70
    32
  0
VERTEX
  5
3040
  8
241
 10
290.1580000000000155
 20
-34.6861000000000033
 30
0.0
 70
    32
  0
VERTEX
  5
3041
  8
241
 10
290.1589999999999918
 20
-34.6957000000000022
 30
0.0
 70
    32
  0
VERTEX
  5
3042
  8
241
 10
290.160000000000025
 20
-34.7053999999999974
 30
0.0
 70
    32
  0
VERTEX
  5
3043
  8
241
 10
290.1610000000000014
 20
-34.7150000000000105
 30
0.0
 70
    32
  0
VERTEX
  5
3044
  8
241
 10
290.1610000000000014
 20
-34.7246999999999986
 30
0.0
 70
    32
  0
VERTEX
  5
3045
  8
241
 10
290.1619999999999777
 20
-34.7344000000000008
 30
0.0
 70
    32
  0
VERTEX
  5
3046
  8
241
 10
290.1630000000000109
 20
-34.7441000000000102
 30
0.0
 70
    32
  0
VERTEX
  5
3047
  8
241
 10
290.1639999999999873
 20
-34.7537999999999982
 30
0.0
 70
    32
  0
VERTEX
  5
3048
  8
241
 10
290.1639999999999873
 20
-34.7635999999999967
 30
0.0
 70
    32
  0
VERTEX
  5
3049
  8
241
 10
290.1650000000000205
 20
-34.773299999999999
 30
0.0
 70
    32
  0
VERTEX
  5
304A
  8
241
 10
290.1659999999999968
 20
-34.7830999999999975
 30
0.0
 70
    32
  0
VERTEX
  5
304B
  8
241
 10
290.1669999999999732
 20
-34.7929000000000102
 30
0.0
 70
    32
  0
VERTEX
  5
304C
  8
241
 10
290.1680000000000064
 20
-34.8027000000000015
 30
0.0
 70
    32
  0
VERTEX
  5
304D
  8
241
 10
290.1689999999999827
 20
-34.8125
 30
0.0
 70
    32
  0
VERTEX
  5
304E
  8
241
 10
290.1689999999999827
 20
-34.8224000000000018
 30
0.0
 70
    32
  0
VERTEX
  5
304F
  8
241
 10
290.1700000000000159
 20
-34.8322000000000003
 30
0.0
 70
    32
  0
VERTEX
  5
3050
  8
241
 10
290.1709999999999923
 20
-34.8421000000000021
 30
0.0
 70
    32
  0
VERTEX
  5
3051
  8
241
 10
290.1720000000000255
 20
-34.8519000000000005
 30
0.0
 70
    32
  0
VERTEX
  5
3052
  8
241
 10
290.1730000000000018
 20
-34.8618000000000023
 30
0.0
 70
    32
  0
VERTEX
  5
3053
  8
241
 10
290.1739999999999782
 20
-34.871699999999997
 30
0.0
 70
    32
  0
VERTEX
  5
3054
  8
241
 10
290.1750000000000114
 20
-34.8815999999999988
 30
0.0
 70
    32
  0
VERTEX
  5
3055
  8
241
 10
290.1759999999999877
 20
-34.8915000000000006
 30
0.0
 70
    32
  0
VERTEX
  5
3056
  8
241
 10
290.1770000000000209
 20
-34.9014000000000024
 30
0.0
 70
    32
  0
VERTEX
  5
3057
  8
241
 10
290.1779999999999973
 20
-34.9114000000000004
 30
0.0
 70
    32
  0
VERTEX
  5
3058
  8
241
 10
290.1789999999999736
 20
-34.9213000000000022
 30
0.0
 70
    32
  0
VERTEX
  5
3059
  8
241
 10
290.1800000000000068
 20
-34.9311999999999969
 30
0.0
 70
    32
  0
VERTEX
  5
305A
  8
241
 10
290.1809999999999832
 20
-34.9412000000000091
 30
0.0
 70
    32
  0
VERTEX
  5
305B
  8
241
 10
290.1820000000000164
 20
-34.9512
 30
0.0
 70
    32
  0
VERTEX
  5
305C
  8
241
 10
290.1829999999999927
 20
-34.9611000000000018
 30
0.0
 70
    32
  0
VERTEX
  5
305D
  8
241
 10
290.1840000000000259
 20
-34.9710999999999999
 30
0.0
 70
    32
  0
VERTEX
  5
305E
  8
241
 10
290.1850000000000023
 20
-34.9810999999999979
 30
0.0
 70
    32
  0
VERTEX
  5
305F
  8
241
 10
290.1859999999999786
 20
-34.991100000000003
 30
0.0
 70
    32
  0
VERTEX
  5
3060
  8
241
 10
290.1870000000000118
 20
-35.001100000000001
 30
0.0
 70
    32
  0
VERTEX
  5
3061
  8
241
 10
290.1879999999999882
 20
-35.0110000000000028
 30
0.0
 70
    32
  0
VERTEX
  5
3062
  8
241
 10
290.1899999999999977
 20
-35.0210000000000008
 30
0.0
 70
    32
  0
VERTEX
  5
3063
  8
241
 10
290.1909999999999741
 20
-35.0309999999999988
 30
0.0
 70
    32
  0
VERTEX
  5
3064
  8
241
 10
290.1920000000000073
 20
-35.0411000000000001
 30
0.0
 70
    32
  0
VERTEX
  5
3065
  8
241
 10
290.1929999999999836
 20
-35.0510999999999981
 30
0.0
 70
    32
  0
VERTEX
  5
3066
  8
241
 10
290.1940000000000168
 20
-35.0611000000000033
 30
0.0
 70
    32
  0
VERTEX
  5
3067
  8
241
 10
290.1949999999999932
 20
-35.0711000000000013
 30
0.0
 70
    32
  0
VERTEX
  5
3068
  8
241
 10
290.1970000000000027
 20
-35.0810999999999993
 30
0.0
 70
    32
  0
VERTEX
  5
3069
  8
241
 10
290.1979999999999791
 20
-35.0910999999999973
 30
0.0
 70
    32
  0
VERTEX
  5
306A
  8
241
 10
290.1990000000000123
 20
-35.1011000000000024
 30
0.0
 70
    32
  0
VERTEX
  5
306B
  8
241
 10
290.1999999999999886
 20
-35.1111999999999966
 30
0.0
 70
    32
  0
VERTEX
  5
306C
  8
241
 10
290.2019999999999982
 20
-35.1212000000000018
 30
0.0
 70
    32
  0
VERTEX
  5
306D
  8
241
 10
290.2029999999999745
 20
-35.1311999999999998
 30
0.0
 70
    32
  0
VERTEX
  5
306E
  8
241
 10
290.2040000000000077
 20
-35.1411999999999978
 30
0.0
 70
    32
  0
VERTEX
  5
306F
  8
241
 10
290.2060000000000173
 20
-35.1512000000000029
 30
0.0
 70
    32
  0
VERTEX
  5
3070
  8
241
 10
290.2069999999999936
 20
-35.1612000000000009
 30
0.0
 70
    32
  0
VERTEX
  5
3071
  8
241
 10
290.2080000000000268
 20
-35.1711999999999989
 30
0.0
 70
    32
  0
VERTEX
  5
3072
  8
241
 10
290.2099999999999795
 20
-35.1813000000000002
 30
0.0
 70
    32
  0
VERTEX
  5
3073
  8
241
 10
290.2110000000000127
 20
-35.1912999999999982
 30
0.0
 70
    32
  0
VERTEX
  5
3074
  8
241
 10
290.2119999999999891
 20
-35.2013000000000034
 30
0.0
 70
    32
  0
VERTEX
  5
3075
  8
241
 10
290.2139999999999986
 20
-35.2113000000000014
 30
0.0
 70
    32
  0
VERTEX
  5
3076
  8
241
 10
290.214999999999975
 20
-35.2212000000000103
 30
0.0
 70
    32
  0
VERTEX
  5
3077
  8
241
 10
290.2169999999999845
 20
-35.2312000000000012
 30
0.0
 70
    32
  0
VERTEX
  5
3078
  8
241
 10
290.2180000000000177
 20
-35.2411999999999992
 30
0.0
 70
    32
  0
VERTEX
  5
3079
  8
241
 10
290.2189999999999941
 20
-35.2511999999999972
 30
0.0
 70
    32
  0
VERTEX
  5
307A
  8
241
 10
290.2210000000000036
 20
-35.2612000000000094
 30
0.0
 70
    32
  0
VERTEX
  5
307B
  8
241
 10
290.22199999999998
 20
-35.271099999999997
 30
0.0
 70
    32
  0
VERTEX
  5
307C
  8
241
 10
290.2239999999999895
 20
-35.2811000000000021
 30
0.0
 70
    32
  0
VERTEX
  5
307D
  8
241
 10
290.2250000000000227
 20
-35.2909999999999968
 30
0.0
 70
    32
  0
VERTEX
  5
307E
  8
241
 10
290.2270000000000891
 20
-35.3010000000000019
 30
0.0
 70
    32
  0
VERTEX
  5
307F
  8
241
 10
290.2280000000000086
 20
-35.3108999999999966
 30
0.0
 70
    32
  0
VERTEX
  5
3080
  8
241
 10
290.2300000000000182
 20
-35.3207999999999984
 30
0.0
 70
    32
  0
VERTEX
  5
3081
  8
241
 10
290.2309999999999945
 20
-35.3307000000000002
 30
0.0
 70
    32
  0
VERTEX
  5
3082
  8
241
 10
290.2330000000000041
 20
-35.340600000000002
 30
0.0
 70
    32
  0
VERTEX
  5
3083
  8
241
 10
290.2350000000000136
 20
-35.3504999999999967
 30
0.0
 70
    32
  0
VERTEX
  5
3084
  8
241
 10
290.23599999999999
 20
-35.3603999999999985
 30
0.0
 70
    32
  0
VERTEX
  5
3085
  8
241
 10
290.2379999999999995
 20
-35.3703000000000003
 30
0.0
 70
    32
  0
VERTEX
  5
3086
  8
241
 10
290.2389999999999759
 20
-35.3802000000000021
 30
0.0
 70
    32
  0
VERTEX
  5
3087
  8
241
 10
290.2409999999999854
 20
-35.3900000000000006
 30
0.0
 70
    32
  0
VERTEX
  5
3088
  8
241
 10
290.2420000000000186
 20
-35.399799999999999
 30
0.0
 70
    32
  0
VERTEX
  5
3089
  8
241
 10
290.2440000000000282
 20
-35.4097000000000008
 30
0.0
 70
    32
  0
VERTEX
  5
308A
  8
241
 10
290.2459999999999809
 20
-35.4194999999999993
 30
0.0
 70
    32
  0
VERTEX
  5
308B
  8
241
 10
290.2470000000000141
 20
-35.4292999999999978
 30
0.0
 70
    32
  0
VERTEX
  5
308C
  8
241
 10
290.2490000000000236
 20
-35.4391000000000034
 30
0.0
 70
    32
  0
VERTEX
  5
308D
  8
241
 10
290.2509999999999764
 20
-35.4487999999999985
 30
0.0
 70
    32
  0
VERTEX
  5
308E
  8
241
 10
290.2520000000000095
 20
-35.458599999999997
 30
0.0
 70
    32
  0
VERTEX
  5
308F
  8
241
 10
290.2540000000000191
 20
-35.4682999999999993
 30
0.0
 70
    32
  0
VERTEX
  5
3090
  8
241
 10
290.2559999999999718
 20
-35.4780000000000015
 30
0.0
 70
    32
  0
VERTEX
  5
3091
  8
241
 10
290.257000000000005
 20
-35.4878
 30
0.0
 70
    32
  0
VERTEX
  5
3092
  8
241
 10
290.2590000000000146
 20
-35.497399999999999
 30
0.0
 70
    32
  0
VERTEX
  5
3093
  8
241
 10
290.2610000000000241
 20
-35.5071000000000012
 30
0.0
 70
    32
  0
VERTEX
  5
3094
  8
241
 10
290.2629999999999768
 20
-35.5168000000000106
 30
0.0
 70
    32
  0
VERTEX
  5
3095
  8
241
 10
290.26400000000001
 20
-35.5264000000000024
 30
0.0
 70
    32
  0
VERTEX
  5
3096
  8
241
 10
290.2660000000000196
 20
-35.5360000000000014
 30
0.0
 70
    32
  0
VERTEX
  5
3097
  8
241
 10
290.2679999999999723
 20
-35.5456000000000003
 30
0.0
 70
    32
  0
VERTEX
  5
3098
  8
241
 10
290.2699999999999818
 20
-35.5551999999999992
 30
0.0
 70
    32
  0
VERTEX
  5
3099
  8
241
 10
290.2709999999999013
 20
-35.5647999999999982
 30
0.0
 70
    32
  0
VERTEX
  5
309A
  8
241
 10
290.2730000000000246
 20
-35.5743000000000009
 30
0.0
 70
    32
  0
VERTEX
  5
309B
  8
241
 10
290.2749999999999773
 20
-35.5838999999999999
 30
0.0
 70
    32
  0
VERTEX
  5
309C
  8
241
 10
290.2769999999999868
 20
-35.5934000000000097
 30
0.0
 70
    32
  0
VERTEX
  5
309D
  8
241
 10
290.2789999999999964
 20
-35.6028999999999982
 30
0.0
 70
    32
  0
VERTEX
  5
309E
  8
241
 10
290.2799999999999727
 20
-35.6122999999999976
 30
0.0
 70
    32
  0
VERTEX
  5
309F
  8
241
 10
290.2819999999999823
 20
-35.6218000000000004
 30
0.0
 70
    32
  0
VERTEX
  5
30A0
  8
241
 10
290.2839999999999918
 20
-35.6311999999999998
 30
0.0
 70
    32
  0
VERTEX
  5
30A1
  8
241
 10
290.2860000000000014
 20
-35.6405999999999992
 30
0.0
 70
    32
  0
VERTEX
  5
30A2
  8
241
 10
290.2880000000000109
 20
-35.6499000000000024
 30
0.0
 70
    32
  0
VERTEX
  5
30A3
  8
241
 10
290.2900000000000205
 20
-35.6593000000000018
 30
0.0
 70
    32
  0
VERTEX
  5
30A4
  8
241
 10
290.2909999999999968
 20
-35.6685999999999979
 30
0.0
 70
    32
  0
VERTEX
  5
30A5
  8
241
 10
290.2930000000000064
 20
-35.6779000000000011
 30
0.0
 70
    32
  0
VERTEX
  5
30A6
  8
241
 10
290.2950000000000159
 20
-35.6871999999999971
 30
0.0
 70
    32
  0
VERTEX
  5
30A7
  8
241
 10
290.2970000000000255
 20
-35.696399999999997
 30
0.0
 70
    32
  0
VERTEX
  5
30A8
  8
241
 10
290.2989999999999782
 20
-35.7057000000000002
 30
0.0
 70
    32
  0
VERTEX
  5
30A9
  8
241
 10
290.3009999999999877
 20
-35.7149000000000001
 30
0.0
 70
    32
  0
VERTEX
  5
30AA
  8
241
 10
290.3029999999999973
 20
-35.7239999999999966
 30
0.0
 70
    32
  0
VERTEX
  5
30AB
  8
241
 10
290.3050000000000068
 20
-35.7331999999999965
 30
0.0
 70
    32
  0
VERTEX
  5
30AC
  8
241
 10
290.3059999999999832
 20
-35.7423000000000002
 30
0.0
 70
    32
  0
VERTEX
  5
30AD
  8
241
 10
290.3079999999999927
 20
-35.7513999999999967
 30
0.0
 70
    32
  0
VERTEX
  5
30AE
  8
241
 10
290.3100000000000023
 20
-35.7603999999999971
 30
0.0
 70
    32
  0
VERTEX
  5
30AF
  8
241
 10
290.3120000000000118
 20
-35.7695000000000007
 30
0.0
 70
    32
  0
VERTEX
  5
30B0
  8
241
 10
290.3140000000000214
 20
-35.7785000000000011
 30
0.0
 70
    32
  0
VERTEX
  5
30B1
  8
241
 10
290.3159999999999741
 20
-35.7875000000000014
 30
0.0
 70
    32
  0
VERTEX
  5
30B2
  8
241
 10
290.3179999999999836
 20
-35.7965000000000018
 30
0.0
 70
    32
  0
VERTEX
  5
30B3
  8
241
 10
290.3199999999999932
 20
-35.8055000000000092
 30
0.0
 70
    32
  0
VERTEX
  5
30B4
  8
241
 10
290.3220000000000027
 20
-35.8145000000000024
 30
0.0
 70
    32
  0
VERTEX
  5
30B5
  8
241
 10
290.3240000000000123
 20
-35.823599999999999
 30
0.0
 70
    32
  0
VERTEX
  5
30B6
  8
241
 10
290.3259999999999081
 20
-35.8325999999999993
 30
0.0
 70
    32
  0
VERTEX
  5
30B7
  8
241
 10
290.3279999999999745
 20
-35.841700000000003
 30
0.0
 70
    32
  0
VERTEX
  5
30B8
  8
241
 10
290.3299999999999841
 20
-35.8507000000000033
 30
0.0
 70
    32
  0
VERTEX
  5
30B9
  8
241
 10
290.3319999999999936
 20
-35.8597999999999999
 30
0.0
 70
    32
  0
VERTEX
  5
30BA
  8
241
 10
290.3340000000000032
 20
-35.8688999999999965
 30
0.0
 70
    32
  0
VERTEX
  5
30BB
  8
241
 10
290.3360000000000127
 20
-35.8778999999999968
 30
0.0
 70
    32
  0
VERTEX
  5
30BC
  8
241
 10
290.3380000000000223
 20
-35.8870000000000005
 30
0.0
 70
    32
  0
VERTEX
  5
30BD
  8
241
 10
290.339999999999975
 20
-35.896099999999997
 30
0.0
 70
    32
  0
VERTEX
  5
30BE
  8
241
 10
290.3419999999999845
 20
-35.9052000000000007
 30
0.0
 70
    32
  0
VERTEX
  5
30BF
  8
241
 10
290.3450000000000273
 20
-35.9144000000000005
 30
0.0
 70
    32
  0
VERTEX
  5
30C0
  8
241
 10
290.34699999999998
 20
-35.9234999999999971
 30
0.0
 70
    32
  0
VERTEX
  5
30C1
  8
241
 10
290.3489999999999895
 20
-35.9326000000000008
 30
0.0
 70
    32
  0
VERTEX
  5
30C2
  8
241
 10
290.3509999999999991
 20
-35.9416999999999973
 30
0.0
 70
    32
  0
VERTEX
  5
30C3
  8
241
 10
290.3530000000000086
 20
-35.9508999999999972
 30
0.0
 70
    32
  0
VERTEX
  5
30C4
  8
241
 10
290.3550000000000182
 20
-35.9600000000000009
 30
0.0
 70
    32
  0
VERTEX
  5
30C5
  8
241
 10
290.3580000000000041
 20
-35.9692000000000007
 30
0.0
 70
    32
  0
VERTEX
  5
30C6
  8
241
 10
290.3600000000000136
 20
-35.9782999999999973
 30
0.0
 70
    32
  0
VERTEX
  5
30C7
  8
241
 10
290.3620000000000232
 20
-35.9874999999999972
 30
0.0
 70
    32
  0
VERTEX
  5
30C8
  8
241
 10
290.3639999999999759
 20
-35.996699999999997
 30
0.0
 70
    32
  0
VERTEX
  5
30C9
  8
241
 10
290.3670000000000186
 20
-36.0058999999999969
 30
0.0
 70
    32
  0
VERTEX
  5
30CA
  8
241
 10
290.3690000000000282
 20
-36.0150999999999968
 30
0.0
 70
    32
  0
VERTEX
  5
30CB
  8
241
 10
290.3709999999999809
 20
-36.0242000000000004
 30
0.0
 70
    32
  0
VERTEX
  5
30CC
  8
241
 10
290.3729999999999905
 20
-36.0334000000000003
 30
0.0
 70
    32
  0
VERTEX
  5
30CD
  8
241
 10
290.3759999999999764
 20
-36.0426000000000002
 30
0.0
 70
    32
  0
VERTEX
  5
30CE
  8
241
 10
290.3779999999999859
 20
-36.0519000000000034
 30
0.0
 70
    32
  0
VERTEX
  5
30CF
  8
241
 10
290.3799999999999955
 20
-36.0611000000000104
 30
0.0
 70
    32
  0
VERTEX
  5
30D0
  8
241
 10
290.3829999999999814
 20
-36.0703000000000031
 30
0.0
 70
    32
  0
VERTEX
  5
30D1
  8
241
 10
290.3849999999999909
 20
-36.0795000000000101
 30
0.0
 70
    32
  0
VERTEX
  5
30D2
  8
241
 10
290.3870000000000005
 20
-36.0887999999999991
 30
0.0
 70
    32
  0
VERTEX
  5
30D3
  8
241
 10
290.3899999999999864
 20
-36.097999999999999
 30
0.0
 70
    32
  0
VERTEX
  5
30D4
  8
241
 10
290.3919999999999959
 20
-36.1071999999999989
 30
0.0
 70
    32
  0
VERTEX
  5
30D5
  8
241
 10
290.3949999999999818
 20
-36.116500000000002
 30
0.0
 70
    32
  0
VERTEX
  5
30D6
  8
241
 10
290.3969999999999914
 20
-36.1257999999999981
 30
0.0
 70
    32
  0
VERTEX
  5
30D7
  8
241
 10
290.3990000000000009
 20
-36.134999999999998
 30
0.0
 70
    32
  0
VERTEX
  5
30D8
  8
241
 10
290.4019999999999868
 20
-36.1443000000000012
 30
0.0
 70
    32
  0
VERTEX
  5
30D9
  8
241
 10
290.4039999999999964
 20
-36.1535000000000011
 30
0.0
 70
    32
  0
VERTEX
  5
30DA
  8
241
 10
290.4069999999999823
 20
-36.1627999999999972
 30
0.0
 70
    32
  0
VERTEX
  5
30DB
  8
241
 10
290.4089999999999918
 20
-36.1721000000000004
 30
0.0
 70
    32
  0
VERTEX
  5
30DC
  8
241
 10
290.4119999999999777
 20
-36.1813999999999965
 30
0.0
 70
    32
  0
VERTEX
  5
30DD
  8
241
 10
290.4139999999999873
 20
-36.1906999999999996
 30
0.0
 70
    32
  0
VERTEX
  5
30DE
  8
241
 10
290.4169999999999732
 20
-36.2000000000000028
 30
0.0
 70
    32
  0
VERTEX
  5
30DF
  8
241
 10
290.4189999999999827
 20
-36.2092999999999989
 30
0.0
 70
    32
  0
VERTEX
  5
30E0
  8
241
 10
290.4220000000000255
 20
-36.2186000000000021
 30
0.0
 70
    32
  0
VERTEX
  5
30E1
  8
241
 10
290.4240000000000919
 20
-36.2278999999999982
 30
0.0
 70
    32
  0
VERTEX
  5
30E2
  8
241
 10
290.4270000000000209
 20
-36.2372000000000014
 30
0.0
 70
    32
  0
VERTEX
  5
30E3
  8
241
 10
290.4300000000000068
 20
-36.2464999999999975
 30
0.0
 70
    32
  0
VERTEX
  5
30E4
  8
241
 10
290.4320000000000164
 20
-36.2558000000000007
 30
0.0
 70
    32
  0
VERTEX
  5
30E5
  8
241
 10
290.4350000000000023
 20
-36.2650999999999968
 30
0.0
 70
    32
  0
VERTEX
  5
30E6
  8
241
 10
290.4370000000000118
 20
-36.2745000000000033
 30
0.0
 70
    32
  0
VERTEX
  5
30E7
  8
241
 10
290.4399999999999977
 20
-36.2837999999999994
 30
0.0
 70
    32
  0
VERTEX
  5
30E8
  8
241
 10
290.4429999999999836
 20
-36.2931000000000026
 30
0.0
 70
    32
  0
VERTEX
  5
30E9
  8
241
 10
290.4449999999999932
 20
-36.302500000000002
 30
0.0
 70
    32
  0
VERTEX
  5
30EA
  8
241
 10
290.4479999999999791
 20
-36.3117999999999981
 30
0.0
 70
    32
  0
VERTEX
  5
30EB
  8
241
 10
290.4510000000000218
 20
-36.3211999999999975
 30
0.0
 70
    32
  0
VERTEX
  5
30EC
  8
241
 10
290.4529999999999745
 20
-36.3305000000000007
 30
0.0
 70
    32
  0
VERTEX
  5
30ED
  8
241
 10
290.4560000000000173
 20
-36.3399000000000001
 30
0.0
 70
    32
  0
VERTEX
  5
30EE
  8
241
 10
290.4590000000000032
 20
-36.3492000000000104
 30
0.0
 70
    32
  0
VERTEX
  5
30EF
  8
241
 10
290.4619999999999891
 20
-36.3586000000000027
 30
0.0
 70
    32
  0
VERTEX
  5
30F0
  8
241
 10
290.4639999999999986
 20
-36.3678999999999988
 30
0.0
 70
    32
  0
VERTEX
  5
30F1
  8
241
 10
290.4669999999999845
 20
-36.3772999999999982
 30
0.0
 70
    32
  0
VERTEX
  5
30F2
  8
241
 10
290.4700000000000273
 20
-36.3866999999999976
 30
0.0
 70
    32
  0
VERTEX
  5
30F3
  8
241
 10
290.4730000000000132
 20
-36.3960000000000008
 30
0.0
 70
    32
  0
VERTEX
  5
30F4
  8
241
 10
290.4759999999999991
 20
-36.4054000000000002
 30
0.0
 70
    32
  0
VERTEX
  5
30F5
  8
241
 10
290.4780000000000086
 20
-36.4147999999999996
 30
0.0
 70
    32
  0
VERTEX
  5
30F6
  8
241
 10
290.4809999999999945
 20
-36.4241000000000028
 30
0.0
 70
    32
  0
VERTEX
  5
30F7
  8
241
 10
290.4839999999999804
 20
-36.4335000000000022
 30
0.0
 70
    32
  0
VERTEX
  5
30F8
  8
241
 10
290.4870000000000232
 20
-36.4429000000000016
 30
0.0
 70
    32
  0
VERTEX
  5
30F9
  8
241
 10
290.4900000000000091
 20
-36.452300000000001
 30
0.0
 70
    32
  0
VERTEX
  5
30FA
  8
241
 10
290.492999999999995
 20
-36.4617000000000004
 30
0.0
 70
    32
  0
VERTEX
  5
30FB
  8
241
 10
290.4959999999999809
 20
-36.4709999999999965
 30
0.0
 70
    32
  0
VERTEX
  5
30FC
  8
241
 10
290.4990000000000236
 20
-36.480400000000003
 30
0.0
 70
    32
  0
VERTEX
  5
30FD
  8
241
 10
290.5020000000000095
 20
-36.4898000000000025
 30
0.0
 70
    32
  0
VERTEX
  5
30FE
  8
241
 10
290.5040000000000191
 20
-36.4992000000000019
 30
0.0
 70
    32
  0
VERTEX
  5
30FF
  8
241
 10
290.507000000000005
 20
-36.5086000000000013
 30
0.0
 70
    32
  0
VERTEX
  5
3100
  8
241
 10
290.5099999999999909
 20
-36.5180000000000007
 30
0.0
 70
    32
  0
VERTEX
  5
3101
  8
241
 10
290.5129999999999768
 20
-36.5274000000000001
 30
0.0
 70
    32
  0
VERTEX
  5
3102
  8
241
 10
290.5160000000000196
 20
-36.5367999999999995
 30
0.0
 70
    32
  0
VERTEX
  5
3103
  8
241
 10
290.5190000000000055
 20
-36.5461999999999989
 30
0.0
 70
    32
  0
VERTEX
  5
3104
  8
241
 10
290.5219999999999914
 20
-36.5555999999999983
 30
0.0
 70
    32
  0
VERTEX
  5
3105
  8
241
 10
290.5249999999999773
 20
-36.5649999999999977
 30
0.0
 70
    32
  0
VERTEX
  5
3106
  8
241
 10
290.52800000000002
 20
-36.5743999999999971
 30
0.0
 70
    32
  0
VERTEX
  5
3107
  8
241
 10
290.5319999999999823
 20
-36.5837999999999965
 30
0.0
 70
    32
  0
VERTEX
  5
3108
  8
241
 10
290.535000000000025
 20
-36.5932000000000102
 30
0.0
 70
    32
  0
VERTEX
  5
3109
  8
241
 10
290.5380000000000109
 20
-36.6026000000000025
 30
0.0
 70
    32
  0
VERTEX
  5
310A
  8
241
 10
290.5409999999999968
 20
-36.6120000000000019
 30
0.0
 70
    32
  0
VERTEX
  5
310B
  8
241
 10
290.5439999999999827
 20
-36.6214000000000013
 30
0.0
 70
    32
  0
VERTEX
  5
310C
  8
241
 10
290.5470000000000255
 20
-36.6308000000000007
 30
0.0
 70
    32
  0
VERTEX
  5
310D
  8
241
 10
290.5500000000000114
 20
-36.6402000000000001
 30
0.0
 70
    32
  0
VERTEX
  5
310E
  8
241
 10
290.5529999999999973
 20
-36.6495999999999995
 30
0.0
 70
    32
  0
VERTEX
  5
310F
  8
241
 10
290.5570000000000164
 20
-36.6589999999999989
 30
0.0
 70
    32
  0
VERTEX
  5
3110
  8
241
 10
290.5600000000000023
 20
-36.6683999999999983
 30
0.0
 70
    32
  0
VERTEX
  5
3111
  8
241
 10
290.5629999999999882
 20
-36.6777999999999977
 30
0.0
 70
    32
  0
VERTEX
  5
3112
  8
241
 10
290.5659999999999741
 20
-36.6871999999999971
 30
0.0
 70
    32
  0
VERTEX
  5
3113
  8
241
 10
290.5690000000000168
 20
-36.6965999999999966
 30
0.0
 70
    32
  0
VERTEX
  5
3114
  8
241
 10
290.5729999999999791
 20
-36.7060000000000031
 30
0.0
 70
    32
  0
VERTEX
  5
3115
  8
241
 10
290.5760000000000218
 20
-36.7154000000000025
 30
0.0
 70
    32
  0
VERTEX
  5
3116
  8
241
 10
290.5790000000000077
 20
-36.7248999999999981
 30
0.0
 70
    32
  0
VERTEX
  5
3117
  8
241
 10
290.5819999999999936
 20
-36.7342999999999975
 30
0.0
 70
    32
  0
VERTEX
  5
3118
  8
241
 10
290.5860000000000127
 20
-36.7436999999999969
 30
0.0
 70
    32
  0
VERTEX
  5
3119
  8
241
 10
290.5889999999999986
 20
-36.7531000000000034
 30
0.0
 70
    32
  0
VERTEX
  5
311A
  8
241
 10
290.5919999999999845
 20
-36.7625000000000028
 30
0.0
 70
    32
  0
VERTEX
  5
311B
  8
241
 10
290.5960000000000036
 20
-36.7719000000000023
 30
0.0
 70
    32
  0
VERTEX
  5
311C
  8
241
 10
290.5989999999999895
 20
-36.7813000000000017
 30
0.0
 70
    32
  0
VERTEX
  5
311D
  8
241
 10
290.6019999999999754
 20
-36.7907000000000011
 30
0.0
 70
    32
  0
VERTEX
  5
311E
  8
241
 10
290.6059999999999945
 20
-36.8001000000000005
 30
0.0
 70
    32
  0
VERTEX
  5
311F
  8
241
 10
290.6089999999999804
 20
-36.8094999999999999
 30
0.0
 70
    32
  0
VERTEX
  5
3120
  8
241
 10
290.61200000000008
 20
-36.8188999999999993
 30
0.0
 70
    32
  0
VERTEX
  5
3121
  8
241
 10
290.6159999999999854
 20
-36.8282999999999987
 30
0.0
 70
    32
  0
VERTEX
  5
3122
  8
241
 10
290.6190000000000282
 20
-36.8376999999999981
 30
0.0
 70
    32
  0
VERTEX
  5
3123
  8
241
 10
290.6229999999999905
 20
-36.8470999999999975
 30
0.0
 70
    32
  0
VERTEX
  5
3124
  8
241
 10
290.6259999999999195
 20
-36.8564000000000007
 30
0.0
 70
    32
  0
VERTEX
  5
3125
  8
241
 10
290.6290000000000191
 20
-36.8658000000000001
 30
0.0
 70
    32
  0
VERTEX
  5
3126
  8
241
 10
290.6329999999999814
 20
-36.8751999999999995
 30
0.0
 70
    32
  0
VERTEX
  5
3127
  8
241
 10
290.6360000000000241
 20
-36.8845999999999989
 30
0.0
 70
    32
  0
VERTEX
  5
3128
  8
241
 10
290.6399999999999864
 20
-36.8939999999999984
 30
0.0
 70
    32
  0
VERTEX
  5
3129
  8
241
 10
290.6429999999999723
 20
-36.9033999999999978
 30
0.0
 70
    32
  0
VERTEX
  5
312A
  8
241
 10
290.6469999999999914
 20
-36.9127999999999972
 30
0.0
 70
    32
  0
VERTEX
  5
312B
  8
241
 10
290.6499999999999773
 20
-36.9221000000000004
 30
0.0
 70
    32
  0
VERTEX
  5
312C
  8
241
 10
290.6539999999999964
 20
-36.9314999999999998
 30
0.0
 70
    32
  0
VERTEX
  5
312D
  8
241
 10
290.6569999999999823
 20
-36.9408999999999992
 30
0.0
 70
    32
  0
VERTEX
  5
312E
  8
241
 10
290.6610000000000014
 20
-36.9502999999999986
 30
0.0
 70
    32
  0
VERTEX
  5
312F
  8
241
 10
290.6650000000000205
 20
-36.9596000000000018
 30
0.0
 70
    32
  0
VERTEX
  5
3130
  8
241
 10
290.6680000000000064
 20
-36.9690000000000012
 30
0.0
 70
    32
  0
VERTEX
  5
3131
  8
241
 10
290.6720000000000255
 20
-36.9784000000000006
 30
0.0
 70
    32
  0
VERTEX
  5
3132
  8
241
 10
290.6750000000000114
 20
-36.9876999999999967
 30
0.0
 70
    32
  0
VERTEX
  5
3133
  8
241
 10
290.6789999999999736
 20
-36.9971000000000032
 30
0.0
 70
    32
  0
VERTEX
  5
3134
  8
241
 10
290.6829999999999927
 20
-37.0063999999999993
 30
0.0
 70
    32
  0
VERTEX
  5
3135
  8
241
 10
290.6859999999999786
 20
-37.0157999999999987
 30
0.0
 70
    32
  0
VERTEX
  5
3136
  8
241
 10
290.6899999999999977
 20
-37.0251999999999981
 30
0.0
 70
    32
  0
VERTEX
  5
3137
  8
241
 10
290.6940000000000168
 20
-37.0345000000000013
 30
0.0
 70
    32
  0
VERTEX
  5
3138
  8
241
 10
290.6970000000000027
 20
-37.0437999999999974
 30
0.0
 70
    32
  0
VERTEX
  5
3139
  8
241
 10
290.7010000000000218
 20
-37.0531999999999968
 30
0.0
 70
    32
  0
VERTEX
  5
313A
  8
241
 10
290.7049999999999841
 20
-37.0625
 30
0.0
 70
    32
  0
VERTEX
  5
313B
  8
241
 10
290.7080000000000268
 20
-37.0718999999999994
 30
0.0
 70
    32
  0
VERTEX
  5
313C
  8
241
 10
290.7119999999999891
 20
-37.0812000000000026
 30
0.0
 70
    32
  0
VERTEX
  5
313D
  8
241
 10
290.7160000000000082
 20
-37.0904999999999987
 30
0.0
 70
    32
  0
VERTEX
  5
313E
  8
241
 10
290.7200000000000273
 20
-37.0998999999999981
 30
0.0
 70
    32
  0
VERTEX
  5
313F
  8
241
 10
290.7230000000000132
 20
-37.1092000000000013
 30
0.0
 70
    32
  0
VERTEX
  5
3140
  8
241
 10
290.7269999999999754
 20
-37.1184999999999974
 30
0.0
 70
    32
  0
VERTEX
  5
3141
  8
241
 10
290.7309999999999945
 20
-37.1278000000000006
 30
0.0
 70
    32
  0
VERTEX
  5
3142
  8
241
 10
290.7350000000000136
 20
-37.1370999999999967
 30
0.0
 70
    32
  0
VERTEX
  5
3143
  8
241
 10
290.7379999999999995
 20
-37.1463999999999999
 30
0.0
 70
    32
  0
VERTEX
  5
3144
  8
241
 10
290.7420000000000186
 20
-37.1557000000000031
 30
0.0
 70
    32
  0
VERTEX
  5
3145
  8
241
 10
290.7459999999999809
 20
-37.1649999999999991
 30
0.0
 70
    32
  0
VERTEX
  5
3146
  8
241
 10
290.75
 20
-37.1743000000000023
 30
0.0
 70
    32
  0
VERTEX
  5
3147
  8
241
 10
290.7540000000000191
 20
-37.1835999999999984
 30
0.0
 70
    32
  0
VERTEX
  5
3148
  8
241
 10
290.7579999999999814
 20
-37.1929000000000016
 30
0.0
 70
    32
  0
VERTEX
  5
3149
  8
241
 10
290.7620000000000005
 20
-37.2021999999999977
 30
0.0
 70
    32
  0
VERTEX
  5
314A
  8
241
 10
290.7649999999999864
 20
-37.2113999999999976
 30
0.0
 70
    32
  0
VERTEX
  5
314B
  8
241
 10
290.7690000000000055
 20
-37.2207000000000008
 30
0.0
 70
    32
  0
VERTEX
  5
314C
  8
241
 10
290.7730000000000246
 20
-37.2299999999999969
 30
0.0
 70
    32
  0
VERTEX
  5
314D
  8
241
 10
290.7769999999999868
 20
-37.2391999999999967
 30
0.0
 70
    32
  0
VERTEX
  5
314E
  8
241
 10
290.7810000000000059
 20
-37.2484999999999999
 30
0.0
 70
    32
  0
VERTEX
  5
314F
  8
241
 10
290.785000000000025
 20
-37.2578000000000031
 30
0.0
 70
    32
  0
SEQEND
  5
3150
  8
241
  0
LINE
  5
1896
  8
241
  6
CONTINUOUS
 10
340.3999999999999773
 20
-29.60000000000014
 30
0.0
 11
314.9999999999998863
 21
-29.60000000000014
 31
0.0
  0
LINE
  5
1897
  8
240
  6
CONTINUOUS
 10
315.000000092730204
 20
-54.9999999999996518
 30
0.0
 11
341.4824814533026824
 21
-54.9999999232547907
 31
0.0
  0
LINE
  5
189B
  8
241
  6
CONTINUOUS
 10
340.3999999999999204
 20
-54.9999999263917729
 30
0.0
 11
340.3999999999999773
 21
-29.60000000000014
 31
0.0
  0
ARC
  5
189C
  8
240
  6
CONTINUOUS
 10
314.9999999999998863
 20
-0.0000000000002274
 30
0.0
 40
62.5000000000000071
 50
301.6264283922932918
 51
326.1778378686706787
  0
ARC
  5
189E
  8
240
  6
CONTINUOUS
 10
341.4811768163473857
 20
-43.0001816479470875
 30
0.0
 40
11.9998183436439092
 50
270.0089884821636019
 51
301.6266336726594091
  0
LINE
  5
18A1
  8
240
  6
CONTINUOUS
 10
371.9999999999998863
 20
-16.0672104418490491
 30
0.0
 11
371.9999999999998863
 21
-12.0000000000002292
 31
0.0
  0
POLYLINE
  5
3151
  8
240
 66
     1
 10
0.0
 20
0.0
 30
0.0
 70
     8
  0
VERTEX
  5
3152
  8
240
 10
371.9979999999999905
 20
-11.4853000000000005
 30
0.0
 70
    32
  0
VERTEX
  5
3153
  8
240
 10
371.9979999999999905
 20
-11.4878999999999998
 30
0.0
 70
    32
  0
VERTEX
  5
3154
  8
240
 10
371.9979999999999905
 20
-11.4905000000000008
 30
0.0
 70
    32
  0
VERTEX
  5
3155
  8
240
 10
371.9979999999999905
 20
-11.4931000000000001
 30
0.0
 70
    32
  0
VERTEX
  5
3156
  8
240
 10
371.9979999999999905
 20
-11.4956999999999994
 30
0.0
 70
    32
  0
VERTEX
  5
3157
  8
240
 10
371.9979999999999905
 20
-11.4983000000000004
 30
0.0
 70
    32
  0
VERTEX
  5
3158
  8
240
 10
371.9979999999999905
 20
-11.5008999999999997
 30
0.0
 70
    32
  0
VERTEX
  5
3159
  8
240
 10
371.9979999999999905
 20
-11.5035000000000007
 30
0.0
 70
    32
  0
VERTEX
  5
315A
  8
240
 10
371.9979999999999905
 20
-11.5061
 30
0.0
 70
    32
  0
VERTEX
  5
315B
  8
240
 10
371.9979999999999905
 20
-11.5086999999999993
 30
0.0
 70
    32
  0
VERTEX
  5
315C
  8
240
 10
371.9979999999999905
 20
-11.5113000000000003
 30
0.0
 70
    32
  0
VERTEX
  5
315D
  8
240
 10
371.9979999999999905
 20
-11.5138999999999996
 30
0.0
 70
    32
  0
VERTEX
  5
315E
  8
240
 10
371.9979999999999905
 20
-11.5165000000000006
 30
0.0
 70
    32
  0
VERTEX
  5
315F
  8
240
 10
371.9979999999999905
 20
-11.5190999999999999
 30
0.0
 70
    32
  0
VERTEX
  5
3160
  8
240
 10
371.9979999999999905
 20
-11.5216999999999992
 30
0.0
 70
    32
  0
VERTEX
  5
3161
  8
240
 10
371.9979999999999905
 20
-11.5243000000000002
 30
0.0
 70
    32
  0
VERTEX
  5
3162
  8
240
 10
371.9979999999999905
 20
-11.5268999999999995
 30
0.0
 70
    32
  0
VERTEX
  5
3163
  8
240
 10
371.9979999999999905
 20
-11.5295000000000005
 30
0.0
 70
    32
  0
VERTEX
  5
3164
  8
240
 10
371.9979999999999905
 20
-11.5320999999999998
 30
0.0
 70
    32
  0
VERTEX
  5
3165
  8
240
 10
371.9979999999999905
 20
-11.5348000000000006
 30
0.0
 70
    32
  0
VERTEX
  5
3166
  8
240
 10
371.9979999999999905
 20
-11.5373999999999999
 30
0.0
 70
    32
  0
VERTEX
  5
3167
  8
240
 10
371.9979999999999905
 20
-11.5399999999999991
 30
0.0
 70
    32
  0
VERTEX
  5
3168
  8
240
 10
371.9979999999999905
 20
-11.5426000000000002
 30
0.0
 70
    32
  0
VERTEX
  5
3169
  8
240
 10
371.9979999999999905
 20
-11.5451999999999995
 30
0.0
 70
    32
  0
VERTEX
  5
316A
  8
240
 10
371.9979999999999905
 20
-11.5478000000000005
 30
0.0
 70
    32
  0
VERTEX
  5
316B
  8
240
 10
371.9979999999999905
 20
-11.5504999999999995
 30
0.0
 70
    32
  0
VERTEX
  5
316C
  8
240
 10
371.9979999999999905
 20
-11.5531000000000006
 30
0.0
 70
    32
  0
VERTEX
  5
316D
  8
240
 10
371.9979999999999905
 20
-11.5556999999999999
 30
0.0
 70
    32
  0
VERTEX
  5
316E
  8
240
 10
371.9979999999999905
 20
-11.5582999999999991
 30
0.0
 70
    32
  0
VERTEX
  5
316F
  8
240
 10
371.9979999999999905
 20
-11.5609999999999999
 30
0.0
 70
    32
  0
VERTEX
  5
3170
  8
240
 10
371.9979999999999905
 20
-11.5635999999999992
 30
0.0
 70
    32
  0
VERTEX
  5
3171
  8
240
 10
371.9979999999999905
 20
-11.5662000000000003
 30
0.0
 70
    32
  0
VERTEX
  5
3172
  8
240
 10
371.9979999999999905
 20
-11.5687999999999995
 30
0.0
 70
    32
  0
VERTEX
  5
3173
  8
240
 10
371.9979999999999905
 20
-11.5715000000000003
 30
0.0
 70
    32
  0
VERTEX
  5
3174
  8
240
 10
371.9979999999999905
 20
-11.5740999999999996
 30
0.0
 70
    32
  0
VERTEX
  5
3175
  8
240
 10
371.9979999999999905
 20
-11.5767000000000007
 30
0.0
 70
    32
  0
VERTEX
  5
3176
  8
240
 10
371.9979999999999905
 20
-11.5793999999999997
 30
0.0
 70
    32
  0
VERTEX
  5
3177
  8
240
 10
371.9979999999999905
 20
-11.5820000000000007
 30
0.0
 70
    32
  0
VERTEX
  5
3178
  8
240
 10
371.9979999999999905
 20
-11.5846
 30
0.0
 70
    32
  0
VERTEX
  5
3179
  8
240
 10
371.9990000000000236
 20
-11.5873000000000008
 30
0.0
 70
    32
  0
VERTEX
  5
317A
  8
240
 10
371.9990000000000236
 20
-11.5899000000000001
 30
0.0
 70
    32
  0
VERTEX
  5
317B
  8
240
 10
371.9990000000000236
 20
-11.5924999999999994
 30
0.0
 70
    32
  0
VERTEX
  5
317C
  8
240
 10
371.9990000000000236
 20
-11.5952000000000002
 30
0.0
 70
    32
  0
VERTEX
  5
317D
  8
240
 10
371.9990000000000236
 20
-11.5977999999999994
 30
0.0
 70
    32
  0
VERTEX
  5
317E
  8
240
 10
371.9990000000000236
 20
-11.6004000000000005
 30
0.0
 70
    32
  0
VERTEX
  5
317F
  8
240
 10
371.9990000000000236
 20
-11.6030999999999995
 30
0.0
 70
    32
  0
VERTEX
  5
3180
  8
240
 10
371.9990000000000236
 20
-11.6057000000000006
 30
0.0
 70
    32
  0
VERTEX
  5
3181
  8
240
 10
371.9990000000000236
 20
-11.6083999999999996
 30
0.0
 70
    32
  0
VERTEX
  5
3182
  8
240
 10
371.9990000000000236
 20
-11.6110000000000007
 30
0.0
 70
    32
  0
VERTEX
  5
3183
  8
240
 10
371.9990000000000236
 20
-11.6136999999999997
 30
0.0
 70
    32
  0
VERTEX
  5
3184
  8
240
 10
371.9990000000000236
 20
-11.6163000000000007
 30
0.0
 70
    32
  0
VERTEX
  5
3185
  8
240
 10
371.9990000000000236
 20
-11.6189999999999998
 30
0.0
 70
    32
  0
VERTEX
  5
3186
  8
240
 10
371.9990000000000236
 20
-11.6216000000000008
 30
0.0
 70
    32
  0
VERTEX
  5
3187
  8
240
 10
371.9990000000000236
 20
-11.6242999999999999
 30
0.0
 70
    32
  0
VERTEX
  5
3188
  8
240
 10
371.9990000000000236
 20
-11.6268999999999991
 30
0.0
 70
    32
  0
VERTEX
  5
3189
  8
240
 10
371.9990000000000236
 20
-11.6295999999999999
 30
0.0
 70
    32
  0
VERTEX
  5
318A
  8
240
 10
371.9990000000000236
 20
-11.6321999999999992
 30
0.0
 70
    32
  0
VERTEX
  5
318B
  8
240
 10
371.9990000000000236
 20
-11.6349
 30
0.0
 70
    32
  0
VERTEX
  5
318C
  8
240
 10
371.9990000000000236
 20
-11.6374999999999993
 30
0.0
 70
    32
  0
VERTEX
  5
318D
  8
240
 10
371.9990000000000236
 20
-11.6402000000000001
 30
0.0
 70
    32
  0
VERTEX
  5
318E
  8
240
 10
371.9990000000000236
 20
-11.6427999999999994
 30
0.0
 70
    32
  0
VERTEX
  5
318F
  8
240
 10
371.9990000000000236
 20
-11.6455000000000002
 30
0.0
 70
    32
  0
VERTEX
  5
3190
  8
240
 10
371.9990000000000236
 20
-11.6480999999999995
 30
0.0
 70
    32
  0
VERTEX
  5
3191
  8
240
 10
371.9990000000000236
 20
-11.6508000000000003
 30
0.0
 70
    32
  0
VERTEX
  5
3192
  8
240
 10
371.9990000000000236
 20
-11.6534999999999993
 30
0.0
 70
    32
  0
VERTEX
  5
3193
  8
240
 10
371.9990000000000236
 20
-11.6561000000000003
 30
0.0
 70
    32
  0
VERTEX
  5
3194
  8
240
 10
371.9990000000000236
 20
-11.6587999999999994
 30
0.0
 70
    32
  0
VERTEX
  5
3195
  8
240
 10
371.9990000000000236
 20
-11.6615000000000002
 30
0.0
 70
    32
  0
VERTEX
  5
3196
  8
240
 10
371.9990000000000236
 20
-11.6640999999999995
 30
0.0
 70
    32
  0
VERTEX
  5
3197
  8
240
 10
371.9990000000000236
 20
-11.6668000000000003
 30
0.0
 70
    32
  0
VERTEX
  5
3198
  8
240
 10
371.9990000000000236
 20
-11.6694999999999993
 30
0.0
 70
    32
  0
VERTEX
  5
3199
  8
240
 10
371.9990000000000236
 20
-11.6721000000000004
 30
0.0
 70
    32
  0
VERTEX
  5
319A
  8
240
 10
371.9990000000000236
 20
-11.6747999999999994
 30
0.0
 70
    32
  0
VERTEX
  5
319B
  8
240
 10
371.9990000000000236
 20
-11.6775000000000002
 30
0.0
 70
    32
  0
VERTEX
  5
319C
  8
240
 10
371.9990000000000236
 20
-11.6800999999999995
 30
0.0
 70
    32
  0
VERTEX
  5
319D
  8
240
 10
371.9990000000000236
 20
-11.6828000000000003
 30
0.0
 70
    32
  0
VERTEX
  5
319E
  8
240
 10
371.9990000000000236
 20
-11.6854999999999993
 30
0.0
 70
    32
  0
VERTEX
  5
319F
  8
240
 10
371.9990000000000236
 20
-11.6882000000000001
 30
0.0
 70
    32
  0
VERTEX
  5
31A0
  8
240
 10
371.9990000000000236
 20
-11.6907999999999994
 30
0.0
 70
    32
  0
VERTEX
  5
31A1
  8
240
 10
371.9990000000000236
 20
-11.6935000000000002
 30
0.0
 70
    32
  0
VERTEX
  5
31A2
  8
240
 10
371.9990000000000236
 20
-11.6961999999999993
 30
0.0
 70
    32
  0
VERTEX
  5
31A3
  8
240
 10
371.9990000000000236
 20
-11.6989000000000001
 30
0.0
 70
    32
  0
VERTEX
  5
31A4
  8
240
 10
371.9990000000000236
 20
-11.7015999999999991
 30
0.0
 70
    32
  0
VERTEX
  5
31A5
  8
240
 10
371.9990000000000236
 20
-11.7042000000000002
 30
0.0
 70
    32
  0
VERTEX
  5
31A6
  8
240
 10
371.9990000000000236
 20
-11.7068999999999992
 30
0.0
 70
    32
  0
VERTEX
  5
31A7
  8
240
 10
371.9990000000000236
 20
-11.7096
 30
0.0
 70
    32
  0
VERTEX
  5
31A8
  8
240
 10
371.9990000000000236
 20
-11.7123000000000008
 30
0.0
 70
    32
  0
VERTEX
  5
31A9
  8
240
 10
371.9990000000000236
 20
-11.7149999999999999
 30
0.0
 70
    32
  0
VERTEX
  5
31AA
  8
240
 10
371.9990000000000236
 20
-11.7177000000000007
 30
0.0
 70
    32
  0
VERTEX
  5
31AB
  8
240
 10
371.9990000000000236
 20
-11.7203999999999997
 30
0.0
 70
    32
  0
VERTEX
  5
31AC
  8
240
 10
371.9990000000000236
 20
-11.7230000000000008
 30
0.0
 70
    32
  0
VERTEX
  5
31AD
  8
240
 10
371.9990000000000236
 20
-11.7256999999999998
 30
0.0
 70
    32
  0
VERTEX
  5
31AE
  8
240
 10
371.9990000000000236
 20
-11.7284000000000006
 30
0.0
 70
    32
  0
VERTEX
  5
31AF
  8
240
 10
371.9990000000000236
 20
-11.7310999999999996
 30
0.0
 70
    32
  0
VERTEX
  5
31B0
  8
240
 10
371.9990000000000236
 20
-11.7338000000000005
 30
0.0
 70
    32
  0
VERTEX
  5
31B1
  8
240
 10
371.9990000000000236
 20
-11.7364999999999995
 30
0.0
 70
    32
  0
VERTEX
  5
31B2
  8
240
 10
371.9990000000000236
 20
-11.7392000000000003
 30
0.0
 70
    32
  0
VERTEX
  5
31B3
  8
240
 10
371.9990000000000236
 20
-11.7418999999999993
 30
0.0
 70
    32
  0
VERTEX
  5
31B4
  8
240
 10
371.9990000000000236
 20
-11.7446000000000002
 30
0.0
 70
    32
  0
VERTEX
  5
31B5
  8
240
 10
371.9990000000000236
 20
-11.7472999999999992
 30
0.0
 70
    32
  0
VERTEX
  5
31B6
  8
240
 10
371.9990000000000236
 20
-11.75
 30
0.0
 70
    32
  0
VERTEX
  5
31B7
  8
240
 10
371.9990000000000236
 20
-11.7527000000000008
 30
0.0
 70
    32
  0
VERTEX
  5
31B8
  8
240
 10
371.9990000000000236
 20
-11.7553999999999998
 30
0.0
 70
    32
  0
VERTEX
  5
31B9
  8
240
 10
371.9990000000000236
 20
-11.7581000000000007
 30
0.0
 70
    32
  0
VERTEX
  5
31BA
  8
240
 10
371.9990000000000236
 20
-11.7607999999999997
 30
0.0
 70
    32
  0
VERTEX
  5
31BB
  8
240
 10
372.0
 20
-11.7635000000000005
 30
0.0
 70
    32
  0
VERTEX
  5
31BC
  8
240
 10
372.0
 20
-11.7661999999999995
 30
0.0
 70
    32
  0
VERTEX
  5
31BD
  8
240
 10
372.0
 20
-11.7689000000000004
 30
0.0
 70
    32
  0
VERTEX
  5
31BE
  8
240
 10
372.0
 20
-11.7715999999999994
 30
0.0
 70
    32
  0
VERTEX
  5
31BF
  8
240
 10
372.0
 20
-11.7743000000000002
 30
0.0
 70
    32
  0
VERTEX
  5
31C0
  8
240
 10
372.0
 20
-11.7769999999999992
 30
0.0
 70
    32
  0
VERTEX
  5
31C1
  8
240
 10
372.0
 20
-11.7797999999999998
 30
0.0
 70
    32
  0
VERTEX
  5
31C2
  8
240
 10
372.0
 20
-11.7825000000000006
 30
0.0
 70
    32
  0
VERTEX
  5
31C3
  8
240
 10
372.0
 20
-11.7851999999999997
 30
0.0
 70
    32
  0
VERTEX
  5
31C4
  8
240
 10
372.0
 20
-11.7879000000000005
 30
0.0
 70
    32
  0
VERTEX
  5
31C5
  8
240
 10
372.0
 20
-11.7905999999999995
 30
0.0
 70
    32
  0
VERTEX
  5
31C6
  8
240
 10
372.0
 20
-11.7933000000000003
 30
0.0
 70
    32
  0
VERTEX
  5
31C7
  8
240
 10
372.0
 20
-11.7959999999999994
 30
0.0
 70
    32
  0
VERTEX
  5
31C8
  8
240
 10
372.0
 20
-11.7988
 30
0.0
 70
    32
  0
VERTEX
  5
31C9
  8
240
 10
372.0
 20
-11.8015000000000008
 30
0.0
 70
    32
  0
VERTEX
  5
31CA
  8
240
 10
372.0
 20
-11.8041999999999998
 30
0.0
 70
    32
  0
VERTEX
  5
31CB
  8
240
 10
372.0
 20
-11.8069000000000006
 30
0.0
 70
    32
  0
VERTEX
  5
31CC
  8
240
 10
372.0
 20
-11.8095999999999997
 30
0.0
 70
    32
  0
VERTEX
  5
31CD
  8
240
 10
372.0
 20
-11.8124000000000002
 30
0.0
 70
    32
  0
VERTEX
  5
31CE
  8
240
 10
372.0
 20
-11.8150999999999993
 30
0.0
 70
    32
  0
VERTEX
  5
31CF
  8
240
 10
372.0
 20
-11.8178000000000001
 30
0.0
 70
    32
  0
VERTEX
  5
31D0
  8
240
 10
372.0
 20
-11.8204999999999991
 30
0.0
 70
    32
  0
VERTEX
  5
31D1
  8
240
 10
372.0
 20
-11.8232999999999997
 30
0.0
 70
    32
  0
VERTEX
  5
31D2
  8
240
 10
372.0
 20
-11.8260000000000005
 30
0.0
 70
    32
  0
VERTEX
  5
31D3
  8
240
 10
372.0
 20
-11.8286999999999995
 30
0.0
 70
    32
  0
VERTEX
  5
31D4
  8
240
 10
372.0
 20
-11.8315000000000001
 30
0.0
 70
    32
  0
VERTEX
  5
31D5
  8
240
 10
372.0
 20
-11.8341999999999992
 30
0.0
 70
    32
  0
VERTEX
  5
31D6
  8
240
 10
372.0
 20
-11.8369
 30
0.0
 70
    32
  0
VERTEX
  5
31D7
  8
240
 10
372.0
 20
-11.8397000000000006
 30
0.0
 70
    32
  0
VERTEX
  5
31D8
  8
240
 10
372.0
 20
-11.8423999999999996
 30
0.0
 70
    32
  0
VERTEX
  5
31D9
  8
240
 10
372.0
 20
-11.8451000000000004
 30
0.0
 70
    32
  0
VERTEX
  5
31DA
  8
240
 10
372.0
 20
-11.8478999999999992
 30
0.0
 70
    32
  0
VERTEX
  5
31DB
  8
240
 10
372.0
 20
-11.8506
 30
0.0
 70
    32
  0
VERTEX
  5
31DC
  8
240
 10
372.0
 20
-11.8533000000000008
 30
0.0
 70
    32
  0
VERTEX
  5
31DD
  8
240
 10
372.0
 20
-11.8560999999999996
 30
0.0
 70
    32
  0
VERTEX
  5
31DE
  8
240
 10
372.0
 20
-11.8588000000000005
 30
0.0
 70
    32
  0
VERTEX
  5
31DF
  8
240
 10
372.0
 20
-11.8615999999999993
 30
0.0
 70
    32
  0
VERTEX
  5
31E0
  8
240
 10
372.0
 20
-11.8643000000000001
 30
0.0
 70
    32
  0
VERTEX
  5
31E1
  8
240
 10
372.0
 20
-11.8671000000000006
 30
0.0
 70
    32
  0
VERTEX
  5
31E2
  8
240
 10
372.0
 20
-11.8697999999999997
 30
0.0
 70
    32
  0
VERTEX
  5
31E3
  8
240
 10
372.0
 20
-11.8726000000000003
 30
0.0
 70
    32
  0
VERTEX
  5
31E4
  8
240
 10
372.0
 20
-11.8752999999999993
 30
0.0
 70
    32
  0
VERTEX
  5
31E5
  8
240
 10
372.0
 20
-11.8780000000000001
 30
0.0
 70
    32
  0
VERTEX
  5
31E6
  8
240
 10
372.0
 20
-11.8808000000000007
 30
0.0
 70
    32
  0
VERTEX
  5
31E7
  8
240
 10
372.0
 20
-11.8834999999999997
 30
0.0
 70
    32
  0
VERTEX
  5
31E8
  8
240
 10
372.0
 20
-11.8863000000000003
 30
0.0
 70
    32
  0
VERTEX
  5
31E9
  8
240
 10
372.0
 20
-11.8890999999999991
 30
0.0
 70
    32
  0
VERTEX
  5
31EA
  8
240
 10
372.0
 20
-11.8917999999999999
 30
0.0
 70
    32
  0
VERTEX
  5
31EB
  8
240
 10
372.0
 20
-11.8946000000000005
 30
0.0
 70
    32
  0
VERTEX
  5
31EC
  8
240
 10
372.0
 20
-11.8972999999999995
 30
0.0
 70
    32
  0
VERTEX
  5
31ED
  8
240
 10
372.0
 20
-11.9001000000000001
 30
0.0
 70
    32
  0
VERTEX
  5
31EE
  8
240
 10
372.0
 20
-11.9027999999999992
 30
0.0
 70
    32
  0
VERTEX
  5
31EF
  8
240
 10
372.0
 20
-11.9055999999999997
 30
0.0
 70
    32
  0
VERTEX
  5
31F0
  8
240
 10
372.0
 20
-11.9083000000000006
 30
0.0
 70
    32
  0
VERTEX
  5
31F1
  8
240
 10
372.0
 20
-11.9110999999999994
 30
0.0
 70
    32
  0
VERTEX
  5
31F2
  8
240
 10
372.0
 20
-11.9138999999999999
 30
0.0
 70
    32
  0
VERTEX
  5
31F3
  8
240
 10
372.0
 20
-11.9166000000000007
 30
0.0
 70
    32
  0
VERTEX
  5
31F4
  8
240
 10
372.0
 20
-11.9193999999999996
 30
0.0
 70
    32
  0
VERTEX
  5
31F5
  8
240
 10
372.0
 20
-11.9222000000000001
 30
0.0
 70
    32
  0
VERTEX
  5
31F6
  8
240
 10
372.0
 20
-11.9248999999999992
 30
0.0
 70
    32
  0
VERTEX
  5
31F7
  8
240
 10
372.0
 20
-11.9276999999999997
 30
0.0
 70
    32
  0
VERTEX
  5
31F8
  8
240
 10
372.0
 20
-11.9305000000000003
 30
0.0
 70
    32
  0
VERTEX
  5
31F9
  8
240
 10
372.0
 20
-11.9331999999999994
 30
0.0
 70
    32
  0
VERTEX
  5
31FA
  8
240
 10
372.0
 20
-11.9359999999999999
 30
0.0
 70
    32
  0
VERTEX
  5
31FB
  8
240
 10
372.0
 20
-11.9388000000000005
 30
0.0
 70
    32
  0
VERTEX
  5
31FC
  8
240
 10
372.0
 20
-11.9414999999999996
 30
0.0
 70
    32
  0
VERTEX
  5
31FD
  8
240
 10
372.0
 20
-11.9443000000000001
 30
0.0
 70
    32
  0
VERTEX
  5
31FE
  8
240
 10
372.0
 20
-11.9471000000000007
 30
0.0
 70
    32
  0
VERTEX
  5
31FF
  8
240
 10
372.0
 20
-11.9498999999999995
 30
0.0
 70
    32
  0
VERTEX
  5
3200
  8
240
 10
372.0
 20
-11.9526000000000003
 30
0.0
 70
    32
  0
VERTEX
  5
3201
  8
240
 10
372.0
 20
-11.9553999999999991
 30
0.0
 70
    32
  0
VERTEX
  5
3202
  8
240
 10
372.0
 20
-11.9581999999999997
 30
0.0
 70
    32
  0
VERTEX
  5
3203
  8
240
 10
372.0
 20
-11.9610000000000003
 30
0.0
 70
    32
  0
VERTEX
  5
3204
  8
240
 10
372.0
 20
-11.9638000000000009
 30
0.0
 70
    32
  0
VERTEX
  5
3205
  8
240
 10
372.0
 20
-11.9664999999999999
 30
0.0
 70
    32
  0
VERTEX
  5
3206
  8
240
 10
372.0
 20
-11.9693000000000005
 30
0.0
 70
    32
  0
VERTEX
  5
3207
  8
240
 10
372.0
 20
-11.9720999999999993
 30
0.0
 70
    32
  0
VERTEX
  5
3208
  8
240
 10
372.0
 20
-11.9748999999999999
 30
0.0
 70
    32
  0
VERTEX
  5
3209
  8
240
 10
372.0
 20
-11.9777000000000005
 30
0.0
 70
    32
  0
VERTEX
  5
320A
  8
240
 10
372.0
 20
-11.9804999999999993
 30
0.0
 70
    32
  0
VERTEX
  5
320B
  8
240
 10
372.0
 20
-11.9832999999999998
 30
0.0
 70
    32
  0
VERTEX
  5
320C
  8
240
 10
372.0
 20
-11.9860000000000007
 30
0.0
 70
    32
  0
VERTEX
  5
320D
  8
240
 10
372.0
 20
-11.9887999999999995
 30
0.0
 70
    32
  0
VERTEX
  5
320E
  8
240
 10
372.0
 20
-11.9916
 30
0.0
 70
    32
  0
VERTEX
  5
320F
  8
240
 10
372.0
 20
-11.9944000000000006
 30
0.0
 70
    32
  0
VERTEX
  5
3210
  8
240
 10
372.0
 20
-11.9971999999999994
 30
0.0
 70
    32
  0
VERTEX
  5
3211
  8
240
 10
372.0
 20
-12.0
 30
0.0
 70
    32
  0
SEQEND
  5
3212
  8
240
  0
POLYLINE
  5
3213
  8
240
 66
     1
 10
0.0
 20
0.0
 30
0.0
 70
     8
  0
VERTEX
  5
3214
  8
240
 10
372.0
 20
-16.0671999999999997
 30
0.0
 70
    32
  0
VERTEX
  5
3215
  8
240
 10
372.0
 20
-16.0779999999999994
 30
0.0
 70
    32
  0
VERTEX
  5
3216
  8
240
 10
372.0
 20
-16.0886999999999993
 30
0.0
 70
    32
  0
VERTEX
  5
3217
  8
240
 10
372.0
 20
-16.099499999999999
 30
0.0
 70
    32
  0
VERTEX
  5
3218
  8
240
 10
372.0
 20
-16.1102999999999987
 30
0.0
 70
    32
  0
VERTEX
  5
3219
  8
240
 10
372.0
 20
-16.1209999999999987
 30
0.0
 70
    32
  0
VERTEX
  5
321A
  8
240
 10
372.0
 20
-16.1317999999999984
 30
0.0
 70
    32
  0
VERTEX
  5
321B
  8
240
 10
372.0
 20
-16.1424999999999983
 30
0.0
 70
    32
  0
VERTEX
  5
321C
  8
240
 10
372.0
 20
-16.1533000000000015
 30
0.0
 70
    32
  0
VERTEX
  5
321D
  8
240
 10
372.0
 20
-16.1640000000000015
 30
0.0
 70
    32
  0
VERTEX
  5
321E
  8
240
 10
372.0
 20
-16.1748000000000012
 30
0.0
 70
    32
  0
VERTEX
  5
321F
  8
240
 10
372.0
 20
-16.1855000000000011
 30
0.0
 70
    32
  0
VERTEX
  5
3220
  8
240
 10
372.0
 20
-16.1963000000000008
 30
0.0
 70
    32
  0
VERTEX
  5
3221
  8
240
 10
372.0
 20
-16.2070000000000007
 30
0.0
 70
    32
  0
VERTEX
  5
3222
  8
240
 10
372.0
 20
-16.2178000000000004
 30
0.0
 70
    32
  0
VERTEX
  5
3223
  8
240
 10
372.0
 20
-16.2285000000000004
 30
0.0
 70
    32
  0
VERTEX
  5
3224
  8
240
 10
372.0
 20
-16.2392000000000003
 30
0.0
 70
    32
  0
VERTEX
  5
3225
  8
240
 10
372.0
 20
-16.25
 30
0.0
 70
    32
  0
VERTEX
  5
3226
  8
240
 10
372.0
 20
-16.2606999999999999
 30
0.0
 70
    32
  0
VERTEX
  5
3227
  8
240
 10
372.0
 20
-16.2713999999999999
 30
0.0
 70
    32
  0
VERTEX
  5
3228
  8
240
 10
372.0
 20
-16.2821999999999996
 30
0.0
 70
    32
  0
VERTEX
  5
3229
  8
240
 10
372.0
 20
-16.2928999999999995
 30
0.0
 70
    32
  0
VERTEX
  5
322A
  8
240
 10
372.0
 20
-16.3035999999999994
 30
0.0
 70
    32
  0
VERTEX
  5
322B
  8
240
 10
372.0
 20
-16.3143999999999991
 30
0.0
 70
    32
  0
VERTEX
  5
322C
  8
240
 10
372.0
 20
-16.3250999999999991
 30
0.0
 70
    32
  0
VERTEX
  5
322D
  8
240
 10
372.0
 20
-16.335799999999999
 30
0.0
 70
    32
  0
VERTEX
  5
322E
  8
240
 10
372.0
 20
-16.3464999999999989
 30
0.0
 70
    32
  0
VERTEX
  5
322F
  8
240
 10
372.0
 20
-16.3571999999999989
 30
0.0
 70
    32
  0
VERTEX
  5
3230
  8
240
 10
372.0
 20
-16.3679999999999986
 30
0.0
 70
    32
  0
VERTEX
  5
3231
  8
240
 10
372.0
 20
-16.3786999999999985
 30
0.0
 70
    32
  0
VERTEX
  5
3232
  8
240
 10
372.0
 20
-16.3893999999999984
 30
0.0
 70
    32
  0
VERTEX
  5
3233
  8
240
 10
372.0
 20
-16.4000999999999983
 30
0.0
 70
    32
  0
VERTEX
  5
3234
  8
240
 10
372.0
 20
-16.4107999999999983
 30
0.0
 70
    32
  0
VERTEX
  5
3235
  8
240
 10
372.0
 20
-16.4215000000000018
 30
0.0
 70
    32
  0
VERTEX
  5
3236
  8
240
 10
372.0
 20
-16.4322000000000017
 30
0.0
 70
    32
  0
VERTEX
  5
3237
  8
240
 10
372.0
 20
-16.4429000000000016
 30
0.0
 70
    32
  0
VERTEX
  5
3238
  8
240
 10
372.0
 20
-16.4536000000000016
 30
0.0
 70
    32
  0
VERTEX
  5
3239
  8
240
 10
372.0
 20
-16.4644000000000013
 30
0.0
 70
    32
  0
VERTEX
  5
323A
  8
240
 10
372.0
 20
-16.4751000000000012
 30
0.0
 70
    32
  0
VERTEX
  5
323B
  8
240
 10
372.0
 20
-16.4858000000000011
 30
0.0
 70
    32
  0
VERTEX
  5
323C
  8
240
 10
372.0
 20
-16.4964000000000013
 30
0.0
 70
    32
  0
VERTEX
  5
323D
  8
240
 10
372.0
 20
-16.5071000000000012
 30
0.0
 70
    32
  0
VERTEX
  5
323E
  8
240
 10
372.0
 20
-16.5178000000000011
 30
0.0
 70
    32
  0
VERTEX
  5
323F
  8
240
 10
372.0
 20
-16.5285000000000011
 30
0.0
 70
    32
  0
VERTEX
  5
3240
  8
240
 10
372.0
 20
-16.539200000000001
 30
0.0
 70
    32
  0
VERTEX
  5
3241
  8
240
 10
372.0
 20
-16.5499000000000009
 30
0.0
 70
    32
  0
VERTEX
  5
3242
  8
240
 10
372.0
 20
-16.5606000000000009
 30
0.0
 70
    32
  0
VERTEX
  5
3243
  8
240
 10
372.0
 20
-16.5713000000000008
 30
0.0
 70
    32
  0
VERTEX
  5
3244
  8
240
 10
372.0
 20
-16.5820000000000007
 30
0.0
 70
    32
  0
VERTEX
  5
3245
  8
240
 10
372.0
 20
-16.5926000000000009
 30
0.0
 70
    32
  0
VERTEX
  5
3246
  8
240
 10
372.0
 20
-16.6033000000000008
 30
0.0
 70
    32
  0
VERTEX
  5
3247
  8
240
 10
372.0
 20
-16.6140000000000008
 30
0.0
 70
    32
  0
VERTEX
  5
3248
  8
240
 10
372.0
 20
-16.6247000000000007
 30
0.0
 70
    32
  0
VERTEX
  5
3249
  8
240
 10
372.0
 20
-16.6354000000000006
 30
0.0
 70
    32
  0
VERTEX
  5
324A
  8
240
 10
372.0
 20
-16.6460000000000008
 30
0.0
 70
    32
  0
VERTEX
  5
324B
  8
240
 10
372.0
 20
-16.6567000000000007
 30
0.0
 70
    32
  0
VERTEX
  5
324C
  8
240
 10
372.0
 20
-16.6674000000000007
 30
0.0
 70
    32
  0
VERTEX
  5
324D
  8
240
 10
372.0
 20
-16.6780000000000008
 30
0.0
 70
    32
  0
VERTEX
  5
324E
  8
240
 10
372.0
 20
-16.6887000000000008
 30
0.0
 70
    32
  0
VERTEX
  5
324F
  8
240
 10
372.0
 20
-16.6994000000000007
 30
0.0
 70
    32
  0
VERTEX
  5
3250
  8
240
 10
372.0
 20
-16.7100000000000009
 30
0.0
 70
    32
  0
VERTEX
  5
3251
  8
240
 10
372.0
 20
-16.7207000000000008
 30
0.0
 70
    32
  0
VERTEX
  5
3252
  8
240
 10
372.0
 20
-16.7313000000000009
 30
0.0
 70
    32
  0
VERTEX
  5
3253
  8
240
 10
372.0
 20
-16.7420000000000009
 30
0.0
 70
    32
  0
VERTEX
  5
3254
  8
240
 10
372.0
 20
-16.7527000000000008
 30
0.0
 70
    32
  0
VERTEX
  5
3255
  8
240
 10
372.0
 20
-16.763300000000001
 30
0.0
 70
    32
  0
VERTEX
  5
3256
  8
240
 10
372.0
 20
-16.7740000000000009
 30
0.0
 70
    32
  0
VERTEX
  5
3257
  8
240
 10
372.0
 20
-16.7846000000000011
 30
0.0
 70
    32
  0
VERTEX
  5
3258
  8
240
 10
372.0
 20
-16.795300000000001
 30
0.0
 70
    32
  0
VERTEX
  5
3259
  8
240
 10
372.0
 20
-16.8059000000000012
 30
0.0
 70
    32
  0
VERTEX
  5
325A
  8
240
 10
372.0
 20
-16.8165000000000013
 30
0.0
 70
    32
  0
VERTEX
  5
325B
  8
240
 10
372.0
 20
-16.8272000000000013
 30
0.0
 70
    32
  0
VERTEX
  5
325C
  8
240
 10
372.0
 20
-16.8378000000000014
 30
0.0
 70
    32
  0
VERTEX
  5
325D
  8
240
 10
372.0
 20
-16.8485000000000014
 30
0.0
 70
    32
  0
VERTEX
  5
325E
  8
240
 10
372.0
 20
-16.8591000000000015
 30
0.0
 70
    32
  0
VERTEX
  5
325F
  8
240
 10
372.0
 20
-16.8697000000000017
 30
0.0
 70
    32
  0
VERTEX
  5
3260
  8
240
 10
372.0
 20
-16.8804000000000016
 30
0.0
 70
    32
  0
VERTEX
  5
3261
  8
240
 10
372.0
 20
-16.8909999999999982
 30
0.0
 70
    32
  0
VERTEX
  5
3262
  8
240
 10
372.0
 20
-16.9015999999999984
 30
0.0
 70
    32
  0
VERTEX
  5
3263
  8
240
 10
372.0
 20
-16.9122999999999983
 30
0.0
 70
    32
  0
VERTEX
  5
3264
  8
240
 10
372.0
 20
-16.9228999999999985
 30
0.0
 70
    32
  0
VERTEX
  5
3265
  8
240
 10
372.0
 20
-16.9334999999999987
 30
0.0
 70
    32
  0
VERTEX
  5
3266
  8
240
 10
372.0
 20
-16.9440999999999988
 30
0.0
 70
    32
  0
VERTEX
  5
3267
  8
240
 10
372.0
 20
-16.954699999999999
 30
0.0
 70
    32
  0
VERTEX
  5
3268
  8
240
 10
372.0
 20
-16.9653999999999989
 30
0.0
 70
    32
  0
VERTEX
  5
3269
  8
240
 10
372.0
 20
-16.9759999999999991
 30
0.0
 70
    32
  0
VERTEX
  5
326A
  8
240
 10
372.0
 20
-16.9865999999999993
 30
0.0
 70
    32
  0
VERTEX
  5
326B
  8
240
 10
372.0
 20
-16.9971999999999994
 30
0.0
 70
    32
  0
VERTEX
  5
326C
  8
240
 10
372.0
 20
-17.0077999999999996
 30
0.0
 70
    32
  0
VERTEX
  5
326D
  8
240
 10
372.0
 20
-17.0183999999999997
 30
0.0
 70
    32
  0
VERTEX
  5
326E
  8
240
 10
372.0
 20
-17.0289999999999999
 30
0.0
 70
    32
  0
VERTEX
  5
326F
  8
240
 10
372.0
 20
-17.0396000000000001
 30
0.0
 70
    32
  0
VERTEX
  5
3270
  8
240
 10
372.0
 20
-17.0502000000000002
 30
0.0
 70
    32
  0
VERTEX
  5
3271
  8
240
 10
372.0
 20
-17.0608000000000004
 30
0.0
 70
    32
  0
VERTEX
  5
3272
  8
240
 10
372.0
 20
-17.0714000000000006
 30
0.0
 70
    32
  0
VERTEX
  5
3273
  8
240
 10
372.0
 20
-17.0820000000000007
 30
0.0
 70
    32
  0
VERTEX
  5
3274
  8
240
 10
372.0
 20
-17.0926000000000009
 30
0.0
 70
    32
  0
VERTEX
  5
3275
  8
240
 10
372.0
 20
-17.1032000000000011
 30
0.0
 70
    32
  0
VERTEX
  5
3276
  8
240
 10
372.0
 20
-17.1138000000000012
 30
0.0
 70
    32
  0
VERTEX
  5
3277
  8
240
 10
372.0
 20
-17.1244000000000014
 30
0.0
 70
    32
  0
VERTEX
  5
3278
  8
240
 10
372.0
 20
-17.1350000000000016
 30
0.0
 70
    32
  0
VERTEX
  5
3279
  8
240
 10
372.0
 20
-17.1456000000000017
 30
0.0
 70
    32
  0
VERTEX
  5
327A
  8
240
 10
372.0
 20
-17.1561999999999983
 30
0.0
 70
    32
  0
VERTEX
  5
327B
  8
240
 10
372.0
 20
-17.1666999999999987
 30
0.0
 70
    32
  0
VERTEX
  5
327C
  8
240
 10
372.0
 20
-17.1772999999999989
 30
0.0
 70
    32
  0
VERTEX
  5
327D
  8
240
 10
372.0
 20
-17.1878999999999991
 30
0.0
 70
    32
  0
VERTEX
  5
327E
  8
240
 10
372.0
 20
-17.1984999999999992
 30
0.0
 70
    32
  0
VERTEX
  5
327F
  8
240
 10
372.0
 20
-17.2089999999999996
 30
0.0
 70
    32
  0
VERTEX
  5
3280
  8
240
 10
372.0
 20
-17.2195999999999998
 30
0.0
 70
    32
  0
VERTEX
  5
3281
  8
240
 10
372.0
 20
-17.2302
 30
0.0
 70
    32
  0
VERTEX
  5
3282
  8
240
 10
372.0
 20
-17.2408000000000001
 30
0.0
 70
    32
  0
VERTEX
  5
3283
  8
240
 10
372.0
 20
-17.2513000000000005
 30
0.0
 70
    32
  0
VERTEX
  5
3284
  8
240
 10
372.0
 20
-17.2619000000000007
 30
0.0
 70
    32
  0
VERTEX
  5
3285
  8
240
 10
372.0
 20
-17.2724000000000011
 30
0.0
 70
    32
  0
VERTEX
  5
3286
  8
240
 10
372.0
 20
-17.2830000000000013
 30
0.0
 70
    32
  0
VERTEX
  5
3287
  8
240
 10
372.0
 20
-17.2936000000000014
 30
0.0
 70
    32
  0
VERTEX
  5
3288
  8
240
 10
372.0
 20
-17.3040999999999983
 30
0.0
 70
    32
  0
VERTEX
  5
3289
  8
240
 10
372.0
 20
-17.3146999999999984
 30
0.0
 70
    32
  0
VERTEX
  5
328A
  8
240
 10
372.0
 20
-17.3251999999999988
 30
0.0
 70
    32
  0
VERTEX
  5
328B
  8
240
 10
372.0
 20
-17.335799999999999
 30
0.0
 70
    32
  0
VERTEX
  5
328C
  8
240
 10
372.0
 20
-17.3462999999999994
 30
0.0
 70
    32
  0
VERTEX
  5
328D
  8
240
 10
372.0
 20
-17.3568999999999996
 30
0.0
 70
    32
  0
VERTEX
  5
328E
  8
240
 10
372.0
 20
-17.3673999999999999
 30
0.0
 70
    32
  0
VERTEX
  5
328F
  8
240
 10
372.0
 20
-17.3780000000000001
 30
0.0
 70
    32
  0
VERTEX
  5
3290
  8
240
 10
372.0
 20
-17.3885000000000005
 30
0.0
 70
    32
  0
VERTEX
  5
3291
  8
240
 10
372.0
 20
-17.3990000000000009
 30
0.0
 70
    32
  0
VERTEX
  5
3292
  8
240
 10
372.0
 20
-17.4096000000000011
 30
0.0
 70
    32
  0
VERTEX
  5
3293
  8
240
 10
372.0
 20
-17.4201000000000015
 30
0.0
 70
    32
  0
VERTEX
  5
3294
  8
240
 10
372.0
 20
-17.4305999999999983
 30
0.0
 70
    32
  0
VERTEX
  5
3295
  8
240
 10
372.0
 20
-17.4411999999999985
 30
0.0
 70
    32
  0
VERTEX
  5
3296
  8
240
 10
372.0
 20
-17.4516999999999989
 30
0.0
 70
    32
  0
VERTEX
  5
3297
  8
240
 10
372.0
 20
-17.4621999999999993
 30
0.0
 70
    32
  0
VERTEX
  5
3298
  8
240
 10
372.0
 20
-17.4727999999999994
 30
0.0
 70
    32
  0
VERTEX
  5
3299
  8
240
 10
372.0
 20
-17.4832999999999998
 30
0.0
 70
    32
  0
VERTEX
  5
329A
  8
240
 10
372.0
 20
-17.4938000000000002
 30
0.0
 70
    32
  0
VERTEX
  5
329B
  8
240
 10
372.0
 20
-17.5043000000000006
 30
0.0
 70
    32
  0
VERTEX
  5
329C
  8
240
 10
372.0
 20
-17.514800000000001
 30
0.0
 70
    32
  0
VERTEX
  5
329D
  8
240
 10
372.0
 20
-17.5253000000000014
 30
0.0
 70
    32
  0
VERTEX
  5
329E
  8
240
 10
372.0
 20
-17.5359000000000016
 30
0.0
 70
    32
  0
VERTEX
  5
329F
  8
240
 10
372.0
 20
-17.5463999999999984
 30
0.0
 70
    32
  0
VERTEX
  5
32A0
  8
240
 10
372.0
 20
-17.5568999999999988
 30
0.0
 70
    32
  0
VERTEX
  5
32A1
  8
240
 10
372.0
 20
-17.5673999999999992
 30
0.0
 70
    32
  0
VERTEX
  5
32A2
  8
240
 10
372.0
 20
-17.5778999999999996
 30
0.0
 70
    32
  0
VERTEX
  5
32A3
  8
240
 10
372.0
 20
-17.5884
 30
0.0
 70
    32
  0
VERTEX
  5
32A4
  8
240
 10
372.0
 20
-17.5989000000000004
 30
0.0
 70
    32
  0
VERTEX
  5
32A5
  8
240
 10
372.0
 20
-17.6094000000000008
 30
0.0
 70
    32
  0
VERTEX
  5
32A6
  8
240
 10
372.0
 20
-17.6199000000000012
 30
0.0
 70
    32
  0
VERTEX
  5
32A7
  8
240
 10
372.0
 20
-17.6304000000000016
 30
0.0
 70
    32
  0
VERTEX
  5
32A8
  8
240
 10
372.0
 20
-17.6408999999999985
 30
0.0
 70
    32
  0
VERTEX
  5
32A9
  8
240
 10
372.0
 20
-17.6513999999999989
 30
0.0
 70
    32
  0
VERTEX
  5
32AA
  8
240
 10
372.0
 20
-17.6617999999999995
 30
0.0
 70
    32
  0
VERTEX
  5
32AB
  8
240
 10
372.0
 20
-17.6722999999999999
 30
0.0
 70
    32
  0
VERTEX
  5
32AC
  8
240
 10
372.0
 20
-17.6828000000000003
 30
0.0
 70
    32
  0
VERTEX
  5
32AD
  8
240
 10
372.0
 20
-17.6933000000000007
 30
0.0
 70
    32
  0
VERTEX
  5
32AE
  8
240
 10
372.0
 20
-17.7038000000000011
 30
0.0
 70
    32
  0
VERTEX
  5
32AF
  8
240
 10
372.0
 20
-17.7143000000000015
 30
0.0
 70
    32
  0
VERTEX
  5
32B0
  8
240
 10
372.0
 20
-17.7246999999999986
 30
0.0
 70
    32
  0
VERTEX
  5
32B1
  8
240
 10
372.0
 20
-17.735199999999999
 30
0.0
 70
    32
  0
VERTEX
  5
32B2
  8
240
 10
372.0
 20
-17.7456999999999994
 30
0.0
 70
    32
  0
VERTEX
  5
32B3
  8
240
 10
372.0
 20
-17.7561
 30
0.0
 70
    32
  0
VERTEX
  5
32B4
  8
240
 10
372.0
 20
-17.7666000000000004
 30
0.0
 70
    32
  0
VERTEX
  5
32B5
  8
240
 10
372.0
 20
-17.7771000000000008
 30
0.0
 70
    32
  0
VERTEX
  5
32B6
  8
240
 10
372.0
 20
-17.7875000000000014
 30
0.0
 70
    32
  0
VERTEX
  5
32B7
  8
240
 10
372.0
 20
-17.7979999999999983
 30
0.0
 70
    32
  0
VERTEX
  5
32B8
  8
240
 10
372.0
 20
-17.8084999999999987
 30
0.0
 70
    32
  0
VERTEX
  5
32B9
  8
240
 10
372.0
 20
-17.8188999999999993
 30
0.0
 70
    32
  0
VERTEX
  5
32BA
  8
240
 10
372.0
 20
-17.8293999999999997
 30
0.0
 70
    32
  0
VERTEX
  5
32BB
  8
240
 10
372.0
 20
-17.8398000000000003
 30
0.0
 70
    32
  0
VERTEX
  5
32BC
  8
240
 10
372.0
 20
-17.8503000000000007
 30
0.0
 70
    32
  0
VERTEX
  5
32BD
  8
240
 10
372.0
 20
-17.8607000000000014
 30
0.0
 70
    32
  0
VERTEX
  5
32BE
  8
240
 10
372.0
 20
-17.8712000000000018
 30
0.0
 70
    32
  0
VERTEX
  5
32BF
  8
240
 10
372.0
 20
-17.8815999999999988
 30
0.0
 70
    32
  0
VERTEX
  5
32C0
  8
240
 10
372.0
 20
-17.8920999999999992
 30
0.0
 70
    32
  0
VERTEX
  5
32C1
  8
240
 10
372.0
 20
-17.9024999999999999
 30
0.0
 70
    32
  0
VERTEX
  5
32C2
  8
240
 10
372.0
 20
-17.9129000000000005
 30
0.0
 70
    32
  0
VERTEX
  5
32C3
  8
240
 10
372.0
 20
-17.9234000000000009
 30
0.0
 70
    32
  0
VERTEX
  5
32C4
  8
240
 10
372.0
 20
-17.9338000000000015
 30
0.0
 70
    32
  0
VERTEX
  5
32C5
  8
240
 10
372.0
 20
-17.9441999999999986
 30
0.0
 70
    32
  0
VERTEX
  5
32C6
  8
240
 10
372.0
 20
-17.954699999999999
 30
0.0
 70
    32
  0
VERTEX
  5
32C7
  8
240
 10
372.0
 20
-17.9650999999999996
 30
0.0
 70
    32
  0
VERTEX
  5
32C8
  8
240
 10
372.0
 20
-17.9755000000000003
 30
0.0
 70
    32
  0
VERTEX
  5
32C9
  8
240
 10
372.0
 20
-17.9859000000000009
 30
0.0
 70
    32
  0
VERTEX
  5
32CA
  8
240
 10
372.0
 20
-17.9964000000000013
 30
0.0
 70
    32
  0
VERTEX
  5
32CB
  8
240
 10
372.0
 20
-18.0067999999999984
 30
0.0
 70
    32
  0
VERTEX
  5
32CC
  8
240
 10
372.0
 20
-18.017199999999999
 30
0.0
 70
    32
  0
VERTEX
  5
32CD
  8
240
 10
372.0
 20
-18.0275999999999996
 30
0.0
 70
    32
  0
VERTEX
  5
32CE
  8
240
 10
372.0
 20
-18.0380000000000003
 30
0.0
 70
    32
  0
VERTEX
  5
32CF
  8
240
 10
372.0
 20
-18.0484000000000009
 30
0.0
 70
    32
  0
VERTEX
  5
32D0
  8
240
 10
372.0
 20
-18.0588000000000015
 30
0.0
 70
    32
  0
VERTEX
  5
32D1
  8
240
 10
372.0
 20
-18.0691999999999986
 30
0.0
 70
    32
  0
VERTEX
  5
32D2
  8
240
 10
372.0
 20
-18.079699999999999
 30
0.0
 70
    32
  0
VERTEX
  5
32D3
  8
240
 10
372.0
 20
-18.0900999999999996
 30
0.0
 70
    32
  0
SEQEND
  5
32D4
  8
240
  0
CIRCLE
  5
18A4
  8
246
  6
PHANTOM2
 10
314.9999999999997158
 20
-0.0000000000001705
 30
0.0
 40
62.5
  0
LINE
  5
18CC
  8
246
  6
PHANTOM2
 10
362.8535105086820067
 20
-11.4852813742386903
 30
0.0
 11
352.7099999999996953
 21
-11.4852813742387507
 31
0.0
  0
LINE
  5
18CD
  8
246
  6
PHANTOM2
 10
352.7099999999996953
 20
-11.4852813742387507
 30
0.0
 11
352.7099999999996953
 21
12.6999999999998199
 31
0.0
  0
LINE
  5
18CE
  8
246
  6
PHANTOM2
 10
352.7099999999996953
 20
12.6999999999998199
 30
0.0
 11
362.5455587436932774
 21
12.6999999999998199
 31
0.0
  0
ARC
  5
18CF
  8
246
  6
PHANTOM2
 10
314.9999999999998863
 20
-0.0000000000002274
 30
0.0
 40
49.2124999999997925
 50
194.9552483166426953
 51
346.503769892741218
  0
ARC
  5
18D0
  8
246
  6
PHANTOM2
 10
314.9999999999998863
 20
-0.0000000000002274
 30
0.0
 40
49.2124999999997925
 50
14.9552483166427503
 51
165.044751683357191
  0
LINE
  5
1E69
  8
241
  6
CONTINUOUS
 10
314.9999999999998863
 20
-54.9999999263916521
 30
0.0
 11
315.0
 21
-29.6000000000000085
 31
0.0
  0
LINE
  5
1F96
  8
245
  6
CENTER2
 10
110.9999999999995026
 20
-49.4999999999996874
 30
0.0
 11
110.9999999999995026
 21
-35.4999999999997016
 31
0.0
  0
CIRCLE
  5
1F97
  8
242
  6
CONTINUOUS
 10
110.9999999999995026
 20
-42.4999999999996874
 30
0.0
 40
5.125
  0
CIRCLE
  5
1F98
  8
241
  6
CONTINUOUS
 10
110.9999999999995026
 20
-42.4999999999996874
 30
0.0
 40
6.0
  0
LINE
  5
1F99
  8
241
  6
CONTINUOUS
 10
113.9999999999995026
 20
-40.7679491899996833
 30
0.0
 11
110.9999999999995026
 21
-39.0358983899996872
 31
0.0
  0
LINE
  5
1F9A
  8
241
  6
CONTINUOUS
 10
110.9999999999995026
 20
-45.9641016199996812
 30
0.0
 11
113.9999999999995026
 21
-44.2320508099996772
 31
0.0
  0
LINE
  5
1F9B
  8
241
  6
CONTINUOUS
 10
107.9999999999995026
 20
-44.2320508099996772
 30
0.0
 11
110.9999999999995026
 21
-45.9641016199996812
 31
0.0
  0
LINE
  5
1F9C
  8
241
  6
CONTINUOUS
 10
107.9999999999995026
 20
-40.7679491899996833
 30
0.0
 11
107.9999999999995026
 21
-44.2320508099996772
 31
0.0
  0
LINE
  5
1F9D
  8
241
  6
CONTINUOUS
 10
110.9999999999995026
 20
-39.0358983899996872
 30
0.0
 11
107.9999999999995026
 21
-40.7679491899996833
 31
0.0
  0
LINE
  5
1F9E
  8
241
  6
CONTINUOUS
 10
113.9999999999995026
 20
-44.2320508099996772
 30
0.0
 11
113.9999999999995026
 21
-40.7679491899996833
 31
0.0
  0
LINE
  5
1FAF
  8
245
  6
CENTER2
 10
83.9999999999983089
 20
-49.4999999999986215
 30
0.0
 11
83.9999999999983089
 21
-35.4999999999986429
 31
0.0
  0
CIRCLE
  5
1FB0
  8
242
  6
CONTINUOUS
 10
83.9999999999983089
 20
-42.4999999999986429
 30
0.0
 40
5.125
  0
CIRCLE
  5
1FB1
  8
241
  6
CONTINUOUS
 10
83.9999999999983089
 20
-42.4999999999986429
 30
0.0
 40
6.0
  0
LINE
  5
1FB2
  8
241
  6
CONTINUOUS
 10
86.9999999999982805
 20
-40.7679491899986104
 30
0.0
 11
83.9999999999983089
 21
-39.0358983899986214
 31
0.0
  0
LINE
  5
1FB3
  8
241
  6
CONTINUOUS
 10
83.9999999999983089
 20
-45.9641016199986225
 30
0.0
 11
86.9999999999982805
 21
-44.2320508099986327
 31
0.0
  0
LINE
  5
1FB4
  8
241
  6
CONTINUOUS
 10
80.9999999999982947
 20
-44.2320508099986327
 30
0.0
 11
83.9999999999983089
 21
-45.9641016199986225
 31
0.0
  0
LINE
  5
1FB5
  8
241
  6
CONTINUOUS
 10
80.9999999999982947
 20
-40.7679491899986104
 30
0.0
 11
80.9999999999982947
 21
-44.2320508099986327
 31
0.0
  0
LINE
  5
1FB6
  8
241
  6
CONTINUOUS
 10
83.9999999999983089
 20
-39.0358983899986214
 30
0.0
 11
80.9999999999982947
 21
-40.7679491899986104
 31
0.0
  0
LINE
  5
1FB7
  8
241
  6
CONTINUOUS
 10
86.9999999999982805
 20
-44.2320508099986327
 30
0.0
 11
86.9999999999982805
 21
-40.7679491899986104
 31
0.0
  0
LINE
  5
1FC8
  8
245
  6
CENTER2
 10
56.9999999999985292
 20
-49.4999999999975415
 30
0.0
 11
56.9999999999985292
 21
-35.4999999999975699
 31
0.0
  0
CIRCLE
  5
1FC9
  8
242
  6
CONTINUOUS
 10
56.9999999999985292
 20
-42.4999999999975699
 30
0.0
 40
5.125
  0
CIRCLE
  5
1FCA
  8
241
  6
CONTINUOUS
 10
56.9999999999985292
 20
-42.4999999999975699
 30
0.0
 40
6.0
  0
LINE
  5
1FCB
  8
241
  6
CONTINUOUS
 10
59.9999999999985434
 20
-40.7679491899975375
 30
0.0
 11
56.9999999999985292
 21
-39.0358983899975627
 31
0.0
  0
LINE
  5
1FCC
  8
241
  6
CONTINUOUS
 10
56.9999999999985292
 20
-45.9641016199975425
 30
0.0
 11
59.9999999999985434
 21
-44.2320508099975598
 31
0.0
  0
LINE
  5
1FCD
  8
241
  6
CONTINUOUS
 10
53.9999999999985221
 20
-44.2320508099975598
 30
0.0
 11
56.9999999999985292
 21
-45.9641016199975425
 31
0.0
  0
LINE
  5
1FCE
  8
241
  6
CONTINUOUS
 10
53.9999999999985221
 20
-40.7679491899975375
 30
0.0
 11
53.9999999999985221
 21
-44.2320508099975598
 31
0.0
  0
LINE
  5
1FCF
  8
241
  6
CONTINUOUS
 10
56.9999999999985292
 20
-39.0358983899975627
 30
0.0
 11
53.9999999999985221
 21
-40.7679491899975375
 31
0.0
  0
LINE
  5
1FD0
  8
241
  6
CONTINUOUS
 10
59.9999999999985434
 20
-44.2320508099975598
 30
0.0
 11
59.9999999999985434
 21
-40.7679491899975375
 31
0.0
  0
LINE
  5
1FE8
  8
243
  6
HIDDEN2
 10
38.099999999999973
 20
-54.9993749925526529
 30
0.0
 11
38.099999999999973
 21
-29.60000000000014
 31
0.0
  0
LINE
  5
1FEA
  8
243
  6
HIDDEN2
 10
124.9999999999999005
 20
-29.60000000000014
 30
0.0
 11
38.099999999999973
 21
-29.60000000000014
 31
0.0
  0
ARC
  5
1FFA
  8
246
  6
PHANTOM2
 10
119.0
 20
-56.4999999999999574
 30
0.0
 40
6.0
 50
270.0
 51
359.9999999999984084
  0
LINE
  5
1FFB
  8
246
  6
PHANTOM2
 10
40.0000000000000924
 20
62.5000000000001421
 30
0.0
 11
119.0
 21
62.5000000000001421
 31
0.0
  0
ARC
  5
1FFC
  8
246
  6
PHANTOM2
 10
119.0
 20
56.5000000000001421
 30
0.0
 40
6.0
 50
0.0
 51
90.0
  0
ARC
  5
1FFD
  8
246
  6
PHANTOM2
 10
40.0000000000000924
 20
57.5000000000001421
 30
0.0
 40
5.0
 50
90.0
 51
180.0
  0
LINE
  5
1FFE
  8
246
  6
PHANTOM2
 10
40.0
 20
-62.4999999999999716
 30
0.0
 11
119.0
 21
-62.4999999999999716
 31
0.0
  0
ARC
  5
1FFF
  8
246
  6
PHANTOM2
 10
40.0
 20
-57.4999999999999574
 30
0.0
 40
5.0
 50
180.0
 51
270.0
  0
TEXT
  5
2059
  8
241
  6
CONTINUOUS
 10
-105.0
 20
91.0
 30
0.0
 40
5.0
  1
BCV50Y-180-BH1.000L-5
  7
YOKO
  0
LINE
  5
23F9
  8
241
  6
CONTINUOUS
 10
34.9999999999997229
 20
-33.2608695652177175
 30
0.0
 11
34.9999999999997726
 21
-45.0
 31
0.0
  0
LINE
  5
23FA
  8
241
  6
CONTINUOUS
 10
19.0499999999997804
 20
-33.2608695652177673
 30
0.0
 11
34.9999999999997726
 21
-33.2608695652177673
 31
0.0
  0
LINE
  5
257D
  8
250
  6
CONTINUOUS
 10
0.0
 20
35.4249999999999972
 30
0.0
 11
0.0000000000000026
 21
78.0
 31
0.0
  0
LINE
  5
257E
  8
250
  6
CONTINUOUS
 10
124.9999999999999005
 20
-19.4705627484769401
 30
0.0
 11
124.9999999999999005
 21
78.0
 31
0.0
  0
LINE
  5
257F
  8
250
  6
CONTINUOUS
 10
2.2300000000000022
 20
77.0
 30
0.0
 11
122.7699999999997971
 21
77.0
 31
0.0
  0
LINE
  5
2583
  8
250
  6
CONTINUOUS
 10
122.7699999999997971
 20
77.3716666666666555
 30
0.0
 11
124.9999999999999005
 21
77.0
 31
0.0
  0
LINE
  5
2584
  8
250
  6
CONTINUOUS
 10
122.7699999999997971
 20
76.6283333333333303
 30
0.0
 11
124.9999999999999005
 21
77.0
 31
0.0
  0
LINE
  5
2585
  8
250
  6
CONTINUOUS
 10
124.9999999999999005
 20
77.0
 30
0.0
 11
122.7699999999997971
 21
77.0
 31
0.0
  0
LINE
  5
2586
  8
250
  6
CONTINUOUS
 10
2.2300000000000022
 20
76.6283333333333303
 30
0.0
 11
0.0000000000000026
 21
77.0
 31
0.0
  0
LINE
  5
2587
  8
250
  6
CONTINUOUS
 10
2.2300000000000022
 20
77.3716666666666555
 30
0.0
 11
0.0000000000000026
 21
77.0
 31
0.0
  0
LINE
  5
2588
  8
250
  6
CONTINUOUS
 10
0.0000000000000026
 20
77.0
 30
0.0
 11
2.2300000000000022
 21
77.0
 31
0.0
  0
TEXT
  5
2589
  8
250
  6
CONTINUOUS
 10
56.8999999999999702
 20
78.0000000000000142
 30
0.0
 40
2.799999999999998
  1
4.921
  0
LINE
  5
258A
  8
250
  6
CONTINUOUS
 10
112.7771485598696017
 20
0.0000000000000001
 30
0.0
 11
148.0000000000021032
 21
0.0000000000000057
 31
0.0
  0
LINE
  5
258B
  8
250
  6
CONTINUOUS
 10
125.4999999999997016
 20
-55.0000000000000284
 30
0.0
 11
148.0000000000021032
 21
-55.0000000000000071
 31
0.0
  0
LINE
  5
258C
  8
250
  6
CONTINUOUS
 10
147.0000000000021032
 20
-2.2299999999999942
 30
0.0
 11
147.0000000000021032
 21
-52.7700000000000102
 31
0.0
  0
LINE
  5
2590
  8
250
  6
CONTINUOUS
 10
146.6283333333354904
 20
-2.2299999999999942
 30
0.0
 11
147.0000000000021032
 21
0.0000000000000056
 31
0.0
  0
LINE
  5
2591
  8
250
  6
CONTINUOUS
 10
147.3716666666688013
 20
-2.2299999999999942
 30
0.0
 11
147.0000000000021032
 21
0.0000000000000056
 31
0.0
  0
LINE
  5
2592
  8
250
  6
CONTINUOUS
 10
147.0000000000021032
 20
0.0000000000000056
 30
0.0
 11
147.0000000000021032
 21
-2.2299999999999942
 31
0.0
  0
LINE
  5
2593
  8
250
  6
CONTINUOUS
 10
147.3716666666688013
 20
-52.7700000000000102
 30
0.0
 11
147.0000000000021032
 21
-55.0000000000000071
 31
0.0
  0
LINE
  5
2594
  8
250
  6
CONTINUOUS
 10
146.6283333333354904
 20
-52.7700000000000102
 30
0.0
 11
147.0000000000021032
 21
-55.0000000000000071
 31
0.0
  0
LINE
  5
2595
  8
250
  6
CONTINUOUS
 10
147.0000000000021032
 20
-55.0000000000000071
 30
0.0
 11
147.0000000000021032
 21
-52.7700000000000102
 31
0.0
  0
TEXT
  5
2596
  8
250
  6
CONTINUOUS
 10
146.0000000000021032
 20
-33.5000000000000426
 30
0.0
 40
2.799999999999998
  1
2.165
 50
90.0
  0
LINE
  5
2597
  8
250
  6
CONTINUOUS
 10
361.4894449876497902
 20
-38.3562824676766922
 30
0.0
 11
268.5105550123489024
 21
38.3562824676763867
 31
0.0
  0
LINE
  5
259B
  8
250
  6
CONTINUOUS
 10
268.2740235431189717
 20
38.0695962713309228
 30
0.0
 11
266.7904378342760197
 21
39.7754712830558574
 31
0.0
  0
LINE
  5
259C
  8
250
  6
CONTINUOUS
 10
268.74708648157889
 20
38.6429686640219217
 30
0.0
 11
266.7904378342760197
 21
39.7754712830558574
 31
0.0
  0
LINE
  5
259D
  8
250
  6
CONTINUOUS
 10
266.7904378342760197
 20
39.7754712830558574
 30
0.0
 11
268.5105550123489024
 21
38.3562824676764222
 31
0.0
  0
LINE
  5
259E
  8
250
  6
CONTINUOUS
 10
361.7259764568797209
 20
-38.069596271331207
 30
0.0
 11
363.2095621657229003
 21
-39.775471283056163
 31
0.0
  0
LINE
  5
259F
  8
250
  6
CONTINUOUS
 10
361.2529135184199731
 20
-38.6429686640222201
 30
0.0
 11
363.2095621657229003
 21
-39.775471283056163
 31
0.0
  0
LINE
  5
25A0
  8
250
  6
CONTINUOUS
 10
363.2095621657229003
 20
-39.775471283056163
 30
0.0
 11
361.4894449876500175
 21
-38.3562824676767207
 31
0.0
  0
TEXT
  5
25A1
  8
250
  6
CONTINUOUS
 10
297.9686908933801988
 20
16.9038736232826317
 30
0.0
 40
2.799999999999998
  1
(\U+22054.92)
 50
320.4755425347972846
  0
LINE
  5
25A2
  8
250
  6
CONTINUOUS
 10
314.9999999999998863
 20
-55.4999999999996518
 30
0.0
 11
314.9999999999998863
 21
-79.8356798226962496
 31
0.0
  0
LINE
  5
25A3
  8
250
  6
CONTINUOUS
 10
340.3999999999999204
 20
-55.4999999263917729
 30
0.0
 11
340.3999999999999204
 21
-79.8356798226962496
 31
0.0
  0
LINE
  5
25A4
  8
250
  6
CONTINUOUS
 10
317.2300000000000182
 20
-78.8356798226962354
 30
0.0
 11
338.1699999999999022
 21
-78.8356798226962354
 31
0.0
  0
LINE
  5
25A8
  8
250
  6
CONTINUOUS
 10
317.2300000000000182
 20
-79.2073464893629335
 30
0.0
 11
314.9999999999998863
 21
-78.8356798226962354
 31
0.0
  0
LINE
  5
25A9
  8
250
  6
CONTINUOUS
 10
317.2300000000000182
 20
-78.4640131560295799
 30
0.0
 11
314.9999999999998863
 21
-78.8356798226962354
 31
0.0
  0
LINE
  5
25AA
  8
250
  6
CONTINUOUS
 10
314.9999999999998863
 20
-78.8356798226962354
 30
0.0
 11
317.2300000000000182
 21
-78.8356798226962354
 31
0.0
  0
LINE
  5
25AB
  8
250
  6
CONTINUOUS
 10
338.1699999999999022
 20
-78.4640131560295799
 30
0.0
 11
340.3999999999999204
 21
-78.8356798226962354
 31
0.0
  0
LINE
  5
25AC
  8
250
  6
CONTINUOUS
 10
338.1699999999999022
 20
-79.2073464893629335
 30
0.0
 11
340.3999999999999204
 21
-78.8356798226962354
 31
0.0
  0
LINE
  5
25AD
  8
250
  6
CONTINUOUS
 10
340.3999999999999204
 20
-78.8356798226962354
 30
0.0
 11
338.1699999999999022
 21
-78.8356798226962354
 31
0.0
  0
TEXT
  5
25AE
  8
250
  6
CONTINUOUS
 10
320.0333333333331893
 20
-77.8356798226962496
 30
0.0
 40
2.799999999999998
  1
üá1.000
  0
LINE
  5
33BF
  8
241
 10
286.600056583703406
 20
27.8323961923587397
 30
0.0
 11
355.772285444079273
 21
27.8323961923587397
 31
0.0
  0
LINE
  5
33C2
  8
241
 10
282.9999999999998863
 20
-14.9999999999996199
 30
0.0
 11
371.9999999999998863
 21
-14.9999999999996199
 31
0.0
  0
VIEWPORT
  5
22
 67
     1
  8
0
 10
261.517699115044195
 20
148.5
 30
0.0
 40
523.0353982300885036
 41
297.0
 68
     1
 69
     1
1001
ACAD
1000
MVIEW
1002
{
1070
    16
1010
0.0
1020
0.0
1030
0.0
1010
0.0
1020
0.0
1030
1.0
1040
0.0
1040
297.0
1040
261.517699115044195
1040
148.5
1040
50.0
1040
0.0
1040
0.0
1070
     0
1070
   100
1070
     1
1070
     1
1070
     0
1070
     0
1070
     0
1070
     0
1040
0.0
1040
0.0
1040
0.0
1040
1.0
1040
1.0
1040
10.0
1040
10.0
1070
     0
1002
{
1002
}
1002
}
1001
GENIUS_GENODEF_13
1002
{
1000
HIER
1070
     0
1002
}
1002
{
1000
MANEDIT
1070
     0
1002
}
1002
{
1000
NOSEL
1070
     0
1002
}
1002
{
1000
BEHIND
1070
     0
1002
}
1002
{
1000
OTHER
1070
     0
1002
}
1002
{
1000
REACTOR
1002
}
1001
GENIUS_GENOBJ-N-SDF_13
1002
{
1000
OWNER
1000
GEN
1002
}
1001
GENIUS_GENSCREG_15
1000
PF
1040
1.0
1000
DF
1040
1.0
1000
MIN
1011
0.0
1021
0.0
1031
0.0
1021
0.0
1031
0.0
1000
MAX
1011
523.0353982300885036
1021
0.0
1031
0.0
1021
297.0
1031
0.0
1000
FLAGS
1070
     4
  0
ENDSEC
  0
EOF
