  0
SECTION
  2
HEADER
  9
$ACADVER
  1
AC1009
  9
$INSBASE
 10
0.0
 20
0.0
 30
0.0
  9
$EXTMIN
 10
-108.29761904761899
 20
-49.21250000000007
 30
0.0
  9
$EXTMAX
 10
103.22187276
 20
82.000000000000085
 30
0.0
  9
$LIMMIN
 10
0.0
 20
0.0
  9
$LIMMAX
 10
297.0
 20
210.0
  9
$ORTHOMODE
 70
     1
  9
$REGENMODE
 70
     1
  9
$FILLMODE
 70
     1
  9
$QTEXTMODE
 70
     0
  9
$MIRRTEXT
 70
     1
  9
$DRAGMODE
 70
     2
  9
$LTSCALE
 40
10.0
  9
$OSMODE
 70
    37
  9
$ATTMODE
 70
     1
  9
$TEXTSIZE
 40
3.0
  9
$TRACEWID
 40
1.0
  9
$TEXTSTYLE
  7
YOKO
  9
$CLAYER
  8
240
  9
$CELTYPE
  6
BYLAYER
  9
$CECOLOR
 62
   256
  9
$DIMSCALE
 40
1.0
  9
$DIMASZ
 40
2.2299999999999991
  9
$DIMEXO
 40
0.5
  9
$DIMDLI
 40
7.0
  9
$DIMRND
 40
0.0
  9
$DIMDLE
 40
0.0
  9
$DIMEXE
 40
1.0
  9
$DIMTP
 40
0.0
  9
$DIMTM
 40
0.01
  9
$DIMTXT
 40
2.7999999999999989
  9
$DIMCEN
 40
0.0
  9
$DIMTSZ
 40
0.0
  9
$DIMTOL
 70
     0
  9
$DIMLIM
 70
     0
  9
$DIMTIH
 70
     0
  9
$DIMTOH
 70
     0
  9
$DIMSE1
 70
     0
  9
$DIMSE2
 70
     0
  9
$DIMTAD
 70
     3
  9
$DIMZIN
 70
     9
  9
$DIMBLK
  1
OPEN
  9
$DIMASO
 70
     1
  9
$DIMSHO
 70
     1
  9
$DIMPOST
  1

  9
$DIMAPOST
  1

  9
$DIMALT
 70
     0
  9
$DIMALTD
 70
     2
  9
$DIMALTF
 40
25.399999999999999
  9
$DIMLFAC
 40
1.0
  9
$DIMTOFL
 70
     1
  9
$DIMTVP
 40
0.0
  9
$DIMTIX
 70
     1
  9
$DIMSOXD
 70
     0
  9
$DIMSAH
 70
     0
  9
$DIMBLK1
  1

  9
$DIMBLK2
  1

  9
$DIMSTYLE
  2
BIGT
  9
$DIMCLRD
 70
   256
  9
$DIMCLRE
 70
   256
  9
$DIMCLRT
 70
    40
  9
$DIMTFAC
 40
1.0
  9
$DIMGAP
 40
1.0
  9
$LUNITS
 70
     2
  9
$LUPREC
 70
     6
  9
$SKETCHINC
 40
1.0
  9
$FILLETRAD
 40
0.0
  9
$AUNITS
 70
     0
  9
$AUPREC
 70
     6
  9
$MENU
  1
.
  9
$ELEVATION
 40
0.0
  9
$PELEVATION
 40
0.0
  9
$THICKNESS
 40
0.0
  9
$LIMCHECK
 70
     0
  9
$BLIPMODE
 70
     0
  9
$CHAMFERA
 40
0.2
  9
$CHAMFERB
 40
0.2
  9
$SKPOLY
 70
     0
  9
$TDCREATE
 40
2458136.456497998
  9
$TDUPDATE
 40
2458136.624566447
  9
$TDINDWG
 40
0.0072472454
  9
$TDUSRTIMER
 40
0.0072472222
  9
$USRTIMER
 70
     1
  9
$ANGBASE
 50
0.0
  9
$ANGDIR
 70
     0
  9
$PDMODE
 70
     1
  9
$PDSIZE
 40
0.0
  9
$PLINEWID
 40
0.0
  9
$COORDS
 70
     1
  9
$SPLFRAME
 70
     0
  9
$SPLINETYPE
 70
     6
  9
$SPLINESEGS
 70
     4
  9
$ATTDIA
 70
     1
  9
$ATTREQ
 70
     1
  9
$HANDLING
 70
     1
  9
$HANDSEED
  5
4556
  9
$SURFTAB1
 70
     6
  9
$SURFTAB2
 70
     6
  9
$SURFTYPE
 70
     6
  9
$SURFU
 70
     6
  9
$SURFV
 70
     6
  9
$UCSNAME
  2

  9
$UCSORG
 10
0.0
 20
0.0
 30
0.0
  9
$UCSXDIR
 10
1.0
 20
0.0
 30
0.0
  9
$UCSYDIR
 10
0.0
 20
1.0
 30
0.0
  9
$PUCSNAME
  2

  9
$PUCSORG
 10
0.0
 20
0.0
 30
0.0
  9
$PUCSXDIR
 10
1.0
 20
0.0
 30
0.0
  9
$PUCSYDIR
 10
0.0
 20
1.0
 30
0.0
  9
$USERI1
 70
     1
  9
$USERI2
 70
     0
  9
$USERI3
 70
     0
  9
$USERI4
 70
     0
  9
$USERI5
 70
     0
  9
$USERR1
 40
0.0
  9
$USERR2
 40
0.0
  9
$USERR3
 40
0.0
  9
$USERR4
 40
0.0
  9
$USERR5
 40
0.0
  9
$WORLDVIEW
 70
     1
  9
$SHADEDGE
 70
     3
  9
$SHADEDIF
 70
    70
  9
$TILEMODE
 70
     1
  9
$MAXACTVP
 70
    16
  9
$PLIMCHECK
 70
     0
  9
$PEXTMIN
 10
1.0000000000000000E+020
 20
1.0000000000000000E+020
 30
1.0000000000000000E+020
  9
$PEXTMAX
 10
-1.0000000000000000E+020
 20
-1.0000000000000000E+020
 30
-1.0000000000000000E+020
  9
$PLIMMIN
 10
0.0
 20
0.0
  9
$PLIMMAX
 10
420.0
 20
297.0
  9
$UNITMODE
 70
     0
  9
$VISRETAIN
 70
     1
  9
$PLINEGEN
 70
     0
  9
$PSLTSCALE
 70
     1
  0
ENDSEC
  0
SECTION
  2
TABLES
  0
TABLE
  2
VPORT
 70
     1
  0
VPORT
  2
*ACTIVE
 70
     0
 10
0.0
 20
0.0
 11
1.0
 21
1.0
 12
11.269277725016019
 22
20.262405641783989
 13
0.0
 23
0.0
 14
7.0
 24
7.0
 15
7.0
 25
7.0
 16
0.0
 26
0.0
 36
1.0
 17
0.0
 27
0.0
 37
0.0
 40
169.07102042364821
 41
1.5379679144385019
 42
50.0
 43
0.0
 44
0.0
 50
0.0
 51
0.0
 71
     0
 72
  2000
 73
     1
 74
     0
 75
     0
 76
     1
 77
     0
 78
     0
  0
ENDTAB
  0
TABLE
  2
LTYPE
 70
    21
  0
LTYPE
  2
CONTINUOUS
 70
     0
  3
Solid line
 72
    65
 73
     0
 40
0.0
  0
LTYPE
  2
CENTER2
 70
     0
  3
___ _ ___ _ ___ _ ___ _ ___ _ ___ _ ___ _ ___ _
 72
    65
 73
     4
 40
1.125
 49
0.75
 49
-0.125
 49
0.125
 49
-0.125
  0
LTYPE
  2
HIDDEN2
 70
     0
  3
_ _ _ _ _ _ _ _ _ _ _ _ _ _ _ _ _ _ _ _ _ _ _ _
 72
    65
 73
     2
 40
0.1875
 49
0.125
 49
-0.0625
  0
LTYPE
  2
AM_ISO02W050
 70
     0
  3
__ __ __ __ __ __ __ __ __ __ __ __ __ __ __
 72
    65
 73
     2
 40
7.5
 49
6.0
 49
-1.5
  0
LTYPE
  2
AMCONSTR
 70
     0
  3
_______________________
 72
    65
 73
     2
 40
9999.0
 49
9999.0
 49
0.0
  0
LTYPE
  2
ACISOWELD
 70
     0
  3
_ _ _ _ _
 72
    65
 73
     2
 40
2.0
 49
2.0
 49
-1.0
  0
LTYPE
  2
ACISOTGB
 70
     0
  3
__ . . __ . .
 72
    65
 73
     6
 40
9.0
 49
4.0
 49
-1.0
 49
1.0
 49
-1.0
 49
1.0
 49
-1.0
  0
LTYPE
  2
ACISOTGL
 70
     0
  3
_ _ _ _ _
 72
    65
 73
     2
 40
3.0
 49
2.0
 49
-1.0
  0
LTYPE
  2
AM_ISO08W050
 70
     0
  3
____ . ____ . ____ . ____ . ____ . ____ . ____
 72
    65
 73
     4
 40
18.0
 49
12.0
 49
-1.5
 49
3.0
 49
-1.5
  0
LTYPE
  2
AM_ISO09W050
 70
     0
  3
_____ . . _____ . . _____ . . ____ .. ____
 72
    65
 73
     6
 40
22.5
 49
12.0
 49
-1.5
 49
3.0
 49
-1.5
 49
3.0
 49
-1.5
  0
LTYPE
  2
AM_ISO08W050X2
 70
     0
  3
__ . __ . __ . __ . __ . __
 72
    65
 73
     4
 40
9.0
 49
6.0
 49
-0.75
 49
1.5
 49
-0.75
  0
LTYPE
  2
AM_ISO02W050X2
 70
     0
  3
 _ _ _ _ _ _ _ _ _ _ _ _
 72
    65
 73
     2
 40
3.75
 49
3.0
 49
-0.75
  0
LTYPE
  2
AMZIGZAG
 70
     0
  3
/\/-/\/-/\/-/\/-/\/-/\/
 72
    65
 73
     2
 40
11.0001
 49
0.0001
 49
-11.0
  0
ENDTAB
  0
TABLE
  2
LAYER
 70
     8
  0
LAYER
  2
0
 70
     0
 62
     7
  6
CONTINUOUS
  0
LAYER
  2
DEFPOINTS
 70
     0
 62
     7
  6
CONTINUOUS
  0
LAYER
  2
245
 70
     0
 62
     2
  6
CENTER2
  0
LAYER
  2
240
 70
     0
 62
     4
  6
CONTINUOUS
  0
LAYER
  2
241
 70
     0
 62
   211
  6
CONTINUOUS
  0
LAYER
  2
243
 70
     0
 62
   211
  6
HIDDEN2
  0
LAYER
  2
247
 70
     0
 62
    60
  6
CONTINUOUS
  0
LAYER
  2
250
 70
     0
 62
     3
  6
CONTINUOUS
  0
ENDTAB
  0
TABLE
  2
STYLE
 70
     8
  0
STYLE
  2
STANDARD
 70
     0
 40
0.0
 41
1.0
 50
0.0
 71
     0
 42
3.0
  3
romans.shx
  4
extfont.shx
  0
STYLE
  2
ACISOGDT
 70
     0
 40
0.0
 41
1.0
 50
0.0
 71
     0
 42
3.0
  3
amgdt.shx
  4
extfont.shx
  0
STYLE
  2
YOKO
 70
     0
 40
0.0
 41
1.0
 50
0.0
 71
     0
 42
3.0
  3
romans.shx
  4
extfont.shx
  0
STYLE
  2

 70
     1
 40
0.0
 41
1.0
 50
0.0
 71
     0
 42
3.0
  3
genltshp.shx
  4

  0
ENDTAB
  0
TABLE
  2
VIEW
 70
     0
  0
ENDTAB
  0
TABLE
  2
UCS
 70
     0
  0
ENDTAB
  0
TABLE
  2
APPID
 70
    45
  0
APPID
  2
ACAD
 70
     0
  0
APPID
  2
GLOBAL
 70
     0
  0
APPID
  2
DETAIL
 70
     0
  0
APPID
  2
GRPNAME
 70
     0
  0
APPID
  2
GPARA
 70
     0
  0
APPID
  2
MCAD_NO_VIS
 70
     0
  0
APPID
  2
ACAD_TEMP_GRAPHIC
 70
     0
  0
APPID
  2
ACATTRIBSERVICES
 70
     0
  0
APPID
  2
GENIUS_GENSCREG_15
 70
     0
  0
APPID
  2
GENIUS_GENODEF_13
 70
     0
  0
APPID
  2
GENIUS_GENOBJ-N-SDF_13
 70
     0
  0
APPID
  2
GENIUS_GENREC_14
 70
     0
  0
APPID
  2
GENIUS_GENOBJ-N-REC_13
 70
     0
  0
APPID
  2
GENIUS_GENDIMSH_14
 70
     0
  0
APPID
  2
GENIUS_GENOBJ-N-DIM_13
 70
     0
  0
APPID
  2
GENIUS_GENDIM_13
 70
     0
  0
APPID
  2
GENIUS_GENDTOL_13
 70
     0
  0
APPID
  2
GENIUS_GENOLIS_13
 70
     0
  0
APPID
  2
GENIUS_GENOENT_13
 70
     0
  0
APPID
  2
GENIUS_GENOBJ-F-FEM_13
 70
     0
  0
APPID
  2
GENIUS_GENOREF_13
 70
     0
  0
APPID
  2
GENIUS_GEFFEM_13
 70
     0
  0
APPID
  2
GENIUS_GEFFEMP_13
 70
     0
  0
APPID
  2
AD_DRAW
 70
     0
  0
APPID
  2
DESIGNERASSEMBLIES
 70
     0
  0
APPID
  2
ACADM_DIM_EDIT
 70
     0
  0
APPID
  2
AMDT_DM_ADJ
 70
     0
  0
APPID
  2
ITEMNAME
 70
     0
  0
APPID
  2
GENIUS_GENOBJ-N-FIL_13
 70
     0
  0
APPID
  2
GENIUS_GENFIL_13
 70
     0
  0
APPID
  2
GENIUS_GENOBJ-N-CHA_13
 70
     0
  0
APPID
  2
ACAECLAYERSTANDARD
 70
     0
  0
APPID
  2
ACAD_NAV_VCDISPLAY
 70
     0
  0
APPID
  2
ACAD_DSTYLE_DIMJAG
 70
     0
  0
APPID
  2
ACAD_DSTYLE_DIMBREAK
 70
     0
  0
APPID
  2
ACAD_DSTYLE_DIMTALN
 70
     0
  0
APPID
  2
ACAD_PSEXT
 70
     0
  0
APPID
  2
GENIUS_GENOBJ-N-CEN_13
 70
     0
  0
APPID
  2
ACAD_EXEMPT_FROM_CAD_STANDARDS
 70
     0
  0
APPID
  2
ACAD_DSTYLE_DIMINSPECT
 70
     0
  0
APPID
  2
ACAD_MLEADERVER
 70
     0
  0
APPID
  2
ACAD_DSTYLE_DIMARC_LENGTH_
 70
     0
  0
APPID
  2
ACAD_DSTYLE_DIM_LINETYPE
 70
     0
  0
APPID
  2
ACAD_DSTYLE_DIM_EXT1_LINETYPE
 70
     0
  0
APPID
  2
ACAD_DSTYLE_DIM_EXT2_LINETYPE
 70
     0
  0
ENDTAB
  0
TABLE
  2
DIMSTYLE
 70
    29
  0
DIMSTYLE
  2
BIGT
 70
     0
  3

  4

  5
OPEN
  6

  7

 40
1.0
 41
2.2299999999999991
 42
0.5
 43
7.0
 44
1.0
 45
0.0
 46
0.0
 47
0.0
 48
0.01
140
2.7999999999999989
141
0.0
142
0.0
143
25.399999999999999
144
1.0
145
0.0
146
1.0
147
1.0
 71
     0
 72
     0
 73
     0
 74
     0
 75
     0
 76
     0
 77
     3
 78
     9
170
     0
171
     2
172
     1
173
     0
174
     1
175
     0
176
   256
177
   256
178
    40
  0
DIMSTYLE
  2
AM_ISO
 70
     0
  3

  4
"
  5

  6

  7

 40
1.0
 41
2.5
 42
1.0
 43
10.0
 44
1.0
 45
0.0
 46
0.0
 47
0.1
 48
0.1
140
3.5
141
0.0
142
0.0
143
0.0393701
144
1.0
145
0.0
146
0.71
147
1.5
 71
     0
 72
     0
 73
     0
 74
     0
 75
     0
 76
     0
 77
     1
 78
     8
170
     0
171
     2
172
     1
173
     0
174
     0
175
     0
176
   256
177
   256
178
     2
  0
DIMSTYLE
  2
AM_ISO$3
 70
     0
  3

  4
"
  5

  6

  7

 40
1.0
 41
2.5
 42
1.0
 43
10.0
 44
1.0
 45
0.0
 46
0.0
 47
0.1
 48
0.1
140
3.5
141
0.0
142
0.0
143
0.0393701
144
1.0
145
0.0
146
0.71
147
1.5
 71
     0
 72
     0
 73
     0
 74
     1
 75
     0
 76
     0
 77
     1
 78
     8
170
     0
171
     2
172
     0
173
     0
174
     0
175
     0
176
   256
177
   256
178
     2
  0
DIMSTYLE
  2
AM_ISO$4
 70
     0
  3

  4
"
  5

  6

  7

 40
1.0
 41
2.5
 42
1.0
 43
10.0
 44
1.0
 45
0.0
 46
0.0
 47
0.1
 48
0.1
140
3.5
141
0.0
142
0.0
143
0.0393701
144
1.0
145
0.0
146
0.71
147
1.5
 71
     0
 72
     0
 73
     0
 74
     1
 75
     0
 76
     0
 77
     1
 78
     8
170
     0
171
     2
172
     0
173
     0
174
     0
175
     0
176
   256
177
   256
178
     2
  0
DIMSTYLE
  2
AM_ISO$6
 70
     0
  3

  4
"
  5

  6

  7

 40
1.0
 41
2.5
 42
1.0
 43
10.0
 44
1.0
 45
0.0
 46
0.0
 47
0.1
 48
0.1
140
3.5
141
0.0
142
0.0
143
0.0393701
144
1.0
145
0.0
146
0.71
147
1.5
 71
     0
 72
     0
 73
     0
 74
     0
 75
     0
 76
     0
 77
     0
 78
     8
170
     0
171
     2
172
     1
173
     0
174
     0
175
     0
176
   256
177
   256
178
     2
  0
DIMSTYLE
  2
AM_ISO$7
 70
     0
  3

  4
"
  5

  6

  7

 40
1.0
 41
2.5
 42
1.0
 43
10.0
 44
1.0
 45
0.0
 46
0.0
 47
0.1
 48
0.1
140
5.0
141
0.0
142
0.0
143
0.0393701
144
1.0
145
0.0
146
0.71
147
1.5
 71
     0
 72
     0
 73
     0
 74
     0
 75
     0
 76
     0
 77
     1
 78
     8
170
     0
171
     2
172
     1
173
     0
174
     0
175
     0
176
   256
177
   256
178
     2
  0
DIMSTYLE
  2
AM_ISO$SF
 70
     0
  3

  4
"
  5

  6

  7

 40
1.0
 41
2.5
 42
1.0
 43
10.0
 44
1.0
 45
0.0
 46
0.0
 47
0.1
 48
0.1
140
3.5
141
0.0
142
0.0
143
0.0393701
144
1.0
145
0.0
146
0.71
147
1.5
 71
     0
 72
     0
 73
     0
 74
     0
 75
     1
 76
     1
 77
     1
 78
     8
170
     0
171
     2
172
     1
173
     0
174
     0
175
     0
176
   256
177
   256
178
     2
  0
DIMSTYLE
  2
AM_ISO$SH
 70
     0
  3

  4
"
  5

  6
GENAXEH
  7

 40
1.0
 41
2.5
 42
1.0
 43
10.0
 44
1.0
 45
0.0
 46
0.0
 47
0.1
 48
0.1
140
3.5
141
0.0
142
0.0
143
0.0393701
144
2.0
145
0.0
146
0.71
147
1.5
 71
     0
 72
     0
 73
     0
 74
     0
 75
     1
 76
     1
 77
     1
 78
     8
170
     0
171
     2
172
     1
173
     1
174
     0
175
     0
176
   256
177
   256
178
     2
  0
ENDTAB
  0
ENDSEC
  0
SECTION
  2
BLOCKS
  0
BLOCK
  8
0
  2
$MODEL_SPACE
 70
     0
 10
0.0
 20
0.0
 30
0.0
  3
$MODEL_SPACE
  1

  0
ENDBLK
  5
1C
  8
0
  0
BLOCK
 67
     1
  8
0
  2
$PAPER_SPACE
 70
     0
 10
0.0
 20
0.0
 30
0.0
  3
$PAPER_SPACE
  1

  0
ENDBLK
  5
19
 67
     1
  8
0
  0
BLOCK
  8
0
  2
_OPEN
 70
     0
 10
0.0
 20
0.0
 30
0.0
  3
_OPEN
  1

  0
LINE
  5
3E1A
  8
0
  6
BYBLOCK
 62
     0
 10
-1.0
 20
0.1666666666666666
 30
0.0
 11
0.0
 21
0.0
 31
0.0
  0
LINE
  5
3E1B
  8
0
  6
BYBLOCK
 62
     0
 10
-1.0
 20
-0.1666666666666666
 30
0.0
 11
0.0
 21
0.0
 31
0.0
  0
LINE
  5
3E1C
  8
0
  6
BYBLOCK
 62
     0
 10
0.0
 20
0.0
 30
0.0
 11
-1.0
 21
0.0
 31
0.0
  0
ENDBLK
  5
3E1D
  8
0
  0
BLOCK
  8
0
  2
GENAXEH
 70
     0
 10
0.0
 20
0.0
 30
0.0
  3
GENAXEH
  1

  0
LINE
  5
3E45
  8
0
 10
-1.0
 20
0.0
 30
0.0
 11
1.0
 21
0.0
 31
0.0
  0
ENDBLK
  5
3E46
  8
0
  0
ENDSEC
  0
SECTION
  2
ENTITIES
  0
LINE
  5
42AB
  8
245
  6
CENTER2
 10
-105.33411709504961
 20
-0.0000000000000568
 30
0.0
 11
84.0
 21
0.0000000000000568
 31
0.0
1001
GRPNAME
1000
PASTMD09
  0
LINE
  5
42AC
  8
243
  6
HIDDEN2
 10
19.050000000000072
 20
37.6799999999999
 30
0.0
 11
1.5000000000001119
 21
37.680000000000121
 31
0.0
  0
LINE
  5
42AD
  8
243
  6
HIDDEN2
 10
19.050000000000072
 20
-35.270000000000039
 30
0.0
 11
1.5000000000001119
 21
-35.27000000000001
 31
0.0
  0
LINE
  5
42AE
  8
241
  6
CONTINUOUS
 10
1.5
 20
-34.910857157146502
 30
0.0
 11
1.5
 21
34.910857157146438
 31
0.0
1001
GRPNAME
1000
PASTMD09
  0
LINE
  5
42AF
  8
241
  6
CONTINUOUS
 10
14.64499999999998
 20
-49.21250000000007
 30
0.0
 11
14.64499999999998
 21
49.212500000000041
 31
0.0
1001
GRPNAME
1000
PASTMD09
  0
LINE
  5
42B0
  8
241
  6
CONTINUOUS
 10
13.040000000000081
 20
45.644999999999918
 30
0.0
 11
13.040000000000081
 21
-45.64500000000001
 31
0.0
1001
GRPNAME
1000
PASTMD09
  0
LINE
  5
42B1
  8
241
  6
CONTINUOUS
 10
9.1999999999999336
 20
45.644999999999918
 30
0.0
 11
9.1999999999999336
 21
-45.64500000000001
 31
0.0
1001
GRPNAME
1000
PASTMD09
  0
LINE
  5
42B2
  8
241
  6
CONTINUOUS
 10
7.5950000000000273
 20
-49.21250000000007
 30
0.0
 11
7.5950000000000273
 21
49.212500000000041
 31
0.0
1001
GRPNAME
1000
PASTMD09
  0
LINE
  5
42B3
  8
241
  6
CONTINUOUS
 10
0.0
 20
-34.92500000000004
 30
0.0
 11
0.0
 21
34.925000000000011
 31
0.0
1001
GRPNAME
1000
PASTMD09
  0
LINE
  5
42B4
  8
241
  6
CONTINUOUS
 10
19.050000000000072
 20
34.925000000000011
 30
0.0
 11
19.050000000000072
 21
-34.92500000000004
 31
0.0
1001
GRPNAME
1000
PASTMD09
  0
LINE
  5
42B5
  8
240
  6
CONTINUOUS
 10
1.5
 20
49.21249999999992
 30
0.0
 11
1.5
 21
34.924999999999962
 31
0.0
1001
GRPNAME
1000
PASTMD09
  0
LINE
  5
42B6
  8
240
  6
CONTINUOUS
 10
1.5
 20
-49.21250000000007
 30
0.0
 11
1.5
 21
-34.92500000000004
 31
0.0
1001
GRPNAME
1000
PASTMD09
  0
LINE
  5
42B7
  8
240
  6
CONTINUOUS
 10
1.5
 20
-49.21250000000007
 30
0.0
 11
7.5950000000000273
 21
-49.212499999999999
 31
0.0
1001
GRPNAME
1000
PASTMD09
  0
LINE
  5
42B8
  8
240
  6
CONTINUOUS
 10
1.5
 20
49.21249999999992
 30
0.0
 11
7.5950000000000273
 21
49.212500000000041
 31
0.0
1001
GRPNAME
1000
PASTMD09
  0
LINE
  5
42B9
  8
240
  6
CONTINUOUS
 10
13.03999999999996
 20
45.644999999999918
 30
0.0
 11
13.03999999999996
 21
46.432558453851861
 31
0.0
1001
GRPNAME
1000
PASTMD09
  0
LINE
  5
42BA
  8
240
  6
CONTINUOUS
 10
9.1999999999999336
 20
46.432558453851968
 30
0.0
 11
9.1999999999999336
 21
45.644999999999918
 31
0.0
1001
GRPNAME
1000
PASTMD09
  0
LINE
  5
42BB
  8
240
  6
CONTINUOUS
 10
7.5950000000000273
 20
49.212500000000041
 30
0.0
 11
9.1999999999999336
 21
46.432558453851968
 31
0.0
1001
GRPNAME
1000
PASTMD09
  0
LINE
  5
42BC
  8
240
  6
CONTINUOUS
 10
13.03999999999996
 20
46.432558453851861
 30
0.0
 11
14.64499999999998
 21
49.21249999999992
 31
0.0
1001
GRPNAME
1000
PASTMD09
  0
LINE
  5
42BD
  8
240
  6
CONTINUOUS
 10
13.040000000000081
 20
-46.432558453852067
 30
0.0
 11
14.64499999999998
 21
-49.212499999999999
 31
0.0
1001
GRPNAME
1000
PASTMD09
  0
LINE
  5
42BE
  8
240
  6
CONTINUOUS
 10
7.5950000000000273
 20
-49.212499999999999
 30
0.0
 11
9.1999999999999336
 21
-46.432558453852067
 31
0.0
1001
GRPNAME
1000
PASTMD09
  0
LINE
  5
42BF
  8
240
  6
CONTINUOUS
 10
9.1999999999999336
 20
-45.64500000000001
 30
0.0
 11
13.040000000000081
 21
-45.64500000000001
 31
0.0
1001
GRPNAME
1000
PASTMD09
  0
LINE
  5
42C0
  8
240
  6
CONTINUOUS
 10
9.1999999999999336
 20
45.644999999999918
 30
0.0
 11
13.03999999999996
 21
45.644999999999918
 31
0.0
1001
GRPNAME
1000
PASTMD09
  0
LINE
  5
42C1
  8
240
  6
CONTINUOUS
 10
19.050000000000072
 20
-49.21250000000007
 30
0.0
 11
14.64499999999998
 21
-49.212499999999999
 31
0.0
1001
GRPNAME
1000
PASTMD09
  0
LINE
  5
42C2
  8
240
  6
CONTINUOUS
 10
19.050000000000072
 20
49.21249999999992
 30
0.0
 11
14.64499999999998
 21
49.21249999999992
 31
0.0
1001
GRPNAME
1000
PASTMD09
  0
LINE
  5
42C3
  8
240
  6
CONTINUOUS
 10
19.050000000000072
 20
49.21249999999992
 30
0.0
 11
19.050000000000072
 21
34.925000000000011
 31
0.0
1001
GRPNAME
1000
PASTMD09
  0
LINE
  5
42C4
  8
240
  6
CONTINUOUS
 10
19.050000000000072
 20
-34.92500000000004
 30
0.0
 11
19.050000000000072
 21
-49.21250000000007
 31
0.0
1001
GRPNAME
1000
PASTMD09
  0
LINE
  5
42C5
  8
240
  6
CONTINUOUS
 10
9.1999999999999336
 20
-45.64500000000001
 30
0.0
 11
9.1999999999999336
 21
-46.432558453852067
 31
0.0
1001
GRPNAME
1000
PASTMD09
  0
LINE
  5
42C6
  8
240
  6
CONTINUOUS
 10
13.040000000000081
 20
-45.64500000000001
 30
0.0
 11
13.040000000000081
 21
-46.432558453852067
 31
0.0
1001
GRPNAME
1000
PASTMD09
  0
LINE
  5
42C7
  8
240
  6
CONTINUOUS
 10
-101.59999999999999
 20
20.108333333333231
 30
0.0
 11
0.0
 21
34.924999999999898
 31
0.0
1001
GRPNAME
1000
PASTMD09
  0
LINE
  5
42C8
  8
240
  6
CONTINUOUS
 10
-101.59999999999999
 20
20.108333333333292
 30
0.0
 11
-101.59999999999999
 21
-20.10833333333338
 31
0.0
1001
GRPNAME
1000
PASTMD09
  0
LINE
  5
42C9
  8
240
  6
CONTINUOUS
 10
-101.59999999999999
 20
-20.10833333333338
 30
0.0
 11
0.0
 21
-34.92500000000004
 31
0.0
1001
GRPNAME
1000
PASTMD09
  0
LINE
  5
42CA
  8
240
  6
CONTINUOUS
 10
19.050000000000072
 20
-34.92500000000004
 30
0.0
 11
34.999999999999972
 21
-34.92500000000004
 31
0.0
1001
GRPNAME
1000
PASTMD09
  0
LINE
  5
42CB
  8
240
  6
CONTINUOUS
 10
19.050000000000072
 20
34.925000000000011
 30
0.0
 11
35.000000000000057
 21
34.925000000000011
 31
0.0
1001
GRPNAME
1000
PASTMD09
  0
LINE
  5
42CC
  8
240
  6
CONTINUOUS
 10
0.0
 20
34.925000000000011
 30
0.0
 11
1.5
 21
34.924999999999962
 31
0.0
  0
LINE
  5
42CD
  8
240
  6
CONTINUOUS
 10
0.0
 20
-34.92500000000004
 30
0.0
 11
1.5
 21
-34.92500000000004
 31
0.0
  0
TEXT
  5
42CE
  8
250
  6
CONTINUOUS
 10
-72.79455199226706
 20
-37.357738943014681
 30
0.0
 40
2.799999999999998
  1
BCV50
  7
YOKO
1001
ITEMNAME
1000
LNSP3
  0
LINE
  5
42CF
  8
250
  6
CONTINUOUS
 10
-57.061218658933747
 20
-38.357738943014681
 30
0.0
 11
-75.06121865893374
 21
-38.357738943014681
 31
0.0
1001
ITEMNAME
1000
LNSP2
  0
LINE
  5
42D0
  8
250
  6
CONTINUOUS
 10
-52.08890497452029
 20
-29.081861563025338
 30
0.0
 11
-50.799999998933743
 21
-27.516666663014689
 31
0.0
  0
LINE
  5
42D1
  8
250
  6
CONTINUOUS
 10
-51.511603656917551
 20
-29.4152796686204
 30
0.0
 11
-50.799999998933743
 21
-27.516666663014689
 31
0.0
  0
LINE
  5
42D2
  8
250
  6
CONTINUOUS
 10
-50.799999998933743
 20
-27.516666663014689
 30
0.0
 11
-51.800254315718888
 21
-29.248570615822871
 31
0.0
  0
LINE
  5
42D3
  8
250
  6
CONTINUOUS
 10
-51.800254315718888
 20
-29.248570615822871
 30
0.0
 11
-57.061218658933747
 21
-38.357738943014681
 31
0.0
1001
ACAD
1000
DSTYLE
1002
{
1070
     6
1000
OPEN
1070
    41
1040
2.0
1070
    42
1040
2.0
1070
    44
1040
2.0
1070
   140
1040
4.0
1070
   343
1005
0
1002
}
  0
LINE
  5
42D4
  8
247
  6
CONTINUOUS
 10
5.4999999999999432
 20
-26.75
 30
0.0
 11
5.5
 21
-22.115384615670049
 31
0.0
  0
LINE
  5
42D5
  8
247
  6
CONTINUOUS
 10
3.0
 20
-25.954893499987978
 30
0.0
 11
5.0999999999160082
 21
-26.557058810057359
 31
0.0
  0
LINE
  5
42D6
  8
247
  6
CONTINUOUS
 10
3.996153846113998
 20
-25.32515140351904
 30
0.0
 11
3.996153846113998
 21
-26.24053601886704
 31
0.0
  0
ARC
  5
42D7
  8
247
  6
CONTINUOUS
 10
3.3847190672940992
 20
-25.08726340194681
 30
0.0
 40
0.3876715809326743
 50
72.997889675292228
 51
172.92416621851359
  0
ARC
  5
42D8
  8
247
  6
CONTINUOUS
 10
3.305223131028014
 20
-25.38247755680413
 30
0.0
 40
0.6933047965358767
 50
4.7429368522022122
 51
73.849226273266751
1001
GENIUS_GENOBJ-N-FIL_13
1002
{
1000
OWNER
1000
GEN
1002
}
1001
GENIUS_GENODEF_13
1002
{
1000
HIER
1070
     0
1002
}
1002
{
1000
MANEDIT
1070
     0
1002
}
1002
{
1000
NOSEL
1070
     0
1002
}
1002
{
1000
BEHIND
1070
     0
1002
}
1002
{
1000
OTHER
1070
     0
1002
}
1002
{
1000
REACTOR
1002
}
  0
LINE
  5
42D9
  8
247
  6
CONTINUOUS
 10
5.0999999999160082
 20
-25.64167419470937
 30
0.0
 11
5.0999999999160082
 21
-26.557058810057359
 31
0.0
  0
LINE
  5
42DA
  8
247
  6
CONTINUOUS
 10
3.0
 20
-25.954893499987978
 30
0.0
 11
3.0
 21
-25.039508884639989
 31
0.0
  0
ARC
  5
42DB
  8
247
  6
CONTINUOUS
 10
4.3874169627678707
 20
-25.378306476266861
 30
0.0
 40
0.394857301075386
 50
65.990941652528889
 51
172.26344345906909
  0
ARC
  5
42DC
  8
247
  6
CONTINUOUS
 10
4.3912003273325677
 20
-25.71244661042693
 30
0.0
 40
0.7123241612361686
 50
5.701985164259705
 51
77.277338436822006
1001
GENIUS_GENOBJ-N-FIL_13
1002
{
1000
OWNER
1000
GEN
1002
}
1001
GENIUS_GENODEF_13
1002
{
1000
HIER
1070
     0
1002
}
1002
{
1000
MANEDIT
1070
     0
1002
}
1002
{
1000
NOSEL
1070
     0
1002
}
1002
{
1000
BEHIND
1070
     0
1002
}
1002
{
1000
OTHER
1070
     0
1002
}
1002
{
1000
REACTOR
1002
}
  0
LINE
  5
42DD
  8
247
  6
CONTINUOUS
 10
5.0999999999160082
 20
-24.6839818870634
 30
0.0
 11
3.0
 21
-24.081816576994012
 31
0.0
  0
LINE
  5
42DE
  8
247
  6
CONTINUOUS
 10
3.0
 20
-22.58566273090798
 30
0.0
 11
3.0
 21
-22.981678364303601
 31
0.0
  0
LINE
  5
42DF
  8
247
  6
CONTINUOUS
 10
5.0999999999160082
 20
-23.608739653943982
 30
0.0
 11
5.0999999999160082
 21
-23.17797042319199
 31
0.0
  0
ARC
  5
42E0
  8
247
  6
CONTINUOUS
 10
4.4582995950833588
 20
-22.381816577069969
 30
0.0
 40
1.576855057639547
 50
202.35948814152911
 51
254.99324854284649
  0
ARC
  5
42E1
  8
247
  6
CONTINUOUS
 10
3.565818858538135
 20
-22.847511366133229
 30
0.0
 40
0.6234706797009447
 50
94.994589319075317
 51
155.1663289573039
1001
GENIUS_GENOBJ-N-FIL_13
1002
{
1000
OWNER
1000
GEN
1002
}
1001
GENIUS_GENODEF_13
1002
{
1000
HIER
1070
     0
1002
}
1002
{
1000
MANEDIT
1070
     0
1002
}
1002
{
1000
NOSEL
1070
     0
1002
}
1002
{
1000
BEHIND
1070
     0
1002
}
1002
{
1000
OTHER
1070
     0
1002
}
1002
{
1000
REACTOR
1002
}
  0
ARC
  5
42E2
  8
247
  6
CONTINUOUS
 10
4.1621021219694381
 20
-23.444183951032809
 30
0.0
 40
0.9749472149106983
 50
15.8460965557808
 51
82.325137004169278
  0
ARC
  5
42E3
  8
247
  6
CONTINUOUS
 10
4.3714704019710648
 20
-23.035211638772239
 30
0.0
 40
0.9271945638692009
 50
249.7136016704969
 51
321.78874565641053
1001
GENIUS_GENOBJ-N-FIL_13
1002
{
1000
OWNER
1000
GEN
1002
}
1001
GENIUS_GENODEF_13
1002
{
1000
HIER
1070
     0
1002
}
1002
{
1000
MANEDIT
1070
     0
1002
}
1002
{
1000
NOSEL
1070
     0
1002
}
1002
{
1000
BEHIND
1070
     0
1002
}
1002
{
1000
OTHER
1070
     0
1002
}
1002
{
1000
REACTOR
1002
}
  0
LINE
  5
42E4
  8
247
  6
CONTINUOUS
 10
4.2923076922559744
 20
-22.962585807815959
 30
0.0
 11
4.2923076922559744
 21
-22.477970423219968
 31
0.0
  0
ARC
  5
42E5
  8
247
  6
CONTINUOUS
 10
4.25
 20
-26.75
 30
0.0
 40
1.25
 50
180.0
 51
0.0
  0
LINE
  5
42E6
  8
247
  6
CONTINUOUS
 10
3.0
 20
-26.75
 30
0.0
 11
3.0
 21
-26.303846153914041
 31
0.0
  0
ARC
  5
42E7
  8
247
  6
CONTINUOUS
 10
4.25
 20
-22.115384615670049
 30
0.0
 40
1.25
 50
0.0
 51
180.0
  0
LINE
  5
4312
  8
240
  6
CONTINUOUS
 10
35.000000000000057
 20
34.925000000000011
 30
0.0
 11
35.000000000000313
 21
25.499999999999108
 31
0.0
  0
LINE
  5
4313
  8
240
  6
CONTINUOUS
 10
34.999999999999972
 20
-34.92500000000004
 30
0.0
 11
34.999999999999979
 21
-25.49999999999924
 31
0.0
  0
LINE
  5
4314
  8
241
  6
CONTINUOUS
 10
54.949999999968071
 20
-20.500000000000039
 30
0.0
 11
54.949999999988989
 21
20.499999999999691
 31
0.0
  0
LINE
  5
4315
  8
241
  6
CONTINUOUS
 10
56.549999999976173
 20
-20.500000000000039
 30
0.0
 11
56.549999999976158
 21
20.499999999999741
 31
0.0
  0
LINE
  5
4316
  8
241
  6
CONTINUOUS
 10
57.949999999968753
 20
-20.500000000000039
 30
0.0
 11
57.949999999968753
 21
20.49999999999978
 31
0.0
  0
LINE
  5
4317
  8
241
  6
CONTINUOUS
 10
59.549999999975483
 20
-20.500000000000039
 30
0.0
 11
59.549999999955922
 21
20.499999999999819
 31
0.0
  0
ARC
  5
4319
  8
240
  6
CONTINUOUS
 10
40.000000000000313
 20
25.499999999999261
 30
0.0
 40
5.0
 50
180.00000000000159
 51
270.0000000000033
  0
ARC
  5
431B
  8
240
  6
CONTINUOUS
 10
39.999999999999972
 20
-25.49999999999924
 30
0.0
 40
5.0
 50
89.999999999996746
 51
180.0
  0
LINE
  5
431C
  8
240
  6
CONTINUOUS
 10
40.000000000000561
 20
20.499999999999261
 30
0.0
 11
74.549999990110621
 21
20.500000000000259
 31
0.0
  0
LINE
  5
431E
  8
240
  6
CONTINUOUS
 10
40.000000000000227
 20
-20.49999999999924
 30
0.0
 11
74.549999990110393
 21
-20.50000000000021
 31
0.0
  0
LINE
  5
4320
  8
241
  6
CONTINUOUS
 10
66.549999999979349
 20
-17.303589838485191
 30
0.0
 11
66.549999999979462
 21
-0.0000000000000355
 31
0.0
  0
TEXT
  5
4350
  8
241
  6
CONTINUOUS
 10
-109.25
 20
77.000000000000057
 30
0.0
 40
5.0
  1
BCV50-MGT12-3.25
  7
YOKO
 11
-109.25
 21
77.000000000000057
 31
0.0
 73
     1
  0
LINE
  5
4351
  8
250
  6
CONTINUOUS
 10
85.088539429999997
 20
28.225107550000061
 30
0.0
 11
103.22187276
 21
28.225107550000061
 31
0.0
1001
ITEMNAME
1000
LNSP2
  0
TEXT
  5
4352
  8
250
  6
CONTINUOUS
 10
87.355206096666663
 20
29.225107550000061
 30
0.0
 40
2.799999999999998
  1
MGT12
  7
YOKO
1001
ITEMNAME
1000
LNSP3
1001
ACAD
1000
MTEXTBEGIN
1070
    73
1070
     1
1070
    44
1040
1.0
1070
    74
1070
     0
1000
MTEXTEND
  0
LINE
  5
4353
  8
250
  6
CONTINUOUS
 10
74.549999990111374
 20
-20.49999999999994
 30
0.0
 11
95.549999999999983
 21
-20.49999999999994
 31
0.0
  0
LINE
  5
4354
  8
250
  6
CONTINUOUS
 10
74.549999990111374
 20
20.50000000000006
 30
0.0
 11
95.549999999999983
 21
20.50000000000006
 31
0.0
  0
LINE
  5
4355
  8
250
  6
CONTINUOUS
 10
94.549999999999997
 20
-18.269999999999939
 30
0.0
 11
94.549999999999997
 21
18.270000000000049
 31
0.0
  0
TEXT
  5
4356
  8
250
  6
CONTINUOUS
 10
93.549999999999997
 20
-5.6317013670731919
 30
0.0
 40
2.799999999999998
  1
\U+22051.61
 50
90.0
1001
ACAD
1000
MTEXTBEGIN
1070
    73
1070
     1
1070
    44
1040
1.0
1070
    74
1070
     0
1000
MTEXTEND
1000
MTEXTBEGIN
1070
    73
1070
     1
1070
    44
1040
1.0
1070
    74
1070
     0
1000
MTEXTEND
  0
LINE
  5
4357
  8
250
  6
CONTINUOUS
 10
94.178333333333299
 20
18.270000000000049
 30
0.0
 11
94.549999999999997
 21
20.50000000000006
 31
0.0
  0
LINE
  5
4358
  8
250
  6
CONTINUOUS
 10
94.921666666666596
 20
18.270000000000049
 30
0.0
 11
94.549999999999997
 21
20.50000000000006
 31
0.0
  0
LINE
  5
4359
  8
250
  6
CONTINUOUS
 10
94.549999999999997
 20
20.50000000000006
 30
0.0
 11
94.549999999999997
 21
18.270000000000049
 31
0.0
  0
LINE
  5
435A
  8
250
  6
CONTINUOUS
 10
94.921666666666596
 20
-18.269999999999939
 30
0.0
 11
94.549999999999997
 21
-20.49999999999994
 31
0.0
  0
LINE
  5
435B
  8
250
  6
CONTINUOUS
 10
94.178333333333299
 20
-18.269999999999939
 30
0.0
 11
94.549999999999997
 21
-20.49999999999994
 31
0.0
  0
LINE
  5
435C
  8
250
  6
CONTINUOUS
 10
94.549999999999997
 20
-20.49999999999994
 30
0.0
 11
94.549999999999997
 21
-18.269999999999939
 31
0.0
  0
POLYLINE
  5
435D
  8
250
  6
CONTINUOUS
 66
     1
 10
0.0
 20
0.0
 30
0.0
1001
ACAD
1000
DSTYLE
1002
{
1070
     6
1000
OPEN
1070
    41
1040
2.0
1070
    42
1040
2.0
1070
    44
1040
2.0
1070
    79
1070
     2
1070
   140
1040
4.0
1070
   179
1070
     3
1070
   371
1070
    -1
1070
   372
1070
    -1
1002
}
  0
VERTEX
  5
435E
  8
250
  6
CONTINUOUS
 10
80.814089090072144
 20
20.82154238752727
 30
0.0
  0
VERTEX
  5
435F
  8
250
  6
CONTINUOUS
 10
85.088539429999997
 20
28.225107550000061
 30
0.0
  0
SEQEND
  5
4360
  8
250
  6
CONTINUOUS
  0
LINE
  5
4361
  8
245
  6
CENTER2
 10
47.54999999999999
 20
21.50000000000006
 30
0.0
 11
47.54999999999999
 21
9.0000000000000551
 31
0.0
1001
GENIUS_GENOBJ-N-CEN_13
1002
{
1000
OWNER
1000
GEN
1002
}
1001
GENIUS_GENODEF_13
1002
{
1000
HIER
1070
     0
1002
}
1002
{
1000
MANEDIT
1070
     0
1002
}
1002
{
1000
NOSEL
1070
     0
1002
}
1002
{
1000
BEHIND
1070
     0
1002
}
1002
{
1000
OTHER
1070
     0
1002
}
1002
{
1000
REACTOR
1002
}
  0
LINE
  5
4362
  8
243
  6
HIDDEN2
 10
30.550000000000001
 20
10.00000000000005
 30
0.0
 11
76.049999999999983
 21
10.00000000000005
 31
0.0
  0
LINE
  5
4363
  8
241
  6
CONTINUOUS
 10
66.549999999999997
 20
20.50000000000006
 30
0.0
 11
66.549999999999997
 21
-20.49999999999994
 31
0.0
  0
LINE
  5
4364
  8
240
  6
CONTINUOUS
 10
82.549999999999997
 20
-18.35640646455829
 30
0.0
 11
82.549999999999997
 21
18.356406464558411
 31
0.0
  0
LINE
  5
4365
  8
241
  6
CONTINUOUS
 10
74.549999999999997
 20
-20.412959299999951
 30
0.0
 11
74.549999999999997
 21
20.412959300000061
 31
0.0
  0
LINE
  5
4366
  8
240
  6
CONTINUOUS
 10
74.549999990110393
 20
-20.50000000000021
 30
0.0
 11
82.549999999999997
 21
-18.35640646455829
 31
0.0
  0
LINE
  5
4367
  8
243
  6
HIDDEN2
 10
76.049999999999983
 20
13.700000000000051
 30
0.0
 11
82.549999999999997
 21
13.700000000000051
 31
0.0
  0
LINE
  5
4368
  8
240
  6
CONTINUOUS
 10
74.549999990110621
 20
20.500000000000259
 30
0.0
 11
82.549999999999997
 21
18.356406464558411
 31
0.0
  0
LINE
  5
4369
  8
250
  6
CONTINUOUS
 10
81.102764224660007
 20
20.65487572084858
 30
0.0
 11
79.814089089999982
 21
19.08949158000005
 31
0.0
  0
LINE
  5
436A
  8
250
  6
CONTINUOUS
 10
80.525413955484296
 20
20.988209054205971
 30
0.0
 11
79.814089089999982
 21
19.08949158000005
 31
0.0
  0
LINE
  5
436B
  8
250
  6
CONTINUOUS
 10
79.814089089999982
 20
19.08949158000005
 30
0.0
 11
80.814089090072144
 21
20.82154238752727
 31
0.0
  0
LINE
  5
436C
  8
243
  6
HIDDEN2
 10
30.550000000000001
 20
-9.9999999999999432
 30
0.0
 11
76.049999999999983
 21
-9.9999999999999432
 31
0.0
  0
LINE
  5
436D
  8
243
  6
HIDDEN2
 10
76.049999999999983
 20
13.700000000000051
 30
0.0
 11
76.049999999999983
 21
-13.699999999999941
 31
0.0
  0
LINE
  5
436E
  8
243
  6
HIDDEN2
 10
76.049999999999983
 20
-13.699999999999941
 30
0.0
 11
82.549999999999997
 21
-13.699999999999941
 31
0.0
  0
LINE
  5
436F
  8
241
  6
CONTINUOUS
 10
34.999999999999972
 20
-25.49999999999924
 30
0.0
 11
35.000000000000313
 21
25.499999999999108
 31
0.0
  0
LINE
  5
439D
  8
250
  6
CONTINUOUS
 10
0.0
 20
35.424999999999898
 30
0.0
 11
0.0000000000000018
 21
64.0
 31
0.0
  0
LINE
  5
439E
  8
250
  6
CONTINUOUS
 10
82.549999999999997
 20
18.856406464558411
 30
0.0
 11
82.549999999999997
 21
64.0
 31
0.0
  0
LINE
  5
439F
  8
250
  6
CONTINUOUS
 10
2.2300000000000009
 20
63.0
 30
0.0
 11
80.319999999999993
 21
63.0
 31
0.0
  0
TEXT
  5
43A3
  8
250
  6
CONTINUOUS
 10
35.274999999999999
 20
64.000000000000014
 30
0.0
 40
2.7999999999999989
  1
3.25
  0
LINE
  5
43A4
  8
250
  6
CONTINUOUS
 10
80.319999999999993
 20
63.37166666666667
 30
0.0
 11
82.549999999999997
 21
63.0
 31
0.0
  0
LINE
  5
43A5
  8
250
  6
CONTINUOUS
 10
80.319999999999993
 20
62.62833333333333
 30
0.0
 11
82.549999999999997
 21
63.0
 31
0.0
  0
LINE
  5
43A6
  8
250
  6
CONTINUOUS
 10
82.549999999999997
 20
63.0
 30
0.0
 11
80.319999999999993
 21
63.0
 31
0.0
  0
LINE
  5
43A7
  8
250
  6
CONTINUOUS
 10
2.2300000000000009
 20
62.62833333333333
 30
0.0
 11
0.0000000000000017
 21
63.0
 31
0.0
  0
LINE
  5
43A8
  8
250
  6
CONTINUOUS
 10
2.2300000000000009
 20
63.37166666666667
 30
0.0
 11
0.0000000000000017
 21
63.0
 31
0.0
  0
LINE
  5
43A9
  8
250
  6
CONTINUOUS
 10
0.0000000000000017
 20
63.0
 30
0.0
 11
2.2300000000000009
 21
63.0
 31
0.0
  0
VIEWPORT
  5
22
 67
     1
  8
0
 10
261.51769911504419
 20
148.5
 30
0.0
 40
523.0353982300885
 41
297.0
 68
     1
 69
     1
1001
ACAD
1000
MVIEW
1002
{
1070
    16
1010
0.0
1020
0.0
1030
0.0
1010
0.0
1020
0.0
1030
1.0
1040
0.0
1040
297.0
1040
261.51769911504419
1040
148.5
1040
50.0
1040
0.0
1040
0.0
1070
     0
1070
   100
1070
     1
1070
     1
1070
     0
1070
     0
1070
     0
1070
     0
1040
0.0
1040
0.0
1040
0.0
1040
1.0
1040
1.0
1040
10.0
1040
10.0
1070
     0
1002
{
1002
}
1002
}
1001
GENIUS_GENODEF_13
1002
{
1000
HIER
1070
     0
1002
}
1002
{
1000
MANEDIT
1070
     0
1002
}
1002
{
1000
NOSEL
1070
     0
1002
}
1002
{
1000
BEHIND
1070
     0
1002
}
1002
{
1000
OTHER
1070
     0
1002
}
1002
{
1000
REACTOR
1002
}
1001
GENIUS_GENOBJ-N-SDF_13
1002
{
1000
OWNER
1000
GEN
1002
}
1001
GENIUS_GENSCREG_15
1000
PF
1040
1.0
1000
DF
1040
1.0
1000
MIN
1011
0.0
1021
0.0
1031
0.0
1021
0.0
1031
0.0
1000
MAX
1011
523.0353982300885
1021
0.0
1031
0.0
1021
297.0
1031
0.0
1000
FLAGS
1070
     4
  0
ENDSEC
  0
EOF
