  0
SECTION
  2
HEADER
  9
$ACADVER
  1
AC1009
  9
$DWGCODEPAGE
  3
ansi_932
  9
$INSBASE
 10
0.0
 20
0.0
 30
0.0
  9
$EXTMIN
 10
-103.6140858393327
 20
-49.22040993420274
 30
-0.0015258207003583
  9
$EXTMAX
 10
358.0140879888252
 20
89.01623657718449
 30
0.0000000349246037
  9
$LIMMIN
 10
0.0
 20
0.0
  9
$LIMMAX
 10
297.0
 20
210.0
  9
$ORTHOMODE
 70
     0
  9
$REGENMODE
 70
     1
  9
$FILLMODE
 70
     1
  9
$QTEXTMODE
 70
     0
  9
$MIRRTEXT
 70
     1
  9
$DRAGMODE
 70
     2
  9
$LTSCALE
 40
10.0
  9
$OSMODE
 70
   511
  9
$ATTMODE
 70
     1
  9
$TEXTSIZE
 40
3.0
  9
$TRACEWID
 40
1.0
  9
$TEXTSTYLE
  7
YOKO
  9
$CLAYER
  8
245
  9
$CELTYPE
  6
BYLAYER
  9
$CECOLOR
 62
   256
  9
$DIMSCALE
 40
1.0
  9
$DIMASZ
 40
2.0
  9
$DIMEXO
 40
0.5
  9
$DIMDLI
 40
2.5
  9
$DIMRND
 40
0.0
  9
$DIMDLE
 40
0.0
  9
$DIMEXE
 40
1.0
  9
$DIMTP
 40
0.0
  9
$DIMTM
 40
0.0
  9
$DIMTXT
 40
2.799999999999999
  9
$DIMCEN
 40
0.0
  9
$DIMTSZ
 40
0.0
  9
$DIMTOL
 70
     0
  9
$DIMLIM
 70
     0
  9
$DIMTIH
 70
     0
  9
$DIMTOH
 70
     0
  9
$DIMSE1
 70
     0
  9
$DIMSE2
 70
     0
  9
$DIMTAD
 70
     3
  9
$DIMZIN
 70
     8
  9
$DIMBLK
  1

  9
$DIMASO
 70
     1
  9
$DIMSHO
 70
     1
  9
$DIMPOST
  1

  9
$DIMAPOST
  1

  9
$DIMALT
 70
     0
  9
$DIMALTD
 70
     2
  9
$DIMALTF
 40
25.4
  9
$DIMLFAC
 40
1.0
  9
$DIMTOFL
 70
     1
  9
$DIMTVP
 40
0.0
  9
$DIMTIX
 70
     1
  9
$DIMSOXD
 70
     0
  9
$DIMSAH
 70
     1
  9
$DIMBLK1
  1
OPEN
  9
$DIMBLK2
  1
OPEN
  9
$DIMSTYLE
  2
BIGT
  9
$DIMCLRD
 70
     3
  9
$DIMCLRE
 70
     3
  9
$DIMCLRT
 70
    40
  9
$DIMTFAC
 40
1.0
  9
$DIMGAP
 40
1.0
  9
$LUNITS
 70
     2
  9
$LUPREC
 70
     3
  9
$SKETCHINC
 40
1.0
  9
$FILLETRAD
 40
1.0
  9
$AUNITS
 70
     0
  9
$AUPREC
 70
     3
  9
$MENU
  1
.
  9
$ELEVATION
 40
0.0
  9
$PELEVATION
 40
0.0
  9
$THICKNESS
 40
0.0
  9
$LIMCHECK
 70
     0
  9
$CHAMFERA
 40
10.0
  9
$CHAMFERB
 40
10.0
  9
$SKPOLY
 70
     0
  9
$TDCREATE
 40
2457744.104078796
  9
$TDUPDATE
 40
2457745.009746782
  9
$TDINDWG
 40
0.0095637153
  9
$TDUSRTIMER
 40
2458339.813504247
  9
$USRTIMER
 70
     1
  9
$ANGBASE
 50
0.0
  9
$ANGDIR
 70
     0
  9
$PDMODE
 70
     0
  9
$PDSIZE
 40
-5.0
  9
$PLINEWID
 40
0.0
  9
$COORDS
 70
     1
  9
$SPLFRAME
 70
     0
  9
$SPLINETYPE
 70
     6
  9
$SPLINESEGS
 70
     8
  9
$ATTDIA
 70
     0
  9
$ATTREQ
 70
     1
  9
$HANDLING
 70
     1
  9
$HANDSEED
  5
DEF
  9
$SURFTAB1
 70
     6
  9
$SURFTAB2
 70
     6
  9
$SURFTYPE
 70
     6
  9
$SURFU
 70
     6
  9
$SURFV
 70
     6
  9
$UCSNAME
  2

  9
$UCSORG
 10
0.0
 20
0.0
 30
0.0
  9
$UCSXDIR
 10
1.0
 20
0.0
 30
0.0
  9
$UCSYDIR
 10
0.0
 20
1.0
 30
0.0
  9
$PUCSNAME
  2

  9
$PUCSORG
 10
0.0
 20
0.0
 30
0.0
  9
$PUCSXDIR
 10
1.0
 20
0.0
 30
0.0
  9
$PUCSYDIR
 10
0.0
 20
1.0
 30
0.0
  9
$USERI1
 70
     1
  9
$USERI2
 70
     0
  9
$USERI3
 70
     0
  9
$USERI4
 70
     0
  9
$USERI5
 70
     0
  9
$USERR1
 40
0.0
  9
$USERR2
 40
0.0
  9
$USERR3
 40
0.0
  9
$USERR4
 40
0.0
  9
$USERR5
 40
0.0
  9
$WORLDVIEW
 70
     1
  9
$SHADEDGE
 70
     3
  9
$SHADEDIF
 70
    70
  9
$TILEMODE
 70
     1
  9
$MAXACTVP
 70
    16
  9
$PLIMCHECK
 70
     0
  9
$PEXTMIN
 10
1.000000000000000E+20
 20
1.000000000000000E+20
 30
1.000000000000000E+20
  9
$PEXTMAX
 10
-1.000000000000000E+20
 20
-1.000000000000000E+20
 30
-1.000000000000000E+20
  9
$PLIMMIN
 10
0.0
 20
0.0
  9
$PLIMMAX
 10
420.0
 20
297.0
  9
$UNITMODE
 70
     0
  9
$VISRETAIN
 70
     0
  9
$PLINEGEN
 70
     0
  9
$PSLTSCALE
 70
     1
  0
ENDSEC
  0
SECTION
  2
TABLES
  0
TABLE
  2
VPORT
 70
     1
  0
VPORT
  2
*ACTIVE
 70
     0
 10
0.0
 20
0.0
 11
1.0
 21
1.0
 12
127.2000010747462
 22
19.89791332149089
 13
0.0
 23
0.0
 14
7.0
 24
7.0
 15
7.0
 25
7.0
 16
0.0
 26
0.0
 36
1.0
 17
0.0
 27
0.0
 37
0.0
 40
241.9548308934889
 41
1.914539400665926
 42
50.0
 43
0.0
 44
0.0
 50
0.0
 51
0.0
 71
     0
 72
 20000
 73
     1
 74
     0
 75
     0
 76
     0
 77
     0
 78
     0
  0
ENDTAB
  0
TABLE
  2
LTYPE
 70
     2
  0
LTYPE
  2
CONTINUOUS
 70
     0
  3
Solid line
 72
    65
 73
     0
 40
0.0
  0
LTYPE
  2
CENTER2
 70
     0
  3
___ _ ___ _ ___ _ ___ _ ___ _ ___ _ ___ _ ___ _
 72
    65
 73
     4
 40
1.125
 49
0.75
 49
-0.125
 49
0.125
 49
-0.125
  0
ENDTAB
  0
TABLE
  2
LAYER
 70
     6
  0
LAYER
  2
0
 70
     0
 62
     7
  6
CONTINUOUS
  0
LAYER
  2
240
 70
     0
 62
     4
  6
CONTINUOUS
  0
LAYER
  2
241
 70
     0
 62
   211
  6
CONTINUOUS
  0
LAYER
  2
245
 70
     0
 62
     2
  6
CENTER2
  0
LAYER
  2
247
 70
     0
 62
    60
  6
CONTINUOUS
  0
LAYER
  2
250
 70
     0
 62
     3
  6
CONTINUOUS
  0
ENDTAB
  0
TABLE
  2
STYLE
 70
     2
  0
STYLE
  2
STANDARD
 70
     0
 40
0.0
 41
1.0
 50
0.0
 71
     0
 42
3.0
  3
romans.shx
  4
BIGFONT.SHX
  0
STYLE
  2
YOKO
 70
     0
 40
0.0
 41
1.0
 50
0.0
 71
     0
 42
3.0
  3
romans.shx
  4
extfont.shx
  0
ENDTAB
  0
TABLE
  2
VIEW
 70
     0
  0
ENDTAB
  0
TABLE
  2
UCS
 70
     0
  0
ENDTAB
  0
TABLE
  2
APPID
 70
    18
  0
APPID
  2
ACAD
 70
     0
  0
APPID
  2
GLOBAL
 70
     0
  0
APPID
  2
DETAIL
 70
     0
  0
APPID
  2
GRPNAME
 70
     0
  0
APPID
  2
GPARA
 70
     0
  0
APPID
  2
DCO15
 70
     0
  0
APPID
  2
ITEMNAME
 70
     0
  0
APPID
  2
GRADE_0
 70
     0
  0
APPID
  2
ACAD_DSTYLE_DIMJAG
 70
     0
  0
APPID
  2
ACAD_DSTYLE_DIMTALN
 70
     0
  0
APPID
  2
ACAD_NAV_VCDISPLAY
 70
     0
  0
APPID
  2
ACAD_MLEADERVER
 70
     0
  0
APPID
  2
ACAD_DSTYLE_DIMBREAK
 70
     0
  0
APPID
  2
GENIUS_GENODEF_13
 70
     0
  0
APPID
  2
GENIUS_GENOBJ-N-FIL_13
 70
     0
  0
APPID
  2
ACAD_DSTYLE_DIMINSPECT
 70
     0
  0
APPID
  2
LAYER_SCALE
 70
     0
  0
APPID
  2
ACAD_PSEXT
 70
     0
  0
ENDTAB
  0
TABLE
  2
DIMSTYLE
 70
     1
  0
DIMSTYLE
  2
BIGT
 70
     0
  3

  4

  5

  6
OPEN
  7
OPEN
 40
1.0
 41
2.0
 42
0.5
 43
2.5
 44
1.0
 45
0.0
 46
0.0
 47
0.0
 48
0.0
140
2.799999999999998
141
0.0
142
0.0
143
25.4
144
1.0
145
0.0
146
1.0
147
1.0
 71
     0
 72
     0
 73
     0
 74
     0
 75
     0
 76
     0
 77
     3
 78
     8
170
     0
171
     2
172
     1
173
     1
174
     1
175
     0
176
     3
177
     3
178
    40
  0
ENDTAB
  0
ENDSEC
  0
SECTION
  2
BLOCKS
  0
BLOCK
  8
0
  2
$MODEL_SPACE
 70
     0
 10
0.0
 20
0.0
 30
0.0
  3
$MODEL_SPACE
  1

  0
ENDBLK
  5
1C
  8
0
  0
BLOCK
 67
     1
  8
0
  2
$PAPER_SPACE
 70
     0
 10
0.0
 20
0.0
 30
0.0
  3
$PAPER_SPACE
  1

  0
ENDBLK
  5
19
 67
     1
  8
0
  0
BLOCK
  8
0
  2
_OPEN
 70
     0
 10
0.0
 20
0.0
 30
0.0
  3
_OPEN
  1

  0
LINE
  5
595
  8
0
  6
BYBLOCK
 62
     0
 10
-1.0
 20
0.1666666666666666
 30
0.0
 11
0.0
 21
0.0
 31
0.0
  0
LINE
  5
596
  8
0
  6
BYBLOCK
 62
     0
 10
-1.0
 20
-0.1666666666666666
 30
0.0
 11
0.0
 21
0.0
 31
0.0
  0
LINE
  5
597
  8
0
  6
BYBLOCK
 62
     0
 10
0.0
 20
0.0
 30
0.0
 11
-1.0
 21
0.0
 31
0.0
  0
ENDBLK
  5
599
  8
0
  0
BLOCK
  8
0
  2
矢印なし
 70
     0
 10
0.0
 20
0.0
 30
0.0
  3
矢印なし
  1

  0
ENDBLK
  5
6E5
  8
0
  0
BLOCK
  8
0
  2
*X2
 70
     1
 10
0.0
 20
0.0
 30
0.0
  3
*X2
  1

  0
TEXT
  5
DEA
  8
250
  6
CONTINUOUS
 10
356.0
 20
-7.34166666666664
 30
0.0
 40
2.8
  1
\U+00F8
 50
90.0
  0
TEXT
  5
DEB
  8
250
  6
CONTINUOUS
 10
356.0
 20
-4.674999999999955
 30
0.0
 40
2.799999999999998
  1
2.000
 50
90.0
  0
ENDBLK
  5
DED
  8
0
  0
ENDSEC
  0
SECTION
  2
ENTITIES
  0
INSERT
  5
6E6
  8
245
  2
矢印なし
 10
175.6238269664377
 20
90.55123571690598
 30
0.0
  0
LINE
  5
B74
  8
245
  6
CENTER2
 10
-103.6
 20
0.0
 30
0.0
 11
343.9
 21
0.0
 31
0.0
1001
GRPNAME
1000
PASTMD0L
  0
LINE
  5
B75
  8
240
  6
CONTINUOUS
 10
0.0
 20
34.92500000000001
 30
0.0
 11
-101.6
 21
20.10833332972169
 31
0.0
1001
GRPNAME
1000
PASTMD0L
  0
LINE
  5
B76
  8
240
  6
CONTINUOUS
 10
0.0
 20
-34.92500000000001
 30
0.0
 11
-101.6
 21
-20.10833332972172
 31
0.0
1001
GRPNAME
1000
PASTMD0L
  0
LINE
  5
B77
  8
240
  6
CONTINUOUS
 10
-101.6
 20
20.10833332972169
 30
0.0
 11
-101.6
 21
-20.10833332972172
 31
0.0
1001
GRPNAME
1000
PASTMD0L
  0
LINE
  5
B78
  8
241
  6
CONTINUOUS
 10
7.593833230000001
 20
49.21249999999997
 30
0.0
 11
7.593833230000001
 21
12.95499999999998
 31
0.0
1001
GRPNAME
1000
PASTMD0L
  0
LINE
  5
B79
  8
241
  6
CONTINUOUS
 10
9.200000000000003
 20
45.64499999999998
 30
0.0
 11
9.200000000000003
 21
12.95499999999998
 31
0.0
1001
GRPNAME
1000
PASTMD0L
  0
LINE
  5
B7A
  8
241
  6
CONTINUOUS
 10
13.03999999999999
 20
45.64499999999998
 30
0.0
 11
13.03999999999999
 21
12.95499999999998
 31
0.0
1001
GRPNAME
1000
PASTMD0L
  0
LINE
  5
B7B
  8
241
  6
CONTINUOUS
 10
14.64616677000001
 20
49.21249999999997
 30
0.0
 11
14.64616677000001
 21
12.95499999999998
 31
0.0
1001
GRPNAME
1000
PASTMD0L
  0
LINE
  5
B7F
  8
241
  6
CONTINUOUS
 10
9.200000000000003
 20
-12.95500000000001
 30
0.0
 11
9.200000000000003
 21
-45.64500000000001
 31
0.0
1001
GRPNAME
1000
PASTMD0L
  0
LINE
  5
B80
  8
241
  6
CONTINUOUS
 10
7.593833230000001
 20
-49.2125
 30
0.0
 11
7.593833230000001
 21
-12.95500000000001
 31
0.0
1001
GRPNAME
1000
PASTMD0L
  0
LINE
  5
B81
  8
241
  6
CONTINUOUS
 10
13.03999999999999
 20
-45.64500000000001
 30
0.0
 11
13.03999999999999
 21
-12.95500000000001
 31
0.0
1001
GRPNAME
1000
PASTMD0L
  0
LINE
  5
B82
  8
241
  6
CONTINUOUS
 10
14.64616677000001
 20
-49.2125
 30
0.0
 11
14.64616677000001
 21
-12.95500000000001
 31
0.0
1001
GRPNAME
1000
PASTMD0L
  0
LINE
  5
B83
  8
240
  6
CONTINUOUS
 10
1.5
 20
-49.2125
 30
0.0
 11
1.5
 21
-34.92500000000001
 31
0.0
1001
GRPNAME
1000
PASTMD0L
  0
LINE
  5
B84
  8
240
  6
CONTINUOUS
 10
19.05000000000001
 20
-49.2125
 30
0.0
 11
19.05000000000001
 21
-26.39997716197672
 31
0.0
1001
GRPNAME
1000
PASTMD0L
  0
LINE
  5
B85
  8
240
  6
CONTINUOUS
 10
14.64616677000001
 20
-49.2125
 30
0.0
 11
19.05000000000001
 21
-49.2125
 31
0.0
1001
GRPNAME
1000
PASTMD0L
  0
LINE
  5
B86
  8
240
  6
CONTINUOUS
 10
1.5
 20
-49.2125
 30
0.0
 11
7.593833230000001
 21
-49.2125
 31
0.0
1001
GRPNAME
1000
PASTMD0L
  0
LINE
  5
B87
  8
240
  6
CONTINUOUS
 10
9.200000000000003
 20
-45.64500000000001
 30
0.0
 11
13.03999999999999
 21
-45.64500000000001
 31
0.0
1001
GRPNAME
1000
PASTMD0L
  0
LINE
  5
B88
  8
240
  6
CONTINUOUS
 10
9.200000000000003
 20
-46.43053754999999
 30
0.0
 11
7.593833230000001
 21
-49.2125
 31
0.0
1001
GRPNAME
1000
PASTMD0L
  0
LINE
  5
B89
  8
240
  6
CONTINUOUS
 10
9.200000000000003
 20
-45.64500000000001
 30
0.0
 11
9.200000000000003
 21
-46.43053754999999
 31
0.0
1001
GRPNAME
1000
PASTMD0L
  0
LINE
  5
B8A
  8
240
  6
CONTINUOUS
 10
13.03999999999999
 20
-46.43053754999999
 30
0.0
 11
14.64616677000001
 21
-49.2125
 31
0.0
1001
GRPNAME
1000
PASTMD0L
  0
LINE
  5
B8B
  8
240
  6
CONTINUOUS
 10
13.03999999999999
 20
-45.64500000000001
 30
0.0
 11
13.03999999999999
 21
-46.43053754999999
 31
0.0
1001
GRPNAME
1000
PASTMD0L
  0
LINE
  5
B8C
  8
241
  6
CONTINUOUS
 10
19.05000000000001
 20
-26.39997716197672
 30
0.0
 11
19.05000000000001
 21
26.39997716197672
 31
0.0
  0
LINE
  5
B8D
  8
241
  6
CONTINUOUS
 10
1.5
 20
-34.92500000000001
 30
0.0
 11
1.5
 21
34.92500000000001
 31
0.0
1001
GRPNAME
1000
PASTMD0L
  0
LINE
  5
B8E
  8
241
  6
CONTINUOUS
 10
0.0
 20
-34.92500000000001
 30
0.0
 11
0.0
 21
34.92500000000001
 31
0.0
1001
GRPNAME
1000
PASTMD0L
  0
LINE
  5
B8F
  8
241
  6
CONTINUOUS
 10
3.674999999999997
 20
-12.95500000000001
 30
0.0
 11
19.05000000000001
 21
-12.95500000000001
 31
0.0
1001
GRPNAME
1000
PASTMD0K
  0
LINE
  5
B90
  8
240
  6
CONTINUOUS
 10
0.0
 20
-34.92500000000001
 30
0.0
 11
1.5
 21
-34.92500000000001
 31
0.0
  0
LINE
  5
B91
  8
241
  6
CONTINUOUS
 10
3.674999999999997
 20
-12.95500000000001
 30
0.0
 11
1.5
 21
-15.12999999999999
 31
0.0
  0
LINE
  5
B93
  8
241
  6
CONTINUOUS
 10
3.674999999999997
 20
12.95499999999998
 30
0.0
 11
19.05000000000001
 21
12.95499999999998
 31
0.0
1001
GRPNAME
1000
PASTMD0K
  0
LINE
  5
B94
  8
241
  6
CONTINUOUS
 10
3.674999999999997
 20
12.95499999999998
 30
0.0
 11
1.5
 21
15.12999999999999
 31
0.0
  0
LINE
  5
B95
  8
240
  6
CONTINUOUS
 10
1.5
 20
49.21249999999997
 30
0.0
 11
1.5
 21
34.92500000000001
 31
0.0
1001
GRPNAME
1000
PASTMD0L
  0
LINE
  5
B96
  8
240
  6
CONTINUOUS
 10
19.05000000000001
 20
49.21249999999997
 30
0.0
 11
19.05000000000001
 21
26.39997716197672
 31
0.0
1001
GRPNAME
1000
PASTMD0L
  0
LINE
  5
B97
  8
240
  6
CONTINUOUS
 10
0.0
 20
34.92500000000001
 30
0.0
 11
1.5
 21
34.92500000000001
 31
0.0
  0
LINE
  5
B99
  8
240
  6
CONTINUOUS
 10
14.64616677000001
 20
49.21249999999997
 30
0.0
 11
19.05000000000001
 21
49.21249999999997
 31
0.0
1001
GRPNAME
1000
PASTMD0L
  0
LINE
  5
B9A
  8
240
  6
CONTINUOUS
 10
1.5
 20
49.21249999999997
 30
0.0
 11
7.593833230000001
 21
49.21249999999997
 31
0.0
1001
GRPNAME
1000
PASTMD0L
  0
LINE
  5
B9B
  8
240
  6
CONTINUOUS
 10
9.200000000000003
 20
45.64499999999998
 30
0.0
 11
13.03999999999999
 21
45.64499999999998
 31
0.0
1001
GRPNAME
1000
PASTMD0L
  0
LINE
  5
B9C
  8
240
  6
CONTINUOUS
 10
9.200000000000003
 20
45.64499999999998
 30
0.0
 11
9.200000000000003
 21
46.43053754999999
 31
0.0
1001
GRPNAME
1000
PASTMD0L
  0
LINE
  5
B9D
  8
240
  6
CONTINUOUS
 10
9.200000000000003
 20
46.43053754999999
 30
0.0
 11
7.593833230000001
 21
49.21249999999997
 31
0.0
1001
GRPNAME
1000
PASTMD0L
  0
LINE
  5
B9E
  8
240
  6
CONTINUOUS
 10
13.03999999999999
 20
45.64499999999998
 30
0.0
 11
13.03999999999999
 21
46.43053754999999
 31
0.0
1001
GRPNAME
1000
PASTMD0L
  0
LINE
  5
B9F
  8
240
  6
CONTINUOUS
 10
13.03999999999999
 20
46.43053754999999
 30
0.0
 11
14.64616677000001
 21
49.21249999999997
 31
0.0
1001
GRPNAME
1000
PASTMD0L
  0
TEXT
  5
BA0
  8
250
  6
CONTINUOUS
 10
-72.79455199226703
 20
-37.35773894301463
 30
0.0
 40
2.799999999999998
  1
BCV50
  7
YOKO
1001
ITEMNAME
1000
LNSP3
  0
LINE
  5
BA1
  8
250
  6
CONTINUOUS
 10
-57.06121865893369
 20
-38.35773894301463
 30
0.0
 11
-75.06121865893368
 21
-38.35773894301463
 31
0.0
1001
ITEMNAME
1000
LNSP2
  0
LINE
  5
BA2
  8
250
  6
CONTINUOUS
 10
-52.08890497452025
 20
-29.08186156302529
 30
0.0
 11
-50.7999999989337
 21
-27.51666666301463
 31
0.0
  0
LINE
  5
BA3
  8
250
  6
CONTINUOUS
 10
-51.51160365691754
 20
-29.41527966862036
 30
0.0
 11
-50.7999999989337
 21
-27.51666666301463
 31
0.0
  0
LINE
  5
BA4
  8
250
  6
CONTINUOUS
 10
-50.7999999989337
 20
-27.51666666301463
 30
0.0
 11
-51.80025431571888
 21
-29.24857061582282
 31
0.0
  0
LINE
  5
BA5
  8
250
  6
CONTINUOUS
 10
-51.80025431571888
 20
-29.24857061582282
 30
0.0
 11
-57.06121865893369
 21
-38.35773894301463
 31
0.0
1001
ACAD
1000
DSTYLE
1002
{
1070
     6
1000
OPEN
1070
    41
1040
2.0
1070
    42
1040
2.0
1070
    44
1040
2.0
1070
   140
1040
4.0
1070
   343
1005
594
1002
}
  0
LINE
  5
BA6
  8
247
  6
CONTINUOUS
 10
5.499999999999943
 20
-26.75
 30
0.0
 11
5.5
 21
-22.11538461567005
 31
0.0
  0
LINE
  5
BA7
  8
247
  6
CONTINUOUS
 10
3.0
 20
-25.95489349998798
 30
0.0
 11
5.099999999916007
 21
-26.55705881005736
 31
0.0
  0
LINE
  5
BA8
  8
247
  6
CONTINUOUS
 10
3.996153846113998
 20
-25.32515140351904
 30
0.0
 11
3.996153846113998
 21
-26.24053601886704
 31
0.0
  0
ARC
  5
BA9
  8
247
  6
CONTINUOUS
 10
3.384719067294098
 20
-25.08726340194681
 30
0.0
 40
0.3876715809326743
 50
72.99788967529223
 51
172.9241662185136
  0
ARC
  5
BAA
  8
247
  6
CONTINUOUS
 10
3.305223131028014
 20
-25.38247755680413
 30
0.0
 40
0.6933047965358767
 50
4.742936852202211
 51
73.84922627326677
1001
GENIUS_GENOBJ-N-FIL_13
1002
{
1000
OWNER
1000
GEN
1002
}
1001
GENIUS_GENODEF_13
1002
{
1000
HIER
1070
     0
1002
}
1002
{
1000
MANEDIT
1070
     0
1002
}
1002
{
1000
NOSEL
1070
     0
1002
}
1002
{
1000
BEHIND
1070
     0
1002
}
1002
{
1000
OTHER
1070
     0
1002
}
1002
{
1000
REACTOR
1002
}
  0
LINE
  5
BAB
  8
247
  6
CONTINUOUS
 10
5.099999999916007
 20
-25.64167419470937
 30
0.0
 11
5.099999999916007
 21
-26.55705881005736
 31
0.0
  0
LINE
  5
BAC
  8
247
  6
CONTINUOUS
 10
3.0
 20
-25.95489349998798
 30
0.0
 11
3.0
 21
-25.03950888463999
 31
0.0
  0
ARC
  5
BAD
  8
247
  6
CONTINUOUS
 10
4.387416962767872
 20
-25.37830647626686
 30
0.0
 40
0.394857301075386
 50
65.99094165252887
 51
172.2634434590691
  0
ARC
  5
BAE
  8
247
  6
CONTINUOUS
 10
4.391200327332568
 20
-25.71244661042693
 30
0.0
 40
0.7123241612361686
 50
5.701985164259785
 51
77.27733843682202
1001
GENIUS_GENOBJ-N-FIL_13
1002
{
1000
OWNER
1000
GEN
1002
}
1001
GENIUS_GENODEF_13
1002
{
1000
HIER
1070
     0
1002
}
1002
{
1000
MANEDIT
1070
     0
1002
}
1002
{
1000
NOSEL
1070
     0
1002
}
1002
{
1000
BEHIND
1070
     0
1002
}
1002
{
1000
OTHER
1070
     0
1002
}
1002
{
1000
REACTOR
1002
}
  0
LINE
  5
BAF
  8
247
  6
CONTINUOUS
 10
5.099999999916007
 20
-24.6839818870634
 30
0.0
 11
3.0
 21
-24.08181657699401
 31
0.0
  0
LINE
  5
BB0
  8
247
  6
CONTINUOUS
 10
3.0
 20
-22.58566273090798
 30
0.0
 11
3.0
 21
-22.9816783643036
 31
0.0
  0
LINE
  5
BB1
  8
247
  6
CONTINUOUS
 10
5.099999999916007
 20
-23.60873965394398
 30
0.0
 11
5.099999999916007
 21
-23.17797042319199
 31
0.0
  0
ARC
  5
BB2
  8
247
  6
CONTINUOUS
 10
4.458299595083359
 20
-22.38181657706997
 30
0.0
 40
1.576855057639548
 50
202.3594881415292
 51
254.9932485428465
  0
ARC
  5
BB3
  8
247
  6
CONTINUOUS
 10
3.565818858538136
 20
-22.84751136613323
 30
0.0
 40
0.6234706797009447
 50
94.99458931907526
 51
155.1663289573039
1001
GENIUS_GENOBJ-N-FIL_13
1002
{
1000
OWNER
1000
GEN
1002
}
1001
GENIUS_GENODEF_13
1002
{
1000
HIER
1070
     0
1002
}
1002
{
1000
MANEDIT
1070
     0
1002
}
1002
{
1000
NOSEL
1070
     0
1002
}
1002
{
1000
BEHIND
1070
     0
1002
}
1002
{
1000
OTHER
1070
     0
1002
}
1002
{
1000
REACTOR
1002
}
  0
ARC
  5
BB4
  8
247
  6
CONTINUOUS
 10
4.162102121969438
 20
-23.44418395103281
 30
0.0
 40
0.9749472149106982
 50
15.8460965557808
 51
82.32513700416929
  0
ARC
  5
BB5
  8
247
  6
CONTINUOUS
 10
4.371470401971066
 20
-23.03521163877224
 30
0.0
 40
0.9271945638692008
 50
249.7136016704969
 51
321.788745656411
1001
GENIUS_GENOBJ-N-FIL_13
1002
{
1000
OWNER
1000
GEN
1002
}
1001
GENIUS_GENODEF_13
1002
{
1000
HIER
1070
     0
1002
}
1002
{
1000
MANEDIT
1070
     0
1002
}
1002
{
1000
NOSEL
1070
     0
1002
}
1002
{
1000
BEHIND
1070
     0
1002
}
1002
{
1000
OTHER
1070
     0
1002
}
1002
{
1000
REACTOR
1002
}
  0
LINE
  5
BB6
  8
247
  6
CONTINUOUS
 10
4.292307692255973
 20
-22.96258580781596
 30
0.0
 11
4.292307692255973
 21
-22.47797042321997
 31
0.0
  0
ARC
  5
BB7
  8
247
  6
CONTINUOUS
 10
4.25
 20
-26.75
 30
0.0
 40
1.25
 50
180.0
 51
0.0
  0
LINE
  5
BB8
  8
247
  6
CONTINUOUS
 10
3.0
 20
-26.75
 30
0.0
 11
3.0
 21
-26.30384615391404
 31
0.0
  0
ARC
  5
BB9
  8
247
  6
CONTINUOUS
 10
4.25
 20
-22.11538461567005
 30
0.0
 40
1.25
 50
0.0
 51
180.0
  0
LINE
  5
C06
  8
240
  6
CONTINUOUS
 10
342.9
 20
24.3999078483657
 30
0.0
 11
342.9
 21
-24.3999078483657
 31
0.0
  0
ARC
  5
C14
  8
240
  6
CONTINUOUS
 10
20.05000000000001
 20
-26.39997716197672
 30
0.0
 40
1.0
 50
90.00001233921843
 51
180.0
1001
GRPNAME
1000
PASTMD0L
  0
LINE
  5
C15
  8
240
  6
CONTINUOUS
 10
20.04999978464002
 20
-25.39997716197675
 30
0.0
 11
341.9000002153599
 21
-25.39990784836568
 31
0.0
  0
ARC
  5
C18
  8
240
  6
CONTINUOUS
 10
20.05000000000001
 20
26.39997716197672
 30
0.0
 40
1.0
 50
180.0
 51
269.9999876607816
1001
GRPNAME
1000
PASTMD0L
  0
LINE
  5
C19
  8
240
  6
CONTINUOUS
 10
20.04999978464002
 20
25.39997716197675
 30
0.0
 11
341.9000002153599
 21
25.39990784836568
 31
0.0
  0
ARC
  5
C20
  8
240
  6
CONTINUOUS
 10
341.9
 20
-24.3999078483657
 30
0.0
 40
1.0
 50
270.0000123392182
 51
0.0
  0
ARC
  5
C24
  8
240
  6
CONTINUOUS
 10
341.9
 20
24.3999078483657
 30
0.0
 40
1.0
 50
0.0
 51
89.99998766078181
  0
LINE
  5
C5F
  8
250
  6
CONTINUOUS
 10
342.4000002153599
 20
-25.39990784836568
 30
0.0
 11
358.0
 21
-25.39990784836569
 31
0.0
  0
LINE
  5
C60
  8
250
  6
CONTINUOUS
 10
342.4000002153599
 20
25.39990784836568
 30
0.0
 11
358.0
 21
25.39990784836568
 31
0.0
  0
LINE
  5
C61
  8
250
  6
CONTINUOUS
 10
357.0
 20
-23.16990784836568
 30
0.0
 11
357.0
 21
23.16990784836567
 31
0.0
  0
INSERT
  5
C62
  8
250
  6
CONTINUOUS
  2
_OPEN
 10
357.0
 20
-25.39990784836569
 30
0.0
 41
2.229999999999999
 42
2.229999999999999
 43
2.229999999999999
 50
270.0
  0
INSERT
  5
C63
  8
250
  6
CONTINUOUS
  2
_OPEN
 10
357.0
 20
25.39990784836568
 30
0.0
 41
2.229999999999999
 42
2.229999999999999
 43
2.229999999999999
 50
90.0
  0
INSERT
  5
C64
  8
250
  6
CONTINUOUS
  2
*X2
 10
0.0
 20
0.0
 30
0.0
  0
LINE
  5
C65
  8
250
  6
CONTINUOUS
 10
0.0
 20
35.42500000000001
 30
0.0
 11
0.0000000000000022
 21
71.0
 31
0.0
  0
LINE
  5
C66
  8
250
  6
CONTINUOUS
 10
342.9
 20
24.8999078483657
 30
0.0
 11
342.9
 21
71.0
 31
0.0
  0
LINE
  5
C67
  8
250
  6
CONTINUOUS
 10
2.230000000000002
 20
70.0
 30
0.0
 11
340.67
 21
70.0
 31
0.0
  0
INSERT
  5
C68
  8
250
  6
CONTINUOUS
  2
_OPEN
 10
0.0000000000000021
 20
70.0
 30
0.0
 41
2.229999999999999
 42
2.229999999999999
 43
2.229999999999999
 50
180.0
  0
INSERT
  5
C69
  8
250
  6
CONTINUOUS
  2
_OPEN
 10
342.9
 20
70.0
 30
0.0
 41
2.229999999999999
 42
2.229999999999999
 43
2.229999999999999
  0
TEXT
  5
C6A
  8
250
  6
CONTINUOUS
 10
165.2520833333333
 20
71.00000000000001
 30
0.0
 40
2.799999999999998
  1
13.50
  0
TEXT
  5
C72
  8
241
  6
CONTINUOUS
 10
-102.5523808356549
 20
85.66666678143918
 30
0.0
 40
5.0
  1
BCV50-2.000-L13.5SD
  7
YOKO
 11
-102.5523808356549
 21
84.0000001147725
 31
0.0
 73
     1
  0
VIEWPORT
  5
22
 67
     1
  8
0
 10
261.5176991150442
 20
148.5
 30
0.0
 40
523.0353982300885
 41
297.0
 68
     1
 69
    -1
1001
ACAD
1000
MVIEW
1002
{
1070
    16
1010
0.0
1020
0.0
1030
0.0
1020
0.0
1030
0.0
1010
0.0
1020
0.0
1030
1.0
1020
0.0
1030
1.0
1040
0.0
1040
297.0
1040
261.5176991150442
1040
148.5
1040
50.0
1040
0.0
1040
0.0
1070
     0
1070
   100
1070
     0
1070
     1
1070
     0
1070
     0
1070
     0
1070
     0
1040
0.0
1040
0.0
1040
0.0
1040
1.0
1040
1.0
1040
10.0
1040
10.0
1070
     0
1002
{
1002
}
1002
}
  0
ENDSEC
  0
EOF
