  0
SECTION
  2
HEADER
  9
$ACADVER
  1
AC1009
  9
$INSBASE
 10
0.0
 20
0.0
 30
0.0
  9
$EXTMIN
 10
-69.25
 20
-31.7500000000000284
 30
0.0
  9
$EXTMAX
 10
89.971539946157705
 20
68.0
 30
0.0
  9
$LIMMIN
 10
0.0
 20
0.0
  9
$LIMMAX
 10
297.0
 20
210.0
  9
$ORTHOMODE
 70
     0
  9
$REGENMODE
 70
     1
  9
$FILLMODE
 70
     1
  9
$QTEXTMODE
 70
     0
  9
$MIRRTEXT
 70
     1
  9
$DRAGMODE
 70
     2
  9
$LTSCALE
 40
10.0
  9
$OSMODE
 70
   807
  9
$ATTMODE
 70
     1
  9
$TEXTSIZE
 40
3.0
  9
$TRACEWID
 40
1.0
  9
$TEXTSTYLE
  7
YOKO
  9
$CLAYER
  8
240
  9
$CELTYPE
  6
BYLAYER
  9
$CECOLOR
 62
   256
  9
$DIMSCALE
 40
1.0
  9
$DIMASZ
 40
2.0
  9
$DIMEXO
 40
0.5
  9
$DIMDLI
 40
2.5
  9
$DIMRND
 40
0.0
  9
$DIMDLE
 40
0.0
  9
$DIMEXE
 40
1.0
  9
$DIMTP
 40
0.0
  9
$DIMTM
 40
0.0
  9
$DIMTXT
 40
2.799999999999998
  9
$DIMCEN
 40
0.0
  9
$DIMTSZ
 40
0.0
  9
$DIMTOL
 70
     0
  9
$DIMLIM
 70
     0
  9
$DIMTIH
 70
     0
  9
$DIMTOH
 70
     0
  9
$DIMSE1
 70
     0
  9
$DIMSE2
 70
     0
  9
$DIMTAD
 70
     3
  9
$DIMZIN
 70
     8
  9
$DIMBLK
  1

  9
$DIMASO
 70
     1
  9
$DIMSHO
 70
     1
  9
$DIMPOST
  1

  9
$DIMAPOST
  1

  9
$DIMALT
 70
     0
  9
$DIMALTD
 70
     2
  9
$DIMALTF
 40
25.3999999999999986
  9
$DIMLFAC
 40
1.0
  9
$DIMTOFL
 70
     1
  9
$DIMTVP
 40
0.0
  9
$DIMTIX
 70
     1
  9
$DIMSOXD
 70
     0
  9
$DIMSAH
 70
     1
  9
$DIMBLK1
  1
OPEN
  9
$DIMBLK2
  1
OPEN
  9
$DIMSTYLE
  2
BIGT
  9
$DIMCLRD
 70
     3
  9
$DIMCLRE
 70
     3
  9
$DIMCLRT
 70
    40
  9
$DIMTFAC
 40
1.0
  9
$DIMGAP
 40
1.0
  9
$LUNITS
 70
     2
  9
$LUPREC
 70
     2
  9
$SKETCHINC
 40
1.0
  9
$FILLETRAD
 40
0.7
  9
$AUNITS
 70
     0
  9
$AUPREC
 70
     3
  9
$MENU
  1
.
  9
$ELEVATION
 40
0.0
  9
$PELEVATION
 40
0.0
  9
$THICKNESS
 40
0.0
  9
$LIMCHECK
 70
     0
  9
$BLIPMODE
 70
     0
  9
$CHAMFERA
 40
10.0
  9
$CHAMFERB
 40
10.0
  9
$SKPOLY
 70
     0
  9
$TDCREATE
 40
2457759.7100578700192273
  9
$TDUPDATE
 40
2458172.6138657410629094
  9
$TDINDWG
 40
0.0371687616
  9
$TDUSRTIMER
 40
0.0371685069
  9
$USRTIMER
 70
     1
  9
$ANGBASE
 50
0.0
  9
$ANGDIR
 70
     0
  9
$PDMODE
 70
     0
  9
$PDSIZE
 40
-5.0
  9
$PLINEWID
 40
0.0
  9
$COORDS
 70
     1
  9
$SPLFRAME
 70
     0
  9
$SPLINETYPE
 70
     6
  9
$SPLINESEGS
 70
     8
  9
$ATTDIA
 70
     1
  9
$ATTREQ
 70
     1
  9
$HANDLING
 70
     1
  9
$HANDSEED
  5
121E
  9
$SURFTAB1
 70
     6
  9
$SURFTAB2
 70
     6
  9
$SURFTYPE
 70
     6
  9
$SURFU
 70
     6
  9
$SURFV
 70
     6
  9
$UCSNAME
  2

  9
$UCSORG
 10
0.0
 20
0.0
 30
0.0
  9
$UCSXDIR
 10
1.0
 20
0.0
 30
0.0
  9
$UCSYDIR
 10
0.0
 20
1.0
 30
0.0
  9
$PUCSNAME
  2

  9
$PUCSORG
 10
0.0
 20
0.0
 30
0.0
  9
$PUCSXDIR
 10
1.0
 20
0.0
 30
0.0
  9
$PUCSYDIR
 10
0.0
 20
1.0
 30
0.0
  9
$USERI1
 70
     1
  9
$USERI2
 70
     0
  9
$USERI3
 70
     0
  9
$USERI4
 70
     0
  9
$USERI5
 70
     0
  9
$USERR1
 40
0.0
  9
$USERR2
 40
0.0
  9
$USERR3
 40
0.0
  9
$USERR4
 40
0.0
  9
$USERR5
 40
0.0
  9
$WORLDVIEW
 70
     1
  9
$SHADEDGE
 70
     3
  9
$SHADEDIF
 70
    70
  9
$TILEMODE
 70
     1
  9
$MAXACTVP
 70
    16
  9
$PLIMCHECK
 70
     0
  9
$PEXTMIN
 10
1.0000000000000000E+20
 20
1.0000000000000000E+20
 30
1.0000000000000000E+20
  9
$PEXTMAX
 10
-1.0000000000000000E+20
 20
-1.0000000000000000E+20
 30
-1.0000000000000000E+20
  9
$PLIMMIN
 10
0.0
 20
0.0
  9
$PLIMMAX
 10
420.0
 20
297.0
  9
$UNITMODE
 70
     0
  9
$VISRETAIN
 70
     0
  9
$PLINEGEN
 70
     0
  9
$PSLTSCALE
 70
     1
  0
ENDSEC
  0
SECTION
  2
TABLES
  0
TABLE
  2
VPORT
 70
     1
  0
VPORT
  2
*ACTIVE
 70
     0
 10
0.0
 20
0.0
 11
1.0
 21
1.0
 12
41.712156926448209
 22
13.1569556365966296
 13
0.0
 23
0.0
 14
7.0
 24
7.0
 15
7.0
 25
7.0
 16
0.0
 26
0.0
 36
1.0
 17
0.0
 27
0.0
 37
0.0
 40
161.1155029903227955
 41
2.0192076830732288
 42
50.0
 43
0.0
 44
0.0
 50
0.0
 51
0.0
 71
     0
 72
 20000
 73
     1
 74
     0
 75
     0
 76
     0
 77
     0
 78
     0
  0
ENDTAB
  0
TABLE
  2
LTYPE
 70
    16
  0
LTYPE
  2
CONTINUOUS
 70
     0
  3
Solid line
 72
    65
 73
     0
 40
0.0
  0
LTYPE
  2
CENTER2
 70
     0
  3
___ _ ___ _ ___ _ ___ _ ___ _ ___ _ ___ _ ___ _
 72
    65
 73
     4
 40
1.125
 49
0.75
 49
-0.125
 49
0.125
 49
-0.125
  0
LTYPE
  2
HIDDEN2
 70
     0
  3
_ _ _ _ _ _ _ _ _ _ _ _ _ _ _ _ _ _ _ _ _ _ _ _
 72
    65
 73
     2
 40
0.1875
 49
0.125
 49
-0.0625
  0
LTYPE
  2
AM_ISO02W050
 70
     0
  3
__ __ __ __ __ __ __ __ __ __ __ __ __ __ __
 72
    65
 73
     2
 40
7.5
 49
6.0
 49
-1.5
  0
LTYPE
  2
AM_ISO08W050
 70
     0
  3
____ . ____ . ____ . ____ . ____ . ____ . ____
 72
    65
 73
     4
 40
18.0
 49
12.0
 49
-1.5
 49
3.0
 49
-1.5
  0
LTYPE
  2
AM_ISO09W050
 70
     0
  3
_____ . . _____ . . _____ . . ____ .. ____
 72
    65
 73
     6
 40
22.5
 49
12.0
 49
-1.5
 49
3.0
 49
-1.5
 49
3.0
 49
-1.5
  0
LTYPE
  2
AMCONSTR
 70
     0
  3
_______________________
 72
    65
 73
     2
 40
9999.0
 49
9999.0
 49
0.0
  0
LTYPE
  2
AM_ISO08W050X2
 70
     0
  3
__ . __ . __ . __ . __ . __
 72
    65
 73
     4
 40
9.0
 49
6.0
 49
-0.75
 49
1.5
 49
-0.75
  0
LTYPE
  2
AM_ISO02W050X2
 70
     0
  3
 _ _ _ _ _ _ _ _ _ _ _ _
 72
    65
 73
     2
 40
3.75
 49
3.0
 49
-0.75
  0
LTYPE
  2
AMZIGZAG
 70
     0
  3
/\/-/\/-/\/-/\/-/\/-/\/
 72
    65
 73
     2
 40
11.0000999999999998
 49
0.0001
 49
-11.0
  0
LTYPE
  2
ACISOWELD
 70
     0
  3
_ _ _ _ _
 72
    65
 73
     2
 40
2.0
 49
2.0
 49
-1.0
  0
LTYPE
  2
ACISOTGL
 70
     0
  3
_ _ _ _ _
 72
    65
 73
     2
 40
3.0
 49
2.0
 49
-1.0
  0
LTYPE
  2
ACISOTGB
 70
     0
  3
__ . . __ . .
 72
    65
 73
     6
 40
9.0
 49
4.0
 49
-1.0
 49
1.0
 49
-1.0
 49
1.0
 49
-1.0
  0
ENDTAB
  0
TABLE
  2
LAYER
 70
     9
  0
LAYER
  2
0
 70
     0
 62
     7
  6
CONTINUOUS
  0
LAYER
  2
240
 70
     0
 62
     4
  6
CONTINUOUS
  0
LAYER
  2
241
 70
     0
 62
   211
  6
CONTINUOUS
  0
LAYER
  2
242
 70
     0
 62
     3
  6
CONTINUOUS
  0
LAYER
  2
243
 70
     0
 62
   211
  6
HIDDEN2
  0
LAYER
  2
245
 70
     0
 62
     2
  6
CENTER2
  0
LAYER
  2
247
 70
     0
 62
    60
  6
CONTINUOUS
  0
LAYER
  2
250
 70
     0
 62
     3
  6
CONTINUOUS
  0
LAYER
  2
251
 70
     0
 62
     3
  6
CONTINUOUS
  0
ENDTAB
  0
TABLE
  2
STYLE
 70
     5
  0
STYLE
  2
STANDARD
 70
     0
 40
0.0
 41
1.0
 50
0.0
 71
     0
 42
2.799999999999998
  3
romans.shx
  4
BIGFONT.SHX
  0
STYLE
  2
YOKO
 70
     0
 40
0.0
 41
1.0
 50
0.0
 71
     0
 42
3.0
  3
romans.shx
  4
extfont.shx
  0
STYLE
  2

 70
     1
 40
0.0
 41
1.0
 50
0.0
 71
     0
 42
3.0
  3
genltshp.shx
  4

  0
STYLE
  2
ACISOGDT
 70
     0
 40
0.0
 41
1.0
 50
0.0
 71
     0
 42
3.0
  3
amgdt.shx
  4

  0
ENDTAB
  0
TABLE
  2
VIEW
 70
     0
  0
ENDTAB
  0
TABLE
  2
UCS
 70
     0
  0
ENDTAB
  0
TABLE
  2
APPID
 70
    25
  0
APPID
  2
ACAD
 70
     0
  0
APPID
  2
GLOBAL
 70
     0
  0
APPID
  2
DETAIL
 70
     0
  0
APPID
  2
GRPNAME
 70
     0
  0
APPID
  2
GPARA
 70
     0
  0
APPID
  2
DCO15
 70
     0
  0
APPID
  2
ITEMNAME
 70
     0
  0
APPID
  2
GRADE_0
 70
     0
  0
APPID
  2
ACAD_DSTYLE_DIMJAG
 70
     0
  0
APPID
  2
ACAD_DSTYLE_DIMTALN
 70
     0
  0
APPID
  2
ACAD_NAV_VCDISPLAY
 70
     0
  0
APPID
  2
ACAD_MLEADERVER
 70
     0
  0
APPID
  2
ACAD_DSTYLE_DIMBREAK
 70
     0
  0
APPID
  2
ACAD_PSEXT
 70
     0
  0
APPID
  2
GENIUS_GENODEF_13
 70
     0
  0
APPID
  2
GENIUS_GENOBJ-N-FIL_13
 70
     0
  0
APPID
  2
ACAD_EXEMPT_FROM_CAD_STANDARDS
 70
     0
  0
APPID
  2
MCAD_NO_VIS
 70
     0
  0
APPID
  2
ACAD_TEMP_GRAPHIC
 70
     0
  0
APPID
  2
ACATTRIBSERVICES
 70
     0
  0
APPID
  2
DESIGNERASSEMBLIES
 70
     0
  0
APPID
  2
GENIUS_GENSCREG_15
 70
     0
  0
APPID
  2
GENIUS_GENOBJ-N-SDF_13
 70
     0
  0
APPID
  2
GENIUS_GENFIL_13
 70
     0
  0
APPID
  2
GENIUS_GENOBJ-N-CHA_13
 70
     0
  0
ENDTAB
  0
TABLE
  2
DIMSTYLE
 70
     8
  0
DIMSTYLE
  2
BIGT
 70
     0
  3

  4

  5

  6
OPEN
  7
OPEN
 40
1.0
 41
2.0
 42
2.0
 43
2.5
 44
2.0
 45
0.0
 46
0.0
 47
0.0
 48
0.0
140
2.799999999999998
141
0.0
142
0.0
143
25.3999999999999986
144
1.0
145
0.0
146
1.0
147
1.0
 71
     0
 72
     0
 73
     0
 74
     0
 75
     0
 76
     0
 77
     3
 78
     8
170
     0
171
     2
172
     1
173
     1
174
     1
175
     0
176
     3
177
     3
178
    40
  0
DIMSTYLE
  2
AM_ISO
 70
     0
  3

  4
"
  5

  6

  7

 40
1.0
 41
3.5
 42
1.0
 43
10.0
 44
1.0
 45
0.0
 46
0.0
 47
0.1
 48
0.1
140
3.5
141
0.0
142
0.0
143
0.0393701
144
1.0
145
0.0
146
0.71
147
1.5
 71
     0
 72
     0
 73
     0
 74
     0
 75
     0
 76
     0
 77
     1
 78
     8
170
     0
171
     2
172
     1
173
     0
174
     0
175
     0
176
   256
177
   256
178
     2
  0
DIMSTYLE
  2
AM_ISO$3
 70
     0
  3

  4
"
  5

  6

  7

 40
1.0
 41
3.5
 42
1.0
 43
10.0
 44
1.0
 45
0.0
 46
0.0
 47
0.1
 48
0.1
140
3.5
141
0.0
142
0.0
143
0.0393701
144
1.0
145
0.0
146
0.71
147
1.5
 71
     0
 72
     0
 73
     0
 74
     1
 75
     0
 76
     0
 77
     1
 78
     8
170
     0
171
     2
172
     0
173
     0
174
     0
175
     0
176
   256
177
   256
178
     2
  0
DIMSTYLE
  2
AM_ISO$4
 70
     0
  3

  4
"
  5

  6

  7

 40
1.0
 41
3.5
 42
1.0
 43
10.0
 44
1.0
 45
0.0
 46
0.0
 47
0.1
 48
0.1
140
3.5
141
0.0
142
0.0
143
0.0393701
144
1.0
145
0.0
146
0.71
147
1.5
 71
     0
 72
     0
 73
     0
 74
     1
 75
     0
 76
     0
 77
     1
 78
     8
170
     0
171
     2
172
     0
173
     0
174
     0
175
     0
176
   256
177
   256
178
     2
  0
DIMSTYLE
  2
AM_ISO$6
 70
     0
  3

  4
"
  5

  6

  7

 40
1.0
 41
3.5
 42
1.0
 43
10.0
 44
1.0
 45
0.0
 46
0.0
 47
0.1
 48
0.1
140
3.5
141
0.0
142
0.0
143
0.0393701
144
1.0
145
0.0
146
0.71
147
1.5
 71
     0
 72
     0
 73
     0
 74
     0
 75
     0
 76
     0
 77
     0
 78
     8
170
     0
171
     2
172
     1
173
     0
174
     0
175
     0
176
   256
177
   256
178
     2
  0
DIMSTYLE
  2
AM_ISO$7
 70
     0
  3

  4
"
  5

  6

  7

 40
1.0
 41
3.5
 42
1.0
 43
10.0
 44
1.0
 45
0.0
 46
0.0
 47
0.1
 48
0.1
140
3.5
141
0.0
142
0.0
143
0.0393701
144
1.0
145
0.0
146
0.71
147
1.5
 71
     0
 72
     0
 73
     0
 74
     0
 75
     0
 76
     0
 77
     1
 78
     8
170
     0
171
     2
172
     1
173
     0
174
     0
175
     0
176
   256
177
   256
178
     2
  0
DIMSTYLE
  2
AM_ISO$SF
 70
     0
  3

  4
"
  5

  6

  7

 40
1.0
 41
3.5
 42
1.0
 43
10.0
 44
1.0
 45
0.0
 46
0.0
 47
0.1
 48
0.1
140
3.5
141
0.0
142
0.0
143
0.0393701
144
1.0
145
0.0
146
0.71
147
1.5
 71
     0
 72
     0
 73
     0
 74
     0
 75
     1
 76
     1
 77
     1
 78
     8
170
     0
171
     2
172
     1
173
     0
174
     0
175
     0
176
   256
177
   256
178
     2
  0
DIMSTYLE
  2
AM_ISO$SH
 70
     0
  3

  4
"
  5

  6
GENAXEH
  7

 40
1.0
 41
3.5
 42
1.0
 43
10.0
 44
1.0
 45
0.0
 46
0.0
 47
0.1
 48
0.1
140
3.5
141
0.0
142
0.0
143
0.0393701
144
2.0
145
0.0
146
0.71
147
1.5
 71
     0
 72
     0
 73
     0
 74
     0
 75
     1
 76
     1
 77
     1
 78
     8
170
     0
171
     2
172
     1
173
     1
174
     0
175
     0
176
   256
177
   256
178
     2
  0
ENDTAB
  0
ENDSEC
  0
SECTION
  2
BLOCKS
  0
BLOCK
  8
0
  2
$MODEL_SPACE
 70
     0
 10
0.0
 20
0.0
 30
0.0
  3
$MODEL_SPACE
  1

  0
ENDBLK
  5
1C
  8
0
  0
BLOCK
 67
     1
  8
0
  2
$PAPER_SPACE
 70
     0
 10
0.0
 20
0.0
 30
0.0
  3
$PAPER_SPACE
  1

  0
ENDBLK
  5
19
 67
     1
  8
0
  0
BLOCK
  8
0
  2
_OPEN
 70
     0
 10
0.0
 20
0.0
 30
0.0
  3
_OPEN
  1

  0
LINE
  5
595
  8
0
  6
BYBLOCK
 62
     0
 10
-1.0
 20
0.1666666666666666
 30
0.0
 11
0.0
 21
0.0
 31
0.0
  0
LINE
  5
596
  8
0
  6
BYBLOCK
 62
     0
 10
-1.0
 20
-0.1666666666666666
 30
0.0
 11
0.0
 21
0.0
 31
0.0
  0
LINE
  5
597
  8
0
  6
BYBLOCK
 62
     0
 10
0.0
 20
0.0
 30
0.0
 11
-1.0
 21
0.0
 31
0.0
  0
ENDBLK
  5
599
  8
0
  0
BLOCK
  8
0
  2
矢印なし
 70
     0
 10
0.0
 20
0.0
 30
0.0
  3
矢印なし
  1

  0
ENDBLK
  5
6E5
  8
0
  0
BLOCK
  8
0
  2
GENAXEH
 70
     0
 10
0.0
 20
0.0
 30
0.0
  3
GENAXEH
  1

  0
LINE
  5
117B
  8
0
 10
-1.0
 20
0.0
 30
0.0
 11
1.0
 21
0.0
 31
0.0
  0
ENDBLK
  5
117D
  8
0
  0
BLOCK
  8
0
  2
*U4
 70
     1
 10
0.0
 20
0.0
 30
0.0
  3
*U4
  1

  0
TEXT
  5
11FB
  8
241
 10
-69.2023809523809348
 20
63.0
 30
0.0
 40
5.0
  1
BCV40Y-S63-2.625
  7
YOKO
  0
ENDBLK
  5
11FD
  8
0
  0
BLOCK
  8
0
  2
*U5
 70
     1
 10
0.0
 20
0.0
 30
0.0
  3
*U5
  1

  0
TEXT
  5
120A
  8
250
 10
82.9999999999999858
 20
-7.2666666666666986
 30
0.0
 40
2.7999999999999989
  1
\U+2205
 50
90.0
  0
TEXT
  5
120B
  8
250
 10
82.9999999999999858
 20
-4.7333333333333663
 30
0.0
 40
2.799999999999998
  1
2.480
 50
90.0
  0
ENDBLK
  5
120D
  8
0
  0
BLOCK
  8
0
  2
*U6
 70
     1
 10
0.0
 20
0.0
 30
0.0
  3
*U6
  1

  0
TEXT
  5
120F
  8
250
 10
28.8333333333332611
 20
49.9999999999999716
 30
0.0
 40
2.799999999999998
  1
2.63
  0
ENDBLK
  5
1211
  8
0
  0
BLOCK
  8
0
  2
*U7
 70
     1
 10
0.0
 20
0.0
 30
0.0
  3
*U7
  1

  0
INSERT
  5
1213
  8
251
  6
CONTINUOUS
  2
_OPEN
 10
62.8305227574165315
 20
16.9999999999999893
 30
0.0
 41
2.0
 42
2.0
 43
2.0
 50
240.0
  0
POLYLINE
  5
1214
  8
251
  6
CONTINUOUS
 66
     1
 10
0.0
 20
0.0
 30
0.0
  0
VERTEX
  5
1215
  8
251
  6
CONTINUOUS
 10
63.8305227574165315
 20
18.7320508075688714
 30
0.0
  0
VERTEX
  5
1216
  8
251
  6
CONTINUOUS
 10
77.1715399461576794
 20
41.8393704031182665
 30
0.0
  0
SEQEND
  5
1217
  8
251
  6
CONTINUOUS
  0
ENDBLK
  5
1219
  8
0
  0
BLOCK
  8
0
  2
*U8
 70
     1
 10
0.0
 20
0.0
 30
0.0
  3
*U8
  1

  0
TEXT
  5
121B
  8
251
 10
79.5715399461576851
 20
42.8393704031182878
 30
0.0
 40
2.799999999999998
  1
S63
  7
YOKO
  0
ENDBLK
  5
121D
  8
0
  0
ENDSEC
  0
SECTION
  2
ENTITIES
  0
INSERT
  5
6E6
  8
245
  2
矢印なし
 10
175.6238269664376901
 20
90.5512357169059783
 30
0.0
  0
INSERT
  5
B58
  8
240
  2
*U4
 10
0.0
 20
0.0
 30
0.0
  0
LINE
  5
B5F
  8
245
  6
CENTER2
 10
-69.25
 20
0.0
 30
0.0
 11
67.9999999999997726
 21
-0.0000000000000336
 31
0.0
  0
LINE
  5
B62
  8
240
  6
CONTINUOUS
 10
1.0
 20
22.2250000000000014
 30
0.0
 11
1.0
 21
31.75
 31
0.0
  0
LINE
  5
B64
  8
240
  6
CONTINUOUS
 10
0.0
 20
22.2250000000000014
 30
0.0
 11
-68.2499999999999858
 21
12.2718750014768396
 31
0.0
  0
LINE
  5
B65
  8
240
  6
CONTINUOUS
 10
0.0
 20
-22.2250000000000014
 30
0.0
 11
-68.2500000000000142
 21
-12.2718750014768307
 31
0.0
  0
LINE
  5
B66
  8
240
  6
CONTINUOUS
 10
-68.2500000000000142
 20
-12.2718750014768307
 30
0.0
 11
-68.2499999999999858
 21
12.2718750014768396
 31
0.0
  0
LINE
  5
B67
  8
241
  6
CONTINUOUS
 10
1.0
 20
-22.2250000000000014
 30
0.0
 11
1.0
 21
22.2250000000000014
 31
0.0
  0
LINE
  5
B68
  8
241
  6
CONTINUOUS
 10
0.0
 20
-22.2250000000000014
 30
0.0
 11
0.0
 21
22.2250000000000014
 31
0.0
  0
LINE
  5
B69
  8
241
  6
CONTINUOUS
 10
19.0500000000000291
 20
-7.999999999999547
 30
0.0
 11
19.0500000000000291
 21
-29.2000000000000703
 31
0.0
  0
LINE
  5
B6A
  8
240
  6
CONTINUOUS
 10
1.0
 20
-31.75
 30
0.0
 11
7.593833230000012
 21
-31.75
 31
0.0
  0
LINE
  5
B6B
  8
240
  6
CONTINUOUS
 10
1.0
 20
-22.2250000000000014
 30
0.0
 11
1.0
 21
-31.75
 31
0.0
  0
LINE
  5
B6C
  8
240
  6
CONTINUOUS
 10
0.0
 20
-22.2250000000000014
 30
0.0
 11
1.0
 21
-22.2250000000000014
 31
0.0
  0
LINE
  5
B6D
  8
240
  6
CONTINUOUS
 10
19.0500000000000185
 20
-31.7500000000000107
 30
0.0
 11
19.0500000000000718
 21
-29.2000000000000597
 31
0.0
  0
LINE
  5
B6F
  8
240
  6
CONTINUOUS
 10
14.6461667690756201
 20
-31.7499999999999893
 30
0.0
 11
19.0500000000000185
 21
-31.7500000000000107
 31
0.0
  0
LINE
  5
B70
  8
241
  6
CONTINUOUS
 10
19.0499999999999297
 20
7.9998438434685069
 30
0.0
 11
19.0499999999999297
 21
29.1999999999999993
 31
0.0
  0
LINE
  5
B71
  8
240
  6
CONTINUOUS
 10
0.0
 20
22.2250000000000014
 30
0.0
 11
1.0
 21
22.2250000000000014
 31
0.0
  0
LINE
  5
B72
  8
240
  6
CONTINUOUS
 10
1.0
 20
31.75
 30
0.0
 11
7.5938332309244601
 21
31.75
 31
0.0
  0
LINE
  5
B73
  8
240
  6
CONTINUOUS
 10
14.6461667690756308
 20
31.7499999999999893
 30
0.0
 11
19.0500000000000504
 21
31.7500000000000107
 31
0.0
  0
LINE
  5
B74
  8
241
  6
CONTINUOUS
 10
7.5938332309244414
 20
-31.7500000000000284
 30
0.0
 11
7.5938332309244414
 21
-7.9999999999998206
 31
0.0
  0
LINE
  5
B75
  8
241
  6
CONTINUOUS
 10
9.2000000000000153
 20
-28.1800000000000317
 30
0.0
 11
9.2000000000000153
 21
-7.9999999999997797
 31
0.0
  0
LINE
  5
B76
  8
241
  6
CONTINUOUS
 10
13.0399999999999903
 20
-28.1800000000000317
 30
0.0
 11
13.0399999999999903
 21
-7.99999999999969
 31
0.0
  0
LINE
  5
B77
  8
241
  6
CONTINUOUS
 10
14.6461667690756201
 20
-31.7499999999999893
 30
0.0
 11
14.6461667690756201
 21
-7.9999999999996509
 31
0.0
  0
LINE
  5
B78
  8
240
  6
CONTINUOUS
 10
14.6461667690754993
 20
-31.7500000000000284
 30
0.0
 11
13.0399999999999903
 21
-28.9680375505324683
 31
0.0
  0
LINE
  5
B79
  8
240
  6
CONTINUOUS
 10
9.2000000000000153
 20
-28.1800000000000317
 30
0.0
 11
13.0399999999999903
 21
-28.1800000000000317
 31
0.0
  0
LINE
  5
B7A
  8
240
  6
CONTINUOUS
 10
7.5938332309243881
 20
-31.7500000000000284
 30
0.0
 11
9.2000000000000153
 21
-28.9680375505323084
 31
0.0
  0
LINE
  5
B7B
  8
240
  6
CONTINUOUS
 10
9.2000000000000153
 20
-28.9680375505323084
 30
0.0
 11
9.2000000000000153
 21
-28.1800000000000317
 31
0.0
  0
LINE
  5
B7C
  8
240
  6
CONTINUOUS
 10
13.0399999999999796
 20
-28.9680375505323084
 30
0.0
 11
13.0399999999999796
 21
-28.1800000000000317
 31
0.0
  0
LINE
  5
B7D
  8
241
  6
CONTINUOUS
 10
7.5938332309244601
 20
31.75
 30
0.0
 11
7.5938332309244503
 21
8.0000000000002451
 31
0.0
  0
LINE
  5
B7E
  8
241
  6
CONTINUOUS
 10
9.2000000000000277
 20
28.1799999999999891
 30
0.0
 11
9.2000000000000153
 21
8.0000000000003464
 31
0.0
  0
LINE
  5
B7F
  8
241
  6
CONTINUOUS
 10
13.0399999999999991
 20
28.1799999999999891
 30
0.0
 11
13.0399999999999903
 21
8.0000000000005862
 31
0.0
  0
LINE
  5
B80
  8
241
  6
CONTINUOUS
 10
14.6461667690756308
 20
31.7499999999999893
 30
0.0
 11
14.6461667690756201
 21
8.0000000000006892
 31
0.0
  0
LINE
  5
B81
  8
240
  6
CONTINUOUS
 10
14.6461667690755206
 20
31.7499999999999893
 30
0.0
 11
13.0399999999999991
 21
28.9680375505324292
 31
0.0
  0
LINE
  5
B82
  8
240
  6
CONTINUOUS
 10
9.2000000000000277
 20
28.1799999999999891
 30
0.0
 11
13.0399999999999991
 21
28.1799999999999891
 31
0.0
  0
LINE
  5
B83
  8
240
  6
CONTINUOUS
 10
7.5938332309244023
 20
31.7499999999999893
 30
0.0
 11
9.2000000000000277
 21
28.9680375505322694
 31
0.0
  0
LINE
  5
B84
  8
240
  6
CONTINUOUS
 10
9.2000000000000277
 20
28.9680375505322694
 30
0.0
 11
9.2000000000000277
 21
28.1799999999999891
 31
0.0
  0
LINE
  5
B85
  8
240
  6
CONTINUOUS
 10
13.0399999999999903
 20
28.9680375505322694
 30
0.0
 11
13.0399999999999903
 21
28.1799999999999891
 31
0.0
  0
ARC
  5
B86
  8
241
  6
CONTINUOUS
 10
19.0999848011986089
 20
-0.0000000000187583
 30
0.0
 40
8.0000000000332516
 50
270.0002520929047023
 51
89.9998911466024083
  0
LINE
  5
B87
  8
241
  6
CONTINUOUS
 10
19.0999848011987901
 20
-7.9999999999995426
 30
0.0
 11
3.7000000000000002
 21
-7.9999999999999112
 31
0.0
  0
LINE
  5
B88
  8
241
  6
CONTINUOUS
 10
19.0999848011983318
 20
8.0000000000009663
 30
0.0
 11
3.7000000000000002
 21
8.0
 31
0.0
  0
TEXT
  5
B95
  8
250
  6
CONTINUOUS
 10
-57.0311058669264526
 20
-27.0895097788922214
 30
0.0
 40
2.799999999999998
  1
BCV40Y
  7
YOKO
1001
ITEMNAME
1000
LNSP3
  0
LINE
  5
B96
  8
250
  6
CONTINUOUS
 10
-40.3862186589337213
 20
-28.0895097788922108
 30
0.0
 11
-58.3862186589337071
 21
-28.0895097788922108
 31
0.0
1001
ITEMNAME
1000
LNSP2
  0
LINE
  5
B97
  8
250
  6
CONTINUOUS
 10
-35.4139049745202925
 20
-18.8136323989028291
 30
0.0
 11
-34.1249999989337169
 21
-17.2484374988922191
 31
0.0
  0
LINE
  5
B98
  8
250
  6
CONTINUOUS
 10
-34.8366036569175535
 20
-19.1470505044978907
 30
0.0
 11
-34.1249999989337169
 21
-17.2484374988922191
 31
0.0
  0
LINE
  5
B99
  8
250
  6
CONTINUOUS
 10
-34.1249999989337169
 20
-17.2484374988922191
 30
0.0
 11
-35.1252543157189194
 21
-18.9803414517003901
 31
0.0
  0
LINE
  5
B9A
  8
250
  6
CONTINUOUS
 10
-35.1252543157189194
 20
-18.9803414517003901
 30
0.0
 11
-40.3862186589337213
 21
-28.0895097788922108
 31
0.0
1001
ACAD
1000
DSTYLE
1002
{
1070
     6
1000
OPEN
1070
    41
1040
2.0
1070
    42
1040
2.0
1070
    44
1040
2.0
1070
   140
1040
4.0
1070
   343
1005
0
1002
}
  0
LINE
  5
B9B
  8
247
  6
CONTINUOUS
 10
5.4999999999999432
 20
-18.7500000000000107
 30
0.0
 11
5.5
 21
-14.1153846156700702
 31
0.0
  0
LINE
  5
B9C
  8
247
  6
CONTINUOUS
 10
3.0
 20
-17.954893499987989
 30
0.0
 11
5.0999999999160073
 21
-18.5570588100573595
 31
0.0
  0
LINE
  5
B9D
  8
247
  6
CONTINUOUS
 10
3.996153846113998
 20
-17.3251514035190617
 30
0.0
 11
3.996153846113998
 21
-18.2405360188670507
 31
0.0
  0
ARC
  5
B9E
  8
247
  6
CONTINUOUS
 10
3.3847190672940979
 20
-17.0872634019468315
 30
0.0
 40
0.3876715809326743
 50
72.9978896752922282
 51
172.9241662185135908
  0
ARC
  5
B9F
  8
247
  6
CONTINUOUS
 10
3.305223131028014
 20
-17.382477556804151
 30
0.0
 40
0.693304796535877
 50
4.7429368522022113
 51
73.8492262732667513
1001
GENIUS_GENOBJ-N-FIL_13
1002
{
1000
OWNER
1000
GEN
1002
}
1001
GENIUS_GENODEF_13
1002
{
1000
HIER
1070
     0
1002
}
1002
{
1000
MANEDIT
1070
     0
1002
}
1002
{
1000
NOSEL
1070
     0
1002
}
1002
{
1000
BEHIND
1070
     0
1002
}
1002
{
1000
OTHER
1070
     0
1002
}
1002
{
1000
REACTOR
1002
}
  0
LINE
  5
BA0
  8
247
  6
CONTINUOUS
 10
5.0999999999160073
 20
-17.6416741947093811
 30
0.0
 11
5.0999999999160073
 21
-18.5570588100573595
 31
0.0
  0
LINE
  5
BA1
  8
247
  6
CONTINUOUS
 10
3.0
 20
-17.954893499987989
 30
0.0
 11
3.0
 21
-17.03950888464
 31
0.0
  0
ARC
  5
BA2
  8
247
  6
CONTINUOUS
 10
4.3874169627678681
 20
-17.3783064762668715
 30
0.0
 40
0.394857301075386
 50
65.990941652528889
 51
172.2634434590690944
  0
ARC
  5
BA3
  8
247
  6
CONTINUOUS
 10
4.3912003273325677
 20
-17.7124466104269409
 30
0.0
 40
0.7123241612361686
 50
5.701985164259785
 51
77.2773384368220206
1001
GENIUS_GENOBJ-N-FIL_13
1002
{
1000
OWNER
1000
GEN
1002
}
1001
GENIUS_GENODEF_13
1002
{
1000
HIER
1070
     0
1002
}
1002
{
1000
MANEDIT
1070
     0
1002
}
1002
{
1000
NOSEL
1070
     0
1002
}
1002
{
1000
BEHIND
1070
     0
1002
}
1002
{
1000
OTHER
1070
     0
1002
}
1002
{
1000
REACTOR
1002
}
  0
LINE
  5
BA4
  8
247
  6
CONTINUOUS
 10
5.0999999999160073
 20
-16.6839818870633998
 30
0.0
 11
3.0
 21
-16.0818165769940293
 31
0.0
  0
LINE
  5
BA5
  8
247
  6
CONTINUOUS
 10
3.0
 20
-14.585662730908
 30
0.0
 11
3.0
 21
-14.9816783643036207
 31
0.0
  0
LINE
  5
BA6
  8
247
  6
CONTINUOUS
 10
5.0999999999160073
 20
-15.6087396539439993
 30
0.0
 11
5.0999999999160073
 21
-15.1779704231920096
 31
0.0
  0
ARC
  5
BA7
  8
247
  6
CONTINUOUS
 10
4.4582995950833562
 20
-14.38181657706998
 30
0.0
 40
1.576855057639547
 50
202.3594881415291127
 51
254.9932485428464872
  0
ARC
  5
BA8
  8
247
  6
CONTINUOUS
 10
3.5658188585381332
 20
-14.8475113661332401
 30
0.0
 40
0.6234706797009447
 50
94.9945893190752741
 51
155.1663289573039037
1001
GENIUS_GENOBJ-N-FIL_13
1002
{
1000
OWNER
1000
GEN
1002
}
1001
GENIUS_GENODEF_13
1002
{
1000
HIER
1070
     0
1002
}
1002
{
1000
MANEDIT
1070
     0
1002
}
1002
{
1000
NOSEL
1070
     0
1002
}
1002
{
1000
BEHIND
1070
     0
1002
}
1002
{
1000
OTHER
1070
     0
1002
}
1002
{
1000
REACTOR
1002
}
  0
ARC
  5
BA9
  8
247
  6
CONTINUOUS
 10
4.1621021219694381
 20
-15.44418395103283
 30
0.0
 40
0.9749472149106982
 50
15.8460965557808002
 51
82.325137004169278
  0
ARC
  5
BAA
  8
247
  6
CONTINUOUS
 10
4.3714704019710631
 20
-15.0352116387722496
 30
0.0
 40
0.9271945638692008
 50
249.7136016704968995
 51
321.7887456564109243
1001
GENIUS_GENOBJ-N-FIL_13
1002
{
1000
OWNER
1000
GEN
1002
}
1001
GENIUS_GENODEF_13
1002
{
1000
HIER
1070
     0
1002
}
1002
{
1000
MANEDIT
1070
     0
1002
}
1002
{
1000
NOSEL
1070
     0
1002
}
1002
{
1000
BEHIND
1070
     0
1002
}
1002
{
1000
OTHER
1070
     0
1002
}
1002
{
1000
REACTOR
1002
}
  0
LINE
  5
BAB
  8
247
  6
CONTINUOUS
 10
4.2923076922559726
 20
-14.9625858078159801
 30
0.0
 11
4.2923076922559726
 21
-14.4779704232199897
 31
0.0
  0
ARC
  5
BAC
  8
247
  6
CONTINUOUS
 10
4.25
 20
-18.7500000000000107
 30
0.0
 40
1.25
 50
180.0
 51
0.0
  0
LINE
  5
BAD
  8
247
  6
CONTINUOUS
 10
3.0
 20
-18.7500000000000107
 30
0.0
 11
3.0
 21
-18.3038461539140584
 31
0.0
  0
ARC
  5
BAE
  8
247
  6
CONTINUOUS
 10
4.25
 20
-14.1153846156700702
 30
0.0
 40
1.25
 50
0.0
 51
180.0
  0
LINE
  5
C9C
  8
240
  6
CONTINUOUS
 10
19.0500000000000291
 20
31.7499999999999716
 30
0.0
 11
19.0500000000000895
 21
29.1999999999999886
 31
0.0
  0
LINE
  5
FAE
  8
241
  6
CONTINUOUS
 10
37.9999999999997797
 20
-31.5000000000000604
 30
0.0
 11
37.9999999999997797
 21
31.4999999999999503
 31
0.0
  0
LINE
  5
FAF
  8
241
  6
CONTINUOUS
 10
34.9999999999999005
 20
-28.5000000000001208
 30
0.0
 11
34.9999999999999005
 21
28.5000000000000391
 31
0.0
  0
LINE
  5
FB0
  8
240
  6
CONTINUOUS
 10
66.9999999999997158
 20
-31.5000000000000284
 30
0.0
 11
66.9999999999998437
 21
31.4999999999999289
 31
0.0
  0
LINE
  5
FB1
  8
240
  6
CONTINUOUS
 10
66.9999999999997158
 20
-31.5000000000000284
 30
0.0
 11
37.9999999999997797
 21
-31.5000000000000604
 31
0.0
  0
LINE
  5
FB2
  8
240
  6
CONTINUOUS
 10
19.7500000000000817
 20
-28.5000000000000817
 30
0.0
 11
34.9999999999999005
 21
-28.5000000000001208
 31
0.0
  0
LINE
  5
FB3
  8
240
  6
CONTINUOUS
 10
34.9999999999999218
 20
-28.5000000000001315
 30
0.0
 11
37.9999999999998224
 21
-31.5000000000000391
 31
0.0
  0
LINE
  5
FB5
  8
243
  6
HIDDEN2
 10
29.9999999999997513
 20
-17.0000000000000817
 30
0.0
 11
66.9999999999997158
 21
-17.0000000000000995
 31
0.0
  0
CIRCLE
  5
FB6
  8
241
  6
CONTINUOUS
 10
49.4499999999998892
 20
-0.0000000000000817
 30
0.0
 40
6.0
  0
CIRCLE
  5
FB7
  8
242
  6
CONTINUOUS
 10
49.4499999999998892
 20
-0.0000000000000817
 30
0.0
 40
5.5
  0
POLYLINE
  5
FB8
  8
241
  6
CONTINUOUS
 66
     1
 10
0.0
 20
0.0
 30
0.0
 70
     1
  0
VERTEX
  5
1202
  8
241
  6
CONTINUOUS
 10
46.4499999999997897
 20
-1.732050807568946
 30
0.0
  0
VERTEX
  5
1203
  8
241
  6
CONTINUOUS
 10
49.4499999999997826
 20
-3.4641016151378432
 30
0.0
  0
VERTEX
  5
1204
  8
241
  6
CONTINUOUS
 10
52.4499999999997186
 20
-1.732050807568946
 30
0.0
  0
VERTEX
  5
1205
  8
241
  6
CONTINUOUS
 10
52.4499999999997186
 20
1.732050807568785
 30
0.0
  0
VERTEX
  5
1206
  8
241
  6
CONTINUOUS
 10
49.4499999999997826
 20
3.464101615137678
 30
0.0
  0
VERTEX
  5
1207
  8
241
  6
CONTINUOUS
 10
46.4499999999997897
 20
1.732050807568785
 30
0.0
  0
SEQEND
  5
1208
  8
241
  6
CONTINUOUS
  0
LINE
  5
FB9
  8
240
  6
CONTINUOUS
 10
66.9999999999998437
 20
31.4999999999999289
 30
0.0
 11
37.9999999999997797
 21
31.4999999999999503
 31
0.0
  0
LINE
  5
FBA
  8
240
  6
CONTINUOUS
 10
19.7500000000000888
 20
28.5
 30
0.0
 11
34.9999999999999005
 21
28.5000000000000391
 31
0.0
  0
LINE
  5
FBB
  8
240
  6
CONTINUOUS
 10
34.9999999999999787
 20
28.5000000000000391
 30
0.0
 11
37.9999999999997584
 21
31.4999999999999503
 31
0.0
  0
LINE
  5
FBD
  8
243
  6
HIDDEN2
 10
29.9999999999997513
 20
17.0
 30
0.0
 11
66.99999999999973
 21
16.9999999999999893
 31
0.0
  0
LINE
  5
FBE
  8
245
  6
CENTER2
 10
49.4499999999997826
 20
6.9999999999999192
 30
0.0
 11
49.4499999999997826
 21
-7.000000000000079
 31
0.0
  0
LINE
  5
FBF
  8
250
  6
CONTINUOUS
 10
67.4999999999997158
 20
-31.5000000000000284
 30
0.0
 11
85.0
 21
-31.5000000000000391
 31
0.0
  0
LINE
  5
FC0
  8
250
  6
CONTINUOUS
 10
67.4999999999998437
 20
31.4999999999999289
 30
0.0
 11
85.0
 21
31.4999999999999289
 31
0.0
  0
LINE
  5
FC1
  8
250
  6
CONTINUOUS
 10
84.0
 20
-29.5000000000000284
 30
0.0
 11
84.0
 21
29.4999999999999289
 31
0.0
  0
INSERT
  5
FC2
  8
250
  6
CONTINUOUS
  2
_OPEN
 10
84.0
 20
-31.5000000000000391
 30
0.0
 41
2.0
 42
2.0
 43
2.0
 50
270.0
  0
INSERT
  5
FC3
  8
250
  6
CONTINUOUS
  2
_OPEN
 10
84.0
 20
31.4999999999999289
 30
0.0
 41
2.0
 42
2.0
 43
2.0
 50
90.0
  0
INSERT
  5
FC4
  8
240
  2
*U5
 10
0.0
 20
0.0
 30
0.0
  0
LINE
  5
FC5
  8
250
  6
CONTINUOUS
 10
0.0
 20
22.7249999999999908
 30
0.0
 11
0.0000000000000017
 21
50.0
 31
0.0
  0
LINE
  5
FC6
  8
250
  6
CONTINUOUS
 10
66.9999999999998437
 20
31.9999999999999289
 30
0.0
 11
66.9999999999998437
 21
50.0
 31
0.0
  0
LINE
  5
FC7
  8
250
  6
CONTINUOUS
 10
2.0
 20
48.9999999999999787
 30
0.0
 11
64.9999999999998437
 21
48.9999999999999787
 31
0.0
  0
INSERT
  5
FC8
  8
250
  6
CONTINUOUS
  2
_OPEN
 10
0.0000000000000016
 20
48.9999999999999787
 30
0.0
 41
2.0
 42
2.0
 43
2.0
 50
180.0
  0
INSERT
  5
FC9
  8
250
  6
CONTINUOUS
  2
_OPEN
 10
66.9999999999998437
 20
48.9999999999999787
 30
0.0
 41
2.0
 42
2.0
 43
2.0
  0
INSERT
  5
FCA
  8
240
  2
*U6
 10
0.0
 20
0.0
 30
0.0
  0
INSERT
  5
FCB
  8
240
  2
*U7
 10
0.0
 20
0.0
 30
0.0
1001
ACAD
1000
DSTYLE
1002
{
1070
    42
1040
0.5
1070
    44
1040
1.0
1070
   140
1040
2.799999999999998
1002
}
  0
INSERT
  5
FCC
  8
240
  2
*U8
 10
0.0
 20
0.0
 30
0.0
  0
LINE
  5
FCD
  8
251
  6
CONTINUOUS
 10
77.1715399461576794
 20
41.8393704031182665
 30
0.0
 11
89.971539946157705
 21
41.8393704031182665
 31
0.0
1001
ITEMNAME
1000
LNSP2
  0
ARC
  5
10B6
  8
240
  6
CONTINUOUS
 10
19.7500000000000604
 20
-29.2000000000000703
 30
0.0
 40
0.7
 50
89.9999999999998153
 51
179.9999999999986926
  0
ARC
  5
10B8
  8
240
  6
CONTINUOUS
 10
19.7500000000000888
 20
29.1999999999999993
 30
0.0
 40
0.7
 50
180.0000000000013074
 51
270.0000000000002274
  0
LINE
  5
11A2
  8
241
  6
CONTINUOUS
 10
3.7000000000000002
 20
8.0
 30
0.0
 11
1.0
 21
10.69999999999966
 31
0.0
1001
GENIUS_GENFIL_13
1070
     1
1040
10.0
1040
10.0
1040
2.7000000000000002
1040
45.0
1002
{
1002
}
1001
GENIUS_GENOBJ-N-CHA_13
1002
{
1000
OWNER
1000
GEN
1002
}
1001
GENIUS_GENODEF_13
1002
{
1000
HIER
1070
     0
1002
}
1002
{
1000
MANEDIT
1070
     0
1002
}
1002
{
1000
NOSEL
1070
     0
1002
}
1002
{
1000
BEHIND
1070
     0
1002
}
1002
{
1000
OTHER
1070
     0
1002
}
1002
{
1000
REACTOR
1002
}
  0
LINE
  5
11A5
  8
241
  6
CONTINUOUS
 10
3.7000000000000002
 20
-7.9999999999999112
 30
0.0
 11
1.0
 21
-10.7000000000000401
 31
0.0
1001
GENIUS_GENFIL_13
1070
     1
1040
10.0
1040
10.0
1040
2.7000000000000002
1040
45.0
1002
{
1002
}
1001
GENIUS_GENODEF_13
1002
{
1000
HIER
1070
     0
1002
}
1002
{
1000
MANEDIT
1070
     0
1002
}
1002
{
1000
NOSEL
1070
     0
1002
}
1002
{
1000
BEHIND
1070
     0
1002
}
1002
{
1000
OTHER
1070
     0
1002
}
1002
{
1000
REACTOR
1002
}
1001
GENIUS_GENOBJ-N-CHA_13
1002
{
1000
OWNER
1000
GEN
1002
}
  0
VIEWPORT
  5
22
 67
     1
  8
0
 10
261.517699115044195
 20
148.5
 30
0.0
 40
523.0353982300885036
 41
297.0
 68
     1
 69
     1
1001
ACAD
1000
MVIEW
1002
{
1070
    16
1010
0.0
1020
0.0
1030
0.0
1010
0.0
1020
0.0
1030
1.0
1040
0.0
1040
297.0
1040
261.517699115044195
1040
148.5
1040
50.0
1040
0.0
1040
0.0
1070
     0
1070
   100
1070
     1
1070
     1
1070
     0
1070
     0
1070
     0
1070
     0
1040
0.0
1040
0.0
1040
0.0
1040
1.0
1040
1.0
1040
10.0
1040
10.0
1070
     0
1002
{
1002
}
1002
}
1001
GENIUS_GENODEF_13
1002
{
1000
HIER
1070
     0
1002
}
1002
{
1000
MANEDIT
1070
     0
1002
}
1002
{
1000
NOSEL
1070
     0
1002
}
1002
{
1000
BEHIND
1070
     0
1002
}
1002
{
1000
OTHER
1070
     0
1002
}
1002
{
1000
REACTOR
1002
}
1001
GENIUS_GENOBJ-N-SDF_13
1002
{
1000
OWNER
1000
GEN
1002
}
1001
GENIUS_GENSCREG_15
1000
PF
1040
1.0
1000
DF
1040
1.0
1000
MIN
1011
0.0
1021
0.0
1031
0.0
1021
0.0
1031
0.0
1000
MAX
1011
523.0353982300885036
1021
0.0
1031
0.0
1021
297.0
1031
0.0
1000
FLAGS
1070
     4
  0
ENDSEC
  0
EOF
