  0
SECTION
  2
HEADER
  9
$ACADVER
  1
AC1009
  9
$INSBASE
 10
0.0
 20
0.0
 30
0.0
  9
$EXTMIN
 10
-69.25
 20
-31.7500000000000213
 30
0.0
  9
$EXTMAX
 10
102.3904818115351958
 20
68.0
 30
0.0
  9
$LIMMIN
 10
0.0
 20
0.0
  9
$LIMMAX
 10
297.0
 20
210.0
  9
$ORTHOMODE
 70
     0
  9
$REGENMODE
 70
     1
  9
$FILLMODE
 70
     1
  9
$QTEXTMODE
 70
     0
  9
$MIRRTEXT
 70
     1
  9
$DRAGMODE
 70
     2
  9
$LTSCALE
 40
10.0
  9
$OSMODE
 70
   807
  9
$ATTMODE
 70
     1
  9
$TEXTSIZE
 40
3.0
  9
$TRACEWID
 40
1.0
  9
$TEXTSTYLE
  7
YOKO
  9
$CLAYER
  8
240
  9
$CELTYPE
  6
BYLAYER
  9
$CECOLOR
 62
   256
  9
$DIMSCALE
 40
1.0
  9
$DIMASZ
 40
2.0
  9
$DIMEXO
 40
0.5
  9
$DIMDLI
 40
2.5
  9
$DIMRND
 40
0.0
  9
$DIMDLE
 40
0.0
  9
$DIMEXE
 40
1.0
  9
$DIMTP
 40
0.0
  9
$DIMTM
 40
0.0
  9
$DIMTXT
 40
2.799999999999998
  9
$DIMCEN
 40
0.0
  9
$DIMTSZ
 40
0.0
  9
$DIMTOL
 70
     0
  9
$DIMLIM
 70
     0
  9
$DIMTIH
 70
     0
  9
$DIMTOH
 70
     0
  9
$DIMSE1
 70
     0
  9
$DIMSE2
 70
     0
  9
$DIMTAD
 70
     3
  9
$DIMZIN
 70
     8
  9
$DIMBLK
  1

  9
$DIMASO
 70
     1
  9
$DIMSHO
 70
     1
  9
$DIMPOST
  1

  9
$DIMAPOST
  1

  9
$DIMALT
 70
     0
  9
$DIMALTD
 70
     2
  9
$DIMALTF
 40
25.3999999999999986
  9
$DIMLFAC
 40
1.0
  9
$DIMTOFL
 70
     1
  9
$DIMTVP
 40
0.0
  9
$DIMTIX
 70
     1
  9
$DIMSOXD
 70
     0
  9
$DIMSAH
 70
     1
  9
$DIMBLK1
  1
OPEN
  9
$DIMBLK2
  1
OPEN
  9
$DIMSTYLE
  2
BIGT
  9
$DIMCLRD
 70
     3
  9
$DIMCLRE
 70
     3
  9
$DIMCLRT
 70
    40
  9
$DIMTFAC
 40
1.0
  9
$DIMGAP
 40
1.0
  9
$LUNITS
 70
     2
  9
$LUPREC
 70
     2
  9
$SKETCHINC
 40
1.0
  9
$FILLETRAD
 40
0.7
  9
$AUNITS
 70
     0
  9
$AUPREC
 70
     3
  9
$MENU
  1
.
  9
$ELEVATION
 40
0.0
  9
$PELEVATION
 40
0.0
  9
$THICKNESS
 40
0.0
  9
$LIMCHECK
 70
     0
  9
$BLIPMODE
 70
     0
  9
$CHAMFERA
 40
10.0
  9
$CHAMFERB
 40
10.0
  9
$SKPOLY
 70
     0
  9
$TDCREATE
 40
2457759.7100578700192273
  9
$TDUPDATE
 40
2458172.6142939818091691
  9
$TDINDWG
 40
0.0570913194
  9
$TDUSRTIMER
 40
0.0570910069
  9
$USRTIMER
 70
     1
  9
$ANGBASE
 50
0.0
  9
$ANGDIR
 70
     0
  9
$PDMODE
 70
     0
  9
$PDSIZE
 40
-5.0
  9
$PLINEWID
 40
0.0
  9
$COORDS
 70
     1
  9
$SPLFRAME
 70
     0
  9
$SPLINETYPE
 70
     6
  9
$SPLINESEGS
 70
     8
  9
$ATTDIA
 70
     1
  9
$ATTREQ
 70
     1
  9
$HANDLING
 70
     1
  9
$HANDSEED
  5
1395
  9
$SURFTAB1
 70
     6
  9
$SURFTAB2
 70
     6
  9
$SURFTYPE
 70
     6
  9
$SURFU
 70
     6
  9
$SURFV
 70
     6
  9
$UCSNAME
  2

  9
$UCSORG
 10
0.0
 20
0.0
 30
0.0
  9
$UCSXDIR
 10
1.0
 20
0.0
 30
0.0
  9
$UCSYDIR
 10
0.0
 20
1.0
 30
0.0
  9
$PUCSNAME
  2

  9
$PUCSORG
 10
0.0
 20
0.0
 30
0.0
  9
$PUCSXDIR
 10
1.0
 20
0.0
 30
0.0
  9
$PUCSYDIR
 10
0.0
 20
1.0
 30
0.0
  9
$USERI1
 70
     1
  9
$USERI2
 70
     0
  9
$USERI3
 70
     0
  9
$USERI4
 70
     0
  9
$USERI5
 70
     0
  9
$USERR1
 40
0.0
  9
$USERR2
 40
0.0
  9
$USERR3
 40
0.0
  9
$USERR4
 40
0.0
  9
$USERR5
 40
0.0
  9
$WORLDVIEW
 70
     1
  9
$SHADEDGE
 70
     3
  9
$SHADEDIF
 70
    70
  9
$TILEMODE
 70
     1
  9
$MAXACTVP
 70
    16
  9
$PLIMCHECK
 70
     0
  9
$PEXTMIN
 10
1.0000000000000000E+20
 20
1.0000000000000000E+20
 30
1.0000000000000000E+20
  9
$PEXTMAX
 10
-1.0000000000000000E+20
 20
-1.0000000000000000E+20
 30
-1.0000000000000000E+20
  9
$PLIMMIN
 10
0.0
 20
0.0
  9
$PLIMMAX
 10
420.0
 20
297.0
  9
$UNITMODE
 70
     0
  9
$VISRETAIN
 70
     0
  9
$PLINEGEN
 70
     0
  9
$PSLTSCALE
 70
     1
  0
ENDSEC
  0
SECTION
  2
TABLES
  0
TABLE
  2
VPORT
 70
     1
  0
VPORT
  2
*ACTIVE
 70
     0
 10
0.0
 20
0.0
 11
1.0
 21
1.0
 12
34.7311285359336708
 22
6.5811483974690503
 13
0.0
 23
0.0
 14
7.0
 24
7.0
 15
7.0
 25
7.0
 16
0.0
 26
0.0
 36
1.0
 17
0.0
 27
0.0
 37
0.0
 40
156.5481270235626141
 41
2.0192076830732288
 42
50.0
 43
0.0
 44
0.0
 50
0.0
 51
0.0
 71
     0
 72
 20000
 73
     1
 74
     0
 75
     0
 76
     0
 77
     0
 78
     0
  0
ENDTAB
  0
TABLE
  2
LTYPE
 70
    19
  0
LTYPE
  2
CONTINUOUS
 70
     0
  3
Solid line
 72
    65
 73
     0
 40
0.0
  0
LTYPE
  2
CENTER2
 70
     0
  3
___ _ ___ _ ___ _ ___ _ ___ _ ___ _ ___ _ ___ _
 72
    65
 73
     4
 40
1.125
 49
0.75
 49
-0.125
 49
0.125
 49
-0.125
  0
LTYPE
  2
HIDDEN2
 70
     0
  3
_ _ _ _ _ _ _ _ _ _ _ _ _ _ _ _ _ _ _ _ _ _ _ _
 72
    65
 73
     2
 40
0.1875
 49
0.125
 49
-0.0625
  0
LTYPE
  2
AMCONSTR
 70
     0
  3
_______________________
 72
    65
 73
     2
 40
9999.0
 49
9999.0
 49
0.0
  0
LTYPE
  2
HIDDEN
 70
     0
  3
Hidden __ __ __ __ __ __ __ __ __ __ __ __ __ _
 72
    65
 73
     2
 40
0.375
 49
0.25
 49
-0.125
  0
LTYPE
  2
PHANTOM2
 70
     0
  3
Phantom (.5x) ___ _ _ ___ _ _ ___ _ _ ___ _ _
 72
    65
 73
     6
 40
1.25
 49
0.625
 49
-0.125
 49
0.125
 49
-0.125
 49
0.125
 49
-0.125
  0
LTYPE
  2
CENTER
 70
     0
  3
Center ____ _ ____ _ ____ _ ____ _ ____ _ ____
 72
    65
 73
     4
 40
2.0
 49
1.25
 49
-0.25
 49
0.25
 49
-0.25
  0
LTYPE
  2
AMZIGZAG2
 70
     0
  3
/\/-/\/-/\/-/\/-/\/-/\/
 72
    65
 73
     2
 40
0.4401
 49
0.0001
 49
-0.4400000000000001
  0
LTYPE
  2
ACANSTGB
 70
     0
  3
__ . . __ . .
 72
    65
 73
     6
 40
0.35433070866
 49
0.15748031496
 49
-0.03937007874
 49
0.03937007874
 49
-0.03937007874
 49
0.03937007874
 49
-0.03937007874
  0
LTYPE
  2
ACANSTGL
 70
     0
  3
_ _ _ _ _
 72
    65
 73
     2
 40
0.11811023622
 49
0.07874015748
 49
-0.03937007874
  0
ENDTAB
  0
TABLE
  2
LAYER
 70
     9
  0
LAYER
  2
0
 70
     0
 62
     7
  6
CONTINUOUS
  0
LAYER
  2
245
 70
     0
 62
     2
  6
CENTER2
  0
LAYER
  2
240
 70
     0
 62
     4
  6
CONTINUOUS
  0
LAYER
  2
241
 70
     0
 62
   211
  6
CONTINUOUS
  0
LAYER
  2
242
 70
     0
 62
     3
  6
CONTINUOUS
  0
LAYER
  2
243
 70
     0
 62
   211
  6
HIDDEN2
  0
LAYER
  2
247
 70
     0
 62
    60
  6
CONTINUOUS
  0
LAYER
  2
250
 70
     0
 62
     3
  6
CONTINUOUS
  0
LAYER
  2
DEFPOINTS
 70
     0
 62
     7
  6
CONTINUOUS
  0
ENDTAB
  0
TABLE
  2
STYLE
 70
     7
  0
STYLE
  2
STANDARD
 70
     0
 40
0.0
 41
1.0
 50
0.0
 71
     0
 42
3.0
  3
romans.shx
  4
BIGFONT.SHX
  0
STYLE
  2
YOKO
 70
     0
 40
0.0
 41
1.0
 50
0.0
 71
     0
 42
3.0
  3
romans.shx
  4
extfont.shx
  0
STYLE
  2

 70
     1
 40
0.0
 41
1.0
 50
0.0
 71
     0
 42
3.0
  3
genltshp.shx
  4

  0
STYLE
  2
ACANSGDT
 70
     0
 40
0.0
 41
1.0
 50
0.0
 71
     0
 42
3.0
  3
amgdt.shx
  4

  0
ENDTAB
  0
TABLE
  2
VIEW
 70
     0
  0
ENDTAB
  0
TABLE
  2
UCS
 70
     0
  0
ENDTAB
  0
TABLE
  2
APPID
 70
    31
  0
APPID
  2
ACAD
 70
     0
  0
APPID
  2
ACADANNOTATIVE
 70
     0
  0
APPID
  2
GLOBAL
 70
     0
  0
APPID
  2
DETAIL
 70
     0
  0
APPID
  2
GRPNAME
 70
     0
  0
APPID
  2
GPARA
 70
     0
  0
APPID
  2
DCO15
 70
     0
  0
APPID
  2
ITEMNAME
 70
     0
  0
APPID
  2
GRADE_0
 70
     0
  0
APPID
  2
ACAD_DSTYLE_DIMJAG
 70
     0
  0
APPID
  2
ACAD_DSTYLE_DIMTALN
 70
     0
  0
APPID
  2
ACAD_NAV_VCDISPLAY
 70
     0
  0
APPID
  2
ACAD_MLEADERVER
 70
     0
  0
APPID
  2
ACAD_DSTYLE_DIMBREAK
 70
     0
  0
APPID
  2
ACAD_PSEXT
 70
     0
  0
APPID
  2
GENIUS_GENODEF_13
 70
     0
  0
APPID
  2
GENIUS_GENOBJ-N-FIL_13
 70
     0
  0
APPID
  2
ACAD_EXEMPT_FROM_CAD_STANDARDS
 70
     0
  0
APPID
  2
MCAD_NO_VIS
 70
     0
  0
APPID
  2
ACAD_TEMP_GRAPHIC
 70
     0
  0
APPID
  2
ACATTRIBSERVICES
 70
     0
  0
APPID
  2
DESIGNERASSEMBLIES
 70
     0
  0
APPID
  2
GENIUS_GENSCREG_15
 70
     0
  0
APPID
  2
GENIUS_GENOBJ-N-SDF_13
 70
     0
  0
APPID
  2
GENIUS_GENFIL_13
 70
     0
  0
APPID
  2
GENIUS_GENOBJ-N-CHA_13
 70
     0
  0
APPID
  2
ACAECLAYERSTANDARD
 70
     0
  0
APPID
  2
GENIUS_GENDTOL_13
 70
     0
  0
APPID
  2
ACAD_DSTYLE_DIMINSPECT
 70
     0
  0
APPID
  2
ACADANNOMONITORALERTICONDI
 70
     0
  0
APPID
  2
GENIUS_GENDIMSH_14
 70
     0
  0
ENDTAB
  0
TABLE
  2
DIMSTYLE
 70
    16
  0
DIMSTYLE
  2
STANDARD
 70
     0
  3

  4

  5

  6

  7

 40
1.0
 41
0.18
 42
0.0625
 43
0.38
 44
0.18
 45
0.0
 46
0.0
 47
0.0
 48
0.0
140
0.18
141
0.09
142
0.0
143
25.3999999999999986
144
1.0
145
0.0
146
1.0
147
0.09
 71
     0
 72
     0
 73
     1
 74
     1
 75
     0
 76
     0
 77
     0
 78
     0
170
     0
171
     2
172
     0
173
     0
174
     0
175
     0
176
     0
177
     0
178
     0
  0
DIMSTYLE
  2
BIGT
 70
     0
  3

  4

  5

  6

  7

 40
1.0
 41
2.0
 42
2.0
 43
2.5
 44
2.0
 45
0.0
 46
0.0
 47
0.0
 48
0.0
140
2.799999999999998
141
0.0
142
0.0
143
25.3999999999999986
144
1.0
145
0.0
146
1.0
147
1.0
 71
     0
 72
     0
 73
     0
 74
     0
 75
     0
 76
     0
 77
     3
 78
     8
170
     0
171
     2
172
     1
173
     1
174
     1
175
     0
176
     3
177
     3
178
    40
  0
DIMSTYLE
  2
AM_ANSI
 70
     0
  3

  4
mm
  5

  6

  7

 40
1.0
 41
0.12
 42
0.05
 43
0.5
 44
0.1
 45
0.0
 46
0.0
 47
0.1
 48
0.1
140
0.12
141
0.0
142
0.0
143
25.3999999999999986
144
1.0
145
0.0
146
0.71
147
0.06
 71
     0
 72
     0
 73
     1
 74
     1
 75
     0
 76
     0
 77
     0
 78
     7
170
     0
171
     2
172
     0
173
     0
174
     0
175
     0
176
   256
177
   256
178
     2
  0
DIMSTYLE
  2
AM_ANSI$3
 70
     0
  3

  4
mm
  5

  6

  7

 40
1.0
 41
0.12
 42
0.05
 43
0.5
 44
0.1
 45
0.0
 46
0.0
 47
0.1
 48
0.1
140
0.12
141
0.0
142
0.0
143
25.3999999999999986
144
1.0
145
0.0
146
0.71
147
0.06
 71
     0
 72
     0
 73
     1
 74
     1
 75
     0
 76
     0
 77
     0
 78
     7
170
     0
171
     2
172
     0
173
     0
174
     0
175
     0
176
   256
177
   256
178
     2
  0
DIMSTYLE
  2
AM_ANSI$4
 70
     0
  3

  4
mm
  5

  6

  7

 40
1.0
 41
0.12
 42
0.05
 43
0.5
 44
0.1
 45
0.0
 46
0.0
 47
0.1
 48
0.1
140
0.12
141
0.0
142
0.0
143
25.3999999999999986
144
1.0
145
0.0
146
0.71
147
0.06
 71
     0
 72
     0
 73
     1
 74
     1
 75
     0
 76
     0
 77
     0
 78
     7
170
     0
171
     2
172
     0
173
     0
174
     0
175
     0
176
   256
177
   256
178
     2
  0
DIMSTYLE
  2
AM_ANSI$7
 70
     0
  3

  4
mm
  5

  6

  7

 40
1.0
 41
0.12
 42
0.05
 43
0.5
 44
0.1
 45
0.0
 46
0.0
 47
0.1
 48
0.1
140
0.12
141
0.0
142
0.0
143
25.3999999999999986
144
1.0
145
0.0
146
0.71
147
0.06
 71
     0
 72
     0
 73
     1
 74
     1
 75
     0
 76
     0
 77
     0
 78
     7
170
     0
171
     2
172
     0
173
     0
174
     0
175
     0
176
   256
177
   256
178
     2
  0
DIMSTYLE
  2
AM_ANSI$SF
 70
     0
  3

  4
mm
  5

  6

  7

 40
1.0
 41
0.12
 42
0.05
 43
0.5
 44
0.1
 45
0.0
 46
0.0
 47
0.1
 48
0.1
140
0.12
141
0.0
142
0.0
143
25.3999999999999986
144
1.0
145
0.0
146
0.71
147
0.06
 71
     0
 72
     0
 73
     1
 74
     1
 75
     1
 76
     1
 77
     0
 78
     7
170
     0
171
     2
172
     0
173
     0
174
     0
175
     0
176
   256
177
   256
178
     2
  0
DIMSTYLE
  2
AM_ANSI$SH
 70
     0
  3

  4
mm
  5

  6
GENAXEH
  7

 40
1.0
 41
0.12
 42
0.05
 43
0.5
 44
0.1
 45
0.0
 46
0.0
 47
0.1
 48
0.1
140
0.12
141
0.0
142
0.0
143
25.3999999999999986
144
1.0
145
0.0
146
0.71
147
0.06
 71
     0
 72
     0
 73
     1
 74
     1
 75
     1
 76
     1
 77
     0
 78
     7
170
     0
171
     2
172
     0
173
     1
174
     0
175
     0
176
   256
177
   256
178
     2
  0
ENDTAB
  0
ENDSEC
  0
SECTION
  2
BLOCKS
  0
BLOCK
  8
0
  2
$MODEL_SPACE
 70
     0
 10
0.0
 20
0.0
 30
0.0
  3
$MODEL_SPACE
  1

  0
ENDBLK
  5
126C
  8
0
  0
BLOCK
 67
     1
  8
0
  2
$PAPER_SPACE
 70
     0
 10
0.0
 20
0.0
 30
0.0
  3
$PAPER_SPACE
  1

  0
ENDBLK
  5
1268
 67
     1
  8
0
  0
BLOCK
  8
0
  2
_OPEN
 70
     0
 10
0.0
 20
0.0
 30
0.0
  3
_OPEN
  1

  0
LINE
  5
595
  8
0
  6
BYBLOCK
 62
     0
 10
-1.0
 20
0.1666666666666666
 30
0.0
 11
0.0
 21
0.0
 31
0.0
  0
LINE
  5
596
  8
0
  6
BYBLOCK
 62
     0
 10
-1.0
 20
-0.1666666666666666
 30
0.0
 11
0.0
 21
0.0
 31
0.0
  0
LINE
  5
597
  8
0
  6
BYBLOCK
 62
     0
 10
0.0
 20
0.0
 30
0.0
 11
-1.0
 21
0.0
 31
0.0
  0
ENDBLK
  5
599
  8
0
  0
BLOCK
  8
0
  2
矢印なし
 70
     0
 10
0.0
 20
0.0
 30
0.0
  3
矢印なし
  1

  0
ENDBLK
  5
6E5
  8
0
  0
BLOCK
  8
0
  2
GENAXEH
 70
     0
 10
0.0
 20
0.0
 30
0.0
  3
GENAXEH
  1

  0
LINE
  5
10BA
  8
0
 10
-1.0
 20
0.0
 30
0.0
 11
1.0
 21
0.0
 31
0.0
  0
ENDBLK
  5
10BC
  8
0
  0
BLOCK
  8
0
  2
*U5
 70
     1
 10
0.0
 20
0.0
 30
0.0
  3
*U5
  1

  0
TEXT
  5
11D9
  8
241
 10
-69.2023809523809348
 20
63.0
 30
0.0
 40
5.0
  1
BCV40Y-S50-3
  7
YOKO
  0
ENDBLK
  5
11DB
  8
0
  0
BLOCK
  8
0
  2
*U6
 70
     1
 10
0.0
 20
0.0
 30
0.0
  3
*U6
  1

  0
INSERT
  5
11E1
  8
250
  6
CONTINUOUS
  2
_OPEN
 10
73.1946314569091214
 20
14.0000000000001101
 30
0.0
 41
2.0
 42
2.0
 43
2.0
 50
240.0
  0
POLYLINE
  5
11E2
  8
250
  6
CONTINUOUS
 66
     1
 10
0.0
 20
0.0
 30
0.0
  0
VERTEX
  5
11E3
  8
250
  6
CONTINUOUS
 10
74.1946314569091214
 20
15.7320508075689798
 30
0.0
  0
VERTEX
  5
11E4
  8
250
  6
CONTINUOUS
 10
89.5904818115352555
 20
42.398445847508782
 30
0.0
  0
SEQEND
  5
11E5
  8
250
  6
CONTINUOUS
  0
ENDBLK
  5
11E7
  8
0
  0
BLOCK
  8
0
  2
*U7
 70
     1
 10
0.0
 20
0.0
 30
0.0
  3
*U7
  1

  0
TEXT
  5
11E9
  8
250
 10
91.9904818115352754
 20
43.398445847508782
 30
0.0
 40
2.799999999999998
  1
S50
  7
YOKO
  0
ENDBLK
  5
11EB
  8
0
  0
BLOCK
  8
0
  2
*U8
 70
     1
 10
0.0
 20
0.0
 30
0.0
  3
*U8
  1

  0
TEXT
  5
11ED
  8
250
 10
33.8333333333335133
 20
50.0
 30
0.0
 40
2.799999999999998
  1
3.03
  0
ENDBLK
  5
11EF
  8
0
  0
BLOCK
  8
0
  2
*U9
 70
     1
 10
0.0
 20
0.0
 30
0.0
  3
*U9
  1

  0
TEXT
  5
11F1
  8
250
 10
96.9999999999999858
 20
-7.2000000000000171
 30
0.0
 40
2.799999999999998
  1
\U+2205
 50
90.0
  0
TEXT
  5
11F2
  8
250
 10
96.9999999999999858
 20
-4.6666666666666829
 30
0.0
 40
2.799999999999998
  1
1.969
 50
90.0
  0
ENDBLK
  5
11F4
  8
0
  0
BLOCK
  8
0
  2
_ACMFILLEDHALF
 70
     0
 10
0.0
 20
0.0
 30
0.0
  3
_ACMFILLEDHALF
  1

  0
TRACE
  5
131D
  8
245
 62
     0
 10
-0.8
 20
0.0
 30
0.0
 11
-1.0
 21
0.166666666
 31
0.0
 12
0.0
 22
0.0
 32
0.0
 13
0.0
 23
0.0
 33
0.0
  0
LINE
  5
131E
  8
245
 62
     0
 10
-1.0
 20
0.0
 30
0.0
 11
-0.8
 21
0.0
 31
0.0
  0
ENDBLK
  5
131C
  8
0
  0
ENDSEC
  0
SECTION
  2
ENTITIES
  0
INSERT
  5
6E6
  8
245
  2
矢印なし
 10
175.6238269664376901
 20
90.5512357169059641
 30
0.0
  0
INSERT
  5
B58
  8
245
  2
*U5
 10
0.0
 20
0.0
 30
0.0
  0
LINE
  5
B5F
  8
245
  6
CENTER2
 10
-69.25
 20
0.0
 30
0.0
 11
78.0000000000003695
 21
-0.0000000000000361
 31
0.0
  0
LINE
  5
B62
  8
240
  6
CONTINUOUS
 10
1.0
 20
22.2250000000000014
 30
0.0
 11
1.0
 21
31.75
 31
0.0
  0
LINE
  5
B64
  8
240
  6
CONTINUOUS
 10
0.0
 20
22.2250000000000014
 30
0.0
 11
-68.2499999999999858
 21
12.2718750014768396
 31
0.0
  0
LINE
  5
B65
  8
240
  6
CONTINUOUS
 10
0.0
 20
-22.2250000000000014
 30
0.0
 11
-68.2500000000000142
 21
-12.2718750014768307
 31
0.0
  0
LINE
  5
B66
  8
240
  6
CONTINUOUS
 10
-68.2500000000000142
 20
-12.2718750014768307
 30
0.0
 11
-68.2499999999999858
 21
12.2718750014768396
 31
0.0
  0
LINE
  5
B67
  8
241
  6
CONTINUOUS
 10
1.0
 20
-22.2250000000000014
 30
0.0
 11
1.0
 21
22.2250000000000014
 31
0.0
  0
LINE
  5
B68
  8
241
  6
CONTINUOUS
 10
0.0
 20
-22.2250000000000014
 30
0.0
 11
0.0
 21
22.2250000000000014
 31
0.0
  0
LINE
  5
B69
  8
241
  6
CONTINUOUS
 10
19.0500000000000291
 20
-7.999999999999547
 30
0.0
 11
19.0500000000000291
 21
-29.1999999999998892
 31
0.0
  0
LINE
  5
B6A
  8
240
  6
CONTINUOUS
 10
1.0
 20
-31.75
 30
0.0
 11
7.593833230000012
 21
-31.75
 31
0.0
  0
LINE
  5
B6B
  8
240
  6
CONTINUOUS
 10
1.0
 20
-22.2250000000000014
 30
0.0
 11
1.0
 21
-31.75
 31
0.0
  0
LINE
  5
B6C
  8
240
  6
CONTINUOUS
 10
0.0
 20
-22.2250000000000014
 30
0.0
 11
1.0
 21
-22.2250000000000014
 31
0.0
  0
LINE
  5
B6D
  8
240
  6
CONTINUOUS
 10
19.0500000000000114
 20
-31.7500000000000107
 30
0.0
 11
19.0500000000000611
 21
-29.1999999999998714
 31
0.0
  0
LINE
  5
B6F
  8
240
  6
CONTINUOUS
 10
14.6461667690756201
 20
-31.7499999999999893
 30
0.0
 11
19.0500000000000114
 21
-31.7500000000000107
 31
0.0
  0
LINE
  5
B70
  8
241
  6
CONTINUOUS
 10
19.0499999999999297
 20
7.999843843468506
 30
0.0
 11
19.0499999999999297
 21
29.2000000000001592
 31
0.0
  0
LINE
  5
B71
  8
240
  6
CONTINUOUS
 10
0.0
 20
22.2250000000000014
 30
0.0
 11
1.0
 21
22.2250000000000014
 31
0.0
  0
LINE
  5
B72
  8
240
  6
CONTINUOUS
 10
1.0
 20
31.75
 30
0.0
 11
7.5938332309244601
 21
31.75
 31
0.0
  0
LINE
  5
B73
  8
240
  6
CONTINUOUS
 10
14.6461667690756308
 20
31.7499999999999893
 30
0.0
 11
19.0500000000000398
 21
31.7500000000000107
 31
0.0
  0
LINE
  5
B74
  8
241
  6
CONTINUOUS
 10
7.5938332309244414
 20
-31.7500000000000213
 30
0.0
 11
7.5938332309244414
 21
-7.9999999999998197
 31
0.0
  0
LINE
  5
B75
  8
241
  6
CONTINUOUS
 10
9.2000000000000153
 20
-28.1800000000000317
 30
0.0
 11
9.2000000000000153
 21
-7.999999999999778
 31
0.0
  0
LINE
  5
B76
  8
241
  6
CONTINUOUS
 10
13.0399999999999903
 20
-28.1800000000000317
 30
0.0
 11
13.0399999999999903
 21
-7.99999999999969
 31
0.0
  0
LINE
  5
B77
  8
241
  6
CONTINUOUS
 10
14.6461667690756201
 20
-31.7499999999999893
 30
0.0
 11
14.6461667690756201
 21
-7.9999999999996501
 31
0.0
  0
LINE
  5
B78
  8
240
  6
CONTINUOUS
 10
14.6461667690754993
 20
-31.7500000000000213
 30
0.0
 11
13.0399999999999903
 21
-28.9680375505324683
 31
0.0
  0
LINE
  5
B79
  8
240
  6
CONTINUOUS
 10
9.2000000000000153
 20
-28.1800000000000317
 30
0.0
 11
13.0399999999999903
 21
-28.1800000000000317
 31
0.0
  0
LINE
  5
B7A
  8
240
  6
CONTINUOUS
 10
7.5938332309243872
 20
-31.7500000000000213
 30
0.0
 11
9.2000000000000153
 21
-28.9680375505323084
 31
0.0
  0
LINE
  5
B7B
  8
240
  6
CONTINUOUS
 10
9.2000000000000153
 20
-28.9680375505323084
 30
0.0
 11
9.2000000000000153
 21
-28.1800000000000317
 31
0.0
  0
LINE
  5
B7C
  8
240
  6
CONTINUOUS
 10
13.0399999999999796
 20
-28.9680375505323084
 30
0.0
 11
13.0399999999999796
 21
-28.1800000000000317
 31
0.0
  0
LINE
  5
B7D
  8
241
  6
CONTINUOUS
 10
7.5938332309244601
 20
31.75
 30
0.0
 11
7.5938332309244494
 21
8.0000000000002451
 31
0.0
  0
LINE
  5
B7E
  8
241
  6
CONTINUOUS
 10
9.2000000000000295
 20
28.1799999999999891
 30
0.0
 11
9.2000000000000153
 21
8.0000000000003464
 31
0.0
  0
LINE
  5
B7F
  8
241
  6
CONTINUOUS
 10
13.0399999999999991
 20
28.1799999999999891
 30
0.0
 11
13.0399999999999903
 21
8.0000000000005862
 31
0.0
  0
LINE
  5
B80
  8
241
  6
CONTINUOUS
 10
14.6461667690756308
 20
31.7499999999999893
 30
0.0
 11
14.6461667690756201
 21
8.0000000000006892
 31
0.0
  0
LINE
  5
B81
  8
240
  6
CONTINUOUS
 10
14.6461667690755206
 20
31.7499999999999893
 30
0.0
 11
13.0399999999999991
 21
28.9680375505324292
 31
0.0
  0
LINE
  5
B82
  8
240
  6
CONTINUOUS
 10
9.2000000000000295
 20
28.1799999999999891
 30
0.0
 11
13.0399999999999991
 21
28.1799999999999891
 31
0.0
  0
LINE
  5
B83
  8
240
  6
CONTINUOUS
 10
7.5938332309244014
 20
31.7499999999999893
 30
0.0
 11
9.2000000000000295
 21
28.9680375505322694
 31
0.0
  0
LINE
  5
B84
  8
240
  6
CONTINUOUS
 10
9.2000000000000295
 20
28.9680375505322694
 30
0.0
 11
9.2000000000000295
 21
28.1799999999999891
 31
0.0
  0
LINE
  5
B85
  8
240
  6
CONTINUOUS
 10
13.0399999999999903
 20
28.9680375505322694
 30
0.0
 11
13.0399999999999903
 21
28.1799999999999891
 31
0.0
  0
ARC
  5
B86
  8
241
  6
CONTINUOUS
 10
19.0999848011986089
 20
-0.0000000000187583
 30
0.0
 40
8.0000000000332516
 50
270.0002520929047023
 51
89.9998911466023941
  0
LINE
  5
B87
  8
241
  6
CONTINUOUS
 10
19.0999848011987901
 20
-7.9999999999995417
 30
0.0
 11
3.7000000000000002
 21
-7.9999999999999103
 31
0.0
  0
LINE
  5
B88
  8
241
  6
CONTINUOUS
 10
19.0999848011983318
 20
8.0000000000009663
 30
0.0
 11
3.7000000000000002
 21
8.0
 31
0.0
  0
TEXT
  5
B95
  8
250
  6
CONTINUOUS
 10
-57.0311058669264526
 20
-27.0895097788922214
 30
0.0
 40
2.799999999999998
  1
BCV40Y
  7
YOKO
1001
ITEMNAME
1000
LNSP3
  0
LINE
  5
B96
  8
250
  6
CONTINUOUS
 10
-40.3862186589337213
 20
-28.0895097788922108
 30
0.0
 11
-58.3862186589337071
 21
-28.0895097788922108
 31
0.0
1001
ITEMNAME
1000
LNSP2
  0
LINE
  5
B97
  8
250
  6
CONTINUOUS
 10
-35.4139049745202925
 20
-18.8136323989028291
 30
0.0
 11
-34.1249999989337169
 21
-17.2484374988922191
 31
0.0
  0
LINE
  5
B98
  8
250
  6
CONTINUOUS
 10
-34.8366036569175535
 20
-19.1470505044978907
 30
0.0
 11
-34.1249999989337169
 21
-17.2484374988922191
 31
0.0
  0
LINE
  5
B99
  8
250
  6
CONTINUOUS
 10
-34.1249999989337169
 20
-17.2484374988922191
 30
0.0
 11
-35.1252543157189194
 21
-18.9803414517003901
 31
0.0
  0
LINE
  5
B9A
  8
250
  6
CONTINUOUS
 10
-35.1252543157189194
 20
-18.9803414517003901
 30
0.0
 11
-40.3862186589337213
 21
-28.0895097788922108
 31
0.0
1001
ACAD
1000
DSTYLE
1002
{
1070
     6
1000
OPEN
1070
    41
1040
2.0
1070
    42
1040
2.0
1070
    44
1040
2.0
1070
   140
1040
4.0
1070
   343
1005
0
1002
}
  0
LINE
  5
B9B
  8
247
  6
CONTINUOUS
 10
5.4999999999999432
 20
-18.7500000000000107
 30
0.0
 11
5.5
 21
-14.1153846156700702
 31
0.0
  0
LINE
  5
B9C
  8
247
  6
CONTINUOUS
 10
3.0
 20
-17.954893499987989
 30
0.0
 11
5.0999999999160073
 21
-18.5570588100573595
 31
0.0
  0
LINE
  5
B9D
  8
247
  6
CONTINUOUS
 10
3.996153846113998
 20
-17.3251514035190617
 30
0.0
 11
3.996153846113998
 21
-18.2405360188670507
 31
0.0
  0
ARC
  5
B9E
  8
247
  6
CONTINUOUS
 10
3.384719067294097
 20
-17.0872634019468315
 30
0.0
 40
0.3876715809326743
 50
72.9978896752922282
 51
172.9241662185135908
  0
ARC
  5
B9F
  8
247
  6
CONTINUOUS
 10
3.305223131028014
 20
-17.382477556804151
 30
0.0
 40
0.6933047965358772
 50
4.7429368522022113
 51
73.8492262732667513
1001
GENIUS_GENOBJ-N-FIL_13
1002
{
1000
OWNER
1000
GEN
1002
}
1001
GENIUS_GENODEF_13
1002
{
1000
HIER
1070
     0
1002
}
1002
{
1000
MANEDIT
1070
     0
1002
}
1002
{
1000
NOSEL
1070
     0
1002
}
1002
{
1000
BEHIND
1070
     0
1002
}
1002
{
1000
OTHER
1070
     0
1002
}
1002
{
1000
REACTOR
1002
}
  0
LINE
  5
BA0
  8
247
  6
CONTINUOUS
 10
5.0999999999160073
 20
-17.6416741947093811
 30
0.0
 11
5.0999999999160073
 21
-18.5570588100573595
 31
0.0
  0
LINE
  5
BA1
  8
247
  6
CONTINUOUS
 10
3.0
 20
-17.954893499987989
 30
0.0
 11
3.0
 21
-17.03950888464
 31
0.0
  0
ARC
  5
BA2
  8
247
  6
CONTINUOUS
 10
4.3874169627678681
 20
-17.3783064762668715
 30
0.0
 40
0.394857301075386
 50
65.990941652528889
 51
172.2634434590690944
  0
ARC
  5
BA3
  8
247
  6
CONTINUOUS
 10
4.3912003273325668
 20
-17.7124466104269409
 30
0.0
 40
0.7123241612361686
 50
5.701985164259785
 51
77.2773384368220206
1001
GENIUS_GENOBJ-N-FIL_13
1002
{
1000
OWNER
1000
GEN
1002
}
1001
GENIUS_GENODEF_13
1002
{
1000
HIER
1070
     0
1002
}
1002
{
1000
MANEDIT
1070
     0
1002
}
1002
{
1000
NOSEL
1070
     0
1002
}
1002
{
1000
BEHIND
1070
     0
1002
}
1002
{
1000
OTHER
1070
     0
1002
}
1002
{
1000
REACTOR
1002
}
  0
LINE
  5
BA4
  8
247
  6
CONTINUOUS
 10
5.0999999999160073
 20
-16.6839818870633998
 30
0.0
 11
3.0
 21
-16.0818165769940293
 31
0.0
  0
LINE
  5
BA5
  8
247
  6
CONTINUOUS
 10
3.0
 20
-14.585662730908
 30
0.0
 11
3.0
 21
-14.9816783643036207
 31
0.0
  0
LINE
  5
BA6
  8
247
  6
CONTINUOUS
 10
5.0999999999160073
 20
-15.6087396539439993
 30
0.0
 11
5.0999999999160073
 21
-15.1779704231920007
 31
0.0
  0
ARC
  5
BA7
  8
247
  6
CONTINUOUS
 10
4.4582995950833562
 20
-14.38181657706998
 30
0.0
 40
1.576855057639547
 50
202.3594881415291127
 51
254.9932485428464872
  0
ARC
  5
BA8
  8
247
  6
CONTINUOUS
 10
3.5658188585381319
 20
-14.8475113661332401
 30
0.0
 40
0.6234706797009447
 50
94.9945893190752741
 51
155.1663289573039037
1001
GENIUS_GENOBJ-N-FIL_13
1002
{
1000
OWNER
1000
GEN
1002
}
1001
GENIUS_GENODEF_13
1002
{
1000
HIER
1070
     0
1002
}
1002
{
1000
MANEDIT
1070
     0
1002
}
1002
{
1000
NOSEL
1070
     0
1002
}
1002
{
1000
BEHIND
1070
     0
1002
}
1002
{
1000
OTHER
1070
     0
1002
}
1002
{
1000
REACTOR
1002
}
  0
ARC
  5
BA9
  8
247
  6
CONTINUOUS
 10
4.1621021219694381
 20
-15.44418395103283
 30
0.0
 40
0.9749472149106981
 50
15.8460965557808002
 51
82.325137004169278
  0
ARC
  5
BAA
  8
247
  6
CONTINUOUS
 10
4.3714704019710631
 20
-15.0352116387722496
 30
0.0
 40
0.9271945638692008
 50
249.7136016704968995
 51
321.7887456564109243
1001
GENIUS_GENOBJ-N-FIL_13
1002
{
1000
OWNER
1000
GEN
1002
}
1001
GENIUS_GENODEF_13
1002
{
1000
HIER
1070
     0
1002
}
1002
{
1000
MANEDIT
1070
     0
1002
}
1002
{
1000
NOSEL
1070
     0
1002
}
1002
{
1000
BEHIND
1070
     0
1002
}
1002
{
1000
OTHER
1070
     0
1002
}
1002
{
1000
REACTOR
1002
}
  0
LINE
  5
BAB
  8
247
  6
CONTINUOUS
 10
4.2923076922559718
 20
-14.9625858078159801
 30
0.0
 11
4.2923076922559718
 21
-14.4779704232199808
 31
0.0
  0
ARC
  5
BAC
  8
247
  6
CONTINUOUS
 10
4.25
 20
-18.7500000000000107
 30
0.0
 40
1.25
 50
180.0
 51
0.0
  0
LINE
  5
BAD
  8
247
  6
CONTINUOUS
 10
3.0
 20
-18.7500000000000107
 30
0.0
 11
3.0
 21
-18.3038461539140513
 31
0.0
  0
ARC
  5
BAE
  8
247
  6
CONTINUOUS
 10
4.25
 20
-14.1153846156700702
 30
0.0
 40
1.25
 50
0.0
 51
180.0
  0
LINE
  5
C9C
  8
240
  6
CONTINUOUS
 10
19.0500000000000291
 20
31.7499999999999716
 30
0.0
 11
19.0500000000000895
 21
29.2000000000001485
 31
0.0
  0
LINE
  5
E9D
  8
240
  6
CONTINUOUS
 10
77.0000000000003268
 20
24.9999999999999289
 30
0.0
 11
77.0000000000003695
 21
-24.9999999999999893
 31
0.0
  0
LINE
  5
E9F
  8
241
  6
CONTINUOUS
 10
35.000000000005457
 20
-28.5000000000001386
 30
0.0
 11
35.000000000005457
 21
28.5000000000001208
 31
0.0
  0
LINE
  5
EA0
  8
240
  6
CONTINUOUS
 10
19.7500000000000604
 20
-28.4999999999998899
 30
0.0
 11
35.000000000005457
 21
-28.5000000000001386
 31
0.0
  0
LINE
  5
EA1
  8
240
  6
CONTINUOUS
 10
34.9999999999988773
 20
-28.5000000000001705
 30
0.0
 11
77.0000000000003695
 21
-24.9999999999999893
 31
0.0
  0
LINE
  5
EA2
  8
243
 10
46.5000000000003268
 20
-13.9999999999998597
 30
0.0
 11
77.0000000000003695
 21
-13.9999999999998899
 31
0.0
  0
LINE
  5
EA3
  8
243
 10
46.5000000000003268
 20
14.0000000000000409
 30
0.0
 11
77.0000000000003695
 21
14.0000000000001101
 31
0.0
  0
LINE
  5
EA4
  8
240
  6
CONTINUOUS
 10
19.7500000000000817
 20
28.5000000000001705
 30
0.0
 11
35.0000000000000213
 21
28.5000000000000284
 31
0.0
  0
LINE
  5
EA9
  8
240
  6
CONTINUOUS
 10
35.0000000000000213
 20
28.5000000000000284
 30
0.0
 11
77.0000000000003268
 21
24.9999999999999289
 31
0.0
  0
INSERT
  5
EDA
  8
245
  2
*U6
 10
0.0
 20
0.0
 30
0.0
1001
ACAD
1000
DSTYLE
1002
{
1070
    42
1040
0.5
1070
    44
1040
1.0
1070
   140
1040
2.799999999999998
1002
}
  0
INSERT
  5
EDB
  8
245
  2
*U7
 10
0.0
 20
0.0
 30
0.0
  0
LINE
  5
EDC
  8
250
  6
CONTINUOUS
 10
89.5904818115352555
 20
42.398445847508782
 30
0.0
 11
102.3904818115351958
 21
42.398445847508782
 31
0.0
1001
ITEMNAME
1000
LNSP2
  0
LINE
  5
EF0
  8
250
  6
CONTINUOUS
 10
0.0
 20
22.7250000000000014
 30
0.0
 11
0.0000000000000017
 21
50.0
 31
0.0
  0
LINE
  5
EF1
  8
250
  6
CONTINUOUS
 10
77.0000000000003268
 20
25.4999999999999289
 30
0.0
 11
77.0000000000003268
 21
50.0
 31
0.0
  0
LINE
  5
EF2
  8
250
  6
CONTINUOUS
 10
2.0
 20
49.0
 30
0.0
 11
75.0000000000003268
 21
49.0
 31
0.0
  0
INSERT
  5
EF3
  8
250
  6
CONTINUOUS
  2
_OPEN
 10
0.0000000000000016
 20
49.0
 30
0.0
 41
2.0
 42
2.0
 43
2.0
 50
180.0
  0
INSERT
  5
EF4
  8
250
  6
CONTINUOUS
  2
_OPEN
 10
77.0000000000003268
 20
49.0
 30
0.0
 41
2.0
 42
2.0
 43
2.0
  0
INSERT
  5
EF5
  8
245
  2
*U8
 10
0.0
 20
0.0
 30
0.0
  0
LINE
  5
EF6
  8
250
  6
CONTINUOUS
 10
77.5000000000003695
 20
-24.9999999999999893
 30
0.0
 11
99.0
 21
-24.9999999999999893
 31
0.0
  0
LINE
  5
EF7
  8
250
  6
CONTINUOUS
 10
77.5000000000003268
 20
24.9999999999999289
 30
0.0
 11
99.0
 21
24.9999999999999112
 31
0.0
  0
LINE
  5
EF8
  8
250
  6
CONTINUOUS
 10
98.0
 20
-22.9999999999999787
 30
0.0
 11
98.0
 21
22.9999999999999112
 31
0.0
  0
INSERT
  5
EF9
  8
250
  6
CONTINUOUS
  2
_OPEN
 10
98.0
 20
-24.9999999999999893
 30
0.0
 41
2.0
 42
2.0
 43
2.0
 50
270.0
  0
INSERT
  5
EFA
  8
250
  6
CONTINUOUS
  2
_OPEN
 10
98.0
 20
24.9999999999999112
 30
0.0
 41
2.0
 42
2.0
 43
2.0
 50
90.0
  0
INSERT
  5
EFB
  8
245
  2
*U9
 10
0.0
 20
0.0
 30
0.0
  0
ARC
  5
F87
  8
240
  6
CONTINUOUS
 10
19.7500000000000888
 20
29.2000000000001592
 30
0.0
 40
0.7
 50
180.0000000000013074
 51
269.9999999999994884
  0
ARC
  5
F89
  8
240
  6
CONTINUOUS
 10
19.7500000000000604
 20
-29.1999999999998892
 30
0.0
 40
0.7
 50
89.9999999999990337
 51
179.9999999999988063
  0
LINE
  5
1003
  8
245
  6
CENTER2
 10
62.9500000000004576
 20
5.9999999999999636
 30
0.0
 11
62.9500000000004576
 21
-6.0000000000000284
 31
0.0
  0
CIRCLE
  5
1004
  8
241
  6
CONTINUOUS
 10
62.95000000000028
 20
-0.000000000000032
 30
0.0
 40
5.0
  0
CIRCLE
  5
1005
  8
242
  6
CONTINUOUS
 10
62.95000000000028
 20
-0.000000000000032
 30
0.0
 40
4.5
  0
POLYLINE
  5
1006
  8
241
  6
CONTINUOUS
 66
     1
 10
0.0
 20
0.0
 30
0.0
 70
     1
  0
VERTEX
  5
11F5
  8
241
  6
CONTINUOUS
 10
60.45000000000028
 20
-1.4433756729741001
 30
0.0
  0
VERTEX
  5
11F6
  8
241
  6
CONTINUOUS
 10
62.95000000000028
 20
-2.88675134594817
 30
0.0
  0
VERTEX
  5
11F7
  8
241
  6
CONTINUOUS
 10
65.4500000000002728
 20
-1.4433756729741001
 30
0.0
  0
VERTEX
  5
11F8
  8
241
  6
CONTINUOUS
 10
65.4500000000002728
 20
1.443375672974037
 30
0.0
  0
VERTEX
  5
11F9
  8
241
  6
CONTINUOUS
 10
62.95000000000028
 20
2.886751345948106
 30
0.0
  0
VERTEX
  5
11FA
  8
241
  6
CONTINUOUS
 10
60.45000000000028
 20
1.443375672974037
 30
0.0
  0
SEQEND
  5
11FB
  8
241
  6
CONTINUOUS
  0
LINE
  5
10EE
  8
241
  6
CONTINUOUS
 10
3.7000000000000002
 20
8.0
 30
0.0
 11
1.0
 21
10.69999999999966
 31
0.0
1001
GENIUS_GENFIL_13
1070
     1
1040
10.0
1040
10.0
1040
2.7000000000000002
1040
45.0
1002
{
1002
}
1001
GENIUS_GENOBJ-N-CHA_13
1002
{
1000
OWNER
1000
GEN
1002
}
1001
GENIUS_GENODEF_13
1002
{
1000
HIER
1070
     0
1002
}
1002
{
1000
MANEDIT
1070
     0
1002
}
1002
{
1000
NOSEL
1070
     0
1002
}
1002
{
1000
BEHIND
1070
     0
1002
}
1002
{
1000
OTHER
1070
     0
1002
}
1002
{
1000
REACTOR
1002
}
  0
LINE
  5
10F1
  8
241
  6
CONTINUOUS
 10
3.7000000000000002
 20
-7.9999999999999103
 30
0.0
 11
1.0
 21
-10.7000000000000401
 31
0.0
1001
GENIUS_GENFIL_13
1070
     1
1040
10.0
1040
10.0
1040
2.7000000000000002
1040
45.0
1002
{
1002
}
1001
GENIUS_GENODEF_13
1002
{
1000
HIER
1070
     0
1002
}
1002
{
1000
MANEDIT
1070
     0
1002
}
1002
{
1000
NOSEL
1070
     0
1002
}
1002
{
1000
BEHIND
1070
     0
1002
}
1002
{
1000
OTHER
1070
     0
1002
}
1002
{
1000
REACTOR
1002
}
1001
GENIUS_GENOBJ-N-CHA_13
1002
{
1000
OWNER
1000
GEN
1002
}
  0
VIEWPORT
  5
22
 67
     1
  8
0
 10
261.517699115044195
 20
148.5
 30
0.0
 40
523.0353982300885036
 41
297.0
 68
     1
 69
     1
1001
ACAD
1000
MVIEW
1002
{
1070
    16
1010
0.0
1020
0.0
1030
0.0
1010
0.0
1020
0.0
1030
1.0
1040
0.0
1040
297.0
1040
261.517699115044195
1040
148.5
1040
50.0
1040
0.0
1040
0.0
1070
     0
1070
   100
1070
     1
1070
     1
1070
     0
1070
     0
1070
     0
1070
     0
1040
0.0
1040
0.0
1040
0.0
1040
1.0
1040
1.0
1040
10.0
1040
10.0
1070
     0
1002
{
1002
}
1002
}
1001
GENIUS_GENOBJ-N-SDF_13
1002
{
1000
OWNER
1000
GEN
1002
}
1001
GENIUS_GENODEF_13
1002
{
1000
HIER
1070
     0
1002
}
1002
{
1000
MANEDIT
1070
     0
1002
}
1002
{
1000
NOSEL
1070
     0
1002
}
1002
{
1000
BEHIND
1070
     0
1002
}
1002
{
1000
OTHER
1070
     0
1002
}
1002
{
1000
REACTOR
1002
}
1001
GENIUS_GENSCREG_15
1000
PF
1040
1.0
1000
DF
1040
1.0
1000
MIN
1011
0.0
1021
0.0
1031
0.0
1021
0.0
1031
0.0
1000
MAX
1011
523.0353982300885036
1021
0.0
1031
0.0
1021
297.0
1031
0.0
1000
FLAGS
1070
     4
  0
ENDSEC
  0
EOF
