  0
SECTION
  2
HEADER
  9
$ACADVER
  1
AC1009
  9
$INSBASE
 10
0.0
 20
0.0
 30
0.0
  9
$EXTMIN
 10
-69.25
 20
-31.7500000000000284
 30
0.0
  9
$EXTMAX
 10
127.0
 20
68.0000000000000142
 30
0.0
  9
$LIMMIN
 10
0.0
 20
0.0
  9
$LIMMAX
 10
297.0
 20
210.0
  9
$ORTHOMODE
 70
     0
  9
$REGENMODE
 70
     1
  9
$FILLMODE
 70
     1
  9
$QTEXTMODE
 70
     0
  9
$MIRRTEXT
 70
     1
  9
$DRAGMODE
 70
     2
  9
$LTSCALE
 40
10.0
  9
$OSMODE
 70
   807
  9
$ATTMODE
 70
     1
  9
$TEXTSIZE
 40
3.0
  9
$TRACEWID
 40
1.0
  9
$TEXTSTYLE
  7
YOKO
  9
$CLAYER
  8
240
  9
$CELTYPE
  6
BYLAYER
  9
$CECOLOR
 62
   256
  9
$DIMSCALE
 40
1.0
  9
$DIMASZ
 40
2.0
  9
$DIMEXO
 40
0.5
  9
$DIMDLI
 40
2.5
  9
$DIMRND
 40
0.0
  9
$DIMDLE
 40
0.0
  9
$DIMEXE
 40
1.0
  9
$DIMTP
 40
0.0
  9
$DIMTM
 40
0.0
  9
$DIMTXT
 40
2.799999999999998
  9
$DIMCEN
 40
0.0
  9
$DIMTSZ
 40
0.0
  9
$DIMTOL
 70
     0
  9
$DIMLIM
 70
     0
  9
$DIMTIH
 70
     0
  9
$DIMTOH
 70
     0
  9
$DIMSE1
 70
     0
  9
$DIMSE2
 70
     0
  9
$DIMTAD
 70
     3
  9
$DIMZIN
 70
     8
  9
$DIMBLK
  1

  9
$DIMASO
 70
     1
  9
$DIMSHO
 70
     1
  9
$DIMPOST
  1

  9
$DIMAPOST
  1

  9
$DIMALT
 70
     0
  9
$DIMALTD
 70
     2
  9
$DIMALTF
 40
25.3999999999999986
  9
$DIMLFAC
 40
1.0
  9
$DIMTOFL
 70
     1
  9
$DIMTVP
 40
0.0
  9
$DIMTIX
 70
     1
  9
$DIMSOXD
 70
     0
  9
$DIMSAH
 70
     1
  9
$DIMBLK1
  1
OPEN
  9
$DIMBLK2
  1
OPEN
  9
$DIMSTYLE
  2
BIGT
  9
$DIMCLRD
 70
     3
  9
$DIMCLRE
 70
     3
  9
$DIMCLRT
 70
    40
  9
$DIMTFAC
 40
1.0
  9
$DIMGAP
 40
1.0
  9
$LUNITS
 70
     2
  9
$LUPREC
 70
     2
  9
$SKETCHINC
 40
1.0
  9
$FILLETRAD
 40
0.7
  9
$AUNITS
 70
     0
  9
$AUPREC
 70
     3
  9
$MENU
  1
.
  9
$ELEVATION
 40
0.0
  9
$PELEVATION
 40
0.0
  9
$THICKNESS
 40
0.0
  9
$LIMCHECK
 70
     0
  9
$BLIPMODE
 70
     0
  9
$CHAMFERA
 40
10.0
  9
$CHAMFERB
 40
10.0
  9
$SKPOLY
 70
     0
  9
$TDCREATE
 40
2457759.7100578700192273
  9
$TDUPDATE
 40
2458172.6564351851120591
  9
$TDINDWG
 40
0.0415020949
  9
$TDUSRTIMER
 40
0.0415020139
  9
$USRTIMER
 70
     1
  9
$ANGBASE
 50
0.0
  9
$ANGDIR
 70
     0
  9
$PDMODE
 70
     0
  9
$PDSIZE
 40
-5.0
  9
$PLINEWID
 40
0.0
  9
$COORDS
 70
     1
  9
$SPLFRAME
 70
     0
  9
$SPLINETYPE
 70
     6
  9
$SPLINESEGS
 70
     8
  9
$ATTDIA
 70
     1
  9
$ATTREQ
 70
     1
  9
$HANDLING
 70
     1
  9
$HANDSEED
  5
1477
  9
$SURFTAB1
 70
     6
  9
$SURFTAB2
 70
     6
  9
$SURFTYPE
 70
     6
  9
$SURFU
 70
     6
  9
$SURFV
 70
     6
  9
$UCSNAME
  2

  9
$UCSORG
 10
0.0
 20
0.0
 30
0.0
  9
$UCSXDIR
 10
1.0
 20
0.0
 30
0.0
  9
$UCSYDIR
 10
0.0
 20
1.0
 30
0.0
  9
$PUCSNAME
  2

  9
$PUCSORG
 10
0.0
 20
0.0
 30
0.0
  9
$PUCSXDIR
 10
1.0
 20
0.0
 30
0.0
  9
$PUCSYDIR
 10
0.0
 20
1.0
 30
0.0
  9
$USERI1
 70
     1
  9
$USERI2
 70
     0
  9
$USERI3
 70
     0
  9
$USERI4
 70
     0
  9
$USERI5
 70
     0
  9
$USERR1
 40
0.0
  9
$USERR2
 40
0.0
  9
$USERR3
 40
0.0
  9
$USERR4
 40
0.0
  9
$USERR5
 40
0.0
  9
$WORLDVIEW
 70
     1
  9
$SHADEDGE
 70
     3
  9
$SHADEDIF
 70
    70
  9
$TILEMODE
 70
     1
  9
$MAXACTVP
 70
    16
  9
$PLIMCHECK
 70
     0
  9
$PEXTMIN
 10
1.0000000000000000E+20
 20
1.0000000000000000E+20
 30
1.0000000000000000E+20
  9
$PEXTMAX
 10
-1.0000000000000000E+20
 20
-1.0000000000000000E+20
 30
-1.0000000000000000E+20
  9
$PLIMMIN
 10
0.0
 20
0.0
  9
$PLIMMAX
 10
420.0
 20
297.0
  9
$UNITMODE
 70
     0
  9
$VISRETAIN
 70
     0
  9
$PLINEGEN
 70
     0
  9
$PSLTSCALE
 70
     1
  0
ENDSEC
  0
SECTION
  2
TABLES
  0
TABLE
  2
VPORT
 70
     1
  0
VPORT
  2
*ACTIVE
 70
     0
 10
0.0
 20
0.0
 11
1.0
 21
1.0
 12
33.659027258623837
 22
19.3347602667443716
 13
0.0
 23
0.0
 14
7.0
 24
7.0
 15
7.0
 25
7.0
 16
0.0
 26
0.0
 36
1.0
 17
0.0
 27
0.0
 37
0.0
 40
159.8254498593572919
 41
2.0192076830732288
 42
50.0
 43
0.0
 44
0.0
 50
0.0
 51
0.0
 71
     0
 72
 20000
 73
     1
 74
     0
 75
     0
 76
     0
 77
     0
 78
     0
  0
ENDTAB
  0
TABLE
  2
LTYPE
 70
    15
  0
LTYPE
  2
CONTINUOUS
 70
     0
  3
Solid line
 72
    65
 73
     0
 40
0.0
  0
LTYPE
  2
CENTER2
 70
     0
  3
___ _ ___ _ ___ _ ___ _ ___ _ ___ _ ___ _ ___ _
 72
    65
 73
     4
 40
1.125
 49
0.75
 49
-0.125
 49
0.125
 49
-0.125
  0
LTYPE
  2
AM_ISO02W050
 70
     0
  3
__ __ __ __ __ __ __ __ __ __ __ __ __ __ __
 72
    65
 73
     2
 40
7.5
 49
6.0
 49
-1.5
  0
LTYPE
  2
AM_ISO08W050
 70
     0
  3
____ . ____ . ____ . ____ . ____ . ____ . ____
 72
    65
 73
     4
 40
18.0
 49
12.0
 49
-1.5
 49
3.0
 49
-1.5
  0
LTYPE
  2
AM_ISO09W050
 70
     0
  3
_____ . . _____ . . _____ . . ____ .. ____
 72
    65
 73
     6
 40
22.5
 49
12.0
 49
-1.5
 49
3.0
 49
-1.5
 49
3.0
 49
-1.5
  0
LTYPE
  2
AMCONSTR
 70
     0
  3
_______________________
 72
    65
 73
     2
 40
9999.0
 49
9999.0
 49
0.0
  0
LTYPE
  2
AM_ISO08W050X2
 70
     0
  3
__ . __ . __ . __ . __ . __
 72
    65
 73
     4
 40
9.0
 49
6.0
 49
-0.75
 49
1.5
 49
-0.75
  0
LTYPE
  2
AM_ISO02W050X2
 70
     0
  3
 _ _ _ _ _ _ _ _ _ _ _ _
 72
    65
 73
     2
 40
3.75
 49
3.0
 49
-0.75
  0
LTYPE
  2
AMZIGZAG
 70
     0
  3
/\/-/\/-/\/-/\/-/\/-/\/
 72
    65
 73
     2
 40
11.0000999999999998
 49
0.0001
 49
-11.0
  0
LTYPE
  2
ACISOWELD
 70
     0
  3
_ _ _ _ _
 72
    65
 73
     2
 40
2.0
 49
2.0
 49
-1.0
  0
LTYPE
  2
ACISOTGL
 70
     0
  3
_ _ _ _ _
 72
    65
 73
     2
 40
3.0
 49
2.0
 49
-1.0
  0
LTYPE
  2
ACISOTGB
 70
     0
  3
__ . . __ . .
 72
    65
 73
     6
 40
9.0
 49
4.0
 49
-1.0
 49
1.0
 49
-1.0
 49
1.0
 49
-1.0
  0
ENDTAB
  0
TABLE
  2
LAYER
 70
     6
  0
LAYER
  2
0
 70
     0
 62
     7
  6
CONTINUOUS
  0
LAYER
  2
240
 70
     0
 62
     4
  6
CONTINUOUS
  0
LAYER
  2
241
 70
     0
 62
   211
  6
CONTINUOUS
  0
LAYER
  2
245
 70
     0
 62
     2
  6
CENTER2
  0
LAYER
  2
247
 70
     0
 62
    60
  6
CONTINUOUS
  0
LAYER
  2
250
 70
     0
 62
     3
  6
CONTINUOUS
  0
ENDTAB
  0
TABLE
  2
STYLE
 70
     5
  0
STYLE
  2
STANDARD
 70
     0
 40
0.0
 41
1.0
 50
0.0
 71
     0
 42
2.799999999999998
  3
romans.shx
  4
BIGFONT.SHX
  0
STYLE
  2
YOKO
 70
     0
 40
0.0
 41
1.0
 50
0.0
 71
     0
 42
3.0
  3
romans.shx
  4
extfont.shx
  0
STYLE
  2

 70
     1
 40
0.0
 41
1.0
 50
0.0
 71
     0
 42
3.0
  3
genltshp.shx
  4

  0
STYLE
  2
ACISOGDT
 70
     0
 40
0.0
 41
1.0
 50
0.0
 71
     0
 42
3.0
  3
amgdt.shx
  4

  0
ENDTAB
  0
TABLE
  2
VIEW
 70
     0
  0
ENDTAB
  0
TABLE
  2
UCS
 70
     0
  0
ENDTAB
  0
TABLE
  2
APPID
 70
    26
  0
APPID
  2
ACAD
 70
     0
  0
APPID
  2
GLOBAL
 70
     0
  0
APPID
  2
DETAIL
 70
     0
  0
APPID
  2
GRPNAME
 70
     0
  0
APPID
  2
GPARA
 70
     0
  0
APPID
  2
DCO15
 70
     0
  0
APPID
  2
ITEMNAME
 70
     0
  0
APPID
  2
GRADE_0
 70
     0
  0
APPID
  2
ACAD_DSTYLE_DIMJAG
 70
     0
  0
APPID
  2
ACAD_DSTYLE_DIMTALN
 70
     0
  0
APPID
  2
ACAD_NAV_VCDISPLAY
 70
     0
  0
APPID
  2
ACAD_MLEADERVER
 70
     0
  0
APPID
  2
ACAD_DSTYLE_DIMBREAK
 70
     0
  0
APPID
  2
ACAD_PSEXT
 70
     0
  0
APPID
  2
GENIUS_GENODEF_13
 70
     0
  0
APPID
  2
GENIUS_GENOBJ-N-FIL_13
 70
     0
  0
APPID
  2
ACAD_EXEMPT_FROM_CAD_STANDARDS
 70
     0
  0
APPID
  2
GRADE_-10000
 70
     0
  0
APPID
  2
MCAD_NO_VIS
 70
     0
  0
APPID
  2
ACAD_TEMP_GRAPHIC
 70
     0
  0
APPID
  2
ACATTRIBSERVICES
 70
     0
  0
APPID
  2
DESIGNERASSEMBLIES
 70
     0
  0
APPID
  2
GENIUS_GENSCREG_15
 70
     0
  0
APPID
  2
GENIUS_GENOBJ-N-SDF_13
 70
     0
  0
APPID
  2
GENIUS_GENFIL_13
 70
     0
  0
APPID
  2
GENIUS_GENOBJ-N-CHA_13
 70
     0
  0
ENDTAB
  0
TABLE
  2
DIMSTYLE
 70
     8
  0
DIMSTYLE
  2
BIGT
 70
     0
  3

  4

  5

  6
OPEN
  7
OPEN
 40
1.0
 41
2.0
 42
2.0
 43
2.5
 44
2.0
 45
0.0
 46
0.0
 47
0.0
 48
0.0
140
2.799999999999998
141
0.0
142
0.0
143
25.3999999999999986
144
1.0
145
0.0
146
1.0
147
1.0
 71
     0
 72
     0
 73
     0
 74
     0
 75
     0
 76
     0
 77
     3
 78
     8
170
     0
171
     2
172
     1
173
     1
174
     1
175
     0
176
     3
177
     3
178
    40
  0
DIMSTYLE
  2
AM_ISO
 70
     0
  3

  4
"
  5

  6

  7

 40
1.0
 41
3.5
 42
1.0
 43
10.0
 44
1.0
 45
0.0
 46
0.0
 47
0.1
 48
0.1
140
3.5
141
0.0
142
0.0
143
0.0393701
144
1.0
145
0.0
146
0.71
147
1.5
 71
     0
 72
     0
 73
     0
 74
     0
 75
     0
 76
     0
 77
     1
 78
     8
170
     0
171
     2
172
     1
173
     0
174
     0
175
     0
176
   256
177
   256
178
     2
  0
DIMSTYLE
  2
AM_ISO$3
 70
     0
  3

  4
"
  5

  6

  7

 40
1.0
 41
3.5
 42
1.0
 43
10.0
 44
1.0
 45
0.0
 46
0.0
 47
0.1
 48
0.1
140
3.5
141
0.0
142
0.0
143
0.0393701
144
1.0
145
0.0
146
0.71
147
1.5
 71
     0
 72
     0
 73
     0
 74
     1
 75
     0
 76
     0
 77
     1
 78
     8
170
     0
171
     2
172
     0
173
     0
174
     0
175
     0
176
   256
177
   256
178
     2
  0
DIMSTYLE
  2
AM_ISO$4
 70
     0
  3

  4
"
  5

  6

  7

 40
1.0
 41
3.5
 42
1.0
 43
10.0
 44
1.0
 45
0.0
 46
0.0
 47
0.1
 48
0.1
140
3.5
141
0.0
142
0.0
143
0.0393701
144
1.0
145
0.0
146
0.71
147
1.5
 71
     0
 72
     0
 73
     0
 74
     1
 75
     0
 76
     0
 77
     1
 78
     8
170
     0
171
     2
172
     0
173
     0
174
     0
175
     0
176
   256
177
   256
178
     2
  0
DIMSTYLE
  2
AM_ISO$6
 70
     0
  3

  4
"
  5

  6

  7

 40
1.0
 41
3.5
 42
1.0
 43
10.0
 44
1.0
 45
0.0
 46
0.0
 47
0.1
 48
0.1
140
3.5
141
0.0
142
0.0
143
0.0393701
144
1.0
145
0.0
146
0.71
147
1.5
 71
     0
 72
     0
 73
     0
 74
     0
 75
     0
 76
     0
 77
     0
 78
     8
170
     0
171
     2
172
     1
173
     0
174
     0
175
     0
176
   256
177
   256
178
     2
  0
DIMSTYLE
  2
AM_ISO$7
 70
     0
  3

  4
"
  5

  6

  7

 40
1.0
 41
3.5
 42
1.0
 43
10.0
 44
1.0
 45
0.0
 46
0.0
 47
0.1
 48
0.1
140
3.5
141
0.0
142
0.0
143
0.0393701
144
1.0
145
0.0
146
0.71
147
1.5
 71
     0
 72
     0
 73
     0
 74
     0
 75
     0
 76
     0
 77
     1
 78
     8
170
     0
171
     2
172
     1
173
     0
174
     0
175
     0
176
   256
177
   256
178
     2
  0
DIMSTYLE
  2
AM_ISO$SF
 70
     0
  3

  4
"
  5

  6

  7

 40
1.0
 41
3.5
 42
1.0
 43
10.0
 44
1.0
 45
0.0
 46
0.0
 47
0.1
 48
0.1
140
3.5
141
0.0
142
0.0
143
0.0393701
144
1.0
145
0.0
146
0.71
147
1.5
 71
     0
 72
     0
 73
     0
 74
     0
 75
     1
 76
     1
 77
     1
 78
     8
170
     0
171
     2
172
     1
173
     0
174
     0
175
     0
176
   256
177
   256
178
     2
  0
DIMSTYLE
  2
AM_ISO$SH
 70
     0
  3

  4
"
  5

  6
GENAXEH
  7

 40
1.0
 41
3.5
 42
1.0
 43
10.0
 44
1.0
 45
0.0
 46
0.0
 47
0.1
 48
0.1
140
3.5
141
0.0
142
0.0
143
0.0393701
144
2.0
145
0.0
146
0.71
147
1.5
 71
     0
 72
     0
 73
     0
 74
     0
 75
     1
 76
     1
 77
     1
 78
     8
170
     0
171
     2
172
     1
173
     1
174
     0
175
     0
176
   256
177
   256
178
     2
  0
ENDTAB
  0
ENDSEC
  0
SECTION
  2
BLOCKS
  0
BLOCK
  8
0
  2
$MODEL_SPACE
 70
     0
 10
0.0
 20
0.0
 30
0.0
  3
$MODEL_SPACE
  1

  0
ENDBLK
  5
1C
  8
0
  0
BLOCK
 67
     1
  8
0
  2
$PAPER_SPACE
 70
     0
 10
0.0
 20
0.0
 30
0.0
  3
$PAPER_SPACE
  1

  0
ENDBLK
  5
19
 67
     1
  8
0
  0
BLOCK
  8
0
  2
_OPEN
 70
     0
 10
0.0
 20
0.0
 30
0.0
  3
_OPEN
  1

  0
LINE
  5
595
  8
0
  6
BYBLOCK
 62
     0
 10
-1.0
 20
0.1666666666666666
 30
0.0
 11
0.0
 21
0.0
 31
0.0
  0
LINE
  5
596
  8
0
  6
BYBLOCK
 62
     0
 10
-1.0
 20
-0.1666666666666666
 30
0.0
 11
0.0
 21
0.0
 31
0.0
  0
LINE
  5
597
  8
0
  6
BYBLOCK
 62
     0
 10
0.0
 20
0.0
 30
0.0
 11
-1.0
 21
0.0
 31
0.0
  0
ENDBLK
  5
599
  8
0
  0
BLOCK
  8
0
  2
矢印なし
 70
     0
 10
0.0
 20
0.0
 30
0.0
  3
矢印なし
  1

  0
ENDBLK
  5
6E5
  8
0
  0
BLOCK
  8
0
  2
GENAXEH
 70
     0
 10
0.0
 20
0.0
 30
0.0
  3
GENAXEH
  1

  0
LINE
  5
1256
  8
0
 10
-1.0
 20
0.0
 30
0.0
 11
1.0
 21
0.0
 31
0.0
  0
ENDBLK
  5
1258
  8
0
  0
BLOCK
  8
0
  2
*U4
 70
     1
 10
0.0
 20
0.0
 30
0.0
  3
*U4
  1

  0
TEXT
  5
12DD
  8
241
 10
-69.2023809523809348
 20
63.0
 30
0.0
 40
5.0
  1
BCV40Y-F63-4.125
  7
YOKO
  0
ENDBLK
  5
12DF
  8
0
  0
BLOCK
  8
0
  2
*U5
 70
     1
 10
0.0
 20
0.0
 30
0.0
  3
*U5
  1

  0
INSERT
  5
12E1
  8
250
  6
CONTINUOUS
  2
_OPEN
 10
101.7969721441375981
 20
31.4999999999999005
 30
0.0
 41
2.0
 42
2.0
 43
2.0
 50
239.999999999999801
  0
POLYLINE
  5
12E2
  8
250
  6
CONTINUOUS
 66
     1
 10
0.0
 20
0.0
 30
0.0
  0
VERTEX
  5
12E3
  8
250
  6
CONTINUOUS
 10
102.7969721441375981
 20
33.2320508075687826
 30
0.0
  0
VERTEX
  5
12E4
  8
250
  6
CONTINUOUS
 10
111.8603222127593
 20
48.9302336132043365
 30
0.0
  0
SEQEND
  5
12E5
  8
250
  6
CONTINUOUS
  0
ENDBLK
  5
12E7
  8
0
  0
BLOCK
  8
0
  2
*U6
 70
     1
 10
0.0
 20
0.0
 30
0.0
  3
*U6
  1

  0
TEXT
  5
12E9
  8
250
 10
114.1269888794258947
 20
49.9302336132043365
 30
0.0
 40
2.799999999999998
  1
F63
  7
YOKO
  0
ENDBLK
  5
12EB
  8
0
  0
BLOCK
  8
0
  2
*U7
 70
     1
 10
0.0
 20
0.0
 30
0.0
  3
*U7
  1

  0
TEXT
  5
12ED
  8
250
 10
47.6833333333325768
 20
50.0
 30
0.0
 40
2.799999999999998
  1
4.12
  0
ENDBLK
  5
12EF
  8
0
  0
BLOCK
  8
0
  2
*U8
 70
     1
 10
0.0
 20
0.0
 30
0.0
  3
*U8
  1

  0
TEXT
  5
12F1
  8
250
 10
125.0
 20
-7.2666666666666853
 30
0.0
 40
2.7999999999999989
  1
\U+2205
 50
90.0
  0
TEXT
  5
12F2
  8
250
 10
125.0
 20
-4.733333333333352
 30
0.0
 40
2.799999999999998
  1
2.480
 50
90.0
  0
ENDBLK
  5
12F4
  8
0
  0
ENDSEC
  0
SECTION
  2
ENTITIES
  0
INSERT
  5
6E6
  8
245
  2
矢印なし
 10
175.6238269664376901
 20
90.5512357169059783
 30
0.0
  0
INSERT
  5
B58
  8
240
  2
*U4
 10
0.0
 20
0.0
 30
0.0
  0
LINE
  5
B5F
  8
245
  6
CENTER2
 10
-69.25
 20
0.0
 30
0.0
 11
109.2000000000002018
 21
-0.0000000000000437
 31
0.0
  0
LINE
  5
B62
  8
240
  6
CONTINUOUS
 10
1.0
 20
22.2250000000000014
 30
0.0
 11
1.0
 21
31.75
 31
0.0
  0
LINE
  5
B64
  8
240
  6
CONTINUOUS
 10
0.0
 20
22.2250000000000014
 30
0.0
 11
-68.2499999999999858
 21
12.2718750014768396
 31
0.0
  0
LINE
  5
B65
  8
240
  6
CONTINUOUS
 10
0.0
 20
-22.2250000000000014
 30
0.0
 11
-68.2500000000000142
 21
-12.2718750014768307
 31
0.0
  0
LINE
  5
B66
  8
240
  6
CONTINUOUS
 10
-68.2500000000000142
 20
-12.2718750014768307
 30
0.0
 11
-68.2499999999999858
 21
12.2718750014768396
 31
0.0
  0
LINE
  5
B67
  8
241
  6
CONTINUOUS
 10
1.0
 20
-22.2250000000000014
 30
0.0
 11
1.0
 21
22.2250000000000014
 31
0.0
  0
LINE
  5
B68
  8
241
  6
CONTINUOUS
 10
0.0
 20
-22.2250000000000014
 30
0.0
 11
0.0
 21
22.2250000000000014
 31
0.0
  0
LINE
  5
B69
  8
241
  6
CONTINUOUS
 10
19.0500000000000291
 20
-7.999999999999547
 30
0.0
 11
19.0500000000000291
 21
-29.2000000000002302
 31
0.0
  0
LINE
  5
B6A
  8
240
  6
CONTINUOUS
 10
1.0
 20
-31.75
 30
0.0
 11
7.593833230000012
 21
-31.75
 31
0.0
  0
LINE
  5
B6B
  8
240
  6
CONTINUOUS
 10
1.0
 20
-22.2250000000000014
 30
0.0
 11
1.0
 21
-31.75
 31
0.0
  0
LINE
  5
B6C
  8
240
  6
CONTINUOUS
 10
0.0
 20
-22.2250000000000014
 30
0.0
 11
1.0
 21
-22.2250000000000014
 31
0.0
  0
LINE
  5
B6D
  8
240
  6
CONTINUOUS
 10
19.0500000000000185
 20
-31.7500000000000107
 30
0.0
 11
19.0500000000000611
 21
-29.2000000000002089
 31
0.0
  0
LINE
  5
B6F
  8
240
  6
CONTINUOUS
 10
14.6461667690756201
 20
-31.7499999999999893
 30
0.0
 11
19.0500000000000185
 21
-31.7500000000000107
 31
0.0
  0
LINE
  5
B70
  8
241
  6
CONTINUOUS
 10
19.0499999999999297
 20
7.9998438434685069
 30
0.0
 11
19.0499999999999297
 21
29.2000000000001982
 31
0.0
  0
LINE
  5
B71
  8
240
  6
CONTINUOUS
 10
0.0
 20
22.2250000000000014
 30
0.0
 11
1.0
 21
22.2250000000000014
 31
0.0
  0
LINE
  5
B72
  8
240
  6
CONTINUOUS
 10
1.0
 20
31.75
 30
0.0
 11
7.5938332309244601
 21
31.75
 31
0.0
  0
LINE
  5
B73
  8
240
  6
CONTINUOUS
 10
14.6461667690756308
 20
31.7499999999999893
 30
0.0
 11
19.0500000000000504
 21
31.7500000000000107
 31
0.0
  0
LINE
  5
B74
  8
241
  6
CONTINUOUS
 10
7.5938332309244414
 20
-31.7500000000000284
 30
0.0
 11
7.5938332309244414
 21
-7.9999999999998206
 31
0.0
  0
LINE
  5
B75
  8
241
  6
CONTINUOUS
 10
9.2000000000000153
 20
-28.1800000000000317
 30
0.0
 11
9.2000000000000153
 21
-7.9999999999997797
 31
0.0
  0
LINE
  5
B76
  8
241
  6
CONTINUOUS
 10
13.0399999999999903
 20
-28.1800000000000317
 30
0.0
 11
13.0399999999999903
 21
-7.99999999999969
 31
0.0
  0
LINE
  5
B77
  8
241
  6
CONTINUOUS
 10
14.6461667690756201
 20
-31.7499999999999893
 30
0.0
 11
14.6461667690756201
 21
-7.9999999999996509
 31
0.0
  0
LINE
  5
B78
  8
240
  6
CONTINUOUS
 10
14.6461667690754993
 20
-31.7500000000000284
 30
0.0
 11
13.0399999999999903
 21
-28.9680375505324683
 31
0.0
  0
LINE
  5
B79
  8
240
  6
CONTINUOUS
 10
9.2000000000000153
 20
-28.1800000000000317
 30
0.0
 11
13.0399999999999903
 21
-28.1800000000000317
 31
0.0
  0
LINE
  5
B7A
  8
240
  6
CONTINUOUS
 10
7.5938332309243881
 20
-31.7500000000000284
 30
0.0
 11
9.2000000000000153
 21
-28.9680375505323084
 31
0.0
  0
LINE
  5
B7B
  8
240
  6
CONTINUOUS
 10
9.2000000000000153
 20
-28.9680375505323084
 30
0.0
 11
9.2000000000000153
 21
-28.1800000000000317
 31
0.0
  0
LINE
  5
B7C
  8
240
  6
CONTINUOUS
 10
13.0399999999999796
 20
-28.9680375505323084
 30
0.0
 11
13.0399999999999796
 21
-28.1800000000000317
 31
0.0
  0
LINE
  5
B7D
  8
241
  6
CONTINUOUS
 10
7.5938332309244601
 20
31.75
 30
0.0
 11
7.5938332309244503
 21
8.0000000000002451
 31
0.0
  0
LINE
  5
B7E
  8
241
  6
CONTINUOUS
 10
9.2000000000000277
 20
28.1799999999999891
 30
0.0
 11
9.2000000000000153
 21
8.0000000000003464
 31
0.0
  0
LINE
  5
B7F
  8
241
  6
CONTINUOUS
 10
13.0399999999999991
 20
28.1799999999999891
 30
0.0
 11
13.0399999999999903
 21
8.0000000000005862
 31
0.0
  0
LINE
  5
B80
  8
241
  6
CONTINUOUS
 10
14.6461667690756308
 20
31.7499999999999893
 30
0.0
 11
14.6461667690756201
 21
8.0000000000006892
 31
0.0
  0
LINE
  5
B81
  8
240
  6
CONTINUOUS
 10
14.6461667690755206
 20
31.7499999999999893
 30
0.0
 11
13.0399999999999991
 21
28.9680375505324292
 31
0.0
  0
LINE
  5
B82
  8
240
  6
CONTINUOUS
 10
9.2000000000000277
 20
28.1799999999999891
 30
0.0
 11
13.0399999999999991
 21
28.1799999999999891
 31
0.0
  0
LINE
  5
B83
  8
240
  6
CONTINUOUS
 10
7.5938332309244023
 20
31.7499999999999893
 30
0.0
 11
9.2000000000000277
 21
28.9680375505322694
 31
0.0
  0
LINE
  5
B84
  8
240
  6
CONTINUOUS
 10
9.2000000000000277
 20
28.9680375505322694
 30
0.0
 11
9.2000000000000277
 21
28.1799999999999891
 31
0.0
  0
LINE
  5
B85
  8
240
  6
CONTINUOUS
 10
13.0399999999999903
 20
28.9680375505322694
 30
0.0
 11
13.0399999999999903
 21
28.1799999999999891
 31
0.0
  0
ARC
  5
B86
  8
241
  6
CONTINUOUS
 10
19.0999848011986089
 20
-0.0000000000187583
 30
0.0
 40
8.0000000000332516
 50
270.0002520929047023
 51
89.9998911466024083
  0
LINE
  5
B87
  8
241
  6
CONTINUOUS
 10
19.0999848011987901
 20
-7.9999999999995426
 30
0.0
 11
3.7000000000000002
 21
-7.9999999999999112
 31
0.0
  0
LINE
  5
B88
  8
241
  6
CONTINUOUS
 10
19.0999848011983318
 20
8.0000000000009663
 30
0.0
 11
3.7000000000000002
 21
8.0
 31
0.0
  0
TEXT
  5
B95
  8
250
  6
CONTINUOUS
 10
-57.0311058669264526
 20
-27.0895097788922214
 30
0.0
 40
2.799999999999998
  1
BCV40Y
  7
YOKO
1001
ITEMNAME
1000
LNSP3
  0
LINE
  5
B96
  8
250
  6
CONTINUOUS
 10
-40.3862186589337213
 20
-28.0895097788922108
 30
0.0
 11
-58.3862186589337071
 21
-28.0895097788922108
 31
0.0
1001
ITEMNAME
1000
LNSP2
  0
LINE
  5
B97
  8
250
  6
CONTINUOUS
 10
-35.4139049745202925
 20
-18.8136323989028291
 30
0.0
 11
-34.1249999989337169
 21
-17.2484374988922191
 31
0.0
  0
LINE
  5
B98
  8
250
  6
CONTINUOUS
 10
-34.8366036569175535
 20
-19.1470505044978907
 30
0.0
 11
-34.1249999989337169
 21
-17.2484374988922191
 31
0.0
  0
LINE
  5
B99
  8
250
  6
CONTINUOUS
 10
-34.1249999989337169
 20
-17.2484374988922191
 30
0.0
 11
-35.1252543157189194
 21
-18.9803414517003901
 31
0.0
  0
LINE
  5
B9A
  8
250
  6
CONTINUOUS
 10
-35.1252543157189194
 20
-18.9803414517003901
 30
0.0
 11
-40.3862186589337213
 21
-28.0895097788922108
 31
0.0
1001
ACAD
1000
DSTYLE
1002
{
1070
     6
1000
OPEN
1070
    41
1040
2.0
1070
    42
1040
2.0
1070
    44
1040
2.0
1070
   140
1040
4.0
1070
   343
1005
0
1002
}
  0
LINE
  5
B9B
  8
247
  6
CONTINUOUS
 10
5.4999999999999432
 20
-18.7500000000000107
 30
0.0
 11
5.5
 21
-14.1153846156700702
 31
0.0
  0
LINE
  5
B9C
  8
247
  6
CONTINUOUS
 10
3.0
 20
-17.954893499987989
 30
0.0
 11
5.0999999999160073
 21
-18.5570588100573595
 31
0.0
  0
LINE
  5
B9D
  8
247
  6
CONTINUOUS
 10
3.996153846113998
 20
-17.3251514035190617
 30
0.0
 11
3.996153846113998
 21
-18.2405360188670507
 31
0.0
  0
ARC
  5
B9E
  8
247
  6
CONTINUOUS
 10
3.3847190672940979
 20
-17.0872634019468315
 30
0.0
 40
0.3876715809326743
 50
72.9978896752922282
 51
172.9241662185135908
  0
ARC
  5
B9F
  8
247
  6
CONTINUOUS
 10
3.305223131028014
 20
-17.382477556804151
 30
0.0
 40
0.693304796535877
 50
4.7429368522022113
 51
73.8492262732667513
1001
GENIUS_GENOBJ-N-FIL_13
1002
{
1000
OWNER
1000
GEN
1002
}
1001
GENIUS_GENODEF_13
1002
{
1000
HIER
1070
     0
1002
}
1002
{
1000
MANEDIT
1070
     0
1002
}
1002
{
1000
NOSEL
1070
     0
1002
}
1002
{
1000
BEHIND
1070
     0
1002
}
1002
{
1000
OTHER
1070
     0
1002
}
1002
{
1000
REACTOR
1002
}
  0
LINE
  5
BA0
  8
247
  6
CONTINUOUS
 10
5.0999999999160073
 20
-17.6416741947093811
 30
0.0
 11
5.0999999999160073
 21
-18.5570588100573595
 31
0.0
  0
LINE
  5
BA1
  8
247
  6
CONTINUOUS
 10
3.0
 20
-17.954893499987989
 30
0.0
 11
3.0
 21
-17.03950888464
 31
0.0
  0
ARC
  5
BA2
  8
247
  6
CONTINUOUS
 10
4.3874169627678681
 20
-17.3783064762668715
 30
0.0
 40
0.394857301075386
 50
65.990941652528889
 51
172.2634434590690944
  0
ARC
  5
BA3
  8
247
  6
CONTINUOUS
 10
4.3912003273325677
 20
-17.7124466104269409
 30
0.0
 40
0.7123241612361686
 50
5.701985164259785
 51
77.2773384368220206
1001
GENIUS_GENOBJ-N-FIL_13
1002
{
1000
OWNER
1000
GEN
1002
}
1001
GENIUS_GENODEF_13
1002
{
1000
HIER
1070
     0
1002
}
1002
{
1000
MANEDIT
1070
     0
1002
}
1002
{
1000
NOSEL
1070
     0
1002
}
1002
{
1000
BEHIND
1070
     0
1002
}
1002
{
1000
OTHER
1070
     0
1002
}
1002
{
1000
REACTOR
1002
}
  0
LINE
  5
BA4
  8
247
  6
CONTINUOUS
 10
5.0999999999160073
 20
-16.6839818870633998
 30
0.0
 11
3.0
 21
-16.0818165769940293
 31
0.0
  0
LINE
  5
BA5
  8
247
  6
CONTINUOUS
 10
3.0
 20
-14.585662730908
 30
0.0
 11
3.0
 21
-14.9816783643036207
 31
0.0
  0
LINE
  5
BA6
  8
247
  6
CONTINUOUS
 10
5.0999999999160073
 20
-15.6087396539439993
 30
0.0
 11
5.0999999999160073
 21
-15.1779704231920096
 31
0.0
  0
ARC
  5
BA7
  8
247
  6
CONTINUOUS
 10
4.4582995950833562
 20
-14.38181657706998
 30
0.0
 40
1.576855057639547
 50
202.3594881415291127
 51
254.9932485428464872
  0
ARC
  5
BA8
  8
247
  6
CONTINUOUS
 10
3.5658188585381332
 20
-14.8475113661332401
 30
0.0
 40
0.6234706797009447
 50
94.9945893190752741
 51
155.1663289573039037
1001
GENIUS_GENOBJ-N-FIL_13
1002
{
1000
OWNER
1000
GEN
1002
}
1001
GENIUS_GENODEF_13
1002
{
1000
HIER
1070
     0
1002
}
1002
{
1000
MANEDIT
1070
     0
1002
}
1002
{
1000
NOSEL
1070
     0
1002
}
1002
{
1000
BEHIND
1070
     0
1002
}
1002
{
1000
OTHER
1070
     0
1002
}
1002
{
1000
REACTOR
1002
}
  0
ARC
  5
BA9
  8
247
  6
CONTINUOUS
 10
4.1621021219694381
 20
-15.44418395103283
 30
0.0
 40
0.9749472149106982
 50
15.8460965557808002
 51
82.325137004169278
  0
ARC
  5
BAA
  8
247
  6
CONTINUOUS
 10
4.3714704019710631
 20
-15.0352116387722496
 30
0.0
 40
0.9271945638692008
 50
249.7136016704968995
 51
321.7887456564109243
1001
GENIUS_GENOBJ-N-FIL_13
1002
{
1000
OWNER
1000
GEN
1002
}
1001
GENIUS_GENODEF_13
1002
{
1000
HIER
1070
     0
1002
}
1002
{
1000
MANEDIT
1070
     0
1002
}
1002
{
1000
NOSEL
1070
     0
1002
}
1002
{
1000
BEHIND
1070
     0
1002
}
1002
{
1000
OTHER
1070
     0
1002
}
1002
{
1000
REACTOR
1002
}
  0
LINE
  5
BAB
  8
247
  6
CONTINUOUS
 10
4.2923076922559726
 20
-14.9625858078159801
 30
0.0
 11
4.2923076922559726
 21
-14.4779704232199897
 31
0.0
  0
ARC
  5
BAC
  8
247
  6
CONTINUOUS
 10
4.25
 20
-18.7500000000000107
 30
0.0
 40
1.25
 50
180.0
 51
0.0
  0
LINE
  5
BAD
  8
247
  6
CONTINUOUS
 10
3.0
 20
-18.7500000000000107
 30
0.0
 11
3.0
 21
-18.3038461539140584
 31
0.0
  0
ARC
  5
BAE
  8
247
  6
CONTINUOUS
 10
4.25
 20
-14.1153846156700702
 30
0.0
 40
1.25
 50
0.0
 51
180.0
  0
LINE
  5
DE8
  8
241
  6
CONTINUOUS
 10
38.0000000000004974
 20
-31.5000000000001492
 30
0.0
 11
38.0000000000004974
 21
31.5000000000000888
 31
0.0
  0
LINE
  5
DE9
  8
241
  6
CONTINUOUS
 10
35.0000000000002771
 20
-28.5000000000002984
 30
0.0
 11
35.00000000000027
 21
28.5000000000002807
 31
0.0
  0
LINE
  5
DEA
  8
240
  6
CONTINUOUS
 10
35.0000000000003268
 20
-28.5000000000003091
 30
0.0
 11
19.7500000000000604
 21
-28.5000000000002309
 31
0.0
  0
LINE
  5
DEC
  8
240
  6
CONTINUOUS
 10
35.0000000000002771
 20
-28.5000000000002984
 30
0.0
 11
38.0000000000000568
 21
-31.5000000000001492
 31
0.0
  0
LINE
  5
DEE
  8
240
  6
CONTINUOUS
 10
104.6999999999984965
 20
-31.4999999999999893
 30
0.0
 11
38.0000000000004974
 21
-31.5000000000001492
 31
0.0
  0
LINE
  5
DF1
  8
240
  6
CONTINUOUS
 10
108.2000000000002018
 20
31.2324046599997516
 30
0.0
 11
108.2000000000002018
 21
-31.2407298800001882
 31
0.0
  0
LINE
  5
DF2
  8
241
  6
CONTINUOUS
 10
104.7000000000003013
 20
31.2407298799997513
 30
0.0
 11
104.7000000000003013
 21
-31.2407298800002202
 31
0.0
  0
LINE
  5
DF4
  8
241
  6
CONTINUOUS
 10
96.0866773951062214
 20
-30.9232921900001898
 30
0.0
 11
104.7000000000003013
 21
-14.0186947347642406
 31
0.0
  0
LINE
  5
DF5
  8
241
  6
CONTINUOUS
 10
96.0866773951062214
 20
-30.9232921900001898
 30
0.0
 11
104.7000000000003013
 21
-30.9232921900002715
 31
0.0
  0
LINE
  5
DF8
  8
240
  6
CONTINUOUS
 10
104.7000000000003013
 20
-31.2407298800002202
 30
0.0
 11
108.2000000000002018
 21
-31.2407298800001882
 31
0.0
  0
LINE
  5
DF9
  8
240
  6
CONTINUOUS
 10
104.7000000000003013
 20
-31.24072988000027
 30
0.0
 11
104.6999999999984965
 21
-31.4999999999999893
 31
0.0
  0
LINE
  5
DFB
  8
241
  6
CONTINUOUS
 10
104.7000000000003013
 20
-2.503966520000259
 30
0.0
 11
108.2000000000002018
 21
-2.503966520000259
 31
0.0
  0
LINE
  5
DFC
  8
241
  6
CONTINUOUS
 10
104.7000000000003013
 20
2.496033479999737
 30
0.0
 11
108.2000000000002018
 21
2.496033479999737
 31
0.0
  0
LINE
  5
DFD
  8
241
  6
CONTINUOUS
 10
96.0866773951062214
 20
30.9232921899997386
 30
0.0
 11
104.7000000000003013
 21
14.0186947347637592
 31
0.0
  0
LINE
  5
E01
  8
241
  6
CONTINUOUS
 10
96.0866773951062214
 20
30.9232921899997386
 30
0.0
 11
104.7000000000003013
 21
30.9232921899997386
 31
0.0
  0
LINE
  5
E03
  8
240
  6
CONTINUOUS
 10
104.7000000000003013
 20
31.2324046599997516
 30
0.0
 11
108.2000000000002018
 21
31.2324046599997516
 31
0.0
  0
LINE
  5
E06
  8
240
  6
CONTINUOUS
 10
19.0500000000000291
 20
31.7499999999999716
 30
0.0
 11
19.0500000000000611
 21
29.2000000000001911
 31
0.0
  0
LINE
  5
E07
  8
240
  6
CONTINUOUS
 10
35.00000000000027
 20
28.5000000000002807
 30
0.0
 11
19.7500000000000604
 21
28.500000000000199
 31
0.0
  0
LINE
  5
E09
  8
240
  6
CONTINUOUS
 10
35.0000000000003482
 20
28.5000000000002807
 30
0.0
 11
38.0000000000000924
 21
31.5000000000000888
 31
0.0
  0
LINE
  5
E0D
  8
240
  6
CONTINUOUS
 10
104.6999999999984965
 20
31.4999999999998899
 30
0.0
 11
38.0000000000004974
 21
31.5000000000000888
 31
0.0
  0
LINE
  5
E0E
  8
240
  6
CONTINUOUS
 10
104.7000000000003013
 20
31.2407298800001811
 30
0.0
 11
104.6999999999984965
 21
31.4999999999998899
 31
0.0
  0
INSERT
  5
E33
  8
240
  2
*U5
 10
0.0
 20
0.0
 30
0.0
1001
ACAD
1000
DSTYLE
1002
{
1070
    42
1040
0.5
1070
    44
1040
1.0
1070
   140
1040
2.799999999999998
1002
}
  0
INSERT
  5
E34
  8
240
  2
*U6
 10
0.0
 20
0.0
 30
0.0
  0
LINE
  5
E35
  8
250
  6
CONTINUOUS
 10
111.8603222127593
 20
48.9302336132043365
 30
0.0
 11
124.2603222127593057
 21
48.9302336132043365
 31
0.0
1001
ITEMNAME
1000
LNSP2
  0
LINE
  5
E69
  8
250
  6
CONTINUOUS
 10
0.0
 20
22.7250000000000014
 30
0.0
 11
0.0000000000000017
 21
50.0
 31
0.0
  0
LINE
  5
E6A
  8
250
  6
CONTINUOUS
 10
104.6999999999984965
 20
31.9999999999998899
 30
0.0
 11
104.6999999999984965
 21
50.0
 31
0.0
  0
LINE
  5
E6B
  8
250
  6
CONTINUOUS
 10
2.0
 20
49.0
 30
0.0
 11
102.6999999999984965
 21
49.0
 31
0.0
  0
INSERT
  5
E6C
  8
250
  6
CONTINUOUS
  2
_OPEN
 10
0.0000000000000016
 20
49.0
 30
0.0
 41
2.0
 42
2.0
 43
2.0
 50
180.0
  0
INSERT
  5
E6D
  8
250
  6
CONTINUOUS
  2
_OPEN
 10
104.6999999999984965
 20
49.0
 30
0.0
 41
2.0
 42
2.0
 43
2.0
  0
INSERT
  5
E6E
  8
240
  2
*U7
 10
0.0
 20
0.0
 30
0.0
  0
LINE
  5
E6F
  8
250
  6
CONTINUOUS
 10
105.1999999999984965
 20
-31.4999999999999893
 30
0.0
 11
127.0
 21
-31.4999999999999893
 31
0.0
  0
LINE
  5
E70
  8
250
  6
CONTINUOUS
 10
105.1999999999984965
 20
31.4999999999998899
 30
0.0
 11
127.0
 21
31.4999999999998899
 31
0.0
  0
LINE
  5
E71
  8
250
  6
CONTINUOUS
 10
126.0
 20
-29.4999999999999787
 30
0.0
 11
126.0
 21
29.4999999999998792
 31
0.0
  0
INSERT
  5
E72
  8
250
  6
CONTINUOUS
  2
_OPEN
 10
126.0
 20
-31.4999999999999893
 30
0.0
 41
2.0
 42
2.0
 43
2.0
 50
270.0
  0
INSERT
  5
E73
  8
250
  6
CONTINUOUS
  2
_OPEN
 10
126.0
 20
31.4999999999998899
 30
0.0
 41
2.0
 42
2.0
 43
2.0
 50
90.0
  0
INSERT
  5
E74
  8
240
  2
*U8
 10
0.0
 20
0.0
 30
0.0
  0
POLYLINE
  8
241
  5
12F5
  66
     1
 10
0.000000
 20
0.000000
 30
0.000000
  70
     8
  0
VERTEX
  8
241
  5
12F6
 10
100.576
 20
22.0930
 30
0.000000
  70
    32
  0
VERTEX
  8
241
  5
12F7
 10
100.526
 20
21.9861
 30
0.000000
  70
    32
  0
VERTEX
  8
241
  5
12F8
 10
100.476
 20
21.8792
 30
0.000000
  70
    32
  0
VERTEX
  8
241
  5
12F9
 10
100.426
 20
21.7723
 30
0.000000
  70
    32
  0
VERTEX
  8
241
  5
12FA
 10
100.377
 20
21.6654
 30
0.000000
  70
    32
  0
VERTEX
  8
241
  5
12FB
 10
100.327
 20
21.5584
 30
0.000000
  70
    32
  0
VERTEX
  8
241
  5
12FC
 10
100.277
 20
21.4514
 30
0.000000
  70
    32
  0
VERTEX
  8
241
  5
12FD
 10
100.228
 20
21.3443
 30
0.000000
  70
    32
  0
VERTEX
  8
241
  5
12FE
 10
100.178
 20
21.2372
 30
0.000000
  70
    32
  0
VERTEX
  8
241
  5
12FF
 10
100.129
 20
21.1300
 30
0.000000
  70
    32
  0
VERTEX
  8
241
  5
1300
 10
100.080
 20
21.0227
 30
0.000000
  70
    32
  0
VERTEX
  8
241
  5
1301
 10
100.032
 20
20.9153
 30
0.000000
  70
    32
  0
VERTEX
  8
241
  5
1302
 10
99.9834
 20
20.8079
 30
0.000000
  70
    32
  0
VERTEX
  8
241
  5
1303
 10
99.9354
 20
20.7003
 30
0.000000
  70
    32
  0
VERTEX
  8
241
  5
1304
 10
99.8876
 20
20.5927
 30
0.000000
  70
    32
  0
VERTEX
  8
241
  5
1305
 10
99.8403
 20
20.4849
 30
0.000000
  70
    32
  0
VERTEX
  8
241
  5
1306
 10
99.7933
 20
20.3770
 30
0.000000
  70
    32
  0
VERTEX
  8
241
  5
1307
 10
99.7467
 20
20.2689
 30
0.000000
  70
    32
  0
VERTEX
  8
241
  5
1308
 10
99.7005
 20
20.1607
 30
0.000000
  70
    32
  0
VERTEX
  8
241
  5
1309
 10
99.6548
 20
20.0524
 30
0.000000
  70
    32
  0
VERTEX
  8
241
  5
130A
 10
99.6095
 20
19.9439
 30
0.000000
  70
    32
  0
VERTEX
  8
241
  5
130B
 10
99.5648
 20
19.8352
 30
0.000000
  70
    32
  0
VERTEX
  8
241
  5
130C
 10
99.5206
 20
19.7264
 30
0.000000
  70
    32
  0
VERTEX
  8
241
  5
130D
 10
99.4769
 20
19.6173
 30
0.000000
  70
    32
  0
VERTEX
  8
241
  5
130E
 10
99.4339
 20
19.5081
 30
0.000000
  70
    32
  0
VERTEX
  8
241
  5
130F
 10
99.3914
 20
19.3987
 30
0.000000
  70
    32
  0
VERTEX
  8
241
  5
1310
 10
99.3495
 20
19.2890
 30
0.000000
  70
    32
  0
VERTEX
  8
241
  5
1311
 10
99.3083
 20
19.1791
 30
0.000000
  70
    32
  0
VERTEX
  8
241
  5
1312
 10
99.2678
 20
19.0690
 30
0.000000
  70
    32
  0
VERTEX
  8
241
  5
1313
 10
99.2280
 20
18.9587
 30
0.000000
  70
    32
  0
VERTEX
  8
241
  5
1314
 10
99.1889
 20
18.8481
 30
0.000000
  70
    32
  0
VERTEX
  8
241
  5
1315
 10
99.1506
 20
18.7373
 30
0.000000
  70
    32
  0
VERTEX
  8
241
  5
1316
 10
99.1131
 20
18.6262
 30
0.000000
  70
    32
  0
VERTEX
  8
241
  5
1317
 10
99.0763
 20
18.5148
 30
0.000000
  70
    32
  0
VERTEX
  8
241
  5
1318
 10
99.0403
 20
18.4032
 30
0.000000
  70
    32
  0
VERTEX
  8
241
  5
1319
 10
99.0050
 20
18.2913
 30
0.000000
  70
    32
  0
VERTEX
  8
241
  5
131A
 10
98.9705
 20
18.1792
 30
0.000000
  70
    32
  0
VERTEX
  8
241
  5
131B
 10
98.9368
 20
18.0669
 30
0.000000
  70
    32
  0
VERTEX
  8
241
  5
131C
 10
98.9037
 20
17.9543
 30
0.000000
  70
    32
  0
VERTEX
  8
241
  5
131D
 10
98.8714
 20
17.8414
 30
0.000000
  70
    32
  0
VERTEX
  8
241
  5
131E
 10
98.8397
 20
17.7284
 30
0.000000
  70
    32
  0
VERTEX
  8
241
  5
131F
 10
98.8087
 20
17.6152
 30
0.000000
  70
    32
  0
VERTEX
  8
241
  5
1320
 10
98.7785
 20
17.5017
 30
0.000000
  70
    32
  0
VERTEX
  8
241
  5
1321
 10
98.7488
 20
17.3880
 30
0.000000
  70
    32
  0
VERTEX
  8
241
  5
1322
 10
98.7198
 20
17.2741
 30
0.000000
  70
    32
  0
VERTEX
  8
241
  5
1323
 10
98.6915
 20
17.1601
 30
0.000000
  70
    32
  0
VERTEX
  8
241
  5
1324
 10
98.6638
 20
17.0458
 30
0.000000
  70
    32
  0
VERTEX
  8
241
  5
1325
 10
98.6367
 20
16.9314
 30
0.000000
  70
    32
  0
VERTEX
  8
241
  5
1326
 10
98.6102
 20
16.8168
 30
0.000000
  70
    32
  0
VERTEX
  8
241
  5
1327
 10
98.5843
 20
16.7020
 30
0.000000
  70
    32
  0
VERTEX
  8
241
  5
1328
 10
98.5590
 20
16.5870
 30
0.000000
  70
    32
  0
VERTEX
  8
241
  5
1329
 10
98.5342
 20
16.4719
 30
0.000000
  70
    32
  0
VERTEX
  8
241
  5
132A
 10
98.5100
 20
16.3566
 30
0.000000
  70
    32
  0
VERTEX
  8
241
  5
132B
 10
98.4863
 20
16.2412
 30
0.000000
  70
    32
  0
VERTEX
  8
241
  5
132C
 10
98.4632
 20
16.1256
 30
0.000000
  70
    32
  0
VERTEX
  8
241
  5
132D
 10
98.4406
 20
16.0099
 30
0.000000
  70
    32
  0
VERTEX
  8
241
  5
132E
 10
98.4185
 20
15.8941
 30
0.000000
  70
    32
  0
VERTEX
  8
241
  5
132F
 10
98.3969
 20
15.7781
 30
0.000000
  70
    32
  0
VERTEX
  8
241
  5
1330
 10
98.3758
 20
15.6621
 30
0.000000
  70
    32
  0
VERTEX
  8
241
  5
1331
 10
98.3552
 20
15.5458
 30
0.000000
  70
    32
  0
VERTEX
  8
241
  5
1332
 10
98.3350
 20
15.4295
 30
0.000000
  70
    32
  0
VERTEX
  8
241
  5
1333
 10
98.3153
 20
15.3131
 30
0.000000
  70
    32
  0
VERTEX
  8
241
  5
1334
 10
98.2960
 20
15.1966
 30
0.000000
  70
    32
  0
VERTEX
  8
241
  5
1335
 10
98.2772
 20
15.0800
 30
0.000000
  70
    32
  0
VERTEX
  8
241
  5
1336
 10
98.2587
 20
14.9633
 30
0.000000
  70
    32
  0
VERTEX
  8
241
  5
1337
 10
98.2407
 20
14.8465
 30
0.000000
  70
    32
  0
VERTEX
  8
241
  5
1338
 10
98.2231
 20
14.7296
 30
0.000000
  70
    32
  0
VERTEX
  8
241
  5
1339
 10
98.2058
 20
14.6127
 30
0.000000
  70
    32
  0
VERTEX
  8
241
  5
133A
 10
98.1889
 20
14.4957
 30
0.000000
  70
    32
  0
VERTEX
  8
241
  5
133B
 10
98.1724
 20
14.3787
 30
0.000000
  70
    32
  0
VERTEX
  8
241
  5
133C
 10
98.1562
 20
14.2615
 30
0.000000
  70
    32
  0
VERTEX
  8
241
  5
133D
 10
98.1404
 20
14.1444
 30
0.000000
  70
    32
  0
VERTEX
  8
241
  5
133E
 10
98.1249
 20
14.0272
 30
0.000000
  70
    32
  0
VERTEX
  8
241
  5
133F
 10
98.1097
 20
13.9099
 30
0.000000
  70
    32
  0
VERTEX
  8
241
  5
1340
 10
98.0947
 20
13.7927
 30
0.000000
  70
    32
  0
VERTEX
  8
241
  5
1341
 10
98.0801
 20
13.6753
 30
0.000000
  70
    32
  0
VERTEX
  8
241
  5
1342
 10
98.0658
 20
13.5580
 30
0.000000
  70
    32
  0
VERTEX
  8
241
  5
1343
 10
98.0517
 20
13.4407
 30
0.000000
  70
    32
  0
VERTEX
  8
241
  5
1344
 10
98.0379
 20
13.3233
 30
0.000000
  70
    32
  0
VERTEX
  8
241
  5
1345
 10
98.0243
 20
13.2060
 30
0.000000
  70
    32
  0
VERTEX
  8
241
  5
1346
 10
98.0109
 20
13.0886
 30
0.000000
  70
    32
  0
VERTEX
  8
241
  5
1347
 10
97.9978
 20
12.9713
 30
0.000000
  70
    32
  0
VERTEX
  8
241
  5
1348
 10
97.9849
 20
12.8539
 30
0.000000
  70
    32
  0
VERTEX
  8
241
  5
1349
 10
97.9722
 20
12.7366
 30
0.000000
  70
    32
  0
VERTEX
  8
241
  5
134A
 10
97.9597
 20
12.6193
 30
0.000000
  70
    32
  0
VERTEX
  8
241
  5
134B
 10
97.9474
 20
12.5019
 30
0.000000
  70
    32
  0
VERTEX
  8
241
  5
134C
 10
97.9353
 20
12.3846
 30
0.000000
  70
    32
  0
VERTEX
  8
241
  5
134D
 10
97.9235
 20
12.2673
 30
0.000000
  70
    32
  0
VERTEX
  8
241
  5
134E
 10
97.9118
 20
12.1500
 30
0.000000
  70
    32
  0
VERTEX
  8
241
  5
134F
 10
97.9004
 20
12.0327
 30
0.000000
  70
    32
  0
VERTEX
  8
241
  5
1350
 10
97.8891
 20
11.9154
 30
0.000000
  70
    32
  0
VERTEX
  8
241
  5
1351
 10
97.8781
 20
11.7980
 30
0.000000
  70
    32
  0
VERTEX
  8
241
  5
1352
 10
97.8672
 20
11.6807
 30
0.000000
  70
    32
  0
VERTEX
  8
241
  5
1353
 10
97.8566
 20
11.5634
 30
0.000000
  70
    32
  0
VERTEX
  8
241
  5
1354
 10
97.8461
 20
11.4461
 30
0.000000
  70
    32
  0
VERTEX
  8
241
  5
1355
 10
97.8358
 20
11.3288
 30
0.000000
  70
    32
  0
VERTEX
  8
241
  5
1356
 10
97.8257
 20
11.2116
 30
0.000000
  70
    32
  0
VERTEX
  8
241
  5
1357
 10
97.8158
 20
11.0943
 30
0.000000
  70
    32
  0
VERTEX
  8
241
  5
1358
 10
97.8061
 20
10.9770
 30
0.000000
  70
    32
  0
VERTEX
  8
241
  5
1359
 10
97.7966
 20
10.8597
 30
0.000000
  70
    32
  0
VERTEX
  8
241
  5
135A
 10
97.7872
 20
10.7424
 30
0.000000
  70
    32
  0
VERTEX
  8
241
  5
135B
 10
97.7780
 20
10.6251
 30
0.000000
  70
    32
  0
VERTEX
  8
241
  5
135C
 10
97.7690
 20
10.5078
 30
0.000000
  70
    32
  0
VERTEX
  8
241
  5
135D
 10
97.7602
 20
10.3905
 30
0.000000
  70
    32
  0
VERTEX
  8
241
  5
135E
 10
97.7515
 20
10.2732
 30
0.000000
  70
    32
  0
VERTEX
  8
241
  5
135F
 10
97.7431
 20
10.1559
 30
0.000000
  70
    32
  0
VERTEX
  8
241
  5
1360
 10
97.7347
 20
10.0386
 30
0.000000
  70
    32
  0
VERTEX
  8
241
  5
1361
 10
97.7266
 20
9.92136
 30
0.000000
  70
    32
  0
VERTEX
  8
241
  5
1362
 10
97.7186
 20
9.80406
 30
0.000000
  70
    32
  0
VERTEX
  8
241
  5
1363
 10
97.7107
 20
9.68677
 30
0.000000
  70
    32
  0
VERTEX
  8
241
  5
1364
 10
97.7031
 20
9.56947
 30
0.000000
  70
    32
  0
VERTEX
  8
241
  5
1365
 10
97.6956
 20
9.45217
 30
0.000000
  70
    32
  0
VERTEX
  8
241
  5
1366
 10
97.6882
 20
9.33487
 30
0.000000
  70
    32
  0
VERTEX
  8
241
  5
1367
 10
97.6810
 20
9.21757
 30
0.000000
  70
    32
  0
VERTEX
  8
241
  5
1368
 10
97.6739
 20
9.10026
 30
0.000000
  70
    32
  0
VERTEX
  8
241
  5
1369
 10
97.6670
 20
8.98296
 30
0.000000
  70
    32
  0
VERTEX
  8
241
  5
136A
 10
97.6602
 20
8.86564
 30
0.000000
  70
    32
  0
VERTEX
  8
241
  5
136B
 10
97.6536
 20
8.74833
 30
0.000000
  70
    32
  0
VERTEX
  8
241
  5
136C
 10
97.6471
 20
8.63101
 30
0.000000
  70
    32
  0
VERTEX
  8
241
  5
136D
 10
97.6408
 20
8.51369
 30
0.000000
  70
    32
  0
VERTEX
  8
241
  5
136E
 10
97.6346
 20
8.39636
 30
0.000000
  70
    32
  0
VERTEX
  8
241
  5
136F
 10
97.6285
 20
8.27903
 30
0.000000
  70
    32
  0
VERTEX
  8
241
  5
1370
 10
97.6226
 20
8.16169
 30
0.000000
  70
    32
  0
VERTEX
  8
241
  5
1371
 10
97.6168
 20
8.04435
 30
0.000000
  70
    32
  0
VERTEX
  8
241
  5
1372
 10
97.6111
 20
7.92700
 30
0.000000
  70
    32
  0
VERTEX
  8
241
  5
1373
 10
97.6056
 20
7.80965
 30
0.000000
  70
    32
  0
VERTEX
  8
241
  5
1374
 10
97.6001
 20
7.69229
 30
0.000000
  70
    32
  0
VERTEX
  8
241
  5
1375
 10
97.5948
 20
7.57493
 30
0.000000
  70
    32
  0
VERTEX
  8
241
  5
1376
 10
97.5896
 20
7.45756
 30
0.000000
  70
    32
  0
VERTEX
  8
241
  5
1377
 10
97.5846
 20
7.34018
 30
0.000000
  70
    32
  0
VERTEX
  8
241
  5
1378
 10
97.5796
 20
7.22280
 30
0.000000
  70
    32
  0
VERTEX
  8
241
  5
1379
 10
97.5748
 20
7.10540
 30
0.000000
  70
    32
  0
VERTEX
  8
241
  5
137A
 10
97.5701
 20
6.98801
 30
0.000000
  70
    32
  0
VERTEX
  8
241
  5
137B
 10
97.5655
 20
6.87060
 30
0.000000
  70
    32
  0
VERTEX
  8
241
  5
137C
 10
97.5610
 20
6.75319
 30
0.000000
  70
    32
  0
VERTEX
  8
241
  5
137D
 10
97.5566
 20
6.63577
 30
0.000000
  70
    32
  0
VERTEX
  8
241
  5
137E
 10
97.5523
 20
6.51834
 30
0.000000
  70
    32
  0
VERTEX
  8
241
  5
137F
 10
97.5481
 20
6.40090
 30
0.000000
  70
    32
  0
VERTEX
  8
241
  5
1380
 10
97.5440
 20
6.28345
 30
0.000000
  70
    32
  0
VERTEX
  8
241
  5
1381
 10
97.5400
 20
6.16600
 30
0.000000
  70
    32
  0
VERTEX
  8
241
  5
1382
 10
97.5361
 20
6.04853
 30
0.000000
  70
    32
  0
VERTEX
  8
241
  5
1383
 10
97.5323
 20
5.93106
 30
0.000000
  70
    32
  0
VERTEX
  8
241
  5
1384
 10
97.5286
 20
5.81358
 30
0.000000
  70
    32
  0
VERTEX
  8
241
  5
1385
 10
97.5250
 20
5.69609
 30
0.000000
  70
    32
  0
VERTEX
  8
241
  5
1386
 10
97.5215
 20
5.57859
 30
0.000000
  70
    32
  0
VERTEX
  8
241
  5
1387
 10
97.5180
 20
5.46109
 30
0.000000
  70
    32
  0
VERTEX
  8
241
  5
1388
 10
97.5147
 20
5.34358
 30
0.000000
  70
    32
  0
VERTEX
  8
241
  5
1389
 10
97.5115
 20
5.22606
 30
0.000000
  70
    32
  0
VERTEX
  8
241
  5
138A
 10
97.5083
 20
5.10853
 30
0.000000
  70
    32
  0
VERTEX
  8
241
  5
138B
 10
97.5052
 20
4.99100
 30
0.000000
  70
    32
  0
VERTEX
  8
241
  5
138C
 10
97.5023
 20
4.87346
 30
0.000000
  70
    32
  0
VERTEX
  8
241
  5
138D
 10
97.4994
 20
4.75591
 30
0.000000
  70
    32
  0
VERTEX
  8
241
  5
138E
 10
97.4966
 20
4.63836
 30
0.000000
  70
    32
  0
VERTEX
  8
241
  5
138F
 10
97.4939
 20
4.52080
 30
0.000000
  70
    32
  0
VERTEX
  8
241
  5
1390
 10
97.4912
 20
4.40323
 30
0.000000
  70
    32
  0
VERTEX
  8
241
  5
1391
 10
97.4887
 20
4.28566
 30
0.000000
  70
    32
  0
VERTEX
  8
241
  5
1392
 10
97.4862
 20
4.16809
 30
0.000000
  70
    32
  0
VERTEX
  8
241
  5
1393
 10
97.4839
 20
4.05050
 30
0.000000
  70
    32
  0
VERTEX
  8
241
  5
1394
 10
97.4816
 20
3.93292
 30
0.000000
  70
    32
  0
VERTEX
  8
241
  5
1395
 10
97.4793
 20
3.81533
 30
0.000000
  70
    32
  0
VERTEX
  8
241
  5
1396
 10
97.4772
 20
3.69773
 30
0.000000
  70
    32
  0
VERTEX
  8
241
  5
1397
 10
97.4752
 20
3.58013
 30
0.000000
  70
    32
  0
VERTEX
  8
241
  5
1398
 10
97.4732
 20
3.46252
 30
0.000000
  70
    32
  0
VERTEX
  8
241
  5
1399
 10
97.4713
 20
3.34491
 30
0.000000
  70
    32
  0
VERTEX
  8
241
  5
139A
 10
97.4695
 20
3.22730
 30
0.000000
  70
    32
  0
VERTEX
  8
241
  5
139B
 10
97.4677
 20
3.10968
 30
0.000000
  70
    32
  0
VERTEX
  8
241
  5
139C
 10
97.4660
 20
2.99206
 30
0.000000
  70
    32
  0
VERTEX
  8
241
  5
139D
 10
97.4644
 20
2.87444
 30
0.000000
  70
    32
  0
VERTEX
  8
241
  5
139E
 10
97.4629
 20
2.75681
 30
0.000000
  70
    32
  0
VERTEX
  8
241
  5
139F
 10
97.4615
 20
2.63918
 30
0.000000
  70
    32
  0
VERTEX
  8
241
  5
13A0
 10
97.4601
 20
2.52154
 30
0.000000
  70
    32
  0
VERTEX
  8
241
  5
13A1
 10
97.4588
 20
2.40391
 30
0.000000
  70
    32
  0
VERTEX
  8
241
  5
13A2
 10
97.4575
 20
2.28627
 30
0.000000
  70
    32
  0
VERTEX
  8
241
  5
13A3
 10
97.4564
 20
2.16862
 30
0.000000
  70
    32
  0
VERTEX
  8
241
  5
13A4
 10
97.4553
 20
2.05098
 30
0.000000
  70
    32
  0
VERTEX
  8
241
  5
13A5
 10
97.4542
 20
1.93334
 30
0.000000
  70
    32
  0
VERTEX
  8
241
  5
13A6
 10
97.4533
 20
1.81569
 30
0.000000
  70
    32
  0
VERTEX
  8
241
  5
13A7
 10
97.4524
 20
1.69804
 30
0.000000
  70
    32
  0
VERTEX
  8
241
  5
13A8
 10
97.4515
 20
1.58039
 30
0.000000
  70
    32
  0
VERTEX
  8
241
  5
13A9
 10
97.4508
 20
1.46274
 30
0.000000
  70
    32
  0
VERTEX
  8
241
  5
13AA
 10
97.4501
 20
1.34509
 30
0.000000
  70
    32
  0
VERTEX
  8
241
  5
13AB
 10
97.4494
 20
1.22743
 30
0.000000
  70
    32
  0
VERTEX
  8
241
  5
13AC
 10
97.4488
 20
1.10978
 30
0.000000
  70
    32
  0
VERTEX
  8
241
  5
13AD
 10
97.4483
 20
0.992125
 30
0.000000
  70
    32
  0
VERTEX
  8
241
  5
13AE
 10
97.4478
 20
0.874470
 30
0.000000
  70
    32
  0
VERTEX
  8
241
  5
13AF
 10
97.4474
 20
0.756816
 30
0.000000
  70
    32
  0
VERTEX
  8
241
  5
13B0
 10
97.4471
 20
0.639162
 30
0.000000
  70
    32
  0
VERTEX
  8
241
  5
13B1
 10
97.4468
 20
0.521509
 30
0.000000
  70
    32
  0
VERTEX
  8
241
  5
13B2
 10
97.4466
 20
0.403855
 30
0.000000
  70
    32
  0
VERTEX
  8
241
  5
13B3
 10
97.4464
 20
0.286203
 30
0.000000
  70
    32
  0
VERTEX
  8
241
  5
13B4
 10
97.4463
 20
0.168552
 30
0.000000
  70
    32
  0
VERTEX
  8
241
  5
13B5
 10
97.4462
 20
0.0509016
 30
0.000000
  70
    32
  0
VERTEX
  8
241
  5
13B6
 10
97.4462
 20
-0.0667472
 30
0.000000
  70
    32
  0
VERTEX
  8
241
  5
13B7
 10
97.4463
 20
-0.184395
 30
0.000000
  70
    32
  0
VERTEX
  8
241
  5
13B8
 10
97.4464
 20
-0.302041
 30
0.000000
  70
    32
  0
VERTEX
  8
241
  5
13B9
 10
97.4465
 20
-0.419685
 30
0.000000
  70
    32
  0
VERTEX
  8
241
  5
13BA
 10
97.4467
 20
-0.537328
 30
0.000000
  70
    32
  0
VERTEX
  8
241
  5
13BB
 10
97.4470
 20
-0.654970
 30
0.000000
  70
    32
  0
VERTEX
  8
241
  5
13BC
 10
97.4473
 20
-0.772610
 30
0.000000
  70
    32
  0
VERTEX
  8
241
  5
13BD
 10
97.4477
 20
-0.890248
 30
0.000000
  70
    32
  0
VERTEX
  8
241
  5
13BE
 10
97.4481
 20
-1.00789
 30
0.000000
  70
    32
  0
VERTEX
  8
241
  5
13BF
 10
97.4486
 20
-1.12552
 30
0.000000
  70
    32
  0
VERTEX
  8
241
  5
13C0
 10
97.4492
 20
-1.24315
 30
0.000000
  70
    32
  0
VERTEX
  8
241
  5
13C1
 10
97.4498
 20
-1.36079
 30
0.000000
  70
    32
  0
VERTEX
  8
241
  5
13C2
 10
97.4505
 20
-1.47842
 30
0.000000
  70
    32
  0
VERTEX
  8
241
  5
13C3
 10
97.4513
 20
-1.59605
 30
0.000000
  70
    32
  0
VERTEX
  8
241
  5
13C4
 10
97.4521
 20
-1.71367
 30
0.000000
  70
    32
  0
VERTEX
  8
241
  5
13C5
 10
97.4530
 20
-1.83130
 30
0.000000
  70
    32
  0
VERTEX
  8
241
  5
13C6
 10
97.4540
 20
-1.94892
 30
0.000000
  70
    32
  0
VERTEX
  8
241
  5
13C7
 10
97.4550
 20
-2.06654
 30
0.000000
  70
    32
  0
VERTEX
  8
241
  5
13C8
 10
97.4561
 20
-2.18416
 30
0.000000
  70
    32
  0
VERTEX
  8
241
  5
13C9
 10
97.4572
 20
-2.30178
 30
0.000000
  70
    32
  0
VERTEX
  8
241
  5
13CA
 10
97.4585
 20
-2.41940
 30
0.000000
  70
    32
  0
VERTEX
  8
241
  5
13CB
 10
97.4598
 20
-2.53701
 30
0.000000
  70
    32
  0
VERTEX
  8
241
  5
13CC
 10
97.4611
 20
-2.65462
 30
0.000000
  70
    32
  0
VERTEX
  8
241
  5
13CD
 10
97.4626
 20
-2.77224
 30
0.000000
  70
    32
  0
VERTEX
  8
241
  5
13CE
 10
97.4641
 20
-2.88984
 30
0.000000
  70
    32
  0
VERTEX
  8
241
  5
13CF
 10
97.4657
 20
-3.00745
 30
0.000000
  70
    32
  0
VERTEX
  8
241
  5
13D0
 10
97.4674
 20
-3.12506
 30
0.000000
  70
    32
  0
VERTEX
  8
241
  5
13D1
 10
97.4691
 20
-3.24266
 30
0.000000
  70
    32
  0
VERTEX
  8
241
  5
13D2
 10
97.4710
 20
-3.36026
 30
0.000000
  70
    32
  0
VERTEX
  8
241
  5
13D3
 10
97.4729
 20
-3.47786
 30
0.000000
  70
    32
  0
VERTEX
  8
241
  5
13D4
 10
97.4749
 20
-3.59545
 30
0.000000
  70
    32
  0
VERTEX
  8
241
  5
13D5
 10
97.4769
 20
-3.71305
 30
0.000000
  70
    32
  0
VERTEX
  8
241
  5
13D6
 10
97.4791
 20
-3.83064
 30
0.000000
  70
    32
  0
VERTEX
  8
241
  5
13D7
 10
97.4813
 20
-3.94823
 30
0.000000
  70
    32
  0
VERTEX
  8
241
  5
13D8
 10
97.4836
 20
-4.06582
 30
0.000000
  70
    32
  0
VERTEX
  8
241
  5
13D9
 10
97.4860
 20
-4.18341
 30
0.000000
  70
    32
  0
VERTEX
  8
241
  5
13DA
 10
97.4885
 20
-4.30099
 30
0.000000
  70
    32
  0
VERTEX
  8
241
  5
13DB
 10
97.4911
 20
-4.41857
 30
0.000000
  70
    32
  0
VERTEX
  8
241
  5
13DC
 10
97.4937
 20
-4.53615
 30
0.000000
  70
    32
  0
VERTEX
  8
241
  5
13DD
 10
97.4965
 20
-4.65373
 30
0.000000
  70
    32
  0
VERTEX
  8
241
  5
13DE
 10
97.4993
 20
-4.77130
 30
0.000000
  70
    32
  0
VERTEX
  8
241
  5
13DF
 10
97.5022
 20
-4.88887
 30
0.000000
  70
    32
  0
VERTEX
  8
241
  5
13E0
 10
97.5052
 20
-5.00645
 30
0.000000
  70
    32
  0
VERTEX
  8
241
  5
13E1
 10
97.5083
 20
-5.12401
 30
0.000000
  70
    32
  0
VERTEX
  8
241
  5
13E2
 10
97.5115
 20
-5.24158
 30
0.000000
  70
    32
  0
VERTEX
  8
241
  5
13E3
 10
97.5148
 20
-5.35914
 30
0.000000
  70
    32
  0
VERTEX
  8
241
  5
13E4
 10
97.5182
 20
-5.47670
 30
0.000000
  70
    32
  0
VERTEX
  8
241
  5
13E5
 10
97.5217
 20
-5.59426
 30
0.000000
  70
    32
  0
VERTEX
  8
241
  5
13E6
 10
97.5252
 20
-5.71182
 30
0.000000
  70
    32
  0
VERTEX
  8
241
  5
13E7
 10
97.5289
 20
-5.82937
 30
0.000000
  70
    32
  0
VERTEX
  8
241
  5
13E8
 10
97.5326
 20
-5.94692
 30
0.000000
  70
    32
  0
VERTEX
  8
241
  5
13E9
 10
97.5365
 20
-6.06447
 30
0.000000
  70
    32
  0
VERTEX
  8
241
  5
13EA
 10
97.5405
 20
-6.18201
 30
0.000000
  70
    32
  0
VERTEX
  8
241
  5
13EB
 10
97.5445
 20
-6.29956
 30
0.000000
  70
    32
  0
VERTEX
  8
241
  5
13EC
 10
97.5487
 20
-6.41710
 30
0.000000
  70
    32
  0
VERTEX
  8
241
  5
13ED
 10
97.5529
 20
-6.53463
 30
0.000000
  70
    32
  0
VERTEX
  8
241
  5
13EE
 10
97.5573
 20
-6.65217
 30
0.000000
  70
    32
  0
VERTEX
  8
241
  5
13EF
 10
97.5618
 20
-6.76970
 30
0.000000
  70
    32
  0
VERTEX
  8
241
  5
13F0
 10
97.5663
 20
-6.88723
 30
0.000000
  70
    32
  0
VERTEX
  8
241
  5
13F1
 10
97.5710
 20
-7.00476
 30
0.000000
  70
    32
  0
VERTEX
  8
241
  5
13F2
 10
97.5758
 20
-7.12228
 30
0.000000
  70
    32
  0
VERTEX
  8
241
  5
13F3
 10
97.5807
 20
-7.23980
 30
0.000000
  70
    32
  0
VERTEX
  8
241
  5
13F4
 10
97.5857
 20
-7.35732
 30
0.000000
  70
    32
  0
VERTEX
  8
241
  5
13F5
 10
97.5908
 20
-7.47484
 30
0.000000
  70
    32
  0
VERTEX
  8
241
  5
13F6
 10
97.5960
 20
-7.59235
 30
0.000000
  70
    32
  0
VERTEX
  8
241
  5
13F7
 10
97.6013
 20
-7.70986
 30
0.000000
  70
    32
  0
VERTEX
  8
241
  5
13F8
 10
97.6068
 20
-7.82737
 30
0.000000
  70
    32
  0
VERTEX
  8
241
  5
13F9
 10
97.6123
 20
-7.94487
 30
0.000000
  70
    32
  0
VERTEX
  8
241
  5
13FA
 10
97.6180
 20
-8.06237
 30
0.000000
  70
    32
  0
VERTEX
  8
241
  5
13FB
 10
97.6237
 20
-8.17987
 30
0.000000
  70
    32
  0
VERTEX
  8
241
  5
13FC
 10
97.6296
 20
-8.29737
 30
0.000000
  70
    32
  0
VERTEX
  8
241
  5
13FD
 10
97.6356
 20
-8.41486
 30
0.000000
  70
    32
  0
VERTEX
  8
241
  5
13FE
 10
97.6418
 20
-8.53235
 30
0.000000
  70
    32
  0
VERTEX
  8
241
  5
13FF
 10
97.6480
 20
-8.64984
 30
0.000000
  70
    32
  0
VERTEX
  8
241
  5
1400
 10
97.6544
 20
-8.76732
 30
0.000000
  70
    32
  0
VERTEX
  8
241
  5
1401
 10
97.6608
 20
-8.88480
 30
0.000000
  70
    32
  0
VERTEX
  8
241
  5
1402
 10
97.6674
 20
-9.00228
 30
0.000000
  70
    32
  0
VERTEX
  8
241
  5
1403
 10
97.6742
 20
-9.11975
 30
0.000000
  70
    32
  0
VERTEX
  8
241
  5
1404
 10
97.6810
 20
-9.23721
 30
0.000000
  70
    32
  0
VERTEX
  8
241
  5
1405
 10
97.6880
 20
-9.35467
 30
0.000000
  70
    32
  0
VERTEX
  8
241
  5
1406
 10
97.6952
 20
-9.47213
 30
0.000000
  70
    32
  0
VERTEX
  8
241
  5
1407
 10
97.7025
 20
-9.58957
 30
0.000000
  70
    32
  0
VERTEX
  8
241
  5
1408
 10
97.7099
 20
-9.70701
 30
0.000000
  70
    32
  0
VERTEX
  8
241
  5
1409
 10
97.7175
 20
-9.82444
 30
0.000000
  70
    32
  0
VERTEX
  8
241
  5
140A
 10
97.7253
 20
-9.94186
 30
0.000000
  70
    32
  0
VERTEX
  8
241
  5
140B
 10
97.7332
 20
-10.0593
 30
0.000000
  70
    32
  0
VERTEX
  8
241
  5
140C
 10
97.7413
 20
-10.1767
 30
0.000000
  70
    32
  0
VERTEX
  8
241
  5
140D
 10
97.7495
 20
-10.2940
 30
0.000000
  70
    32
  0
VERTEX
  8
241
  5
140E
 10
97.7580
 20
-10.4114
 30
0.000000
  70
    32
  0
VERTEX
  8
241
  5
140F
 10
97.7666
 20
-10.5288
 30
0.000000
  70
    32
  0
VERTEX
  8
241
  5
1410
 10
97.7754
 20
-10.6461
 30
0.000000
  70
    32
  0
VERTEX
  8
241
  5
1411
 10
97.7844
 20
-10.7634
 30
0.000000
  70
    32
  0
VERTEX
  8
241
  5
1412
 10
97.7936
 20
-10.8807
 30
0.000000
  70
    32
  0
VERTEX
  8
241
  5
1413
 10
97.8030
 20
-10.9980
 30
0.000000
  70
    32
  0
VERTEX
  8
241
  5
1414
 10
97.8126
 20
-11.1153
 30
0.000000
  70
    32
  0
VERTEX
  8
241
  5
1415
 10
97.8224
 20
-11.2326
 30
0.000000
  70
    32
  0
VERTEX
  8
241
  5
1416
 10
97.8324
 20
-11.3498
 30
0.000000
  70
    32
  0
VERTEX
  8
241
  5
1417
 10
97.8426
 20
-11.4670
 30
0.000000
  70
    32
  0
VERTEX
  8
241
  5
1418
 10
97.8531
 20
-11.5842
 30
0.000000
  70
    32
  0
VERTEX
  8
241
  5
1419
 10
97.8638
 20
-11.7014
 30
0.000000
  70
    32
  0
VERTEX
  8
241
  5
141A
 10
97.8747
 20
-11.8185
 30
0.000000
  70
    32
  0
VERTEX
  8
241
  5
141B
 10
97.8859
 20
-11.9357
 30
0.000000
  70
    32
  0
VERTEX
  8
241
  5
141C
 10
97.8973
 20
-12.0528
 30
0.000000
  70
    32
  0
VERTEX
  8
241
  5
141D
 10
97.9089
 20
-12.1698
 30
0.000000
  70
    32
  0
VERTEX
  8
241
  5
141E
 10
97.9208
 20
-12.2869
 30
0.000000
  70
    32
  0
VERTEX
  8
241
  5
141F
 10
97.9330
 20
-12.4039
 30
0.000000
  70
    32
  0
VERTEX
  8
241
  5
1420
 10
97.9454
 20
-12.5209
 30
0.000000
  70
    32
  0
VERTEX
  8
241
  5
1421
 10
97.9580
 20
-12.6379
 30
0.000000
  70
    32
  0
VERTEX
  8
241
  5
1422
 10
97.9710
 20
-12.7548
 30
0.000000
  70
    32
  0
VERTEX
  8
241
  5
1423
 10
97.9842
 20
-12.8717
 30
0.000000
  70
    32
  0
VERTEX
  8
241
  5
1424
 10
97.9977
 20
-12.9886
 30
0.000000
  70
    32
  0
VERTEX
  8
241
  5
1425
 10
98.0114
 20
-13.1055
 30
0.000000
  70
    32
  0
VERTEX
  8
241
  5
1426
 10
98.0255
 20
-13.2223
 30
0.000000
  70
    32
  0
VERTEX
  8
241
  5
1427
 10
98.0398
 20
-13.3391
 30
0.000000
  70
    32
  0
VERTEX
  8
241
  5
1428
 10
98.0545
 20
-13.4558
 30
0.000000
  70
    32
  0
VERTEX
  8
241
  5
1429
 10
98.0694
 20
-13.5725
 30
0.000000
  70
    32
  0
VERTEX
  8
241
  5
142A
 10
98.0847
 20
-13.6892
 30
0.000000
  70
    32
  0
VERTEX
  8
241
  5
142B
 10
98.1002
 20
-13.8059
 30
0.000000
  70
    32
  0
VERTEX
  8
241
  5
142C
 10
98.1161
 20
-13.9225
 30
0.000000
  70
    32
  0
VERTEX
  8
241
  5
142D
 10
98.1323
 20
-14.0391
 30
0.000000
  70
    32
  0
VERTEX
  8
241
  5
142E
 10
98.1488
 20
-14.1556
 30
0.000000
  70
    32
  0
VERTEX
  8
241
  5
142F
 10
98.1656
 20
-14.2721
 30
0.000000
  70
    32
  0
VERTEX
  8
241
  5
1430
 10
98.1828
 20
-14.3886
 30
0.000000
  70
    32
  0
VERTEX
  8
241
  5
1431
 10
98.2003
 20
-14.5050
 30
0.000000
  70
    32
  0
VERTEX
  8
241
  5
1432
 10
98.2181
 20
-14.6213
 30
0.000000
  70
    32
  0
VERTEX
  8
241
  5
1433
 10
98.2363
 20
-14.7377
 30
0.000000
  70
    32
  0
VERTEX
  8
241
  5
1434
 10
98.2548
 20
-14.8540
 30
0.000000
  70
    32
  0
VERTEX
  8
241
  5
1435
 10
98.2737
 20
-14.9702
 30
0.000000
  70
    32
  0
VERTEX
  8
241
  5
1436
 10
98.2929
 20
-15.0864
 30
0.000000
  70
    32
  0
VERTEX
  8
241
  5
1437
 10
98.3125
 20
-15.2026
 30
0.000000
  70
    32
  0
VERTEX
  8
241
  5
1438
 10
98.3325
 20
-15.3187
 30
0.000000
  70
    32
  0
VERTEX
  8
241
  5
1439
 10
98.3528
 20
-15.4348
 30
0.000000
  70
    32
  0
VERTEX
  8
241
  5
143A
 10
98.3736
 20
-15.5508
 30
0.000000
  70
    32
  0
VERTEX
  8
241
  5
143B
 10
98.3947
 20
-15.6667
 30
0.000000
  70
    32
  0
VERTEX
  8
241
  5
143C
 10
98.4161
 20
-15.7827
 30
0.000000
  70
    32
  0
VERTEX
  8
241
  5
143D
 10
98.4380
 20
-15.8985
 30
0.000000
  70
    32
  0
VERTEX
  8
241
  5
143E
 10
98.4603
 20
-16.0144
 30
0.000000
  70
    32
  0
VERTEX
  8
241
  5
143F
 10
98.4829
 20
-16.1301
 30
0.000000
  70
    32
  0
VERTEX
  8
241
  5
1440
 10
98.5060
 20
-16.2458
 30
0.000000
  70
    32
  0
VERTEX
  8
241
  5
1441
 10
98.5295
 20
-16.3614
 30
0.000000
  70
    32
  0
VERTEX
  8
241
  5
1442
 10
98.5535
 20
-16.4770
 30
0.000000
  70
    32
  0
VERTEX
  8
241
  5
1443
 10
98.5779
 20
-16.5925
 30
0.000000
  70
    32
  0
VERTEX
  8
241
  5
1444
 10
98.6027
 20
-16.7078
 30
0.000000
  70
    32
  0
VERTEX
  8
241
  5
1445
 10
98.6280
 20
-16.8231
 30
0.000000
  70
    32
  0
VERTEX
  8
241
  5
1446
 10
98.6537
 20
-16.9383
 30
0.000000
  70
    32
  0
VERTEX
  8
241
  5
1447
 10
98.6800
 20
-17.0533
 30
0.000000
  70
    32
  0
VERTEX
  8
241
  5
1448
 10
98.7067
 20
-17.1683
 30
0.000000
  70
    32
  0
VERTEX
  8
241
  5
1449
 10
98.7340
 20
-17.2831
 30
0.000000
  70
    32
  0
VERTEX
  8
241
  5
144A
 10
98.7617
 20
-17.3978
 30
0.000000
  70
    32
  0
VERTEX
  8
241
  5
144B
 10
98.7900
 20
-17.5124
 30
0.000000
  70
    32
  0
VERTEX
  8
241
  5
144C
 10
98.8188
 20
-17.6268
 30
0.000000
  70
    32
  0
VERTEX
  8
241
  5
144D
 10
98.8481
 20
-17.7411
 30
0.000000
  70
    32
  0
VERTEX
  8
241
  5
144E
 10
98.8780
 20
-17.8552
 30
0.000000
  70
    32
  0
VERTEX
  8
241
  5
144F
 10
98.9084
 20
-17.9691
 30
0.000000
  70
    32
  0
VERTEX
  8
241
  5
1450
 10
98.9394
 20
-18.0829
 30
0.000000
  70
    32
  0
VERTEX
  8
241
  5
1451
 10
98.9710
 20
-18.1965
 30
0.000000
  70
    32
  0
VERTEX
  8
241
  5
1452
 10
99.0031
 20
-18.3099
 30
0.000000
  70
    32
  0
VERTEX
  8
241
  5
1453
 10
99.0359
 20
-18.4232
 30
0.000000
  70
    32
  0
VERTEX
  8
241
  5
1454
 10
99.0692
 20
-18.5362
 30
0.000000
  70
    32
  0
VERTEX
  8
241
  5
1455
 10
99.1032
 20
-18.6491
 30
0.000000
  70
    32
  0
VERTEX
  8
241
  5
1456
 10
99.1378
 20
-18.7617
 30
0.000000
  70
    32
  0
VERTEX
  8
241
  5
1457
 10
99.1730
 20
-18.8741
 30
0.000000
  70
    32
  0
VERTEX
  8
241
  5
1458
 10
99.2089
 20
-18.9863
 30
0.000000
  70
    32
  0
VERTEX
  8
241
  5
1459
 10
99.2454
 20
-19.0983
 30
0.000000
  70
    32
  0
VERTEX
  8
241
  5
145A
 10
99.2826
 20
-19.2101
 30
0.000000
  70
    32
  0
VERTEX
  8
241
  5
145B
 10
99.3204
 20
-19.3216
 30
0.000000
  70
    32
  0
VERTEX
  8
241
  5
145C
 10
99.3590
 20
-19.4328
 30
0.000000
  70
    32
  0
VERTEX
  8
241
  5
145D
 10
99.3982
 20
-19.5438
 30
0.000000
  70
    32
  0
VERTEX
  8
241
  5
145E
 10
99.4381
 20
-19.6546
 30
0.000000
  70
    32
  0
VERTEX
  8
241
  5
145F
 10
99.4787
 20
-19.7651
 30
0.000000
  70
    32
  0
VERTEX
  8
241
  5
1460
 10
99.5201
 20
-19.8753
 30
0.000000
  70
    32
  0
VERTEX
  8
241
  5
1461
 10
99.5622
 20
-19.9852
 30
0.000000
  70
    32
  0
VERTEX
  8
241
  5
1462
 10
99.6050
 20
-20.0949
 30
0.000000
  70
    32
  0
VERTEX
  8
241
  5
1463
 10
99.6485
 20
-20.2042
 30
0.000000
  70
    32
  0
VERTEX
  8
241
  5
1464
 10
99.6929
 20
-20.3133
 30
0.000000
  70
    32
  0
VERTEX
  8
241
  5
1465
 10
99.7380
 20
-20.4220
 30
0.000000
  70
    32
  0
VERTEX
  8
241
  5
1466
 10
99.7838
 20
-20.5305
 30
0.000000
  70
    32
  0
VERTEX
  8
241
  5
1467
 10
99.8305
 20
-20.6386
 30
0.000000
  70
    32
  0
VERTEX
  8
241
  5
1468
 10
99.8779
 20
-20.7464
 30
0.000000
  70
    32
  0
VERTEX
  8
241
  5
1469
 10
99.9261
 20
-20.8539
 30
0.000000
  70
    32
  0
VERTEX
  8
241
  5
146A
 10
99.9752
 20
-20.9610
 30
0.000000
  70
    32
  0
VERTEX
  8
241
  5
146B
 10
100.025
 20
-21.0677
 30
0.000000
  70
    32
  0
VERTEX
  8
241
  5
146C
 10
100.076
 20
-21.1739
 30
0.000000
  70
    32
  0
VERTEX
  8
241
  5
146D
 10
100.128
 20
-21.2796
 30
0.000000
  70
    32
  0
VERTEX
  8
241
  5
146E
 10
100.181
 20
-21.3848
 30
0.000000
  70
    32
  0
VERTEX
  8
241
  5
146F
 10
100.235
 20
-21.4895
 30
0.000000
  70
    32
  0
VERTEX
  8
241
  5
1470
 10
100.290
 20
-21.5935
 30
0.000000
  70
    32
  0
VERTEX
  8
241
  5
1471
 10
100.346
 20
-21.6969
 30
0.000000
  70
    32
  0
VERTEX
  8
241
  5
1472
 10
100.403
 20
-21.7996
 30
0.000000
  70
    32
  0
VERTEX
  8
241
  5
1473
 10
100.462
 20
-21.9016
 30
0.000000
  70
    32
  0
VERTEX
  8
241
  5
1474
 10
100.522
 20
-22.0028
 30
0.000000
  70
    32
  0
VERTEX
  8
241
  5
1475
 10
100.583
 20
-22.1032
 30
0.000000
  70
    32
  0
SEQEND
  8
241
  5
1476
  0
ARC
  5
1193
  8
240
  6
CONTINUOUS
 10
19.7500000000000604
 20
-29.2000000000002302
 30
0.0
 40
0.7
 50
89.9999999999996874
 51
179.9999999999988916
  0
ARC
  5
119E
  8
240
  6
CONTINUOUS
 10
19.7500000000000604
 20
29.2000000000001982
 30
0.0
 40
0.7
 50
180.0000000000005969
 51
270.0000000000002274
  0
LINE
  5
127B
  8
241
  6
CONTINUOUS
 10
3.7000000000000002
 20
8.0
 30
0.0
 11
1.0
 21
10.69999999999966
 31
0.0
1001
GENIUS_GENFIL_13
1070
     1
1040
10.0
1040
10.0
1040
2.7000000000000002
1040
45.0
1002
{
1002
}
1001
GENIUS_GENODEF_13
1002
{
1000
HIER
1070
     0
1002
}
1002
{
1000
MANEDIT
1070
     0
1002
}
1002
{
1000
NOSEL
1070
     0
1002
}
1002
{
1000
BEHIND
1070
     0
1002
}
1002
{
1000
OTHER
1070
     0
1002
}
1002
{
1000
REACTOR
1002
}
1001
GENIUS_GENOBJ-N-CHA_13
1002
{
1000
OWNER
1000
GEN
1002
}
  0
LINE
  5
127E
  8
241
  6
CONTINUOUS
 10
3.7000000000000002
 20
-7.9999999999999112
 30
0.0
 11
1.0
 21
-10.7000000000000401
 31
0.0
1001
GENIUS_GENFIL_13
1070
     1
1040
10.0
1040
10.0
1040
2.7000000000000002
1040
45.0
1002
{
1002
}
1001
GENIUS_GENOBJ-N-CHA_13
1002
{
1000
OWNER
1000
GEN
1002
}
1001
GENIUS_GENODEF_13
1002
{
1000
HIER
1070
     0
1002
}
1002
{
1000
MANEDIT
1070
     0
1002
}
1002
{
1000
NOSEL
1070
     0
1002
}
1002
{
1000
BEHIND
1070
     0
1002
}
1002
{
1000
OTHER
1070
     0
1002
}
1002
{
1000
REACTOR
1002
}
  0
VIEWPORT
  5
22
 67
     1
  8
0
 10
261.517699115044195
 20
148.5
 30
0.0
 40
523.0353982300885036
 41
297.0
 68
     1
 69
     1
1001
ACAD
1000
MVIEW
1002
{
1070
    16
1010
0.0
1020
0.0
1030
0.0
1010
0.0
1020
0.0
1030
1.0
1040
0.0
1040
297.0
1040
261.517699115044195
1040
148.5
1040
50.0
1040
0.0
1040
0.0
1070
     0
1070
   100
1070
     1
1070
     1
1070
     0
1070
     0
1070
     0
1070
     0
1040
0.0
1040
0.0
1040
0.0
1040
1.0
1040
1.0
1040
10.0
1040
10.0
1070
     0
1002
{
1002
}
1002
}
1001
GENIUS_GENODEF_13
1002
{
1000
HIER
1070
     0
1002
}
1002
{
1000
MANEDIT
1070
     0
1002
}
1002
{
1000
NOSEL
1070
     0
1002
}
1002
{
1000
BEHIND
1070
     0
1002
}
1002
{
1000
OTHER
1070
     0
1002
}
1002
{
1000
REACTOR
1002
}
1001
GENIUS_GENOBJ-N-SDF_13
1002
{
1000
OWNER
1000
GEN
1002
}
1001
GENIUS_GENSCREG_15
1000
PF
1040
1.0
1000
DF
1040
1.0
1000
MIN
1011
0.0
1021
0.0
1031
0.0
1021
0.0
1031
0.0
1000
MAX
1011
523.0353982300885036
1021
0.0
1031
0.0
1021
297.0
1031
0.0
1000
FLAGS
1070
     4
  0
ENDSEC
  0
EOF
