  0
SECTION
  2
HEADER
  9
$ACADVER
  1
AC1009
  9
$INSBASE
 10
0.0
 20
0.0
 30
0.0
  9
$EXTMIN
 10
-71.745351725821806
 20
-31.75000000000006
 30
0.0
  9
$EXTMAX
 10
166.9999999999855
 20
61.0
 30
0.0
  9
$LIMMIN
 10
0.0
 20
0.0
  9
$LIMMAX
 10
297.0
 20
210.0
  9
$ORTHOMODE
 70
     1
  9
$REGENMODE
 70
     1
  9
$FILLMODE
 70
     1
  9
$QTEXTMODE
 70
     0
  9
$MIRRTEXT
 70
     1
  9
$DRAGMODE
 70
     2
  9
$LTSCALE
 40
10.0
  9
$OSMODE
 70
    37
  9
$ATTMODE
 70
     1
  9
$TEXTSIZE
 40
3.0
  9
$TRACEWID
 40
1.0
  9
$TEXTSTYLE
  7
YOKO
  9
$CLAYER
  8
240
  9
$CELTYPE
  6
BYLAYER
  9
$CECOLOR
 62
   256
  9
$DIMSCALE
 40
1.0
  9
$DIMASZ
 40
2.2299999999999991
  9
$DIMEXO
 40
0.5
  9
$DIMDLI
 40
7.0
  9
$DIMRND
 40
0.0
  9
$DIMDLE
 40
0.0
  9
$DIMEXE
 40
1.0
  9
$DIMTP
 40
0.0
  9
$DIMTM
 40
0.01
  9
$DIMTXT
 40
2.799999999999998
  9
$DIMCEN
 40
0.0
  9
$DIMTSZ
 40
0.0
  9
$DIMTOL
 70
     0
  9
$DIMLIM
 70
     0
  9
$DIMTIH
 70
     0
  9
$DIMTOH
 70
     0
  9
$DIMSE1
 70
     0
  9
$DIMSE2
 70
     0
  9
$DIMTAD
 70
     3
  9
$DIMZIN
 70
     9
  9
$DIMBLK
  1
OPEN
  9
$DIMASO
 70
     1
  9
$DIMSHO
 70
     1
  9
$DIMPOST
  1

  9
$DIMAPOST
  1

  9
$DIMALT
 70
     0
  9
$DIMALTD
 70
     2
  9
$DIMALTF
 40
25.399999999999999
  9
$DIMLFAC
 40
1.0
  9
$DIMTOFL
 70
     1
  9
$DIMTVP
 40
0.0
  9
$DIMTIX
 70
     1
  9
$DIMSOXD
 70
     0
  9
$DIMSAH
 70
     0
  9
$DIMBLK1
  1

  9
$DIMBLK2
  1

  9
$DIMSTYLE
  2
BIGT
  9
$DIMCLRD
 70
   256
  9
$DIMCLRE
 70
   256
  9
$DIMCLRT
 70
    40
  9
$DIMTFAC
 40
1.0
  9
$DIMGAP
 40
1.0
  9
$LUNITS
 70
     2
  9
$LUPREC
 70
     6
  9
$SKETCHINC
 40
1.0
  9
$FILLETRAD
 40
1.0
  9
$AUNITS
 70
     0
  9
$AUPREC
 70
     6
  9
$MENU
  1
.
  9
$ELEVATION
 40
0.0
  9
$PELEVATION
 40
0.0
  9
$THICKNESS
 40
0.0
  9
$LIMCHECK
 70
     0
  9
$BLIPMODE
 70
     0
  9
$CHAMFERA
 40
0.2
  9
$CHAMFERB
 40
0.2
  9
$SKPOLY
 70
     0
  9
$TDCREATE
 40
2458138.6911257529
  9
$TDUPDATE
 40
2458142.7375919791
  9
$TDINDWG
 40
0.0132512037
  9
$TDUSRTIMER
 40
0.0132511343
  9
$USRTIMER
 70
     1
  9
$ANGBASE
 50
0.0
  9
$ANGDIR
 70
     0
  9
$PDMODE
 70
     1
  9
$PDSIZE
 40
0.0
  9
$PLINEWID
 40
0.0
  9
$COORDS
 70
     1
  9
$SPLFRAME
 70
     0
  9
$SPLINETYPE
 70
     6
  9
$SPLINESEGS
 70
     4
  9
$ATTDIA
 70
     1
  9
$ATTREQ
 70
     1
  9
$HANDLING
 70
     1
  9
$HANDSEED
  5
5302
  9
$SURFTAB1
 70
     6
  9
$SURFTAB2
 70
     6
  9
$SURFTYPE
 70
     6
  9
$SURFU
 70
     6
  9
$SURFV
 70
     6
  9
$UCSNAME
  2

  9
$UCSORG
 10
0.0
 20
0.0
 30
0.0
  9
$UCSXDIR
 10
1.0
 20
0.0
 30
0.0
  9
$UCSYDIR
 10
0.0
 20
1.0
 30
0.0
  9
$PUCSNAME
  2

  9
$PUCSORG
 10
0.0
 20
0.0
 30
0.0
  9
$PUCSXDIR
 10
1.0
 20
0.0
 30
0.0
  9
$PUCSYDIR
 10
0.0
 20
1.0
 30
0.0
  9
$USERI1
 70
     1
  9
$USERI2
 70
     0
  9
$USERI3
 70
     0
  9
$USERI4
 70
     0
  9
$USERI5
 70
     0
  9
$USERR1
 40
0.0
  9
$USERR2
 40
0.0
  9
$USERR3
 40
0.0
  9
$USERR4
 40
0.0
  9
$USERR5
 40
0.0
  9
$WORLDVIEW
 70
     1
  9
$SHADEDGE
 70
     3
  9
$SHADEDIF
 70
    70
  9
$TILEMODE
 70
     1
  9
$MAXACTVP
 70
    16
  9
$PLIMCHECK
 70
     0
  9
$PEXTMIN
 10
1.0000000000000000E+020
 20
1.0000000000000000E+020
 30
1.0000000000000000E+020
  9
$PEXTMAX
 10
-1.0000000000000000E+020
 20
-1.0000000000000000E+020
 30
-1.0000000000000000E+020
  9
$PLIMMIN
 10
0.0
 20
0.0
  9
$PLIMMAX
 10
420.0
 20
297.0
  9
$UNITMODE
 70
     0
  9
$VISRETAIN
 70
     1
  9
$PLINEGEN
 70
     0
  9
$PSLTSCALE
 70
     1
  0
ENDSEC
  0
SECTION
  2
TABLES
  0
TABLE
  2
VPORT
 70
     1
  0
VPORT
  2
*ACTIVE
 70
     0
 10
0.0
 20
0.0
 11
1.0
 21
1.0
 12
36.647332882546273
 22
6.9760916079975877
 13
0.0
 23
0.0
 14
7.0
 24
7.0
 15
7.0
 25
7.0
 16
0.0
 26
0.0
 36
1.0
 17
0.0
 27
0.0
 37
0.0
 40
203.93704573692
 41
1.515499425947187
 42
50.0
 43
0.0
 44
0.0
 50
0.0
 51
0.0
 71
     0
 72
  2000
 73
     1
 74
     0
 75
     0
 76
     1
 77
     0
 78
     0
  0
ENDTAB
  0
TABLE
  2
LTYPE
 70
    19
  0
LTYPE
  2
CONTINUOUS
 70
     0
  3
Solid line
 72
    65
 73
     0
 40
0.0
  0
LTYPE
  2
CENTER2
 70
     0
  3
___ _ ___ _ ___ _ ___ _ ___ _ ___ _ ___ _ ___ _
 72
    65
 73
     4
 40
1.125
 49
0.75
 49
-0.125
 49
0.125
 49
-0.125
  0
LTYPE
  2
HIDDEN2
 70
     0
  3
_ _ _ _ _ _ _ _ _ _ _ _ _ _ _ _ _ _ _ _ _ _ _ _
 72
    65
 73
     2
 40
0.1875
 49
0.125
 49
-0.0625
  0
LTYPE
  2
AMCONSTR
 70
     0
  3
_______________________
 72
    65
 73
     2
 40
9999.0
 49
9999.0
 49
0.0
  0
LTYPE
  2
HIDDEN
 70
     0
  3
Hidden __ __ __ __ __ __ __ __ __ __ __ __ __ _
 72
    65
 73
     2
 40
0.375
 49
0.25
 49
-0.125
  0
LTYPE
  2
PHANTOM2
 70
     0
  3
Phantom (.5x) ___ _ _ ___ _ _ ___ _ _ ___ _ _
 72
    65
 73
     6
 40
1.25
 49
0.625
 49
-0.125
 49
0.125
 49
-0.125
 49
0.125
 49
-0.125
  0
LTYPE
  2
CENTER
 70
     0
  3
Center ____ _ ____ _ ____ _ ____ _ ____ _ ____
 72
    65
 73
     4
 40
2.0
 49
1.25
 49
-0.25
 49
0.25
 49
-0.25
  0
LTYPE
  2
AMZIGZAG2
 70
     0
  3
/\/-/\/-/\/-/\/-/\/-/\/
 72
    65
 73
     2
 40
0.4401
 49
0.0001
 49
-0.4400000000000002
  0
LTYPE
  2
ACANSTGB
 70
     0
  3
__ . . __ . .
 72
    65
 73
     6
 40
0.35433070866
 49
0.15748031496
 49
-0.03937007874
 49
0.03937007874
 49
-0.03937007874
 49
0.03937007874
 49
-0.03937007874
  0
LTYPE
  2
ACANSTGL
 70
     0
  3
_ _ _ _ _
 72
    65
 73
     2
 40
0.11811023622
 49
0.07874015748
 49
-0.03937007874
  0
ENDTAB
  0
TABLE
  2
LAYER
 70
    10
  0
LAYER
  2
0
 70
     0
 62
     7
  6
CONTINUOUS
  0
LAYER
  2
240
 70
     0
 62
     4
  6
CONTINUOUS
  0
LAYER
  2
DEFPOINTS
 70
     0
 62
     7
  6
CONTINUOUS
  0
LAYER
  2
245
 70
     0
 62
     2
  6
CENTER2
  0
LAYER
  2
241
 70
     0
 62
   211
  6
CONTINUOUS
  0
LAYER
  2
242
 70
     0
 62
     3
  6
CONTINUOUS
  0
LAYER
  2
243
 70
     0
 62
   211
  6
HIDDEN2
  0
LAYER
  2
244
 70
     0
 62
     3
  6
HIDDEN2
  0
LAYER
  2
247
 70
     0
 62
    60
  6
CONTINUOUS
  0
LAYER
  2
250
 70
     0
 62
     3
  6
CONTINUOUS
  0
ENDTAB
  0
TABLE
  2
STYLE
 70
     7
  0
STYLE
  2
STANDARD
 70
     0
 40
0.0
 41
1.0
 50
0.0
 71
     0
 42
3.0
  3
romans.shx
  4
extfont.shx
  0
STYLE
  2
YOKO
 70
     0
 40
0.0
 41
1.0
 50
0.0
 71
     0
 42
3.0
  3
romans.shx
  4
extfont.shx
  0
STYLE
  2
ACANSGDT
 70
     0
 40
0.0
 41
1.0
 50
0.0
 71
     0
 42
3.0
  3
amgdt.shx
  4

  0
ENDTAB
  0
TABLE
  2
VIEW
 70
     0
  0
ENDTAB
  0
TABLE
  2
UCS
 70
     0
  0
ENDTAB
  0
TABLE
  2
APPID
 70
    45
  0
APPID
  2
ACAD
 70
     0
  0
APPID
  2
ACADANNOTATIVE
 70
     0
  0
APPID
  2
GLOBAL
 70
     0
  0
APPID
  2
DETAIL
 70
     0
  0
APPID
  2
GRPNAME
 70
     0
  0
APPID
  2
GPARA
 70
     0
  0
APPID
  2
MCAD_NO_VIS
 70
     0
  0
APPID
  2
ACAD_TEMP_GRAPHIC
 70
     0
  0
APPID
  2
ACATTRIBSERVICES
 70
     0
  0
APPID
  2
GENIUS_GENSCREG_15
 70
     0
  0
APPID
  2
GENIUS_GENODEF_13
 70
     0
  0
APPID
  2
GENIUS_GENOBJ-N-SDF_13
 70
     0
  0
APPID
  2
GENIUS_GENREC_14
 70
     0
  0
APPID
  2
GENIUS_GENOBJ-N-REC_13
 70
     0
  0
APPID
  2
GENIUS_GENDIMSH_14
 70
     0
  0
APPID
  2
GENIUS_GENOBJ-N-DIM_13
 70
     0
  0
APPID
  2
GENIUS_GENDIM_13
 70
     0
  0
APPID
  2
GENIUS_GENDTOL_13
 70
     0
  0
APPID
  2
GENIUS_GENOLIS_13
 70
     0
  0
APPID
  2
GENIUS_GENOENT_13
 70
     0
  0
APPID
  2
GENIUS_GENOBJ-F-FEM_13
 70
     0
  0
APPID
  2
GENIUS_GENOREF_13
 70
     0
  0
APPID
  2
GENIUS_GEFFEM_13
 70
     0
  0
APPID
  2
GENIUS_GEFFEMP_13
 70
     0
  0
APPID
  2
AD_DRAW
 70
     0
  0
APPID
  2
DESIGNERASSEMBLIES
 70
     0
  0
APPID
  2
ACADM_DIM_EDIT
 70
     0
  0
APPID
  2
AMDT_DM_ADJ
 70
     0
  0
APPID
  2
ITEMNAME
 70
     0
  0
APPID
  2
GENIUS_GENOBJ-N-FIL_13
 70
     0
  0
APPID
  2
GENIUS_GENFIL_13
 70
     0
  0
APPID
  2
GENIUS_GENOBJ-N-CHA_13
 70
     0
  0
APPID
  2
ACAECLAYERSTANDARD
 70
     0
  0
APPID
  2
ACAD_NAV_VCDISPLAY
 70
     0
  0
APPID
  2
ACAD_DSTYLE_DIMJAG
 70
     0
  0
APPID
  2
ACAD_DSTYLE_DIMBREAK
 70
     0
  0
APPID
  2
ACAD_PSEXT
 70
     0
  0
APPID
  2
ACAD_DSTYLE_DIMINSPECT
 70
     0
  0
APPID
  2
ACAD_EXEMPT_FROM_CAD_STANDARDS
 70
     0
  0
APPID
  2
ACAD_MLEADERVER
 70
     0
  0
APPID
  2
ACAD_DSTYLE_DIMARC_LENGTH_
 70
     0
  0
APPID
  2
ACAD_DSTYLE_DIM_LINETYPE
 70
     0
  0
APPID
  2
ACAD_DSTYLE_DIM_EXT1_LINETYPE
 70
     0
  0
APPID
  2
ACAD_DSTYLE_DIM_EXT2_LINETYPE
 70
     0
  0
APPID
  2
ACAD_DSTYLE_DIMTALN
 70
     0
  0
ENDTAB
  0
TABLE
  2
DIMSTYLE
 70
    16
  0
DIMSTYLE
  2
STANDARD
 70
     0
  3

  4

  5

  6

  7

 40
1.0
 41
0.18
 42
0.0625
 43
0.38
 44
0.18
 45
0.0
 46
0.0
 47
0.0
 48
0.0
140
0.18
141
0.09
142
0.0
143
25.399999999999999
144
1.0
145
0.0
146
1.0
147
0.09
 71
     0
 72
     0
 73
     1
 74
     1
 75
     0
 76
     0
 77
     0
 78
     0
170
     0
171
     2
172
     0
173
     0
174
     0
175
     0
176
     0
177
     0
178
     0
  0
DIMSTYLE
  2
BIGT
 70
     0
  3

  4

  5

  6

  7

 40
1.0
 41
2.2299999999999991
 42
0.5
 43
7.0
 44
1.0
 45
0.0
 46
0.0
 47
0.0
 48
0.01
140
2.799999999999998
141
0.0
142
0.0
143
25.399999999999999
144
1.0
145
0.0
146
1.0
147
1.0
 71
     0
 72
     0
 73
     0
 74
     0
 75
     0
 76
     0
 77
     3
 78
     9
170
     0
171
     2
172
     1
173
     0
174
     1
175
     0
176
   256
177
   256
178
    40
  0
DIMSTYLE
  2
AM_ANSI
 70
     0
  3

  4
mm
  5

  6

  7

 40
1.0
 41
0.12
 42
0.05
 43
0.5
 44
0.1
 45
0.0
 46
0.0
 47
0.1
 48
0.1
140
0.12
141
0.0
142
0.0
143
25.399999999999999
144
1.0
145
0.0
146
0.71
147
0.06
 71
     0
 72
     0
 73
     1
 74
     1
 75
     0
 76
     0
 77
     0
 78
     7
170
     0
171
     2
172
     0
173
     0
174
     0
175
     0
176
   256
177
   256
178
     2
  0
DIMSTYLE
  2
AM_ANSI$3
 70
     0
  3

  4
mm
  5

  6

  7

 40
1.0
 41
0.12
 42
0.05
 43
0.5
 44
0.1
 45
0.0
 46
0.0
 47
0.1
 48
0.1
140
0.12
141
0.0
142
0.0
143
25.399999999999999
144
1.0
145
0.0
146
0.71
147
0.06
 71
     0
 72
     0
 73
     1
 74
     1
 75
     0
 76
     0
 77
     0
 78
     7
170
     0
171
     2
172
     0
173
     0
174
     0
175
     0
176
   256
177
   256
178
     2
  0
DIMSTYLE
  2
AM_ANSI$4
 70
     0
  3

  4
mm
  5

  6

  7

 40
1.0
 41
0.12
 42
0.05
 43
0.5
 44
0.1
 45
0.0
 46
0.0
 47
0.1
 48
0.1
140
0.12
141
0.0
142
0.0
143
25.399999999999999
144
1.0
145
0.0
146
0.71
147
0.06
 71
     0
 72
     0
 73
     1
 74
     1
 75
     0
 76
     0
 77
     0
 78
     7
170
     0
171
     2
172
     0
173
     0
174
     0
175
     0
176
   256
177
   256
178
     2
  0
DIMSTYLE
  2
AM_ANSI$7
 70
     0
  3

  4
mm
  5

  6

  7

 40
1.0
 41
0.12
 42
0.05
 43
0.5
 44
0.1
 45
0.0
 46
0.0
 47
0.1
 48
0.1
140
0.12
141
0.0
142
0.0
143
25.399999999999999
144
1.0
145
0.0
146
0.71
147
0.06
 71
     0
 72
     0
 73
     1
 74
     1
 75
     0
 76
     0
 77
     0
 78
     7
170
     0
171
     2
172
     0
173
     0
174
     0
175
     0
176
   256
177
   256
178
     2
  0
DIMSTYLE
  2
AM_ANSI$SF
 70
     0
  3

  4
mm
  5

  6

  7

 40
1.0
 41
0.12
 42
0.05
 43
0.5
 44
0.1
 45
0.0
 46
0.0
 47
0.1
 48
0.1
140
0.12
141
0.0
142
0.0
143
25.399999999999999
144
1.0
145
0.0
146
0.71
147
0.06
 71
     0
 72
     0
 73
     1
 74
     1
 75
     1
 76
     1
 77
     0
 78
     7
170
     0
171
     2
172
     0
173
     0
174
     0
175
     0
176
   256
177
   256
178
     2
  0
DIMSTYLE
  2
AM_ANSI$SH
 70
     0
  3

  4
mm
  5

  6

  7

 40
1.0
 41
0.12
 42
0.05
 43
0.5
 44
0.1
 45
0.0
 46
0.0
 47
0.1
 48
0.1
140
0.12
141
0.0
142
0.0
143
25.399999999999999
144
1.0
145
0.0
146
0.71
147
0.06
 71
     0
 72
     0
 73
     1
 74
     1
 75
     1
 76
     1
 77
     0
 78
     7
170
     0
171
     2
172
     0
173
     1
174
     0
175
     0
176
   256
177
   256
178
     2
  0
ENDTAB
  0
ENDSEC
  0
SECTION
  2
BLOCKS
  0
BLOCK
  8
0
  2
$MODEL_SPACE
 70
     0
 10
0.0
 20
0.0
 30
0.0
  3
$MODEL_SPACE
  1

  0
ENDBLK
  5
51D2
  8
0
  0
BLOCK
 67
     1
  8
0
  2
$PAPER_SPACE
 70
     0
 10
0.0
 20
0.0
 30
0.0
  3
$PAPER_SPACE
  1

  0
ENDBLK
  5
51CE
 67
     1
  8
0
  0
BLOCK
  8
0
  2
_OPEN
 70
     0
 10
0.0
 20
0.0
 30
0.0
  3
_OPEN
  1

  0
LINE
  5
3E1A
  8
0
  6
BYBLOCK
 62
     0
 10
-1.0
 20
0.1666666666666666
 30
0.0
 11
0.0
 21
0.0
 31
0.0
  0
LINE
  5
3E1B
  8
0
  6
BYBLOCK
 62
     0
 10
-1.0
 20
-0.1666666666666666
 30
0.0
 11
0.0
 21
0.0
 31
0.0
  0
LINE
  5
3E1C
  8
0
  6
BYBLOCK
 62
     0
 10
0.0
 20
0.0
 30
0.0
 11
-1.0
 21
0.0
 31
0.0
  0
ENDBLK
  5
3E1D
  8
0
  0
BLOCK
  8
0
  2
_ACMFILLEDHALF
 70
     0
 10
0.0
 20
0.0
 30
0.0
  3
_ACMFILLEDHALF
  1

  0
TRACE
  5
5078
  8
240
 62
     0
 10
-0.8
 20
0.0
 30
0.0
 11
-1.0
 21
0.166666666
 31
0.0
 12
0.0
 22
0.0
 32
0.0
 13
0.0
 23
0.0
 33
0.0
  0
LINE
  5
5079
  8
240
 62
     0
 10
-1.0
 20
0.0
 30
0.0
 11
-0.8
 21
0.0
 31
0.0
  0
ENDBLK
  5
5077
  8
0
  0
ENDSEC
  0
SECTION
  2
ENTITIES
  0
LINE
  5
42AB
  8
240
  6
CONTINUOUS
 10
9.1999999999998181
 20
-28.18000000000001
 30
0.0
 11
13.03999999999985
 21
-28.18000000000001
 31
0.0
  0
LINE
  5
42AC
  8
240
  6
CONTINUOUS
 10
9.1999999999998181
 20
28.17999999999995
 30
0.0
 11
13.03999999999985
 21
28.17999999999995
 31
0.0
  0
LINE
  5
42AD
  8
240
  6
CONTINUOUS
 10
-68.250000000000171
 20
-12.27187500000008
 30
0.0
 11
-0.0000000000001137
 21
-22.22500000000008
 31
0.0
  0
LINE
  5
42AE
  8
240
  6
CONTINUOUS
 10
-68.250000000000171
 20
-12.27187500000008
 30
0.0
 11
-68.250000000000171
 21
12.271874999999961
 31
0.0
  0
LINE
  5
42AF
  8
240
  6
CONTINUOUS
 10
-68.250000000000171
 20
12.271874999999961
 30
0.0
 11
-0.0000000000001137
 21
22.224999999999969
 31
0.0
  0
LINE
  5
42B0
  8
240
  6
CONTINUOUS
 10
9.1999999999998181
 20
28.96755845385206
 30
0.0
 11
9.1999999999998181
 21
28.17999999999995
 31
0.0
  0
LINE
  5
42B1
  8
240
  6
CONTINUOUS
 10
13.03999999999985
 20
28.96755845385195
 30
0.0
 11
13.03999999999985
 21
28.17999999999995
 31
0.0
  0
LINE
  5
42B2
  8
240
  6
CONTINUOUS
 10
13.03999999999985
 20
-28.18000000000001
 30
0.0
 11
13.03999999999985
 21
-28.96755845385206
 31
0.0
  0
LINE
  5
42B3
  8
240
  6
CONTINUOUS
 10
9.1999999999998181
 20
-28.18000000000001
 30
0.0
 11
9.1999999999998181
 21
-28.96755845385206
 31
0.0
  0
LINE
  5
42B4
  8
240
  6
CONTINUOUS
 10
7.5935566243268759
 20
31.74999999999994
 30
0.0
 11
9.1999999999998181
 21
28.96755845385206
 31
0.0
  0
LINE
  5
42B5
  8
240
  6
CONTINUOUS
 10
14.64644337567279
 20
31.74999999999994
 30
0.0
 11
13.03999999999985
 21
28.96755845385195
 31
0.0
  0
LINE
  5
42B6
  8
240
  6
CONTINUOUS
 10
7.5935566243268759
 20
-31.75000000000006
 30
0.0
 11
9.1999999999998181
 21
-28.96755845385206
 31
0.0
  0
LINE
  5
42B7
  8
240
  6
CONTINUOUS
 10
13.03999999999985
 20
-28.96755845385206
 30
0.0
 11
14.64644337567279
 21
-31.75000000000006
 31
0.0
  0
LINE
  5
42BA
  8
240
  6
CONTINUOUS
 10
14.64644337567279
 20
31.74999999999994
 30
0.0
 11
19.049999999999841
 21
31.74999999999994
 31
0.0
  0
LINE
  5
42BB
  8
240
  6
CONTINUOUS
 10
19.049999999999841
 20
31.74999999999994
 30
0.0
 11
19.049999999999841
 21
26.00000000000005
 31
0.0
  0
LINE
  5
42BC
  8
240
  6
CONTINUOUS
 10
19.049999999999841
 20
-31.75000000000006
 30
0.0
 11
19.049999999999841
 21
-25.99999999999995
 31
0.0
  0
LINE
  5
42BD
  8
240
  6
CONTINUOUS
 10
14.64644337567279
 20
-31.75000000000006
 30
0.0
 11
19.049999999999841
 21
-31.75000000000006
 31
0.0
  0
LINE
  5
42BE
  8
240
  6
CONTINUOUS
 10
0.9999999999986355
 20
31.74999999999994
 30
0.0
 11
7.5935566243268759
 21
31.74999999999994
 31
0.0
  0
LINE
  5
42BF
  8
240
  6
CONTINUOUS
 10
0.9999999999986355
 20
-31.75000000000006
 30
0.0
 11
0.9999999999986355
 21
-22.22500000000008
 31
0.0
  0
LINE
  5
42C0
  8
240
  6
CONTINUOUS
 10
0.9999999999986355
 20
-31.75000000000006
 30
0.0
 11
7.5935566243268759
 21
-31.75000000000006
 31
0.0
  0
LINE
  5
42C1
  8
240
  6
CONTINUOUS
 10
0.9999999999986355
 20
31.74999999999994
 30
0.0
 11
0.9999999999986355
 21
22.224999999999969
 31
0.0
  0
LINE
  5
42C2
  8
241
  6
CONTINUOUS
 10
19.049999999999841
 20
-25.99999999999995
 30
0.0
 11
19.049999999999841
 21
26.00000000000005
 31
0.0
  0
LINE
  5
42C3
  8
241
  6
CONTINUOUS
 10
9.1999999999998181
 20
28.17999999999989
 30
0.0
 11
9.1999999999998181
 21
-28.18000000000001
 31
0.0
  0
LINE
  5
42C4
  8
241
  6
CONTINUOUS
 10
13.03999999999985
 20
28.17999999999989
 30
0.0
 11
13.03999999999985
 21
-28.18000000000001
 31
0.0
  0
LINE
  5
42C5
  8
241
  6
CONTINUOUS
 10
14.644999999999859
 20
-31.747500000000048
 30
0.0
 11
14.644999999999859
 21
31.747499999999949
 31
0.0
  0
LINE
  5
42C6
  8
241
  6
CONTINUOUS
 10
-0.0000000000001137
 20
22.224999999999969
 30
0.0
 11
0.0000000000001137
 21
-22.22500000000008
 31
0.0
  0
LINE
  5
42C7
  8
241
  6
CONTINUOUS
 10
0.9999999999986355
 20
22.224999999999969
 30
0.0
 11
0.9999999999986355
 21
-22.22500000000008
 31
0.0
  0
LINE
  5
42C8
  8
241
  6
CONTINUOUS
 10
7.5949999999999109
 20
31.747499999999949
 30
0.0
 11
7.5949999999999109
 21
-31.747500000000048
 31
0.0
  0
LINE
  5
42CB
  8
245
  6
CENTER2
 10
-71.745351725821806
 20
-0.0000000000000568
 30
0.0
 11
84.0
 21
0.0000000000000568
 31
0.0
  0
LINE
  5
42CC
  8
240
  6
CONTINUOUS
 10
-0.0000000000001137
 20
22.224999999999969
 30
0.0
 11
0.9999999999986355
 21
22.224999999999969
 31
0.0
  0
LINE
  5
42CD
  8
240
  6
CONTINUOUS
 10
-0.0000000000001137
 20
-22.22500000000008
 30
0.0
 11
0.9999999999986355
 21
-22.22500000000008
 31
0.0
  0
TEXT
  5
42CE
  8
250
  6
CONTINUOUS
 10
-56.119551992267219
 20
-27.08950977889225
 30
0.0
 40
2.799999999999998
  1
BCV40
  7
YOKO
1001
ITEMNAME
1000
LNSP3
  0
LINE
  5
42CF
  8
250
  6
CONTINUOUS
 10
-40.386218658933892
 20
-28.08950977889225
 30
0.0
 11
-58.386218658933899
 21
-28.08950977889225
 31
0.0
1001
ITEMNAME
1000
LNSP2
  0
LINE
  5
42D0
  8
250
  6
CONTINUOUS
 10
-35.41390497452047
 20
-18.813632398902879
 30
0.0
 11
-34.124999998933909
 21
-17.248437498892262
 31
0.0
  0
LINE
  5
42D1
  8
250
  6
CONTINUOUS
 10
-34.836603656917731
 20
-19.14705050449794
 30
0.0
 11
-34.124999998933909
 21
-17.248437498892262
 31
0.0
  0
LINE
  5
42D2
  8
250
  6
CONTINUOUS
 10
-34.124999998933909
 20
-17.248437498892262
 30
0.0
 11
-35.125254315719111
 21
-18.98034145170044
 31
0.0
  0
LINE
  5
42D3
  8
250
  6
CONTINUOUS
 10
-35.125254315719111
 20
-18.98034145170044
 30
0.0
 11
-40.386218658933892
 21
-28.08950977889225
 31
0.0
1001
ACAD
1000
DSTYLE
1002
{
1070
     6
1000
OPEN
1070
    41
1040
2.0
1070
    42
1040
2.0
1070
    44
1040
2.0
1070
   140
1040
4.0
1070
   343
1005
0
1002
}
  0
LINE
  5
42D4
  8
247
  6
CONTINUOUS
 10
5.4999999999999432
 20
-18.75
 30
0.0
 11
5.5
 21
-14.115384615670051
 31
0.0
  0
LINE
  5
42D5
  8
247
  6
CONTINUOUS
 10
3.0
 20
-17.954893499987971
 30
0.0
 11
5.0999999999160082
 21
-18.557058810057342
 31
0.0
  0
LINE
  5
42D6
  8
247
  6
CONTINUOUS
 10
3.996153846113998
 20
-17.32515140351904
 30
0.0
 11
3.996153846113998
 21
-18.240536018867029
 31
0.0
  0
ARC
  5
42D7
  8
247
  6
CONTINUOUS
 10
3.3847190672940992
 20
-17.08726340194681
 30
0.0
 40
0.3876715809326743
 50
72.9978896752922
 51
172.92416621851359
  0
ARC
  5
42D8
  8
247
  6
CONTINUOUS
 10
3.305223131028014
 20
-17.38247755680413
 30
0.0
 40
0.693304796535877
 50
4.7429368522022122
 51
73.849226273266751
1001
GENIUS_GENOBJ-N-FIL_13
1002
{
1000
OWNER
1000
GEN
1002
}
1001
GENIUS_GENODEF_13
1002
{
1000
HIER
1070
     0
1002
}
1002
{
1000
MANEDIT
1070
     0
1002
}
1002
{
1000
NOSEL
1070
     0
1002
}
1002
{
1000
BEHIND
1070
     0
1002
}
1002
{
1000
OTHER
1070
     0
1002
}
1002
{
1000
REACTOR
1002
}
  0
LINE
  5
42D9
  8
247
  6
CONTINUOUS
 10
5.0999999999160082
 20
-17.64167419470936
 30
0.0
 11
5.0999999999160082
 21
-18.557058810057342
 31
0.0
  0
LINE
  5
42DA
  8
247
  6
CONTINUOUS
 10
3.0
 20
-17.954893499987971
 30
0.0
 11
3.0
 21
-17.039508884639979
 31
0.0
  0
ARC
  5
42DB
  8
247
  6
CONTINUOUS
 10
4.3874169627678707
 20
-17.378306476266861
 30
0.0
 40
0.394857301075386
 50
65.990941652528889
 51
172.26344345906909
  0
ARC
  5
42DC
  8
247
  6
CONTINUOUS
 10
4.3912003273325659
 20
-17.71244661042692
 30
0.0
 40
0.7123241612361686
 50
5.701985164259705
 51
77.277338436822006
1001
GENIUS_GENOBJ-N-FIL_13
1002
{
1000
OWNER
1000
GEN
1002
}
1001
GENIUS_GENODEF_13
1002
{
1000
HIER
1070
     0
1002
}
1002
{
1000
MANEDIT
1070
     0
1002
}
1002
{
1000
NOSEL
1070
     0
1002
}
1002
{
1000
BEHIND
1070
     0
1002
}
1002
{
1000
OTHER
1070
     0
1002
}
1002
{
1000
REACTOR
1002
}
  0
LINE
  5
42DD
  8
247
  6
CONTINUOUS
 10
5.0999999999160082
 20
-16.683981887063378
 30
0.0
 11
3.0
 21
-16.081816576994012
 31
0.0
  0
LINE
  5
42DE
  8
247
  6
CONTINUOUS
 10
3.0
 20
-14.58566273090798
 30
0.0
 11
3.0
 21
-14.981678364303599
 31
0.0
  0
LINE
  5
42DF
  8
247
  6
CONTINUOUS
 10
5.0999999999160082
 20
-15.60873965394398
 30
0.0
 11
5.0999999999160082
 21
-15.17797042319199
 31
0.0
  0
ARC
  5
42E0
  8
247
  6
CONTINUOUS
 10
4.458299595083357
 20
-14.381816577069969
 30
0.0
 40
1.576855057639547
 50
202.35948814152911
 51
254.99324854284649
  0
ARC
  5
42E1
  8
247
  6
CONTINUOUS
 10
3.5658188585381341
 20
-14.847511366133229
 30
0.0
 40
0.6234706797009447
 50
94.994589319075317
 51
155.1663289573039
1001
GENIUS_GENOBJ-N-FIL_13
1002
{
1000
OWNER
1000
GEN
1002
}
1001
GENIUS_GENODEF_13
1002
{
1000
HIER
1070
     0
1002
}
1002
{
1000
MANEDIT
1070
     0
1002
}
1002
{
1000
NOSEL
1070
     0
1002
}
1002
{
1000
BEHIND
1070
     0
1002
}
1002
{
1000
OTHER
1070
     0
1002
}
1002
{
1000
REACTOR
1002
}
  0
ARC
  5
42E2
  8
247
  6
CONTINUOUS
 10
4.1621021219694381
 20
-15.44418395103281
 30
0.0
 40
0.9749472149106983
 50
15.8460965557808
 51
82.325137004169278
  0
ARC
  5
42E3
  8
247
  6
CONTINUOUS
 10
4.3714704019710631
 20
-15.035211638772241
 30
0.0
 40
0.9271945638692009
 50
249.7136016704969
 51
321.78874565641149
1001
GENIUS_GENOBJ-N-FIL_13
1002
{
1000
OWNER
1000
GEN
1002
}
1001
GENIUS_GENODEF_13
1002
{
1000
HIER
1070
     0
1002
}
1002
{
1000
MANEDIT
1070
     0
1002
}
1002
{
1000
NOSEL
1070
     0
1002
}
1002
{
1000
BEHIND
1070
     0
1002
}
1002
{
1000
OTHER
1070
     0
1002
}
1002
{
1000
REACTOR
1002
}
  0
LINE
  5
42E4
  8
247
  6
CONTINUOUS
 10
4.2923076922559744
 20
-14.962585807815961
 30
0.0
 11
4.2923076922559744
 21
-14.47797042321997
 31
0.0
  0
ARC
  5
42E5
  8
247
  6
CONTINUOUS
 10
4.25
 20
-18.75
 30
0.0
 40
1.25
 50
180.0
 51
0.0
  0
LINE
  5
42E6
  8
247
  6
CONTINUOUS
 10
3.0
 20
-18.75
 30
0.0
 11
3.0
 21
-18.303846153914041
 31
0.0
  0
ARC
  5
42E7
  8
247
  6
CONTINUOUS
 10
4.25
 20
-14.115384615670051
 30
0.0
 40
1.25
 50
0.0
 51
180.0
  0
LINE
  5
4300
  8
243
  6
HIDDEN2
 10
0.9999999999988348
 20
-25.019999999999929
 30
0.0
 11
19.851002512578638
 21
-25.019999999999929
 31
0.0
  0
LINE
  5
4301
  8
243
  6
HIDDEN2
 10
1.2999999999988461
 20
22.59999999999993
 30
0.0
 11
27.0999999999996
 21
22.599999999999959
 31
0.0
  0
LINE
  5
4302
  8
243
  6
HIDDEN2
 10
27.10000000000019
 20
25.000000000000071
 30
0.0
 11
27.0999999999996
 21
22.599999999999959
 31
0.0
  0
LINE
  5
4824
  8
243
  6
HIDDEN2
 10
46.200000000000003
 20
17.943228356404969
 30
0.0
 11
76.200000000000003
 21
18.68966766919376
 31
0.0
1001
GRPNAME
1000
PASTMD1E
  0
LINE
  5
4827
  8
243
  6
HIDDEN2
 10
23.95000000000001
 20
-10.999999999999901
 30
0.0
 11
23.95000000000001
 21
-6.9999999999999201
 31
0.0
  0
LINE
  5
4828
  8
243
  6
HIDDEN2
 10
12.95000000000001
 20
-10.999999999999901
 30
0.0
 11
11.950000000000021
 21
-9.9999999999999201
 31
0.0
  0
LINE
  5
4829
  8
243
  6
HIDDEN2
 10
11.950000000000021
 20
-9.9999999999999201
 30
0.0
 11
11.950000000000021
 21
10.000000000000069
 31
0.0
  0
LINE
  5
482A
  8
243
  6
HIDDEN2
 10
11.950000000000021
 20
10.000000000000069
 30
0.0
 11
12.95000000000001
 21
11.000000000000069
 31
0.0
  0
LINE
  5
482B
  8
243
  6
HIDDEN2
 10
12.95000000000001
 20
11.000000000000069
 30
0.0
 11
23.95000000000001
 21
11.000000000000069
 31
0.0
  0
LINE
  5
482C
  8
243
  6
HIDDEN2
 10
12.95000000000001
 20
-10.999999999999901
 30
0.0
 11
23.95000000000001
 21
-10.999999999999901
 31
0.0
  0
LINE
  5
482D
  8
240
  6
CONTINUOUS
 10
79.950000000000003
 20
8.0000000000000782
 30
0.0
 11
80.950000000000017
 21
7.0000000000000764
 31
0.0
  0
LINE
  5
482E
  8
240
  6
CONTINUOUS
 10
80.950000000000017
 20
-6.9999999999999201
 30
0.0
 11
80.950000000000017
 21
7.0000000000000764
 31
0.0
  0
LINE
  5
482F
  8
240
  6
CONTINUOUS
 10
80.950000000000017
 20
-6.9999999999999201
 30
0.0
 11
79.950000000000003
 21
-7.9999999999999201
 31
0.0
  0
LINE
  5
4830
  8
240
  6
CONTINUOUS
 10
76.200000000000017
 20
8.0000000000000782
 30
0.0
 11
79.950000000000003
 21
8.0000000000000782
 31
0.0
  0
LINE
  5
4831
  8
243
  6
HIDDEN2
 10
45.950000000000053
 20
7.0000000000000764
 30
0.0
 11
46.95000000000006
 21
8.0000000000000782
 31
0.0
  0
LINE
  5
4832
  8
243
  6
HIDDEN2
 10
46.95000000000006
 20
-7.9999999999999201
 30
0.0
 11
45.950000000000053
 21
-6.9999999999999201
 31
0.0
  0
LINE
  5
4833
  8
243
  6
HIDDEN2
 10
46.95000000000006
 20
-7.9999999999999201
 30
0.0
 11
76.200000000000017
 21
-7.9999999999999201
 31
0.0
  0
LINE
  5
4834
  8
243
  6
HIDDEN2
 10
23.95000000000001
 20
-6.9999999999999201
 30
0.0
 11
45.950000000000003
 21
-6.9999999999999201
 31
0.0
  0
LINE
  5
4835
  8
243
  6
HIDDEN2
 10
23.95000000000001
 20
7.0000000000000764
 30
0.0
 11
45.950000000000053
 21
7.0000000000000764
 31
0.0
  0
LINE
  5
4836
  8
244
  6
HIDDEN2
 10
46.200000000000067
 20
-7.2499999999999201
 30
0.0
 11
76.200000000000003
 21
-7.2499999999999201
 31
0.0
  0
LINE
  5
4837
  8
242
  6
CONTINUOUS
 10
76.200000000000003
 20
7.2500000000000764
 30
0.0
 11
80.700000000000003
 21
7.2500000000000764
 31
0.0
  0
LINE
  5
4838
  8
243
  6
HIDDEN2
 10
18.949999999999982
 20
2.7500000000000639
 30
0.0
 11
80.950000000000017
 21
2.750000000000123
 31
0.0
1001
GRPNAME
1000
PASTMD0F
  0
LINE
  5
4839
  8
243
  6
HIDDEN2
 10
18.950000000000031
 20
-2.7499999999999321
 30
0.0
 11
80.950000000000017
 21
-2.7499999999998721
 31
0.0
1001
GRPNAME
1000
PASTMD0F
  0
LINE
  5
483A
  8
243
  6
HIDDEN2
 10
11.95000000000007
 20
-2.8867513459481851
 30
0.0
 11
18.95000000000006
 21
-2.88675134594807
 31
0.0
1001
GRPNAME
1000
PASTMD0F
  0
LINE
  5
483B
  8
243
  6
HIDDEN2
 10
11.94999999999996
 20
2.8867513459480918
 30
0.0
 11
18.94999999999995
 21
2.886751345948205
 31
0.0
1001
GRPNAME
1000
PASTMD0F
  0
LINE
  5
483C
  8
243
  6
HIDDEN2
 10
11.94999999999996
 20
5.7735026918962351
 30
0.0
 11
18.94999999999995
 21
5.773502691896347
 31
0.0
1001
GRPNAME
1000
PASTMD0F
  0
LINE
  5
483D
  8
243
  6
HIDDEN2
 10
18.95000000000006
 20
-5.7735026918962147
 30
0.0
 11
18.94999999999995
 21
5.773502691896347
 31
0.0
1001
GRPNAME
1000
PASTMD0F
  0
LINE
  5
483E
  8
243
  6
HIDDEN2
 10
11.95000000000007
 20
-5.7735026918963284
 30
0.0
 11
18.95000000000006
 21
-5.7735026918962147
 31
0.0
1001
GRPNAME
1000
PASTMD0F
  0
LINE
  5
4842
  8
243
  6
HIDDEN2
 10
23.95000000000001
 20
7.0000000000000764
 30
0.0
 11
23.95000000000001
 21
11.000000000000069
 31
0.0
  0
LINE
  5
4843
  8
250
  6
CONTINUOUS
 10
78.343641513861783
 20
35.325208028299983
 30
0.0
 11
91.834309074122302
 21
35.325208028299983
 31
0.0
1001
ITEMNAME
1000
LNSP2
  0
LINE
  5
4844
  8
243
  6
HIDDEN2
 10
46.200000000000003
 20
-15.63371786406829
 30
0.0
 11
76.200000000000173
 21
-16.380000000000081
 31
0.0
1001
GRPNAME
1000
PASTMD0F
  0
TEXT
  5
4845
  8
250
  6
CONTINUOUS
 10
83.405737645550929
 20
36.325208028299983
 30
0.0
 40
3.0
  1
C5
  7
YOKO
1001
ITEMNAME
1000
LNSP3
1001
ACAD
1000
MTEXTBEGIN
1070
    73
1070
     1
1070
    44
1040
1.0
1070
    74
1070
     0
1000
MTEXTEND
  0
LINE
  5
484B
  8
240
  6
CONTINUOUS
 10
79.949999999999974
 20
-7.9999999999999769
 30
0.0
 11
80.949999999999974
 21
-6.9999999999999831
 31
0.0
  0
LINE
  5
484C
  8
240
  6
CONTINUOUS
 10
76.200000000000003
 20
-7.999999999999968
 30
0.0
 11
79.949999999999974
 21
-7.9999999999999769
 31
0.0
  0
LINE
  5
484D
  8
243
  6
HIDDEN2
 10
46.950000000000102
 20
8.0000000000001297
 30
0.0
 11
76.200000000000031
 21
8.0000000000000302
 31
0.0
  0
LINE
  5
484E
  8
244
  6
HIDDEN2
 10
46.200000000000067
 20
7.250000000000127
 30
0.0
 11
76.200000000000031
 21
7.2500000000000302
 31
0.0
  0
LINE
  5
484F
  8
242
  6
CONTINUOUS
 10
76.200000000000003
 20
-7.249999999999968
 30
0.0
 11
80.699999999999974
 21
-7.2499999999999822
 31
0.0
  0
LINE
  5
4850
  8
241
  6
CONTINUOUS
 10
76.200000000000003
 20
-7.999999999999968
 30
0.0
 11
76.200000000000003
 21
8.0000000000000782
 31
0.0
  0
TEXT
  5
4851
  8
241
  6
CONTINUOUS
 10
-70.0
 20
56.0
 30
0.0
 40
5.0
  1
BCV40Y-C5-3
  7
YOKO
 11
-70.0
 21
56.0
 31
0.0
 73
     1
  0
LINE
  5
4D40
  8
240
  6
CONTINUOUS
 10
76.200000000000003
 20
-25.0
 30
0.0
 11
20.049999999999841
 21
-24.99999999999995
 31
0.0
  0
LINE
  5
4D41
  8
240
  6
CONTINUOUS
 10
76.200000000000003
 20
24.999999999999972
 30
0.0
 11
20.049999999999851
 21
25.00000000000005
 31
0.0
  0
LINE
  5
4D42
  8
240
  6
CONTINUOUS
 10
76.200000000000003
 20
8.0000000000000782
 30
0.0
 11
76.200000000000003
 21
24.999999999999972
 31
0.0
  0
ARC
  5
4D43
  8
240
  6
CONTINUOUS
 10
20.049999999999841
 20
26.00000000000005
 30
0.0
 40
1.0
 50
180.0
 51
269.99999999999989
1001
GENIUS_GENODEF_13
1002
{
1000
HIER
1070
     0
1002
}
1002
{
1000
MANEDIT
1070
     0
1002
}
1002
{
1000
NOSEL
1070
     0
1002
}
1002
{
1000
BEHIND
1070
     0
1002
}
1002
{
1000
OTHER
1070
     0
1002
}
1002
{
1000
REACTOR
1002
}
1001
GENIUS_GENOBJ-N-FIL_13
1002
{
1000
OWNER
1000
GEN
1002
}
  0
ARC
  5
4D44
  8
240
  6
CONTINUOUS
 10
20.049999999999841
 20
-25.99999999999995
 30
0.0
 40
1.0
 50
89.999999999999943
 51
180.0
1001
GENIUS_GENOBJ-N-FIL_13
1002
{
1000
OWNER
1000
GEN
1002
}
1001
GENIUS_GENODEF_13
1002
{
1000
HIER
1070
     0
1002
}
1002
{
1000
MANEDIT
1070
     0
1002
}
1002
{
1000
NOSEL
1070
     0
1002
}
1002
{
1000
BEHIND
1070
     0
1002
}
1002
{
1000
OTHER
1070
     0
1002
}
1002
{
1000
REACTOR
1002
}
  0
LINE
  5
4E16
  8
240
  6
CONTINUOUS
 10
76.200000000000017
 20
-7.9999999999999742
 30
0.0
 11
76.200000000000031
 21
-24.999999999999879
 31
0.0
  0
LINE
  5
4E17
  8
250
  6
CONTINUOUS
 10
-0.0000000000001137
 20
22.724999999999969
 30
0.0
 11
-0.0000000000001124
 21
43.0
 31
0.0
  0
LINE
  5
4E18
  8
250
  6
CONTINUOUS
 10
76.200000000000003
 20
25.499999999999972
 30
0.0
 11
76.200000000000003
 21
43.0
 31
0.0
  0
LINE
  5
4E19
  8
250
  6
CONTINUOUS
 10
2.2299999999998872
 20
42.0
 30
0.0
 11
73.969999999999999
 21
42.0
 31
0.0
  0
LINE
  5
4E1D
  8
250
  6
CONTINUOUS
 10
76.700000000000003
 20
24.999999999999972
 30
0.0
 11
98.870730041264991
 21
24.999999999999961
 31
0.0
  0
LINE
  5
4E1E
  8
250
  6
CONTINUOUS
 10
76.700000000000003
 20
-25.0
 30
0.0
 11
98.870730041264991
 21
-25.0
 31
0.0
  0
LINE
  5
4E1F
  8
250
  6
CONTINUOUS
 10
97.870730041264991
 20
22.769999999999971
 30
0.0
 11
97.870730041264991
 21
-22.77000000000001
 31
0.0
  0
TEXT
  5
4E23
  8
250
  6
CONTINUOUS
 10
33.964393742430467
 20
42.8666036100933
 30
0.0
 40
2.799999999999998
  1
3.00
  0
LINE
  5
4E24
  8
250
  6
CONTINUOUS
 10
73.969999999999999
 20
42.371666666666663
 30
0.0
 11
76.200000000000003
 21
42.0
 31
0.0
  0
LINE
  5
4E25
  8
250
  6
CONTINUOUS
 10
73.969999999999999
 20
41.62833333333333
 30
0.0
 11
76.200000000000003
 21
42.0
 31
0.0
  0
LINE
  5
4E26
  8
250
  6
CONTINUOUS
 10
76.200000000000003
 20
42.0
 30
0.0
 11
73.969999999999999
 21
42.0
 31
0.0
  0
LINE
  5
4E27
  8
250
  6
CONTINUOUS
 10
2.2299999999998872
 20
41.62833333333333
 30
0.0
 11
-0.0000000000001125
 21
42.0
 31
0.0
  0
LINE
  5
4E28
  8
250
  6
CONTINUOUS
 10
2.2299999999998872
 20
42.371666666666663
 30
0.0
 11
-0.0000000000001125
 21
42.0
 31
0.0
  0
LINE
  5
4E29
  8
250
  6
CONTINUOUS
 10
-0.0000000000001125
 20
42.0
 30
0.0
 11
2.2299999999998872
 21
42.0
 31
0.0
  0
TEXT
  5
4E2A
  8
250
  6
CONTINUOUS
 10
96.870730041264991
 20
-7.2000000000000011
 30
0.0
 40
2.799999999999998
  1
\U+22051.969
 50
90.0
  0
LINE
  5
4E2B
  8
250
  6
CONTINUOUS
 10
98.242396707931675
 20
-22.77000000000001
 30
0.0
 11
97.870730041264991
 21
-25.0
 31
0.0
  0
LINE
  5
4E2C
  8
250
  6
CONTINUOUS
 10
97.499063374598293
 20
-22.77000000000001
 30
0.0
 11
97.870730041264991
 21
-25.0
 31
0.0
  0
LINE
  5
4E2D
  8
250
  6
CONTINUOUS
 10
97.870730041264991
 20
-25.0
 30
0.0
 11
97.870730041264991
 21
-22.77000000000001
 31
0.0
  0
LINE
  5
4E2E
  8
250
  6
CONTINUOUS
 10
97.499063374598293
 20
22.769999999999971
 30
0.0
 11
97.870730041264991
 21
24.999999999999961
 31
0.0
  0
LINE
  5
4E2F
  8
250
  6
CONTINUOUS
 10
98.242396707931675
 20
22.769999999999971
 30
0.0
 11
97.870730041264991
 21
24.999999999999961
 31
0.0
  0
LINE
  5
4E30
  8
250
  6
CONTINUOUS
 10
97.870730041264991
 20
24.999999999999961
 30
0.0
 11
97.870730041264991
 21
22.769999999999971
 31
0.0
  0
LINE
  5
50EB
  8
245
  6
CENTER2
 10
112.9999999999855
 20
0.0
 30
0.0
 11
166.9999999999855
 21
0.0
 31
0.0
1001
GRPNAME
1000
PASTMD1L
  0
CIRCLE
  5
50EC
  8
240
  6
CONTINUOUS
 10
139.9999999999855
 20
0.0000000000081855
 30
0.0
 40
25.0
1001
GRPNAME
1000
PASTMD1N
  0
LINE
  5
50ED
  8
245
  6
CENTER2
 10
123.00858157773879
 20
-9.8099999999985243
 30
0.0
 11
156.9914184222323
 21
9.8100000000149521
 31
0.0
1001
GRPNAME
1000
PASTMD1L
  0
LINE
  5
50EE
  8
245
  6
CENTER2
 10
123.00858157773111
 20
9.810000000001537
 30
0.0
 11
156.9914184222402
 21
-9.8099999999849956
 31
0.0
1001
GRPNAME
1000
PASTMD1L
  0
LINE
  5
50EF
  8
245
  6
CENTER2
 10
139.99999999997749
 20
27.000000000008189
 30
0.0
 11
139.99999999997749
 21
-26.999999999991822
 31
0.0
1001
GRPNAME
1000
PASTMD1L
  0
ARC
  5
50F0
  8
241
  6
CONTINUOUS
 10
147.75048211241889
 20
-4.4747429339543867
 30
0.0
 40
25.329505201955872
 50
122.528981630243
 51
177.47101836974031
  0
ARC
  5
50F1
  8
241
  6
CONTINUOUS
 10
139.99999999997749
 20
7.8438131327865479
 30
0.0
 40
10.7762238198986
 50
56.995543074587601
 51
123.0044569254124
  0
ARC
  5
50F2
  8
241
  6
CONTINUOUS
 10
139.99999999995691
 20
8.9494858679336744
 30
0.0
 40
25.329505201955872
 50
242.52898163024409
 51
297.4710183697411
  0
ARC
  5
50F3
  8
241
  6
CONTINUOUS
 10
133.20705856443701
 20
-3.9219065663879449
 30
0.0
 40
10.7762238198986
 50
176.9955430745861
 51
243.0044569254145
  0
ARC
  5
50F4
  8
241
  6
CONTINUOUS
 10
132.24951788753819
 20
-4.474742933979285
 30
0.0
 40
25.329505201955861
 50
2.5289816302433081
 51
57.471018369739831
  0
ARC
  5
50F5
  8
241
  6
CONTINUOUS
 10
146.7929414354995
 20
-3.921906566398603
 30
0.0
 40
10.7762238198986
 50
296.9955430745855
 51
3.004456925413892
  0
LINE
  5
50F7
  8
250
  6
CONTINUOUS
 10
73.497379879283926
 20
26.931236650439271
 30
0.0
 11
78.343641513861783
 21
35.325208028299983
 31
0.0
1001
ACAD
1000
DSTYLE
1002
{
1070
     5
1000
OPEN
1070
    78
1070
     8
1070
   140
1040
3.0
1002
}
  0
LINE
  5
50F8
  8
250
  6
CONTINUOUS
 10
73.175507104210723
 20
27.117069983772609
 30
0.0
 11
72.382379879283931
 21
24.999999999999979
 31
0.0
  0
LINE
  5
50F9
  8
250
  6
CONTINUOUS
 10
73.819252654357143
 20
26.74540331710595
 30
0.0
 11
72.382379879283931
 21
24.999999999999979
 31
0.0
  0
LINE
  5
50FA
  8
250
  6
CONTINUOUS
 10
72.382379879283931
 20
24.999999999999979
 30
0.0
 11
73.497379879283926
 21
26.931236650439271
 31
0.0
  0
VIEWPORT
  5
22
 67
     1
  8
0
 10
261.51769911504419
 20
148.5
 30
0.0
 40
523.0353982300885
 41
297.0
 68
     1
 69
     1
1001
ACAD
1000
MVIEW
1002
{
1070
    16
1010
0.0
1020
0.0
1030
0.0
1010
0.0
1020
0.0
1030
1.0
1040
0.0
1040
297.0
1040
261.51769911504419
1040
148.5
1040
50.0
1040
0.0
1040
0.0
1070
     0
1070
   100
1070
     1
1070
     1
1070
     0
1070
     0
1070
     0
1070
     0
1040
0.0
1040
0.0
1040
0.0
1040
1.0
1040
1.0
1040
10.0
1040
10.0
1070
     0
1002
{
1002
}
1002
}
1001
GENIUS_GENODEF_13
1002
{
1000
HIER
1070
     0
1002
}
1002
{
1000
MANEDIT
1070
     0
1002
}
1002
{
1000
NOSEL
1070
     0
1002
}
1002
{
1000
BEHIND
1070
     0
1002
}
1002
{
1000
OTHER
1070
     0
1002
}
1002
{
1000
REACTOR
1002
}
1001
GENIUS_GENOBJ-N-SDF_13
1002
{
1000
OWNER
1000
GEN
1002
}
1001
GENIUS_GENSCREG_15
1000
PF
1040
1.0
1000
DF
1040
1.0
1000
MIN
1011
0.0
1021
0.0
1031
0.0
1021
0.0
1031
0.0
1000
MAX
1011
523.0353982300885
1021
0.0
1031
0.0
1021
297.0
1031
0.0
1000
FLAGS
1070
     4
  0
ENDSEC
  0
EOF
