  0
SECTION
  2
HEADER
  9
$ACADVER
  1
AC1009
  9
$INSBASE
 10
0.0
 20
0.0
 30
0.0
  9
$EXTMIN
 10
-69.25
 20
-40.0000000000366285
 30
0.0
  9
$EXTMAX
 10
159.7000000000059003
 20
82.0
 30
0.0
  9
$LIMMIN
 10
0.0
 20
0.0
  9
$LIMMAX
 10
297.0
 20
210.0
  9
$ORTHOMODE
 70
     0
  9
$REGENMODE
 70
     1
  9
$FILLMODE
 70
     1
  9
$QTEXTMODE
 70
     0
  9
$MIRRTEXT
 70
     1
  9
$DRAGMODE
 70
     2
  9
$LTSCALE
 40
10.0
  9
$OSMODE
 70
   807
  9
$ATTMODE
 70
     1
  9
$TEXTSIZE
 40
3.0
  9
$TRACEWID
 40
1.0
  9
$TEXTSTYLE
  7
YOKO
  9
$CLAYER
  8
240
  9
$CELTYPE
  6
BYLAYER
  9
$CECOLOR
 62
   256
  9
$DIMSCALE
 40
1.0
  9
$DIMASZ
 40
2.2299999999999991
  9
$DIMEXO
 40
0.5
  9
$DIMDLI
 40
7.0
  9
$DIMRND
 40
0.0
  9
$DIMDLE
 40
0.0
  9
$DIMEXE
 40
1.0
  9
$DIMTP
 40
0.0
  9
$DIMTM
 40
0.01
  9
$DIMTXT
 40
2.7999999999999989
  9
$DIMCEN
 40
0.0
  9
$DIMTSZ
 40
0.0
  9
$DIMTOL
 70
     0
  9
$DIMLIM
 70
     0
  9
$DIMTIH
 70
     0
  9
$DIMTOH
 70
     0
  9
$DIMSE1
 70
     0
  9
$DIMSE2
 70
     0
  9
$DIMTAD
 70
     3
  9
$DIMZIN
 70
     9
  9
$DIMBLK
  1
OPEN
  9
$DIMASO
 70
     1
  9
$DIMSHO
 70
     1
  9
$DIMPOST
  1

  9
$DIMAPOST
  1

  9
$DIMALT
 70
     0
  9
$DIMALTD
 70
     2
  9
$DIMALTF
 40
25.3999999999999986
  9
$DIMLFAC
 40
1.0
  9
$DIMTOFL
 70
     1
  9
$DIMTVP
 40
0.0
  9
$DIMTIX
 70
     1
  9
$DIMSOXD
 70
     0
  9
$DIMSAH
 70
     0
  9
$DIMBLK1
  1

  9
$DIMBLK2
  1

  9
$DIMSTYLE
  2
BIGT
  9
$DIMCLRD
 70
   256
  9
$DIMCLRE
 70
   256
  9
$DIMCLRT
 70
    40
  9
$DIMTFAC
 40
1.0
  9
$DIMGAP
 40
1.0
  9
$LUNITS
 70
     2
  9
$LUPREC
 70
     3
  9
$SKETCHINC
 40
1.0
  9
$FILLETRAD
 40
0.0
  9
$AUNITS
 70
     0
  9
$AUPREC
 70
     3
  9
$MENU
  1
.
  9
$ELEVATION
 40
0.0
  9
$PELEVATION
 40
0.0
  9
$THICKNESS
 40
0.0
  9
$LIMCHECK
 70
     0
  9
$BLIPMODE
 70
     0
  9
$CHAMFERA
 40
0.25
  9
$CHAMFERB
 40
0.25
  9
$SKPOLY
 70
     0
  9
$TDCREATE
 40
2458176.6257870369590819
  9
$TDUPDATE
 40
2458178.5978124998509884
  9
$TDINDWG
 40
0.0611689815
  9
$TDUSRTIMER
 40
0.0611689815
  9
$USRTIMER
 70
     1
  9
$ANGBASE
 50
0.0
  9
$ANGDIR
 70
     0
  9
$PDMODE
 70
     1
  9
$PDSIZE
 40
0.0
  9
$PLINEWID
 40
0.0
  9
$COORDS
 70
     1
  9
$SPLFRAME
 70
     0
  9
$SPLINETYPE
 70
     6
  9
$SPLINESEGS
 70
     4
  9
$ATTDIA
 70
     1
  9
$ATTREQ
 70
     1
  9
$HANDLING
 70
     1
  9
$HANDSEED
  5
1FDC
  9
$SURFTAB1
 70
     6
  9
$SURFTAB2
 70
     6
  9
$SURFTYPE
 70
     6
  9
$SURFU
 70
     6
  9
$SURFV
 70
     6
  9
$UCSNAME
  2

  9
$UCSORG
 10
0.0
 20
0.0
 30
0.0
  9
$UCSXDIR
 10
1.0
 20
0.0
 30
0.0
  9
$UCSYDIR
 10
0.0
 20
1.0
 30
0.0
  9
$PUCSNAME
  2

  9
$PUCSORG
 10
0.0
 20
0.0
 30
0.0
  9
$PUCSXDIR
 10
1.0
 20
0.0
 30
0.0
  9
$PUCSYDIR
 10
0.0
 20
1.0
 30
0.0
  9
$USERI1
 70
     1
  9
$USERI2
 70
     0
  9
$USERI3
 70
     0
  9
$USERI4
 70
     0
  9
$USERI5
 70
     0
  9
$USERR1
 40
0.0
  9
$USERR2
 40
0.0
  9
$USERR3
 40
0.0
  9
$USERR4
 40
0.0
  9
$USERR5
 40
0.0
  9
$WORLDVIEW
 70
     1
  9
$SHADEDGE
 70
     3
  9
$SHADEDIF
 70
    70
  9
$TILEMODE
 70
     1
  9
$MAXACTVP
 70
    16
  9
$PLIMCHECK
 70
     0
  9
$PEXTMIN
 10
1.0000000000000000E+20
 20
1.0000000000000000E+20
 30
1.0000000000000000E+20
  9
$PEXTMAX
 10
-1.0000000000000000E+20
 20
-1.0000000000000000E+20
 30
-1.0000000000000000E+20
  9
$PLIMMIN
 10
0.0
 20
0.0
  9
$PLIMMAX
 10
420.0
 20
297.0
  9
$UNITMODE
 70
     0
  9
$VISRETAIN
 70
     1
  9
$PLINEGEN
 70
     0
  9
$PSLTSCALE
 70
     1
  0
ENDSEC
  0
SECTION
  2
TABLES
  0
TABLE
  2
VPORT
 70
     1
  0
VPORT
  2
*ACTIVE
 70
     0
 10
0.0
 20
0.0
 11
1.0
 21
1.0
 12
38.1039832489105379
 22
18.2444427373651017
 13
0.0
 23
0.0
 14
7.0
 24
7.0
 15
7.0
 25
7.0
 16
0.0
 26
0.0
 36
1.0
 17
0.0
 27
0.0
 37
0.0
 40
184.8589150390236
 41
1.801569506726457
 42
50.0
 43
0.0
 44
0.0
 50
0.0
 51
0.0
 71
     0
 72
  2000
 73
     1
 74
     0
 75
     0
 76
     1
 77
     0
 78
     0
  0
ENDTAB
  0
TABLE
  2
LTYPE
 70
    16
  0
LTYPE
  2
CONTINUOUS
 70
     0
  3
Solid line
 72
    65
 73
     0
 40
0.0
  0
LTYPE
  2
CENTER2
 70
     0
  3
___ _ ___ _ ___ _ ___ _ ___ _ ___ _ ___ _ ___ _
 72
    65
 73
     4
 40
1.125
 49
0.75
 49
-0.125
 49
0.125
 49
-0.125
  0
LTYPE
  2
HIDDEN2
 70
     0
  3
_ _ _ _ _ _ _ _ _ _ _ _ _ _ _ _ _ _ _ _ _ _ _ _
 72
    65
 73
     2
 40
0.1875
 49
0.125
 49
-0.0625
  0
LTYPE
  2
PHANTOM2
 70
     0
  3
___ _ _ ___ _ _ ___ _ _ ___ _ _ ___ _ _ ___ _ _
 72
    65
 73
     6
 40
1.25
 49
0.625
 49
-0.125
 49
0.125
 49
-0.125
 49
0.125
 49
-0.125
  0
LTYPE
  2
CENTER
 70
     0
  3
____ _ ____ _ ____ _ ____ _ ____ _ ____ _ ____ 
 72
    65
 73
     4
 40
2.0
 49
1.25
 49
-0.25
 49
0.25
 49
-0.25
  0
LTYPE
  2
AM_ISO02W050
 70
     0
  3
__ __ __ __ __ __ __ __ __ __ __ __ __ __ __
 72
    65
 73
     2
 40
7.5
 49
6.0
 49
-1.5
  0
LTYPE
  2
AMCONSTR
 70
     0
  3
_______________________
 72
    65
 73
     2
 40
9999.0
 49
9999.0
 49
0.0
  0
LTYPE
  2
ACISOWELD
 70
     0
  3
_ _ _ _ _
 72
    65
 73
     2
 40
2.0
 49
2.0
 49
-1.0
  0
LTYPE
  2
ACISOTGB
 70
     0
  3
__ . . __ . .
 72
    65
 73
     6
 40
9.0
 49
4.0
 49
-1.0
 49
1.0
 49
-1.0
 49
1.0
 49
-1.0
  0
LTYPE
  2
ACISOTGL
 70
     0
  3
_ _ _ _ _
 72
    65
 73
     2
 40
3.0
 49
2.0
 49
-1.0
  0
LTYPE
  2
ACJISTGB
 70
     0
  3
__ . . __ . .
 72
    65
 73
     6
 40
9.0
 49
4.0
 49
-1.0
 49
1.0
 49
-1.0
 49
1.0
 49
-1.0
  0
LTYPE
  2
ACJISTGL
 70
     0
  3
_ _ _ _ _
 72
    65
 73
     2
 40
3.0
 49
2.0
 49
-1.0
  0
LTYPE
  2
HIDDEN
 70
     0
  3
Hidden __ __ __ __ __ __ __ __ __ __ __ __ __ _
 72
    65
 73
     2
 40
9.5249999999999986
 49
6.3499999999999988
 49
-3.1749999999999989
  0
LTYPE
  2
AMZIGZAG2
 70
     0
  3
/\/-/\/-/\/-/\/-/\/-/\/
 72
    65
 73
     2
 40
0.4401
 49
0.0001
 49
-0.4400000000000003
  0
LTYPE
  2
ACANSTGB
 70
     0
  3
__ . . __ . .
 72
    65
 73
     6
 40
0.35433070866
 49
0.15748031496
 49
-0.03937007874
 49
0.03937007874
 49
-0.03937007874
 49
0.03937007874
 49
-0.03937007874
  0
LTYPE
  2
ACANSTGL
 70
     0
  3
_ _ _ _ _
 72
    65
 73
     2
 40
0.11811023622
 49
0.07874015748
 49
-0.03937007874
  0
ENDTAB
  0
TABLE
  2
LAYER
 70
     9
  0
LAYER
  2
0
 70
     0
 62
     7
  6
CONTINUOUS
  0
LAYER
  2
DEFPOINTS
 70
     0
 62
     7
  6
CONTINUOUS
  0
LAYER
  2
245
 70
     0
 62
     2
  6
CENTER2
  0
LAYER
  2
240
 70
     0
 62
     4
  6
CONTINUOUS
  0
LAYER
  2
241
 70
     0
 62
   211
  6
CONTINUOUS
  0
LAYER
  2
242
 70
     0
 62
     3
  6
CONTINUOUS
  0
LAYER
  2
243
 70
     0
 62
   211
  6
HIDDEN2
  0
LAYER
  2
247
 70
     0
 62
    60
  6
CONTINUOUS
  0
LAYER
  2
250
 70
     0
 62
     3
  6
CONTINUOUS
  0
ENDTAB
  0
TABLE
  2
STYLE
 70
     7
  0
STYLE
  2
STANDARD
 70
     0
 40
0.0
 41
1.0
 50
0.0
 71
     0
 42
3.0
  3
romans.shx
  4
extfont.shx
  0
STYLE
  2
ACISOTS
 70
     0
 40
1.0
 41
1.0
 50
0.0
 71
     0
 42
3.0
  3
amgdt.shx
  4
extfont.shx
  0
STYLE
  2
ACISOGDT
 70
     0
 40
0.0
 41
1.0
 50
0.0
 71
     0
 42
3.0
  3
amgdt.shx
  4
extfont.shx
  0
STYLE
  2
ACJISTS
 70
     0
 40
1.0
 41
1.0
 50
0.0
 71
     0
 42
3.0
  3
amgdt.shx
  4
extfont.shx
  0
STYLE
  2
ACJISGDT
 70
     0
 40
0.0
 41
1.0
 50
0.0
 71
     0
 42
3.0
  3
amgdt.shx
  4
extfont.shx
  0
STYLE
  2
YOKO
 70
     0
 40
0.0
 41
1.0
 50
0.0
 71
     0
 42
3.0
  3
romans.shx
  4
extfont.shx
  0
STYLE
  2
ACANSGDT
 70
     0
 40
0.0
 41
1.0
 50
0.0
 71
     0
 42
3.0
  3
amgdt.shx
  4

  0
ENDTAB
  0
TABLE
  2
VIEW
 70
     0
  0
ENDTAB
  0
TABLE
  2
UCS
 70
     0
  0
ENDTAB
  0
TABLE
  2
APPID
 70
    38
  0
APPID
  2
ACAD
 70
     0
  0
APPID
  2
GLOBAL
 70
     0
  0
APPID
  2
DETAIL
 70
     0
  0
APPID
  2
GRPNAME
 70
     0
  0
APPID
  2
GPARA
 70
     0
  0
APPID
  2
MCAD_NO_VIS
 70
     0
  0
APPID
  2
ACAD_TEMP_GRAPHIC
 70
     0
  0
APPID
  2
ACATTRIBSERVICES
 70
     0
  0
APPID
  2
GENIUS_GENSCREG_15
 70
     0
  0
APPID
  2
GENIUS_GENODEF_13
 70
     0
  0
APPID
  2
GENIUS_GENOBJ-N-SDF_13
 70
     0
  0
APPID
  2
GENIUS_GENREC_14
 70
     0
  0
APPID
  2
GENIUS_GENOBJ-N-REC_13
 70
     0
  0
APPID
  2
GENIUS_GENDIMSH_14
 70
     0
  0
APPID
  2
GENIUS_GENOBJ-N-DIM_13
 70
     0
  0
APPID
  2
GENIUS_GENDIM_13
 70
     0
  0
APPID
  2
GENIUS_GENDTOL_13
 70
     0
  0
APPID
  2
GENIUS_GENOLIS_13
 70
     0
  0
APPID
  2
GENIUS_GENOENT_13
 70
     0
  0
APPID
  2
GENIUS_GENOBJ-F-FEM_13
 70
     0
  0
APPID
  2
GENIUS_GENOREF_13
 70
     0
  0
APPID
  2
GENIUS_GEFFEM_13
 70
     0
  0
APPID
  2
GENIUS_GEFFEMP_13
 70
     0
  0
APPID
  2
AD_DRAW
 70
     0
  0
APPID
  2
DESIGNERASSEMBLIES
 70
     0
  0
APPID
  2
ACADM_DIM_EDIT
 70
     0
  0
APPID
  2
AMDT_DM_ADJ
 70
     0
  0
APPID
  2
ACAD_NAV_VCDISPLAY
 70
     0
  0
APPID
  2
ITEMNAME
 70
     0
  0
APPID
  2
GENIUS_GENOBJ-N-FIL_13
 70
     0
  0
APPID
  2
ACAD_DSTYLE_DIMJAG
 70
     0
  0
APPID
  2
ACAD_DSTYLE_DIMBREAK
 70
     0
  0
APPID
  2
ACAECLAYERSTANDARD
 70
     0
  0
APPID
  2
GRADE_0
 70
     0
  0
APPID
  2
ACAD_EXEMPT_FROM_CAD_STANDARDS
 70
     0
  0
APPID
  2
ACAD_DSTYLE_DIMINSPECT
 70
     0
  0
APPID
  2
ACADANNOMONITORALERTICONDI
 70
     0
  0
APPID
  2
ACAD_MLEADERVER
 70
     0
  0
ENDTAB
  0
TABLE
  2
DIMSTYLE
 70
    29
  0
DIMSTYLE
  2
BIGT
 70
     0
  3

  4

  5
OPEN
  6

  7

 40
1.0
 41
2.2299999999999991
 42
0.5
 43
7.0
 44
1.0
 45
0.0
 46
0.0
 47
0.0
 48
0.01
140
2.7999999999999989
141
0.0
142
0.0
143
25.3999999999999986
144
1.0
145
0.0
146
1.0
147
1.0
 71
     0
 72
     0
 73
     0
 74
     0
 75
     0
 76
     0
 77
     3
 78
     9
170
     0
171
     2
172
     1
173
     0
174
     1
175
     0
176
   256
177
   256
178
    40
  0
DIMSTYLE
  2
AM_ISO
 70
     0
  3

  4
"
  5

  6

  7

 40
1.0
 41
2.5
 42
1.0
 43
10.0
 44
1.0
 45
0.0
 46
0.0
 47
0.1
 48
0.1
140
3.5
141
0.0
142
0.0
143
0.0393701
144
1.0
145
0.0
146
0.71
147
1.5
 71
     0
 72
     0
 73
     0
 74
     0
 75
     0
 76
     0
 77
     1
 78
     8
170
     0
171
     2
172
     1
173
     0
174
     0
175
     0
176
   256
177
   256
178
     2
  0
DIMSTYLE
  2
AM_ISO$3
 70
     0
  3

  4
"
  5

  6

  7

 40
1.0
 41
2.5
 42
1.0
 43
10.0
 44
1.0
 45
0.0
 46
0.0
 47
0.1
 48
0.1
140
3.5
141
0.0
142
0.0
143
0.0393701
144
1.0
145
0.0
146
0.71
147
1.5
 71
     0
 72
     0
 73
     0
 74
     1
 75
     0
 76
     0
 77
     1
 78
     8
170
     0
171
     2
172
     0
173
     0
174
     0
175
     0
176
   256
177
   256
178
     2
  0
DIMSTYLE
  2
AM_ISO$4
 70
     0
  3

  4
"
  5

  6

  7

 40
1.0
 41
2.5
 42
1.0
 43
10.0
 44
1.0
 45
0.0
 46
0.0
 47
0.1
 48
0.1
140
3.5
141
0.0
142
0.0
143
0.0393701
144
1.0
145
0.0
146
0.71
147
1.5
 71
     0
 72
     0
 73
     0
 74
     1
 75
     0
 76
     0
 77
     1
 78
     8
170
     0
171
     2
172
     0
173
     0
174
     0
175
     0
176
   256
177
   256
178
     2
  0
DIMSTYLE
  2
AM_ISO$6
 70
     0
  3

  4
"
  5

  6

  7

 40
1.0
 41
2.5
 42
1.0
 43
10.0
 44
1.0
 45
0.0
 46
0.0
 47
0.1
 48
0.1
140
3.5
141
0.0
142
0.0
143
0.0393701
144
1.0
145
0.0
146
0.71
147
1.5
 71
     0
 72
     0
 73
     0
 74
     0
 75
     0
 76
     0
 77
     0
 78
     8
170
     0
171
     2
172
     1
173
     0
174
     0
175
     0
176
   256
177
   256
178
     2
  0
DIMSTYLE
  2
AM_ISO$7
 70
     0
  3

  4
"
  5

  6

  7

 40
1.0
 41
2.5
 42
1.0
 43
10.0
 44
1.0
 45
0.0
 46
0.0
 47
0.1
 48
0.1
140
5.0
141
0.0
142
0.0
143
0.0393701
144
1.0
145
0.0
146
0.71
147
1.5
 71
     0
 72
     0
 73
     0
 74
     0
 75
     0
 76
     0
 77
     1
 78
     8
170
     0
171
     2
172
     1
173
     0
174
     0
175
     0
176
   256
177
   256
178
     2
  0
DIMSTYLE
  2
AM_ISO$SF
 70
     0
  3

  4
"
  5

  6

  7

 40
1.0
 41
2.5
 42
1.0
 43
10.0
 44
1.0
 45
0.0
 46
0.0
 47
0.1
 48
0.1
140
3.5
141
0.0
142
0.0
143
0.0393701
144
1.0
145
0.0
146
0.71
147
1.5
 71
     0
 72
     0
 73
     0
 74
     0
 75
     1
 76
     1
 77
     1
 78
     8
170
     0
171
     2
172
     1
173
     0
174
     0
175
     0
176
   256
177
   256
178
     2
  0
DIMSTYLE
  2
AM_ISO$SH
 70
     0
  3

  4
"
  5

  6
GENAXEH
  7

 40
1.0
 41
2.5
 42
1.0
 43
10.0
 44
1.0
 45
0.0
 46
0.0
 47
0.1
 48
0.1
140
3.5
141
0.0
142
0.0
143
0.0393701
144
2.0
145
0.0
146
0.71
147
1.5
 71
     0
 72
     0
 73
     0
 74
     0
 75
     1
 76
     1
 77
     1
 78
     8
170
     0
171
     2
172
     1
173
     1
174
     0
175
     0
176
   256
177
   256
178
     2
  0
DIMSTYLE
  2
BIGT$2
 70
     0
  3

  4

  5
OPEN
  6

  7

 40
1.0
 41
2.2299999999999991
 42
0.5
 43
7.0
 44
1.0
 45
0.0
 46
0.0
 47
0.0
 48
0.01
140
2.7999999999999989
141
0.0
142
0.0
143
25.3999999999999986
144
1.0
145
0.0
146
1.0
147
1.0
 71
     0
 72
     0
 73
     0
 74
     0
 75
     0
 76
     0
 77
     3
 78
     9
170
     0
171
     2
172
     1
173
     0
174
     0
175
     0
176
   256
177
   256
178
    40
  0
DIMSTYLE
  2
BIGT$3
 70
     0
  3

  4

  5
OPEN
  6

  7

 40
1.0
 41
2.2299999999999991
 42
0.5
 43
2.5
 44
1.0
 45
0.0
 46
0.0
 47
0.0
 48
0.01
140
2.7999999999999989
141
0.0
142
0.0
143
25.3999999999999986
144
1.0
145
0.0
146
1.0
147
1.0
 71
     0
 72
     0
 73
     0
 74
     0
 75
     0
 76
     0
 77
     3
 78
     9
170
     0
171
     2
172
     1
173
     0
174
     0
175
     0
176
   256
177
   256
178
    40
  0
DIMSTYLE
  2
BIGT$7
 70
     0
  3

  4

  5
OPEN
  6

  7

 40
0.0
 41
2.2299999999999991
 42
0.5
 43
7.0
 44
1.0
 45
0.0
 46
0.0
 47
0.0
 48
0.01
140
2.7999999999999989
141
0.0
142
0.0
143
25.3999999999999986
144
1.0
145
0.0
146
1.0
147
1.0
 71
     0
 72
     0
 73
     0
 74
     0
 75
     0
 76
     0
 77
     3
 78
     9
170
     0
171
     2
172
     0
173
     0
174
     0
175
     0
176
   256
177
   256
178
    40
  0
DIMSTYLE
  2
BIGT$6
 70
     0
  3

  4

  5
OPEN
  6

  7

 40
1.0
 41
2.2299999999999991
 42
0.5
 43
2.5
 44
1.0
 45
0.0
 46
0.0
 47
0.0
 48
0.01
140
2.7999999999999989
141
0.0
142
0.0
143
25.3999999999999986
144
1.0
145
0.0
146
1.0
147
1.0
 71
     0
 72
     0
 73
     0
 74
     0
 75
     0
 76
     0
 77
     3
 78
     9
170
     0
171
     2
172
     1
173
     0
174
     0
175
     0
176
   256
177
   256
178
    40
  0
DIMSTYLE
  2
BIGT$0
 70
     0
  3

  4

  5
OPEN
  6

  7

 40
1.0
 41
2.2299999999999991
 42
0.5
 43
7.0
 44
1.0
 45
0.0
 46
0.0
 47
0.0
 48
0.01
140
2.7999999999999989
141
0.0
142
0.0
143
25.3999999999999986
144
1.0
145
0.0
146
1.0
147
1.0
 71
     0
 72
     0
 73
     0
 74
     0
 75
     0
 76
     0
 77
     3
 78
     9
170
     0
171
     2
172
     1
173
     0
174
     0
175
     0
176
   256
177
   256
178
    40
  0
DIMSTYLE
  2
BIGT$4
 70
     0
  3

  4

  5
OPEN
  6

  7

 40
1.0
 41
2.2299999999999991
 42
0.5
 43
2.5
 44
1.0
 45
0.0
 46
0.0
 47
0.0
 48
0.01
140
2.7999999999999989
141
0.0
142
0.0
143
25.3999999999999986
144
1.0
145
0.0
146
1.0
147
1.0
 71
     0
 72
     0
 73
     0
 74
     0
 75
     0
 76
     0
 77
     3
 78
     9
170
     0
171
     2
172
     1
173
     0
174
     0
175
     0
176
   256
177
   256
178
    40
  0
DIMSTYLE
  2
BIGT$SH
 70
     0
  3

  4

  5
OPEN
  6

  7

 40
1.0
 41
2.2299999999999991
 42
0.5
 43
7.0
 44
1.0
 45
0.0
 46
0.0
 47
0.0
 48
0.0
140
2.7999999999999989
141
0.0
142
0.0
143
25.3999999999999986
144
1.0
145
0.0
146
1.0
147
1.0
 71
     0
 72
     0
 73
     0
 74
     0
 75
     0
 76
     0
 77
     3
 78
     9
170
     0
171
     2
172
     1
173
     0
174
     0
175
     0
176
   256
177
   256
178
    40
  0
DIMSTYLE
  2
BIGT$SF
 70
     0
  3

  4

  5
OPEN
  6

  7

 40
1.0
 41
2.2299999999999991
 42
0.5
 43
7.0
 44
1.0
 45
0.0
 46
0.0
 47
0.0
 48
0.0
140
2.7999999999999989
141
0.0
142
0.0
143
25.3999999999999986
144
1.0
145
0.0
146
1.0
147
1.0
 71
     0
 72
     0
 73
     0
 74
     0
 75
     0
 76
     0
 77
     3
 78
     9
170
     0
171
     2
172
     1
173
     0
174
     0
175
     0
176
   256
177
   256
178
    40
  0
DIMSTYLE
  2
TECHNICAL_OSAKA
 70
     0
  3

  4
"
  5
OPEN30
  6

  7

 40
1.0
 41
2.5
 42
1.0
 43
10.0
 44
1.0
 45
0.0
 46
0.0
 47
0.1
 48
0.1
140
2.7999999999999989
141
0.0
142
0.0
143
0.0393701
144
1.0
145
0.0
146
0.71
147
1.5
 71
     0
 72
     0
 73
     0
 74
     0
 75
     0
 76
     0
 77
     3
 78
     8
170
     0
171
     2
172
     1
173
     0
174
     0
175
     0
176
   256
177
   256
178
    40
  0
DIMSTYLE
  2
TECHNICAL_OSAKA$3
 70
     0
  3

  4
"
  5
OPEN30
  6

  7

 40
1.0
 41
2.5
 42
1.0
 43
10.0
 44
1.0
 45
0.0
 46
0.0
 47
0.1
 48
0.1
140
2.7999999999999989
141
0.0
142
0.0
143
0.0393701
144
1.0
145
0.0
146
0.71
147
1.5
 71
     0
 72
     0
 73
     0
 74
     1
 75
     0
 76
     0
 77
     3
 78
     8
170
     0
171
     2
172
     0
173
     0
174
     0
175
     0
176
   256
177
   256
178
    40
  0
DIMSTYLE
  2
TECHNICAL_OSAKA$4
 70
     0
  3

  4
"
  5
OPEN30
  6

  7

 40
1.0
 41
2.5
 42
1.0
 43
10.0
 44
1.0
 45
0.0
 46
0.0
 47
0.1
 48
0.1
140
2.7999999999999989
141
0.0
142
0.0
143
0.0393701
144
1.0
145
0.0
146
0.71
147
1.5
 71
     0
 72
     0
 73
     0
 74
     1
 75
     0
 76
     0
 77
     3
 78
     8
170
     0
171
     2
172
     0
173
     0
174
     0
175
     0
176
   256
177
   256
178
    40
  0
DIMSTYLE
  2
TECHNICAL_OSAKA$6
 70
     0
  3

  4
"
  5
OPEN30
  6

  7

 40
1.0
 41
2.5
 42
1.0
 43
10.0
 44
1.0
 45
0.0
 46
0.0
 47
0.1
 48
0.1
140
2.7999999999999989
141
0.0
142
0.0
143
0.0393701
144
1.0
145
0.0
146
0.71
147
1.5
 71
     0
 72
     0
 73
     0
 74
     0
 75
     0
 76
     0
 77
     0
 78
     8
170
     0
171
     2
172
     1
173
     0
174
     0
175
     0
176
   256
177
   256
178
    40
  0
DIMSTYLE
  2
TECHNICAL_OSAKA$7
 70
     0
  3

  4
"
  5
OPEN30
  6

  7

 40
1.0
 41
2.5
 42
1.0
 43
10.0
 44
1.0
 45
0.0
 46
0.0
 47
0.1
 48
0.1
140
2.7999999999999989
141
0.0
142
0.0
143
0.0393701
144
1.0
145
0.0
146
0.71
147
1.5
 71
     0
 72
     0
 73
     0
 74
     0
 75
     0
 76
     0
 77
     3
 78
     8
170
     0
171
     2
172
     1
173
     0
174
     0
175
     0
176
   256
177
   256
178
    40
  0
DIMSTYLE
  2
TECHNICAL_OSAKA$SF
 70
     0
  3

  4
"
  5
OPEN30
  6
OPEN30
  7
OPEN30
 40
1.0
 41
2.5
 42
1.0
 43
10.0
 44
1.0
 45
0.0
 46
0.0
 47
0.1
 48
0.1
140
3.5
141
0.0
142
0.0
143
0.0393701
144
1.0
145
0.0
146
0.71
147
1.5
 71
     0
 72
     0
 73
     0
 74
     0
 75
     1
 76
     1
 77
     3
 78
     8
170
     0
171
     2
172
     1
173
     0
174
     0
175
     0
176
   256
177
   256
178
    40
  0
DIMSTYLE
  2
TECHNICAL_OSAKA$SH
 70
     0
  3

  4
"
  5
OPEN30
  6
GENAXEH
  7
OPEN30
 40
1.0
 41
2.5
 42
1.0
 43
10.0
 44
1.0
 45
0.0
 46
0.0
 47
0.1
 48
0.1
140
3.5
141
0.0
142
0.0
143
0.0393701
144
2.0
145
0.0
146
0.71
147
1.5
 71
     0
 72
     0
 73
     0
 74
     0
 75
     1
 76
     1
 77
     3
 78
     8
170
     0
171
     2
172
     1
173
     1
174
     0
175
     0
176
   256
177
   256
178
    40
  0
DIMSTYLE
  2
AM_ANSI
 70
     0
  3

  4
mm
  5

  6

  7

 40
1.0
 41
0.12
 42
0.05
 43
0.5
 44
0.1
 45
0.0
 46
0.0
 47
0.1
 48
0.1
140
0.12
141
0.0
142
0.0
143
25.3999999999999986
144
1.0
145
0.0
146
0.71
147
0.06
 71
     0
 72
     0
 73
     1
 74
     1
 75
     0
 76
     0
 77
     0
 78
     7
170
     0
171
     2
172
     0
173
     0
174
     0
175
     0
176
   256
177
   256
178
     2
  0
DIMSTYLE
  2
AM_ANSI$3
 70
     0
  3

  4
mm
  5

  6

  7

 40
1.0
 41
0.12
 42
0.05
 43
0.5
 44
0.1
 45
0.0
 46
0.0
 47
0.1
 48
0.1
140
0.12
141
0.0
142
0.0
143
25.3999999999999986
144
1.0
145
0.0
146
0.71
147
0.06
 71
     0
 72
     0
 73
     1
 74
     1
 75
     0
 76
     0
 77
     0
 78
     7
170
     0
171
     2
172
     0
173
     0
174
     0
175
     0
176
   256
177
   256
178
     2
  0
DIMSTYLE
  2
AM_ANSI$4
 70
     0
  3

  4
mm
  5

  6

  7

 40
1.0
 41
0.12
 42
0.05
 43
0.5
 44
0.1
 45
0.0
 46
0.0
 47
0.1
 48
0.1
140
0.12
141
0.0
142
0.0
143
25.3999999999999986
144
1.0
145
0.0
146
0.71
147
0.06
 71
     0
 72
     0
 73
     1
 74
     1
 75
     0
 76
     0
 77
     0
 78
     7
170
     0
171
     2
172
     0
173
     0
174
     0
175
     0
176
   256
177
   256
178
     2
  0
DIMSTYLE
  2
AM_ANSI$7
 70
     0
  3

  4
mm
  5

  6

  7

 40
1.0
 41
0.12
 42
0.05
 43
0.5
 44
0.1
 45
0.0
 46
0.0
 47
0.1
 48
0.1
140
0.12
141
0.0
142
0.0
143
25.3999999999999986
144
1.0
145
0.0
146
0.71
147
0.06
 71
     0
 72
     0
 73
     1
 74
     1
 75
     0
 76
     0
 77
     0
 78
     7
170
     0
171
     2
172
     0
173
     0
174
     0
175
     0
176
   256
177
   256
178
     2
  0
DIMSTYLE
  2
AM_ANSI$SF
 70
     0
  3

  4
mm
  5

  6

  7

 40
1.0
 41
0.12
 42
0.05
 43
0.5
 44
0.1
 45
0.0
 46
0.0
 47
0.1
 48
0.1
140
0.12
141
0.0
142
0.0
143
25.3999999999999986
144
1.0
145
0.0
146
0.71
147
0.06
 71
     0
 72
     0
 73
     1
 74
     1
 75
     1
 76
     1
 77
     0
 78
     7
170
     0
171
     2
172
     0
173
     0
174
     0
175
     0
176
   256
177
   256
178
     2
  0
DIMSTYLE
  2
AM_ANSI$SH
 70
     0
  3

  4
mm
  5

  6

  7

 40
1.0
 41
0.12
 42
0.05
 43
0.5
 44
0.1
 45
0.0
 46
0.0
 47
0.1
 48
0.1
140
0.12
141
0.0
142
0.0
143
25.3999999999999986
144
1.0
145
0.0
146
0.71
147
0.06
 71
     0
 72
     0
 73
     1
 74
     1
 75
     1
 76
     1
 77
     0
 78
     7
170
     0
171
     2
172
     0
173
     1
174
     0
175
     0
176
   256
177
   256
178
     2
  0
ENDTAB
  0
ENDSEC
  0
SECTION
  2
BLOCKS
  0
BLOCK
  8
0
  2
$MODEL_SPACE
 70
     0
 10
0.0
 20
0.0
 30
0.0
  3
$MODEL_SPACE
  1

  0
ENDBLK
  5
1C
  8
0
  0
BLOCK
 67
     1
  8
0
  2
$PAPER_SPACE
 70
     0
 10
0.0
 20
0.0
 30
0.0
  3
$PAPER_SPACE
  1

  0
ENDBLK
  5
19
 67
     1
  8
0
  0
BLOCK
  8
0
  2
_OPEN
 70
     0
 10
0.0
 20
0.0
 30
0.0
  3
_OPEN
  1

  0
LINE
  5
595
  8
0
  6
BYBLOCK
 62
     0
 10
-1.0
 20
0.1666666666666666
 30
0.0
 11
0.0
 21
0.0
 31
0.0
  0
LINE
  5
596
  8
0
  6
BYBLOCK
 62
     0
 10
-1.0
 20
-0.1666666666666666
 30
0.0
 11
0.0
 21
0.0
 31
0.0
  0
LINE
  5
597
  8
0
  6
BYBLOCK
 62
     0
 10
0.0
 20
0.0
 30
0.0
 11
-1.0
 21
0.0
 31
0.0
  0
ENDBLK
  5
599
  8
0
  0
BLOCK
  8
0
  2
GENAXEH
 70
     0
 10
0.0
 20
0.0
 30
0.0
  3
GENAXEH
  1

  0
LINE
  5
6E8
  8
0
 10
-1.0
 20
0.0
 30
0.0
 11
1.0
 21
0.0
 31
0.0
  0
ENDBLK
  5
6EA
  8
0
  0
BLOCK
  8
0
  2
_OPEN30
 70
     0
 10
0.0
 20
0.0
 30
0.0
  3
_OPEN30
  1

  0
LINE
  5
E8F
  8
0
  6
BYBLOCK
 62
     0
 10
-1.0
 20
0.26794919
 30
0.0
 11
0.0
 21
0.0
 31
0.0
  0
LINE
  5
E90
  8
0
  6
BYBLOCK
 62
     0
 10
0.0
 20
0.0
 30
0.0
 11
-1.0
 21
-0.26794919
 31
0.0
  0
LINE
  5
E91
  8
0
  6
BYBLOCK
 62
     0
 10
0.0
 20
0.0
 30
0.0
 11
-1.0
 21
0.0
 31
0.0
  0
ENDBLK
  5
E93
  8
0
  0
BLOCK
  8
0
  2
_ACMOPEN15
 70
     0
 10
0.0
 20
0.0
 30
0.0
  3
_ACMOPEN15
  1

  0
LINE
  5
1359
  8
245
 62
     0
 10
-1.0
 20
0.0
 30
0.0
 11
0.0
 21
0.0
 31
0.0
  0
LINE
  5
135A
  8
245
 62
     0
 10
-1.0
 20
-0.131652497
 30
0.0
 11
0.0
 21
0.0
 31
0.0
  0
LINE
  5
135B
  8
245
 62
     0
 10
0.0
 20
0.0
 30
0.0
 11
-1.0
 21
0.131652497
 31
0.0
  0
ENDBLK
  5
1358
  8
0
  0
ENDSEC
  0
SECTION
  2
ENTITIES
  0
LINE
  5
1407
  8
245
  6
CENTER2
 10
-69.25
 20
0.0
 30
0.0
 11
142.1568507953336109
 21
0.0
 31
0.0
  0
LINE
  5
1408
  8
240
  6
CONTINUOUS
 10
19.0500000000000007
 20
28.5000000000000284
 30
0.0
 11
19.0500000000000007
 21
31.75
 31
0.0
  0
LINE
  5
1409
  8
240
  6
CONTINUOUS
 10
13.0399999999999903
 20
28.9559131899999898
 30
0.0
 11
14.6531667700000003
 21
31.75
 31
0.0
  0
LINE
  5
140A
  8
241
  6
CONTINUOUS
 10
14.6461667700000007
 20
31.75
 30
0.0
 11
14.6461667700000007
 21
8.0000000000000693
 31
0.0
  0
LINE
  5
140B
  8
240
  6
CONTINUOUS
 10
9.2000000000000028
 20
28.980161909999989
 30
0.0
 11
7.6008332300000063
 21
31.75
 31
0.0
  0
LINE
  5
140C
  8
240
  6
CONTINUOUS
 10
1.0
 20
22.2250000000000085
 30
0.0
 11
1.0
 21
31.75
 31
0.0
  0
LINE
  5
140D
  8
241
  6
CONTINUOUS
 10
7.5938332300000013
 20
31.75
 30
0.0
 11
7.5938332300000013
 21
8.0000000000000409
 31
0.0
  0
LINE
  5
140E
  8
240
  6
CONTINUOUS
 10
0.0
 20
22.2250000000000085
 30
0.0
 11
-68.25
 21
12.2718750014768698
 31
0.0
  0
LINE
  5
140F
  8
240
  6
CONTINUOUS
 10
0.0
 20
-22.2250000000000085
 30
0.0
 11
-68.25
 21
-12.2718750014768698
 31
0.0
  0
LINE
  5
1410
  8
240
  6
CONTINUOUS
 10
-68.25
 20
-12.2718750014768094
 30
0.0
 11
-68.25
 21
12.2718750014768698
 31
0.0
  0
LINE
  5
1411
  8
241
  6
CONTINUOUS
 10
1.0
 20
-22.2250000000000085
 30
0.0
 11
1.0
 21
22.2250000000000085
 31
0.0
  0
LINE
  5
1412
  8
241
  6
CONTINUOUS
 10
0.0
 20
-22.2250000000000085
 30
0.0
 11
0.0
 21
22.2250000000000085
 31
0.0
  0
LINE
  5
1413
  8
241
  6
CONTINUOUS
 10
14.6461667700000007
 20
-31.75
 30
0.0
 11
14.6461667700000007
 21
-7.9999999999818519
 31
0.0
  0
LINE
  5
1414
  8
241
  6
CONTINUOUS
 10
7.5938332300000013
 20
-31.75
 30
0.0
 11
7.5938332300000013
 21
-7.999999999993487
 31
0.0
  0
LINE
  5
1415
  8
241
  6
CONTINUOUS
 10
9.2000000000000028
 20
-7.9999999999908384
 30
0.0
 11
9.2000000000000028
 21
-28.1800000000000104
 31
0.0
  0
LINE
  5
1416
  8
241
  6
CONTINUOUS
 10
13.0399999999999903
 20
-7.9999999999845022
 30
0.0
 11
13.0399999999999903
 21
-28.1800000000000104
 31
0.0
  0
LINE
  5
1417
  8
240
  6
CONTINUOUS
 10
1.0
 20
-31.75
 30
0.0
 11
7.5938332300000013
 21
-31.75
 31
0.0
  0
LINE
  5
1418
  8
240
  6
CONTINUOUS
 10
1.0
 20
-22.2250000000000085
 30
0.0
 11
1.0
 21
-31.75
 31
0.0
  0
LINE
  5
1419
  8
240
  6
CONTINUOUS
 10
0.0
 20
-22.2250000000000085
 30
0.0
 11
1.0
 21
-22.2250000000000085
 31
0.0
  0
LINE
  5
141A
  8
240
  6
CONTINUOUS
 10
9.2000000000000028
 20
-28.1800000000000104
 30
0.0
 11
13.0399999999999903
 21
-28.1800000000000104
 31
0.0
  0
LINE
  5
141B
  8
240
  6
CONTINUOUS
 10
7.5938332300000013
 20
-31.75
 30
0.0
 11
9.2000000000000028
 21
-28.9680375499999982
 31
0.0
  0
LINE
  5
141C
  8
240
  6
CONTINUOUS
 10
9.2000000000000028
 20
-28.9680375499999982
 30
0.0
 11
9.2000000000000028
 21
-28.1800000000000104
 31
0.0
  0
LINE
  5
141D
  8
240
  6
CONTINUOUS
 10
19.0500000000000007
 20
-28.4999999999999609
 30
0.0
 11
19.0500000000000007
 21
-31.75
 31
0.0
  0
LINE
  5
141E
  8
240
  6
CONTINUOUS
 10
14.6461667700000007
 20
-31.75
 30
0.0
 11
19.0500000000000007
 21
-31.75
 31
0.0
  0
LINE
  5
141F
  8
240
  6
CONTINUOUS
 10
13.0399999999999903
 20
-28.9680375499999982
 30
0.0
 11
13.0399999999999903
 21
-28.1800000000000104
 31
0.0
  0
LINE
  5
1420
  8
240
  6
CONTINUOUS
 10
14.6461667700000007
 20
-31.75
 30
0.0
 11
13.0399999999999903
 21
-28.9680375499999982
 31
0.0
  0
LINE
  5
1421
  8
240
  6
CONTINUOUS
 10
0.0
 20
22.2250000000000085
 30
0.0
 11
1.0
 21
22.2250000000000085
 31
0.0
  0
LINE
  5
1422
  8
241
  6
CONTINUOUS
 10
13.0399999999999903
 20
8.0000000000000622
 30
0.0
 11
13.0399999999999903
 21
28.1800000000000104
 31
0.0
  0
LINE
  5
1423
  8
241
  6
CONTINUOUS
 10
9.2000000000000028
 20
8.0000000000000462
 30
0.0
 11
9.2000000000000028
 21
28.1800000000000104
 31
0.0
  0
LINE
  5
1424
  8
240
  6
CONTINUOUS
 10
9.2000000000000028
 20
28.1800000000000104
 30
0.0
 11
13.0399999999999903
 21
28.1800000000000104
 31
0.0
  0
LINE
  5
1425
  8
240
  6
CONTINUOUS
 10
9.2000000000000028
 20
28.9680375499999982
 30
0.0
 11
9.2000000000000028
 21
28.1800000000000104
 31
0.0
  0
LINE
  5
1426
  8
240
  6
CONTINUOUS
 10
13.0399999999999903
 20
28.9680375499999982
 30
0.0
 11
13.0399999999999903
 21
28.1800000000000104
 31
0.0
  0
LINE
  5
1427
  8
240
  6
CONTINUOUS
 10
1.0
 20
31.75
 30
0.0
 11
7.6008332300000063
 21
31.75
 31
0.0
  0
LINE
  5
1428
  8
240
  6
CONTINUOUS
 10
14.6531667700000003
 20
31.75
 30
0.0
 11
19.0500000000000007
 21
31.75
 31
0.0
  0
LINE
  5
1429
  8
247
  6
CONTINUOUS
 10
5.4999999999999432
 20
-18.75
 30
0.0
 11
5.5
 21
-14.1153846156700506
 31
0.0
  0
LINE
  5
142A
  8
247
  6
CONTINUOUS
 10
3.0
 20
-17.9548934999879712
 30
0.0
 11
5.0999999999160082
 21
-18.5570588100573417
 31
0.0
  0
LINE
  5
142B
  8
247
  6
CONTINUOUS
 10
3.996153846113998
 20
-17.3251514035190404
 30
0.0
 11
3.996153846113998
 21
-18.2405360188670116
 31
0.0
  0
ARC
  5
142C
  8
247
  6
CONTINUOUS
 10
3.3847190672940992
 20
-17.0872634019468101
 30
0.0
 40
0.3876715809326743
 50
72.9978896752922282
 51
172.9241662185135908
  0
ARC
  5
142D
  8
247
  6
CONTINUOUS
 10
3.305223131028014
 20
-17.3824775568041296
 30
0.0
 40
0.6933047965358772
 50
4.7429368522022122
 51
73.8492262732667513
1001
GENIUS_GENOBJ-N-FIL_13
1002
{
1000
OWNER
1000
GEN
1002
}
1001
GENIUS_GENODEF_13
1002
{
1000
HIER
1070
     0
1002
}
1002
{
1000
MANEDIT
1070
     0
1002
}
1002
{
1000
NOSEL
1070
     0
1002
}
1002
{
1000
BEHIND
1070
     0
1002
}
1002
{
1000
OTHER
1070
     0
1002
}
1002
{
1000
REACTOR
1002
}
  0
LINE
  5
142E
  8
247
  6
CONTINUOUS
 10
5.0999999999160082
 20
-17.6416741947093598
 30
0.0
 11
5.0999999999160082
 21
-18.5570588100573417
 31
0.0
  0
LINE
  5
142F
  8
247
  6
CONTINUOUS
 10
3.0
 20
-17.9548934999879712
 30
0.0
 11
3.0
 21
-17.0395088846399787
 31
0.0
  0
ARC
  5
1430
  8
247
  6
CONTINUOUS
 10
4.3874169627678707
 20
-17.3783064762668609
 30
0.0
 40
0.394857301075386
 50
65.990941652528889
 51
172.2634434590690944
  0
ARC
  5
1431
  8
247
  6
CONTINUOUS
 10
4.391200327332565
 20
-17.7124466104269196
 30
0.0
 40
0.7123241612361686
 50
5.701985164259785
 51
77.2773384368220064
1001
GENIUS_GENOBJ-N-FIL_13
1002
{
1000
OWNER
1000
GEN
1002
}
1001
GENIUS_GENODEF_13
1002
{
1000
HIER
1070
     0
1002
}
1002
{
1000
MANEDIT
1070
     0
1002
}
1002
{
1000
NOSEL
1070
     0
1002
}
1002
{
1000
BEHIND
1070
     0
1002
}
1002
{
1000
OTHER
1070
     0
1002
}
1002
{
1000
REACTOR
1002
}
  0
LINE
  5
1432
  8
247
  6
CONTINUOUS
 10
5.0999999999160082
 20
-16.6839818870633785
 30
0.0
 11
3.0
 21
-16.0818165769940116
 31
0.0
  0
LINE
  5
1433
  8
247
  6
CONTINUOUS
 10
3.0
 20
-14.5856627309079805
 30
0.0
 11
3.0
 21
-14.9816783643035993
 31
0.0
  0
LINE
  5
1434
  8
247
  6
CONTINUOUS
 10
5.0999999999160082
 20
-15.6087396539439798
 30
0.0
 11
5.0999999999160082
 21
-15.1779704231919901
 31
0.0
  0
ARC
  5
1435
  8
247
  6
CONTINUOUS
 10
4.4582995950833562
 20
-14.3818165770699693
 30
0.0
 40
1.576855057639547
 50
202.3594881415291127
 51
254.9932485428464872
  0
ARC
  5
1436
  8
247
  6
CONTINUOUS
 10
3.5658188585381341
 20
-14.8475113661332294
 30
0.0
 40
0.6234706797009447
 50
94.9945893190753168
 51
155.1663289573039037
1001
GENIUS_GENOBJ-N-FIL_13
1002
{
1000
OWNER
1000
GEN
1002
}
1001
GENIUS_GENODEF_13
1002
{
1000
HIER
1070
     0
1002
}
1002
{
1000
MANEDIT
1070
     0
1002
}
1002
{
1000
NOSEL
1070
     0
1002
}
1002
{
1000
BEHIND
1070
     0
1002
}
1002
{
1000
OTHER
1070
     0
1002
}
1002
{
1000
REACTOR
1002
}
  0
ARC
  5
1437
  8
247
  6
CONTINUOUS
 10
4.1621021219694381
 20
-15.4441839510328105
 30
0.0
 40
0.9749472149106978
 50
15.8460965557808002
 51
82.325137004169278
  0
ARC
  5
1438
  8
247
  6
CONTINUOUS
 10
4.3714704019710631
 20
-15.0352116387722408
 30
0.0
 40
0.9271945638692008
 50
249.7136016704968995
 51
321.7887456564109243
1001
GENIUS_GENOBJ-N-FIL_13
1002
{
1000
OWNER
1000
GEN
1002
}
1001
GENIUS_GENODEF_13
1002
{
1000
HIER
1070
     0
1002
}
1002
{
1000
MANEDIT
1070
     0
1002
}
1002
{
1000
NOSEL
1070
     0
1002
}
1002
{
1000
BEHIND
1070
     0
1002
}
1002
{
1000
OTHER
1070
     0
1002
}
1002
{
1000
REACTOR
1002
}
  0
LINE
  5
1439
  8
247
  6
CONTINUOUS
 10
4.2923076922559744
 20
-14.9625858078159606
 30
0.0
 11
4.2923076922559744
 21
-14.4779704232199702
 31
0.0
  0
ARC
  5
143A
  8
247
  6
CONTINUOUS
 10
4.25
 20
-18.75
 30
0.0
 40
1.25
 50
180.0
 51
0.0
  0
LINE
  5
143B
  8
247
  6
CONTINUOUS
 10
3.0
 20
-18.75
 30
0.0
 11
3.0
 21
-18.3038461539140407
 31
0.0
  0
ARC
  5
143C
  8
247
  6
CONTINUOUS
 10
4.25
 20
-14.1153846156700506
 30
0.0
 40
1.25
 50
0.0
 51
180.0
  0
LINE
  5
143D
  8
241
  6
CONTINUOUS
 10
19.0500000000000007
 20
-7.9999999999745874
 30
0.0
 11
3.699999999999815
 21
-7.9999999999999121
 31
0.0
  0
LINE
  5
143E
  8
241
  6
CONTINUOUS
 10
3.699999999999815
 20
-7.9999999999999121
 30
0.0
 11
0.9999999999997726
 21
-10.6999999999998998
 31
0.0
  0
LINE
  5
143F
  8
241
  6
CONTINUOUS
 10
3.699999999999815
 20
8.0000000000000284
 30
0.0
 11
19.0500000000000007
 21
8.0000000000000853
 31
0.0
  0
LINE
  5
1440
  8
241
  6
CONTINUOUS
 10
0.9999999999997726
 20
10.7000000000000703
 30
0.0
 11
3.699999999999815
 21
8.0000000000000284
 31
0.0
  0
LINE
  5
1441
  8
241
  6
CONTINUOUS
 10
19.0500000000000007
 20
-28.4999999999999609
 30
0.0
 11
19.0500000000000007
 21
-7.9999999999745874
 31
0.0
  0
LINE
  5
1442
  8
250
  6
CONTINUOUS
 10
-35.4139049745202925
 20
-18.8136323989028291
 30
0.0
 11
-34.1249999989337169
 21
-17.2484374988922191
 31
0.0
  0
LINE
  5
1443
  8
250
  6
CONTINUOUS
 10
-34.8366036569175535
 20
-19.1470505044978907
 30
0.0
 11
-34.1249999989337169
 21
-17.2484374988922191
 31
0.0
  0
LINE
  5
1444
  8
250
  6
CONTINUOUS
 10
-34.1249999989337169
 20
-17.2484374988922191
 30
0.0
 11
-35.1252543157189194
 21
-18.9803414517003901
 31
0.0
  0
TEXT
  5
1445
  8
250
  6
CONTINUOUS
 10
-57.0361743287984382
 20
-27.0700727109799608
 30
0.0
 40
2.799999999999998
  1
BCV40Y
  7
YOKO
1001
ITEMNAME
1000
LNSP3
  0
LINE
  5
1446
  8
250
  6
CONTINUOUS
 10
-40.3862186589337213
 20
-28.0895097788922214
 30
0.0
 11
-58.3862186589337071
 21
-28.0895097788922214
 31
0.0
1001
ITEMNAME
1000
LNSP2
  0
LINE
  5
1447
  8
250
  6
CONTINUOUS
 10
-35.4139049745202925
 20
-18.8136323989028291
 30
0.0
 11
-34.1249999989337169
 21
-17.2484374988922085
 31
0.0
  0
LINE
  5
1448
  8
250
  6
CONTINUOUS
 10
-34.8366036569175535
 20
-19.1470505044978907
 30
0.0
 11
-34.1249999989337169
 21
-17.2484374988922085
 31
0.0
  0
LINE
  5
1449
  8
250
  6
CONTINUOUS
 10
-34.1249999989337169
 20
-17.2484374988922085
 30
0.0
 11
-35.1252543157189194
 21
-18.9803414517003688
 31
0.0
  0
LINE
  5
144A
  8
250
  6
CONTINUOUS
 10
-35.1252543157189194
 20
-18.9803414517003688
 30
0.0
 11
-40.3862186589337213
 21
-28.0895097788922214
 31
0.0
1001
ACAD
1000
DSTYLE
1002
{
1070
     6
1000
OPEN
1070
    41
1040
2.0
1070
    42
1040
2.0
1070
    44
1040
2.0
1070
   140
1040
4.0
1070
   343
1005
0
1002
}
  0
LINE
  5
148C
  8
243
 10
139.6999999999987097
 20
19.0500000000008711
 30
0.0
 11
46.6999997803586027
 21
19.0499999999971692
 31
0.0
  0
LINE
  5
1491
  8
240
  6
CONTINUOUS
 10
19.0500000000000007
 20
-28.4999999999989804
 30
0.0
 11
35.0000000000013287
 21
-28.4999999999981384
 31
0.0
  0
LINE
  5
1493
  8
241
  6
CONTINUOUS
 10
72.0660254039476627
 20
-40.0000000000067431
 30
0.0
 11
72.0660254039481316
 21
40.0000000000267804
 31
0.0
  0
LINE
  5
1494
  8
241
  6
CONTINUOUS
 10
70.3339745963879466
 20
-40.0000000000048317
 30
0.0
 11
70.3339745963881739
 21
40.0000000000274767
 31
0.0
  0
LINE
  5
1495
  8
241
  6
CONTINUOUS
 10
75.3339745963855592
 20
-40.0000000000048317
 30
0.0
 11
75.3339745963858007
 21
40.0000000000254587
 31
0.0
  0
LINE
  5
1496
  8
241
  6
CONTINUOUS
 10
77.0660254039452752
 20
-40.0000000000067431
 30
0.0
 11
77.0660254039457442
 21
40.0000000000247695
 31
0.0
  0
LINE
  5
1498
  8
240
  6
CONTINUOUS
 10
35.0000000000013287
 20
-28.4999999999981384
 30
0.0
 11
35.0000000000018687
 21
-40.0000000000366285
 31
0.0
  0
LINE
  5
149C
  8
241
  6
CONTINUOUS
 10
35.0000000000013287
 20
-28.4999999999981384
 30
0.0
 11
35.0000000000014069
 21
28.5000000000032614
 31
0.0
  0
LINE
  5
149F
  8
240
  6
CONTINUOUS
 10
139.6999999999987097
 20
21.0000000000052189
 30
0.0
 11
139.699999999998596
 21
-21.0000000000004192
 31
0.0
  0
LINE
  5
14A0
  8
241
  6
CONTINUOUS
 10
134.6089653438083076
 20
-39.9999999999964118
 30
0.0
 11
134.6089653438087055
 21
40.0000000000003197
 31
0.0
  0
LINE
  5
14A2
  8
241
  6
CONTINUOUS
 10
109.0660254039455026
 20
-40.0000000000067431
 30
0.0
 11
109.0660254039459005
 21
40.0000000000118519
 31
0.0
  0
LINE
  5
14A3
  8
241
  6
CONTINUOUS
 10
107.3339745963858007
 20
-40.0000000000048317
 30
0.0
 11
107.3339745963859997
 21
40.0000000000125411
 31
0.0
  0
LINE
  5
14A4
  8
241
  6
CONTINUOUS
 10
102.3339745963881029
 20
-40.0000000000048317
 30
0.0
 11
102.3339745963884013
 21
40.000000000014559
 31
0.0
  0
LINE
  5
14A5
  8
241
  6
CONTINUOUS
 10
104.0660254039479042
 20
-40.0000000000067431
 30
0.0
 11
104.0660254039483021
 21
40.0000000000138698
 31
0.0
  0
LINE
  5
14A7
  8
240
  6
CONTINUOUS
 10
139.699999999998596
 20
-21.0000000000004192
 30
0.0
 11
134.6089653438083076
 21
-39.9999999999964331
 31
0.0
  0
LINE
  5
14A8
  8
240
  6
CONTINUOUS
 10
134.6089653438083076
 20
-39.9999999999964331
 30
0.0
 11
35.0000000000018829
 21
-40.0000000000366285
 31
0.0
  0
LINE
  5
14B1
  8
243
 10
139.6999999999987097
 20
-19.049999999995741
 30
0.0
 11
46.6999997803586027
 21
-19.0499999999920497
 31
0.0
  0
LINE
  5
14B2
  8
240
  6
CONTINUOUS
 10
19.0500000000000007
 20
28.5000000000040998
 30
0.0
 11
35.0000000000013287
 21
28.5000000000032614
 31
0.0
  0
LINE
  5
14B3
  8
240
  6
CONTINUOUS
 10
35.0000000000013287
 20
28.5000000000032614
 30
0.0
 11
35.0000000000018687
 21
40.0000000000417515
 31
0.0
  0
LINE
  5
14B4
  8
240
  6
CONTINUOUS
 10
139.6999999999987097
 20
21.0000000000052189
 30
0.0
 11
134.6089653438083076
 21
40.0000000000015419
 31
0.0
  0
LINE
  5
14B5
  8
240
  6
CONTINUOUS
 10
134.6089653438083076
 20
40.0000000000015419
 30
0.0
 11
35.0000000000018829
 21
40.0000000000417515
 31
0.0
  0
CIRCLE
  5
14CE
  8
241
  6
CONTINUOUS
 10
121.7000000001598039
 20
-0.0000000000000009
 30
0.0
 40
8.0
  0
CIRCLE
  5
14CF
  8
242
  6
CONTINUOUS
 10
121.7000000001598039
 20
-0.0000000000000009
 30
0.0
 40
7.25
  0
LINE
  5
14D0
  8
241
  6
CONTINUOUS
 10
125.7000000001598039
 20
-2.3094010800000002
 30
0.0
 11
121.7000000001598039
 21
-4.6188021499999987
 31
0.0
  0
LINE
  5
14D1
  8
241
  6
CONTINUOUS
 10
121.7000000001598039
 20
-4.6188021499999987
 30
0.0
 11
117.7000000001598039
 21
-2.3094010800000002
 31
0.0
  0
LINE
  5
14D2
  8
245
  6
CENTER2
 10
121.7000000001598039
 20
9.0
 30
0.0
 11
121.7000000001598039
 21
-9.0
 31
0.0
  0
LINE
  5
14D3
  8
241
  6
CONTINUOUS
 10
117.7000000001598039
 20
2.309401079999998
 30
0.0
 11
121.7000000001598039
 21
4.6188021499999969
 31
0.0
  0
LINE
  5
14D4
  8
241
  6
CONTINUOUS
 10
117.7000000001598039
 20
-2.3094010800000002
 30
0.0
 11
117.7000000001598039
 21
2.309401079999998
 31
0.0
  0
LINE
  5
14D5
  8
241
  6
CONTINUOUS
 10
121.7000000001598039
 20
4.6188021499999969
 30
0.0
 11
125.7000000001598039
 21
2.309401079999998
 31
0.0
  0
LINE
  5
14D6
  8
241
  6
CONTINUOUS
 10
125.7000000001598039
 20
2.309401079999998
 30
0.0
 11
125.7000000001598039
 21
-2.3094010800000002
 31
0.0
  0
CIRCLE
  5
14E5
  8
241
  6
CONTINUOUS
 10
89.700000000160145
 20
-0.0000000000000009
 30
0.0
 40
8.0
  0
CIRCLE
  5
14E6
  8
242
  6
CONTINUOUS
 10
89.700000000160145
 20
-0.0000000000000009
 30
0.0
 40
7.25
  0
LINE
  5
14E7
  8
241
  6
CONTINUOUS
 10
93.700000000160145
 20
-2.3094010800000002
 30
0.0
 11
89.700000000160145
 21
-4.6188021499999987
 31
0.0
  0
LINE
  5
14E8
  8
241
  6
CONTINUOUS
 10
89.700000000160145
 20
-4.6188021499999987
 30
0.0
 11
85.700000000160145
 21
-2.3094010800000002
 31
0.0
  0
LINE
  5
14E9
  8
245
  6
CENTER2
 10
89.700000000160145
 20
9.0
 30
0.0
 11
89.700000000160145
 21
-9.0
 31
0.0
  0
LINE
  5
14EA
  8
241
  6
CONTINUOUS
 10
85.700000000160145
 20
2.309401079999998
 30
0.0
 11
89.700000000160145
 21
4.6188021499999969
 31
0.0
  0
LINE
  5
14EB
  8
241
  6
CONTINUOUS
 10
85.700000000160145
 20
-2.3094010800000002
 30
0.0
 11
85.700000000160145
 21
2.309401079999998
 31
0.0
  0
LINE
  5
14EC
  8
241
  6
CONTINUOUS
 10
89.700000000160145
 20
4.6188021499999969
 30
0.0
 11
93.700000000160145
 21
2.309401079999998
 31
0.0
  0
LINE
  5
14ED
  8
241
  6
CONTINUOUS
 10
93.700000000160145
 20
2.309401079999998
 30
0.0
 11
93.700000000160145
 21
-2.3094010800000002
 31
0.0
  0
CIRCLE
  5
14FC
  8
241
  6
CONTINUOUS
 10
57.7000000001599176
 20
-0.0000000000000009
 30
0.0
 40
8.0
  0
CIRCLE
  5
14FD
  8
242
  6
CONTINUOUS
 10
57.7000000001599176
 20
-0.0000000000000009
 30
0.0
 40
7.25
  0
LINE
  5
14FE
  8
241
  6
CONTINUOUS
 10
61.7000000001599176
 20
-2.3094010800000002
 30
0.0
 11
57.7000000001599176
 21
-4.6188021499999987
 31
0.0
  0
LINE
  5
14FF
  8
241
  6
CONTINUOUS
 10
57.7000000001599176
 20
-4.6188021499999987
 30
0.0
 11
53.7000000001599105
 21
-2.3094010800000002
 31
0.0
  0
LINE
  5
1500
  8
245
  6
CENTER2
 10
57.7000000001599176
 20
9.0
 30
0.0
 11
57.7000000001599176
 21
-9.0
 31
0.0
  0
LINE
  5
1501
  8
241
  6
CONTINUOUS
 10
53.7000000001599105
 20
2.309401079999998
 30
0.0
 11
57.7000000001599176
 21
4.6188021499999969
 31
0.0
  0
LINE
  5
1502
  8
241
  6
CONTINUOUS
 10
53.7000000001599105
 20
-2.3094010800000002
 30
0.0
 11
53.7000000001599105
 21
2.309401079999998
 31
0.0
  0
LINE
  5
1503
  8
241
  6
CONTINUOUS
 10
57.7000000001599176
 20
4.6188021499999969
 30
0.0
 11
61.7000000001599176
 21
2.309401079999998
 31
0.0
  0
LINE
  5
1504
  8
241
  6
CONTINUOUS
 10
61.7000000001599176
 20
2.309401079999998
 30
0.0
 11
61.7000000001599176
 21
-2.3094010800000002
 31
0.0
  0
ARC
  5
150D
  8
241
  6
CONTINUOUS
 10
19.0998447205084609
 20
0.0000000000127471
 30
0.0
 40
8.0001552794905102
 50
269.6430181048099826
 51
90.3569818951862089
  0
LINE
  5
152E
  8
241
  6
CONTINUOUS
 10
19.0500000000000007
 20
8.0000000000000853
 30
0.0
 11
19.0500000000000007
 21
28.5000000000000284
 31
0.0
  0
TEXT
  5
16A5
  8
241
  6
CONTINUOUS
 10
-70.0
 20
77.0
 30
0.0
 40
5.0
  1
BCV40Y-BSL1.500-5.5
  7
YOKO
  0
LINE
  5
1D88
  8
250
  6
CONTINUOUS
 10
139.6999999999987097
 20
21.5000000000052189
 30
0.0
 11
139.6999999999987097
 21
64.0
 31
0.0
  0
LINE
  5
1D89
  8
250
  6
CONTINUOUS
 10
0.0
 20
22.7250000000000014
 30
0.0
 11
0.0000000000000026
 21
64.0
 31
0.0
  0
LINE
  5
1D8A
  8
250
  6
CONTINUOUS
 10
137.4699999999986915
 20
63.0
 30
0.0
 11
2.2300000000000022
 21
63.0
 31
0.0
  0
LINE
  5
1D8E
  8
250
  6
CONTINUOUS
 10
137.4699999999986915
 20
63.3716666666666697
 30
0.0
 11
139.6999999999987097
 21
63.0
 31
0.0
  0
LINE
  5
1D8F
  8
250
  6
CONTINUOUS
 10
137.4699999999986915
 20
62.6283333333333303
 30
0.0
 11
139.6999999999987097
 21
63.0
 31
0.0
  0
LINE
  5
1D90
  8
250
  6
CONTINUOUS
 10
139.6999999999987097
 20
63.0
 30
0.0
 11
137.4699999999986915
 21
63.0
 31
0.0
  0
LINE
  5
1D91
  8
250
  6
CONTINUOUS
 10
139.6999999999987097
 20
21.5000000000052189
 30
0.0
 11
139.6999999999987097
 21
56.9999999999999929
 31
0.0
  0
LINE
  5
1D92
  8
250
  6
CONTINUOUS
 10
41.699999780358489
 20
20.0500000000007503
 30
0.0
 11
41.699999780358489
 21
56.9999999999999929
 31
0.0
  0
LINE
  5
1D93
  8
250
  6
CONTINUOUS
 10
137.4699999999986915
 20
55.9999999999999929
 30
0.0
 11
43.929999780358493
 21
55.9999999999999929
 31
0.0
  0
TEXT
  5
1D97
  8
250
  6
CONTINUOUS
 10
65.1833333333326976
 20
64.0000000000000142
 30
0.0
 40
2.7999999999999989
  1
5.50
  0
TEXT
  5
1D98
  8
250
  6
CONTINUOUS
 10
79.0999998901786228
 20
58.1999999999999886
 30
0.0
 40
2.7999999999999989
  1
(max.3.85)
  0
LINE
  5
1D99
  8
250
  6
CONTINUOUS
 10
43.929999780358493
 20
55.6283333333333232
 30
0.0
 11
41.699999780358489
 21
55.9999999999999929
 31
0.0
  0
LINE
  5
1D9A
  8
250
  6
CONTINUOUS
 10
43.929999780358493
 20
56.3716666666666626
 30
0.0
 11
41.699999780358489
 21
55.9999999999999929
 31
0.0
  0
LINE
  5
1D9B
  8
250
  6
CONTINUOUS
 10
41.699999780358489
 20
55.9999999999999929
 30
0.0
 11
43.929999780358493
 21
55.9999999999999929
 31
0.0
  0
LINE
  5
1D9C
  8
250
  6
CONTINUOUS
 10
2.2300000000000022
 20
62.6283333333333303
 30
0.0
 11
0.0000000000000025
 21
63.0
 31
0.0
  0
LINE
  5
1D9D
  8
250
  6
CONTINUOUS
 10
2.2300000000000022
 20
63.3716666666666697
 30
0.0
 11
0.0000000000000025
 21
63.0
 31
0.0
  0
LINE
  5
1D9E
  8
250
  6
CONTINUOUS
 10
0.0000000000000025
 20
63.0
 30
0.0
 11
2.2300000000000022
 21
63.0
 31
0.0
  0
LINE
  5
1D9F
  8
250
  6
CONTINUOUS
 10
137.4699999999986915
 20
56.3716666666666626
 30
0.0
 11
139.6999999999987097
 21
55.9999999999999929
 31
0.0
  0
LINE
  5
1DA0
  8
250
  6
CONTINUOUS
 10
137.4699999999986915
 20
55.6283333333333232
 30
0.0
 11
139.6999999999987097
 21
55.9999999999999929
 31
0.0
  0
LINE
  5
1DA1
  8
250
  6
CONTINUOUS
 10
139.6999999999987097
 20
55.9999999999999929
 30
0.0
 11
137.4699999999986915
 21
55.9999999999999929
 31
0.0
  0
LINE
  5
1DA2
  8
250
  6
CONTINUOUS
 10
140.1999999999987949
 20
19.0500000000008711
 30
0.0
 11
152.7000000000014097
 21
19.0500000000008782
 31
0.0
  0
LINE
  5
1DA3
  8
250
  6
CONTINUOUS
 10
140.1999999999987949
 20
-19.0499999999957517
 30
0.0
 11
152.7000000000014097
 21
-19.0499999999957517
 31
0.0
  0
LINE
  5
1DA4
  8
250
  6
CONTINUOUS
 10
151.7000000000014097
 20
16.8200000000008707
 30
0.0
 11
151.7000000000014097
 21
-16.8199999999957512
 31
0.0
  0
LINE
  5
1DA8
  8
250
  6
CONTINUOUS
 10
151.3283333333347116
 20
16.8200000000008707
 30
0.0
 11
151.7000000000014097
 21
19.0500000000008711
 31
0.0
  0
LINE
  5
1DA9
  8
250
  6
CONTINUOUS
 10
152.0716666666681078
 20
16.8200000000008707
 30
0.0
 11
151.7000000000014097
 21
19.0500000000008711
 31
0.0
  0
LINE
  5
1DAA
  8
250
  6
CONTINUOUS
 10
151.7000000000014097
 20
19.0500000000008711
 30
0.0
 11
151.7000000000014097
 21
16.8200000000008707
 31
0.0
  0
LINE
  5
1DAB
  8
250
  6
CONTINUOUS
 10
135.1089653438083928
 20
-39.9999999999965468
 30
0.0
 11
159.7000000000059003
 21
-39.9999999999965397
 31
0.0
  0
LINE
  5
1DAC
  8
250
  6
CONTINUOUS
 10
135.1089653438087055
 20
40.0000000000003411
 30
0.0
 11
159.7000000000059003
 21
40.0000000000003411
 31
0.0
  0
LINE
  5
1DAD
  8
250
  6
CONTINUOUS
 10
158.7000000000059003
 20
-37.7699999999965499
 30
0.0
 11
158.7000000000059003
 21
37.7700000000003513
 31
0.0
  0
LINE
  5
1DB1
  8
250
  6
CONTINUOUS
 10
159.0716666666725132
 20
-37.7699999999965499
 30
0.0
 11
158.7000000000059003
 21
-39.9999999999965397
 31
0.0
  0
LINE
  5
1DB2
  8
250
  6
CONTINUOUS
 10
158.3283333333392022
 20
-37.7699999999965499
 30
0.0
 11
158.7000000000059003
 21
-39.9999999999965397
 31
0.0
  0
LINE
  5
1DB3
  8
250
  6
CONTINUOUS
 10
158.7000000000059003
 20
-39.9999999999965397
 30
0.0
 11
158.7000000000059003
 21
-37.7699999999965499
 31
0.0
  0
LINE
  5
1DB4
  8
250
  6
CONTINUOUS
 10
158.3283333333392022
 20
37.7700000000003513
 30
0.0
 11
158.7000000000059003
 21
40.0000000000003411
 31
0.0
  0
LINE
  5
1DB5
  8
250
  6
CONTINUOUS
 10
159.0716666666725132
 20
37.7700000000003513
 30
0.0
 11
158.7000000000059003
 21
40.0000000000003411
 31
0.0
  0
LINE
  5
1DB6
  8
250
  6
CONTINUOUS
 10
158.7000000000059003
 20
40.0000000000003411
 30
0.0
 11
158.7000000000059003
 21
37.7700000000003513
 31
0.0
  0
TEXT
  5
1DB7
  8
250
  6
CONTINUOUS
 10
150.7000000000014097
 20
-7.266666666664146
 30
0.0
 40
2.7999999999999989
  1
\U+22051.500
 50
90.0
  0
TEXT
  5
1DB8
  8
250
  6
CONTINUOUS
 10
157.7000000000057867
 20
-7.2666666666648068
 30
0.0
 40
2.7999999999999989
  1
\U+22053.150
 50
90.0
  0
LINE
  5
1DB9
  8
250
  6
CONTINUOUS
 10
152.0716666666681078
 20
-16.8199999999957512
 30
0.0
 11
151.7000000000014097
 21
-19.0499999999957517
 31
0.0
  0
LINE
  5
1DBA
  8
250
  6
CONTINUOUS
 10
151.3283333333347116
 20
-16.8199999999957512
 30
0.0
 11
151.7000000000014097
 21
-19.0499999999957517
 31
0.0
  0
LINE
  5
1DBB
  8
250
  6
CONTINUOUS
 10
151.7000000000014097
 20
-19.0499999999957517
 30
0.0
 11
151.7000000000014097
 21
-16.8199999999957512
 31
0.0
  0
VIEWPORT
  5
22
 67
     1
  8
0
 10
261.517699115044195
 20
148.5
 30
0.0
 40
523.0353982300885036
 41
297.0
 68
     1
 69
     1
1001
ACAD
1000
MVIEW
1002
{
1070
    16
1010
0.0
1020
0.0
1030
0.0
1010
0.0
1020
0.0
1030
1.0
1040
0.0
1040
297.0
1040
261.517699115044195
1040
148.5
1040
50.0
1040
0.0
1040
0.0
1070
     0
1070
   100
1070
     1
1070
     1
1070
     0
1070
     0
1070
     0
1070
     0
1040
0.0
1040
0.0
1040
0.0
1040
1.0
1040
1.0
1040
10.0
1040
10.0
1070
     0
1002
{
1002
}
1002
}
1001
GENIUS_GENODEF_13
1002
{
1000
HIER
1070
     0
1002
}
1002
{
1000
MANEDIT
1070
     0
1002
}
1002
{
1000
NOSEL
1070
     0
1002
}
1002
{
1000
BEHIND
1070
     0
1002
}
1002
{
1000
OTHER
1070
     0
1002
}
1002
{
1000
REACTOR
1002
}
1001
GENIUS_GENOBJ-N-SDF_13
1002
{
1000
OWNER
1000
GEN
1002
}
1001
GENIUS_GENSCREG_15
1000
PF
1040
1.0
1000
DF
1040
1.0
1000
MIN
1011
0.0
1021
0.0
1031
0.0
1021
0.0
1031
0.0
1000
MAX
1011
523.0353982300885036
1021
0.0
1031
0.0
1021
297.0
1031
0.0
1000
FLAGS
1070
     4
  0
ENDSEC
  0
EOF
