  0
SECTION
  2
HEADER
  9
$ACADVER
  1
AC1009
  9
$INSBASE
 10
0.0
 20
0.0
 30
0.0
  9
$EXTMIN
 10
-69.25
 20
-71.0
 30
0.0
  9
$EXTMAX
 10
337.0938802431268186
 20
89.0
 30
0.0
  9
$LIMMIN
 10
0.0
 20
0.0
  9
$LIMMAX
 10
297.0
 20
210.0
  9
$ORTHOMODE
 70
     0
  9
$REGENMODE
 70
     1
  9
$FILLMODE
 70
     1
  9
$QTEXTMODE
 70
     0
  9
$MIRRTEXT
 70
     1
  9
$DRAGMODE
 70
     2
  9
$LTSCALE
 40
10.0
  9
$OSMODE
 70
   807
  9
$ATTMODE
 70
     1
  9
$TEXTSIZE
 40
3.0
  9
$TRACEWID
 40
1.0
  9
$TEXTSTYLE
  7
YOKO
  9
$CLAYER
  8
240
  9
$CELTYPE
  6
BYLAYER
  9
$CECOLOR
 62
   256
  9
$DIMSCALE
 40
1.0
  9
$DIMASZ
 40
2.0
  9
$DIMEXO
 40
2.0
  9
$DIMDLI
 40
7.0
  9
$DIMRND
 40
0.0
  9
$DIMDLE
 40
0.0
  9
$DIMEXE
 40
2.0
  9
$DIMTP
 40
0.0
  9
$DIMTM
 40
0.01
  9
$DIMTXT
 40
4.0
  9
$DIMCEN
 40
0.0
  9
$DIMTSZ
 40
0.0
  9
$DIMTOL
 70
     0
  9
$DIMLIM
 70
     0
  9
$DIMTIH
 70
     0
  9
$DIMTOH
 70
     0
  9
$DIMSE1
 70
     0
  9
$DIMSE2
 70
     0
  9
$DIMTAD
 70
     3
  9
$DIMZIN
 70
     8
  9
$DIMBLK
  1
OPEN
  9
$DIMASO
 70
     1
  9
$DIMSHO
 70
     1
  9
$DIMPOST
  1

  9
$DIMAPOST
  1

  9
$DIMALT
 70
     0
  9
$DIMALTD
 70
     2
  9
$DIMALTF
 40
25.3999999999999986
  9
$DIMLFAC
 40
1.0
  9
$DIMTOFL
 70
     1
  9
$DIMTVP
 40
0.0
  9
$DIMTIX
 70
     1
  9
$DIMSOXD
 70
     0
  9
$DIMSAH
 70
     0
  9
$DIMBLK1
  1

  9
$DIMBLK2
  1

  9
$DIMSTYLE
  2
BIGT
  9
$DIMCLRD
 70
   256
  9
$DIMCLRE
 70
   256
  9
$DIMCLRT
 70
   256
  9
$DIMTFAC
 40
1.0
  9
$DIMGAP
 40
1.0
  9
$LUNITS
 70
     2
  9
$LUPREC
 70
     3
  9
$SKETCHINC
 40
1.0
  9
$FILLETRAD
 40
0.0
  9
$AUNITS
 70
     0
  9
$AUPREC
 70
     3
  9
$MENU
  1
.
  9
$ELEVATION
 40
0.0
  9
$PELEVATION
 40
0.0
  9
$THICKNESS
 40
0.0
  9
$LIMCHECK
 70
     0
  9
$BLIPMODE
 70
     0
  9
$CHAMFERA
 40
0.25
  9
$CHAMFERB
 40
0.25
  9
$SKPOLY
 70
     0
  9
$TDCREATE
 40
2458180.6192013891413808
  9
$TDUPDATE
 40
2458186.5751157412305474
  9
$TDINDWG
 40
0.0822652662
  9
$TDUSRTIMER
 40
0.0822652662
  9
$USRTIMER
 70
     1
  9
$ANGBASE
 50
0.0
  9
$ANGDIR
 70
     0
  9
$PDMODE
 70
     0
  9
$PDSIZE
 40
-5.0
  9
$PLINEWID
 40
0.0
  9
$COORDS
 70
     1
  9
$SPLFRAME
 70
     0
  9
$SPLINETYPE
 70
     6
  9
$SPLINESEGS
 70
     4
  9
$ATTDIA
 70
     1
  9
$ATTREQ
 70
     1
  9
$HANDLING
 70
     1
  9
$HANDSEED
  5
2F32
  9
$SURFTAB1
 70
     6
  9
$SURFTAB2
 70
     6
  9
$SURFTYPE
 70
     6
  9
$SURFU
 70
     6
  9
$SURFV
 70
     6
  9
$UCSNAME
  2

  9
$UCSORG
 10
0.0
 20
0.0
 30
0.0
  9
$UCSXDIR
 10
1.0
 20
0.0
 30
0.0
  9
$UCSYDIR
 10
0.0
 20
1.0
 30
0.0
  9
$PUCSNAME
  2

  9
$PUCSORG
 10
0.0
 20
0.0
 30
0.0
  9
$PUCSXDIR
 10
1.0
 20
0.0
 30
0.0
  9
$PUCSYDIR
 10
0.0
 20
1.0
 30
0.0
  9
$USERI1
 70
     1
  9
$USERI2
 70
     0
  9
$USERI3
 70
     0
  9
$USERI4
 70
     0
  9
$USERI5
 70
     0
  9
$USERR1
 40
0.0
  9
$USERR2
 40
0.0
  9
$USERR3
 40
0.0
  9
$USERR4
 40
0.0
  9
$USERR5
 40
0.0
  9
$WORLDVIEW
 70
     1
  9
$SHADEDGE
 70
     3
  9
$SHADEDIF
 70
    70
  9
$TILEMODE
 70
     1
  9
$MAXACTVP
 70
    16
  9
$PLIMCHECK
 70
     0
  9
$PEXTMIN
 10
1.0000000000000000E+20
 20
1.0000000000000000E+20
 30
1.0000000000000000E+20
  9
$PEXTMAX
 10
-1.0000000000000000E+20
 20
-1.0000000000000000E+20
 30
-1.0000000000000000E+20
  9
$PLIMMIN
 10
0.0
 20
0.0
  9
$PLIMMAX
 10
420.0
 20
297.0
  9
$UNITMODE
 70
     0
  9
$VISRETAIN
 70
     1
  9
$PLINEGEN
 70
     0
  9
$PSLTSCALE
 70
     1
  0
ENDSEC
  0
SECTION
  2
TABLES
  0
TABLE
  2
VPORT
 70
     1
  0
VPORT
  2
*ACTIVE
 70
     0
 10
0.0
 20
0.0
 11
1.0
 21
1.0
 12
106.2604673531688064
 22
-0.5933877386107583
 13
0.0
 23
0.0
 14
7.0
 24
7.0
 15
7.0
 25
7.0
 16
0.0
 26
0.0
 36
1.0
 17
0.0
 27
0.0
 37
0.0
 40
240.7016255097383066
 41
1.8592342342342341
 42
50.0
 43
0.0
 44
0.0
 50
0.0
 51
0.0
 71
     0
 72
  2000
 73
     1
 74
     0
 75
     0
 76
     0
 77
     0
 78
     0
  0
ENDTAB
  0
TABLE
  2
LTYPE
 70
    16
  0
LTYPE
  2
CONTINUOUS
 70
     0
  3
Solid line
 72
    65
 73
     0
 40
0.0
  0
LTYPE
  2
CENTER2
 70
     0
  3
___ _ ___ _ ___ _ ___ _ ___ _ ___ _ ___ _ ___ _
 72
    65
 73
     4
 40
1.125
 49
0.75
 49
-0.125
 49
0.125
 49
-0.125
  0
LTYPE
  2
HIDDEN2
 70
     0
  3
_ _ _ _ _ _ _ _ _ _ _ _ _ _ _ _ _ _ _ _ _ _ _ _
 72
    65
 73
     2
 40
0.1875
 49
0.125
 49
-0.0625
  0
LTYPE
  2
PHANTOM2
 70
     0
  3
___ _ _ ___ _ _ ___ _ _ ___ _ _ ___ _ _ ___ _ _
 72
    65
 73
     6
 40
1.25
 49
0.625
 49
-0.125
 49
0.125
 49
-0.125
 49
0.125
 49
-0.125
  0
LTYPE
  2
HIDDEN
 70
     0
  3
Hidden __ __ __ __ __ __ __ __ __ __ __ __ __ _
 72
    65
 73
     2
 40
0.375
 49
0.25
 49
-0.125
  0
LTYPE
  2
CENTER
 70
     0
  3
Center ____ _ ____ _ ____ _ ____ _ ____ _ ____
 72
    65
 73
     4
 40
2.0
 49
1.25
 49
-0.25
 49
0.25
 49
-0.25
  0
LTYPE
  2
AMCONSTR
 70
     0
  3
_______________________
 72
    65
 73
     2
 40
9999.0
 49
9999.0
 49
0.0
  0
LTYPE
  2
AMZIGZAG2
 70
     0
  3
/\/-/\/-/\/-/\/-/\/-/\/
 72
    65
 73
     2
 40
0.4401
 49
0.0001
 49
-0.4400000000000001
  0
LTYPE
  2
ACANSTGB
 70
     0
  3
__ . . __ . .
 72
    65
 73
     6
 40
0.35433070866
 49
0.15748031496
 49
-0.03937007874
 49
0.03937007874
 49
-0.03937007874
 49
0.03937007874
 49
-0.03937007874
  0
LTYPE
  2
ACANSTGL
 70
     0
  3
_ _ _ _ _
 72
    65
 73
     2
 40
0.11811023622
 49
0.07874015748
 49
-0.03937007874
  0
ENDTAB
  0
TABLE
  2
LAYER
 70
     9
  0
LAYER
  2
0
 70
     0
 62
     7
  6
CONTINUOUS
  0
LAYER
  2
240
 70
     0
 62
     4
  6
CONTINUOUS
  0
LAYER
  2
245
 70
     0
 62
     2
  6
CENTER2
  0
LAYER
  2
241
 70
     0
 62
   211
  6
CONTINUOUS
  0
LAYER
  2
242
 70
     0
 62
     3
  6
CONTINUOUS
  0
LAYER
  2
243
 70
     0
 62
   211
  6
HIDDEN2
  0
LAYER
  2
246
 70
     0
 62
     3
  6
PHANTOM2
  0
LAYER
  2
247
 70
     0
 62
    60
  6
CONTINUOUS
  0
LAYER
  2
250
 70
     0
 62
     3
  6
CONTINUOUS
  0
ENDTAB
  0
TABLE
  2
STYLE
 70
     5
  0
STYLE
  2
STANDARD
 70
     0
 40
0.0
 41
1.0
 50
0.0
 71
     0
 42
3.0
  3
romans.shx
  4
extfont.shx
  0
STYLE
  2
YOKO
 70
     0
 40
0.0
 41
1.0
 50
0.0
 71
     0
 42
3.0
  3
romans.shx
  4
extfont.shx
  0
STYLE
  2

 70
     1
 40
0.0
 41
1.0
 50
0.0
 71
     0
 42
3.0
  3
genltshp.shx
  4

  0
STYLE
  2
ACANSGDT
 70
     0
 40
0.0
 41
1.0
 50
0.0
 71
     0
 42
3.0
  3
amgdt.shx
  4

  0
ENDTAB
  0
TABLE
  2
VIEW
 70
     0
  0
ENDTAB
  0
TABLE
  2
UCS
 70
     0
  0
ENDTAB
  0
TABLE
  2
APPID
 70
    42
  0
APPID
  2
ACAD
 70
     0
  0
APPID
  2
ACADANNOTATIVE
 70
     0
  0
APPID
  2
GLOBAL
 70
     0
  0
APPID
  2
DETAIL
 70
     0
  0
APPID
  2
GRPNAME
 70
     0
  0
APPID
  2
GPARA
 70
     0
  0
APPID
  2
MCAD_NO_VIS
 70
     0
  0
APPID
  2
ACAD_TEMP_GRAPHIC
 70
     0
  0
APPID
  2
ACATTRIBSERVICES
 70
     0
  0
APPID
  2
GENIUS_GENSCREG_15
 70
     0
  0
APPID
  2
GENIUS_GENODEF_13
 70
     0
  0
APPID
  2
GENIUS_GENOBJ-N-SDF_13
 70
     0
  0
APPID
  2
GENIUS_GENREC_14
 70
     0
  0
APPID
  2
GENIUS_GENOBJ-N-REC_13
 70
     0
  0
APPID
  2
GENIUS_GENDIMSH_14
 70
     0
  0
APPID
  2
GENIUS_GENOBJ-N-DIM_13
 70
     0
  0
APPID
  2
GENIUS_GENDIM_13
 70
     0
  0
APPID
  2
GENIUS_GENDTOL_13
 70
     0
  0
APPID
  2
GENIUS_GENOLIS_13
 70
     0
  0
APPID
  2
GENIUS_GENOENT_13
 70
     0
  0
APPID
  2
GENIUS_GENOBJ-F-FEM_13
 70
     0
  0
APPID
  2
GENIUS_GENOREF_13
 70
     0
  0
APPID
  2
GENIUS_GEFFEM_13
 70
     0
  0
APPID
  2
GENIUS_GEFFEMP_13
 70
     0
  0
APPID
  2
AD_DRAW
 70
     0
  0
APPID
  2
DESIGNERASSEMBLIES
 70
     0
  0
APPID
  2
ACADM_DIM_EDIT
 70
     0
  0
APPID
  2
AMDT_DM_ADJ
 70
     0
  0
APPID
  2
ACAD_NAV_VCDISPLAY
 70
     0
  0
APPID
  2
ITEMNAME
 70
     0
  0
APPID
  2
GENIUS_GENOBJ-N-FIL_13
 70
     0
  0
APPID
  2
ACAECLAYERSTANDARD
 70
     0
  0
APPID
  2
GRADE_0
 70
     0
  0
APPID
  2
ACAD_DSTYLE_DIMJAG
 70
     0
  0
APPID
  2
ACAD_DSTYLE_DIMTALN
 70
     0
  0
APPID
  2
ACAD_DSTYLE_DIMBREAK
 70
     0
  0
APPID
  2
ACAD_PSEXT
 70
     0
  0
APPID
  2
ACAD_EXEMPT_FROM_CAD_STANDARDS
 70
     0
  0
APPID
  2
ACAD_DSTYLE_DIMINSPECT
 70
     0
  0
APPID
  2
ACADANNOMONITORALERTICONDI
 70
     0
  0
APPID
  2
ACAD_DSTYLE_DIMRADIAL_EXTENSION
 70
     0
  0
APPID
  2
ACAD_MLEADERVER
 70
     0
  0
ENDTAB
  0
TABLE
  2
DIMSTYLE
 70
     7
  0
DIMSTYLE
  2
BIGT
 70
     0
  3

  4

  5

  6

  7

 40
1.0
 41
2.2299999999999991
 42
0.5
 43
7.0
 44
1.0
 45
0.0
 46
0.0
 47
0.0
 48
0.01
140
2.799999999999998
141
0.0
142
0.0
143
25.3999999999999986
144
1.0
145
0.0
146
1.0
147
1.0
 71
     0
 72
     0
 73
     0
 74
     0
 75
     0
 76
     0
 77
     3
 78
     9
170
     0
171
     2
172
     1
173
     0
174
     1
175
     0
176
   256
177
   256
178
    40
  0
DIMSTYLE
  2
AM_ANSI
 70
     0
  3

  4
mm
  5

  6

  7

 40
1.0
 41
0.12
 42
0.05
 43
0.5
 44
0.1
 45
0.0
 46
0.0
 47
0.1
 48
0.1
140
0.12
141
0.0
142
0.0
143
25.3999999999999986
144
1.0
145
0.0
146
0.71
147
0.06
 71
     0
 72
     0
 73
     1
 74
     1
 75
     0
 76
     0
 77
     0
 78
     7
170
     0
171
     2
172
     0
173
     0
174
     0
175
     0
176
   256
177
   256
178
     2
  0
DIMSTYLE
  2
AM_ANSI$3
 70
     0
  3

  4
mm
  5

  6

  7

 40
1.0
 41
0.12
 42
0.05
 43
0.5
 44
0.1
 45
0.0
 46
0.0
 47
0.1
 48
0.1
140
0.12
141
0.0
142
0.0
143
25.3999999999999986
144
1.0
145
0.0
146
0.71
147
0.06
 71
     0
 72
     0
 73
     1
 74
     1
 75
     0
 76
     0
 77
     0
 78
     7
170
     0
171
     2
172
     0
173
     0
174
     0
175
     0
176
   256
177
   256
178
     2
  0
DIMSTYLE
  2
AM_ANSI$4
 70
     0
  3

  4
mm
  5

  6

  7

 40
1.0
 41
0.12
 42
0.05
 43
0.5
 44
0.1
 45
0.0
 46
0.0
 47
0.1
 48
0.1
140
0.12
141
0.0
142
0.0
143
25.3999999999999986
144
1.0
145
0.0
146
0.71
147
0.06
 71
     0
 72
     0
 73
     1
 74
     1
 75
     0
 76
     0
 77
     0
 78
     7
170
     0
171
     2
172
     0
173
     0
174
     0
175
     0
176
   256
177
   256
178
     2
  0
DIMSTYLE
  2
AM_ANSI$7
 70
     0
  3

  4
mm
  5

  6

  7

 40
1.0
 41
0.12
 42
0.05
 43
0.5
 44
0.1
 45
0.0
 46
0.0
 47
0.1
 48
0.1
140
0.12
141
0.0
142
0.0
143
25.3999999999999986
144
1.0
145
0.0
146
0.71
147
0.06
 71
     0
 72
     0
 73
     1
 74
     1
 75
     0
 76
     0
 77
     0
 78
     7
170
     0
171
     2
172
     0
173
     0
174
     0
175
     0
176
   256
177
   256
178
     2
  0
DIMSTYLE
  2
AM_ANSI$SF
 70
     0
  3

  4
mm
  5

  6

  7

 40
1.0
 41
0.12
 42
0.05
 43
0.5
 44
0.1
 45
0.0
 46
0.0
 47
0.1
 48
0.1
140
0.12
141
0.0
142
0.0
143
25.3999999999999986
144
1.0
145
0.0
146
0.71
147
0.06
 71
     0
 72
     0
 73
     1
 74
     1
 75
     1
 76
     1
 77
     0
 78
     7
170
     0
171
     2
172
     0
173
     0
174
     0
175
     0
176
   256
177
   256
178
     2
  0
DIMSTYLE
  2
AM_ANSI$SH
 70
     0
  3

  4
mm
  5

  6
GENAXEH
  7

 40
1.0
 41
0.12
 42
0.05
 43
0.5
 44
0.1
 45
0.0
 46
0.0
 47
0.1
 48
0.1
140
0.12
141
0.0
142
0.0
143
25.3999999999999986
144
1.0
145
0.0
146
0.71
147
0.06
 71
     0
 72
     0
 73
     1
 74
     1
 75
     1
 76
     1
 77
     0
 78
     7
170
     0
171
     2
172
     0
173
     1
174
     0
175
     0
176
   256
177
   256
178
     2
  0
ENDTAB
  0
ENDSEC
  0
SECTION
  2
BLOCKS
  0
BLOCK
  8
0
  2
$MODEL_SPACE
 70
     0
 10
0.0
 20
0.0
 30
0.0
  3
$MODEL_SPACE
  1

  0
ENDBLK
  5
2D1C
  8
0
  0
BLOCK
 67
     1
  8
0
  2
$PAPER_SPACE
 70
     0
 10
0.0
 20
0.0
 30
0.0
  3
$PAPER_SPACE
  1

  0
ENDBLK
  5
2D18
 67
     1
  8
0
  0
BLOCK
  8
0
  2
_OPEN
 70
     0
 10
0.0
 20
0.0
 30
0.0
  3
_OPEN
  1

  0
LINE
  5
595
  8
0
  6
BYBLOCK
 62
     0
 10
-1.0
 20
0.1666666666666666
 30
0.0
 11
0.0
 21
0.0
 31
0.0
  0
LINE
  5
596
  8
0
  6
BYBLOCK
 62
     0
 10
-1.0
 20
-0.1666666666666666
 30
0.0
 11
0.0
 21
0.0
 31
0.0
  0
LINE
  5
597
  8
0
  6
BYBLOCK
 62
     0
 10
0.0
 20
0.0
 30
0.0
 11
-1.0
 21
0.0
 31
0.0
  0
ENDBLK
  5
599
  8
0
  0
BLOCK
  8
0
  2
GENAXEH
 70
     0
 10
0.0
 20
0.0
 30
0.0
  3
GENAXEH
  1

  0
LINE
  5
2EA0
  8
0
 10
-1.0
 20
0.0
 30
0.0
 11
1.0
 21
0.0
 31
0.0
  0
ENDBLK
  5
2EA2
  8
0
  0
BLOCK
  8
0
  2
_ACMFILLEDHALF
 70
     0
 10
0.0
 20
0.0
 30
0.0
  3
_ACMFILLEDHALF
  1

  0
TRACE
  5
2EB0
  8
240
 62
     0
 10
-0.8
 20
0.0
 30
0.0
 11
-1.0
 21
0.166666666
 31
0.0
 12
0.0
 22
0.0
 32
0.0
 13
0.0
 23
0.0
 33
0.0
  0
LINE
  5
2EB1
  8
240
 62
     0
 10
-1.0
 20
0.0
 30
0.0
 11
-0.8
 21
0.0
 31
0.0
  0
ENDBLK
  5
2EAF
  8
0
  0
ENDSEC
  0
SECTION
  2
ENTITIES
  0
LINE
  5
1407
  8
245
  6
CENTER2
 10
-69.25
 20
0.0
 30
0.0
 11
110.4365309485619946
 21
0.0
 31
0.0
  0
LINE
  5
1408
  8
240
  6
CONTINUOUS
 10
19.0500000000000007
 20
28.5000000000000284
 30
0.0
 11
19.0500000000000007
 21
31.75
 31
0.0
  0
LINE
  5
1409
  8
240
  6
CONTINUOUS
 10
13.0399999999999903
 20
28.9559131899999898
 30
0.0
 11
14.6531667700000003
 21
31.75
 31
0.0
  0
LINE
  5
140A
  8
241
  6
CONTINUOUS
 10
14.6461667700000007
 20
31.75
 30
0.0
 11
14.6461667700000007
 21
8.0000000000000693
 31
0.0
  0
LINE
  5
140B
  8
240
  6
CONTINUOUS
 10
9.2000000000000028
 20
28.980161909999989
 30
0.0
 11
7.6008332300000063
 21
31.75
 31
0.0
  0
LINE
  5
140C
  8
240
  6
CONTINUOUS
 10
1.0
 20
22.2250000000000085
 30
0.0
 11
1.0
 21
31.75
 31
0.0
  0
LINE
  5
140D
  8
241
  6
CONTINUOUS
 10
7.5938332300000013
 20
31.75
 30
0.0
 11
7.5938332300000013
 21
8.0000000000000409
 31
0.0
  0
LINE
  5
140E
  8
240
  6
CONTINUOUS
 10
0.0
 20
22.2250000000000085
 30
0.0
 11
-68.25
 21
12.2718750014768698
 31
0.0
  0
LINE
  5
140F
  8
240
  6
CONTINUOUS
 10
0.0
 20
-22.2250000000000085
 30
0.0
 11
-68.25
 21
-12.2718750014768698
 31
0.0
  0
LINE
  5
1410
  8
240
  6
CONTINUOUS
 10
-68.25
 20
-12.2718750014768094
 30
0.0
 11
-68.25
 21
12.2718750014768698
 31
0.0
  0
LINE
  5
1411
  8
241
  6
CONTINUOUS
 10
1.0
 20
-22.2250000000000085
 30
0.0
 11
1.0
 21
22.2250000000000085
 31
0.0
  0
LINE
  5
1412
  8
241
  6
CONTINUOUS
 10
0.0
 20
-22.2250000000000085
 30
0.0
 11
0.0
 21
22.2250000000000085
 31
0.0
  0
LINE
  5
1413
  8
241
  6
CONTINUOUS
 10
14.6461667700000007
 20
-31.75
 30
0.0
 11
14.6461667700000007
 21
-7.9999999999818519
 31
0.0
  0
LINE
  5
1414
  8
241
  6
CONTINUOUS
 10
7.5938332300000013
 20
-31.75
 30
0.0
 11
7.5938332300000013
 21
-7.999999999993487
 31
0.0
  0
LINE
  5
1415
  8
241
  6
CONTINUOUS
 10
9.2000000000000028
 20
-7.9999999999908384
 30
0.0
 11
9.2000000000000028
 21
-28.1800000000000104
 31
0.0
  0
LINE
  5
1416
  8
241
  6
CONTINUOUS
 10
13.0399999999999903
 20
-7.9999999999845022
 30
0.0
 11
13.0399999999999903
 21
-28.1800000000000104
 31
0.0
  0
LINE
  5
1417
  8
240
  6
CONTINUOUS
 10
1.0
 20
-31.75
 30
0.0
 11
7.5938332300000013
 21
-31.75
 31
0.0
  0
LINE
  5
1418
  8
240
  6
CONTINUOUS
 10
1.0
 20
-22.2250000000000085
 30
0.0
 11
1.0
 21
-31.75
 31
0.0
  0
LINE
  5
1419
  8
240
  6
CONTINUOUS
 10
0.0
 20
-22.2250000000000085
 30
0.0
 11
1.0
 21
-22.2250000000000085
 31
0.0
  0
LINE
  5
141A
  8
240
  6
CONTINUOUS
 10
9.2000000000000028
 20
-28.1800000000000104
 30
0.0
 11
13.0399999999999903
 21
-28.1800000000000104
 31
0.0
  0
LINE
  5
141B
  8
240
  6
CONTINUOUS
 10
7.5938332300000013
 20
-31.75
 30
0.0
 11
9.2000000000000028
 21
-28.9680375499999982
 31
0.0
  0
LINE
  5
141C
  8
240
  6
CONTINUOUS
 10
9.2000000000000028
 20
-28.9680375499999982
 30
0.0
 11
9.2000000000000028
 21
-28.1800000000000104
 31
0.0
  0
LINE
  5
141D
  8
240
  6
CONTINUOUS
 10
19.0500000000000007
 20
-28.4999999999999609
 30
0.0
 11
19.0500000000000007
 21
-31.75
 31
0.0
  0
LINE
  5
141E
  8
240
  6
CONTINUOUS
 10
14.6461667700000007
 20
-31.75
 30
0.0
 11
19.0500000000000007
 21
-31.75
 31
0.0
  0
LINE
  5
141F
  8
240
  6
CONTINUOUS
 10
13.0399999999999903
 20
-28.9680375499999982
 30
0.0
 11
13.0399999999999903
 21
-28.1800000000000104
 31
0.0
  0
LINE
  5
1420
  8
240
  6
CONTINUOUS
 10
14.6461667700000007
 20
-31.75
 30
0.0
 11
13.0399999999999903
 21
-28.9680375499999982
 31
0.0
  0
LINE
  5
1421
  8
240
  6
CONTINUOUS
 10
0.0
 20
22.2250000000000085
 30
0.0
 11
1.0
 21
22.2250000000000085
 31
0.0
  0
LINE
  5
1422
  8
241
  6
CONTINUOUS
 10
13.0399999999999903
 20
8.0000000000000622
 30
0.0
 11
13.0399999999999903
 21
28.1800000000000104
 31
0.0
  0
LINE
  5
1423
  8
241
  6
CONTINUOUS
 10
9.2000000000000028
 20
8.0000000000000462
 30
0.0
 11
9.2000000000000028
 21
28.1800000000000104
 31
0.0
  0
LINE
  5
1424
  8
240
  6
CONTINUOUS
 10
9.2000000000000028
 20
28.1800000000000104
 30
0.0
 11
13.0399999999999903
 21
28.1800000000000104
 31
0.0
  0
LINE
  5
1425
  8
240
  6
CONTINUOUS
 10
9.2000000000000028
 20
28.9680375499999982
 30
0.0
 11
9.2000000000000028
 21
28.1800000000000104
 31
0.0
  0
LINE
  5
1426
  8
240
  6
CONTINUOUS
 10
13.0399999999999903
 20
28.9680375499999982
 30
0.0
 11
13.0399999999999903
 21
28.1800000000000104
 31
0.0
  0
LINE
  5
1427
  8
240
  6
CONTINUOUS
 10
1.0
 20
31.75
 30
0.0
 11
7.6008332300000063
 21
31.75
 31
0.0
  0
LINE
  5
1428
  8
240
  6
CONTINUOUS
 10
14.6531667700000003
 20
31.75
 30
0.0
 11
19.0500000000000007
 21
31.75
 31
0.0
  0
LINE
  5
1429
  8
247
  6
CONTINUOUS
 10
5.4999999999999432
 20
-18.75
 30
0.0
 11
5.5
 21
-14.1153846156700506
 31
0.0
  0
LINE
  5
142A
  8
247
  6
CONTINUOUS
 10
3.0
 20
-17.9548934999879712
 30
0.0
 11
5.0999999999160082
 21
-18.5570588100573417
 31
0.0
  0
LINE
  5
142B
  8
247
  6
CONTINUOUS
 10
3.996153846113998
 20
-17.3251514035190404
 30
0.0
 11
3.996153846113998
 21
-18.2405360188670116
 31
0.0
  0
ARC
  5
142C
  8
247
  6
CONTINUOUS
 10
3.3847190672940992
 20
-17.0872634019468101
 30
0.0
 40
0.3876715809326743
 50
72.9978896752922282
 51
172.9241662185135908
  0
ARC
  5
142D
  8
247
  6
CONTINUOUS
 10
3.305223131028014
 20
-17.3824775568041296
 30
0.0
 40
0.6933047965358772
 50
4.7429368522022122
 51
73.8492262732667513
1001
GENIUS_GENOBJ-N-FIL_13
1002
{
1000
OWNER
1000
GEN
1002
}
1001
GENIUS_GENODEF_13
1002
{
1000
HIER
1070
     0
1002
}
1002
{
1000
MANEDIT
1070
     0
1002
}
1002
{
1000
NOSEL
1070
     0
1002
}
1002
{
1000
BEHIND
1070
     0
1002
}
1002
{
1000
OTHER
1070
     0
1002
}
1002
{
1000
REACTOR
1002
}
  0
LINE
  5
142E
  8
247
  6
CONTINUOUS
 10
5.0999999999160082
 20
-17.6416741947093598
 30
0.0
 11
5.0999999999160082
 21
-18.5570588100573417
 31
0.0
  0
LINE
  5
142F
  8
247
  6
CONTINUOUS
 10
3.0
 20
-17.9548934999879712
 30
0.0
 11
3.0
 21
-17.0395088846399787
 31
0.0
  0
ARC
  5
1430
  8
247
  6
CONTINUOUS
 10
4.3874169627678707
 20
-17.3783064762668609
 30
0.0
 40
0.394857301075386
 50
65.990941652528889
 51
172.2634434590690944
  0
ARC
  5
1431
  8
247
  6
CONTINUOUS
 10
4.391200327332565
 20
-17.7124466104269196
 30
0.0
 40
0.7123241612361686
 50
5.701985164259785
 51
77.2773384368220064
1001
GENIUS_GENOBJ-N-FIL_13
1002
{
1000
OWNER
1000
GEN
1002
}
1001
GENIUS_GENODEF_13
1002
{
1000
HIER
1070
     0
1002
}
1002
{
1000
MANEDIT
1070
     0
1002
}
1002
{
1000
NOSEL
1070
     0
1002
}
1002
{
1000
BEHIND
1070
     0
1002
}
1002
{
1000
OTHER
1070
     0
1002
}
1002
{
1000
REACTOR
1002
}
  0
LINE
  5
1432
  8
247
  6
CONTINUOUS
 10
5.0999999999160082
 20
-16.6839818870633785
 30
0.0
 11
3.0
 21
-16.0818165769940116
 31
0.0
  0
LINE
  5
1433
  8
247
  6
CONTINUOUS
 10
3.0
 20
-14.5856627309079805
 30
0.0
 11
3.0
 21
-14.9816783643035993
 31
0.0
  0
LINE
  5
1434
  8
247
  6
CONTINUOUS
 10
5.0999999999160082
 20
-15.6087396539439798
 30
0.0
 11
5.0999999999160082
 21
-15.1779704231919901
 31
0.0
  0
ARC
  5
1435
  8
247
  6
CONTINUOUS
 10
4.4582995950833562
 20
-14.3818165770699693
 30
0.0
 40
1.576855057639547
 50
202.3594881415291127
 51
254.9932485428464872
  0
ARC
  5
1436
  8
247
  6
CONTINUOUS
 10
3.5658188585381341
 20
-14.8475113661332294
 30
0.0
 40
0.6234706797009447
 50
94.9945893190753168
 51
155.1663289573039037
1001
GENIUS_GENOBJ-N-FIL_13
1002
{
1000
OWNER
1000
GEN
1002
}
1001
GENIUS_GENODEF_13
1002
{
1000
HIER
1070
     0
1002
}
1002
{
1000
MANEDIT
1070
     0
1002
}
1002
{
1000
NOSEL
1070
     0
1002
}
1002
{
1000
BEHIND
1070
     0
1002
}
1002
{
1000
OTHER
1070
     0
1002
}
1002
{
1000
REACTOR
1002
}
  0
ARC
  5
1437
  8
247
  6
CONTINUOUS
 10
4.1621021219694381
 20
-15.4441839510328105
 30
0.0
 40
0.9749472149106978
 50
15.8460965557808002
 51
82.325137004169278
  0
ARC
  5
1438
  8
247
  6
CONTINUOUS
 10
4.3714704019710631
 20
-15.0352116387722408
 30
0.0
 40
0.9271945638692008
 50
249.7136016704968995
 51
321.7887456564109243
1001
GENIUS_GENOBJ-N-FIL_13
1002
{
1000
OWNER
1000
GEN
1002
}
1001
GENIUS_GENODEF_13
1002
{
1000
HIER
1070
     0
1002
}
1002
{
1000
MANEDIT
1070
     0
1002
}
1002
{
1000
NOSEL
1070
     0
1002
}
1002
{
1000
BEHIND
1070
     0
1002
}
1002
{
1000
OTHER
1070
     0
1002
}
1002
{
1000
REACTOR
1002
}
  0
LINE
  5
1439
  8
247
  6
CONTINUOUS
 10
4.2923076922559744
 20
-14.9625858078159606
 30
0.0
 11
4.2923076922559744
 21
-14.4779704232199702
 31
0.0
  0
ARC
  5
143A
  8
247
  6
CONTINUOUS
 10
4.25
 20
-18.75
 30
0.0
 40
1.25
 50
180.0
 51
0.0
  0
LINE
  5
143B
  8
247
  6
CONTINUOUS
 10
3.0
 20
-18.75
 30
0.0
 11
3.0
 21
-18.3038461539140407
 31
0.0
  0
ARC
  5
143C
  8
247
  6
CONTINUOUS
 10
4.25
 20
-14.1153846156700506
 30
0.0
 40
1.25
 50
0.0
 51
180.0
  0
LINE
  5
143D
  8
241
  6
CONTINUOUS
 10
19.0500000000000007
 20
-7.9999999999745874
 30
0.0
 11
3.699999999999815
 21
-7.9999999999999121
 31
0.0
  0
LINE
  5
143E
  8
241
  6
CONTINUOUS
 10
3.699999999999815
 20
-7.9999999999999121
 30
0.0
 11
0.9999999999997726
 21
-10.6999999999998998
 31
0.0
  0
LINE
  5
143F
  8
241
  6
CONTINUOUS
 10
3.699999999999815
 20
8.0000000000000284
 30
0.0
 11
19.0500000000000007
 21
8.0000000000000853
 31
0.0
  0
LINE
  5
1440
  8
241
  6
CONTINUOUS
 10
0.9999999999997726
 20
10.7000000000000703
 30
0.0
 11
3.699999999999815
 21
8.0000000000000284
 31
0.0
  0
LINE
  5
1441
  8
241
  6
CONTINUOUS
 10
19.0500000000000007
 20
-28.4999999999999609
 30
0.0
 11
19.0500000000000007
 21
-7.9999999999745874
 31
0.0
  0
LINE
  5
1442
  8
250
  6
CONTINUOUS
 10
-35.4139049745202925
 20
-18.8136323989028291
 30
0.0
 11
-34.1249999989337169
 21
-17.2484374988922191
 31
0.0
  0
LINE
  5
1443
  8
250
  6
CONTINUOUS
 10
-34.8366036569175535
 20
-19.1470505044978907
 30
0.0
 11
-34.1249999989337169
 21
-17.2484374988922191
 31
0.0
  0
LINE
  5
1444
  8
250
  6
CONTINUOUS
 10
-34.1249999989337169
 20
-17.2484374988922191
 30
0.0
 11
-35.1252543157189194
 21
-18.9803414517003901
 31
0.0
  0
TEXT
  5
1445
  8
250
  6
CONTINUOUS
 10
-57.0361743287984382
 20
-27.0700727109799608
 30
0.0
 40
2.799999999999998
  1
BCV40Y
  7
YOKO
1001
ITEMNAME
1000
LNSP3
  0
LINE
  5
1446
  8
250
  6
CONTINUOUS
 10
-40.3862186589337213
 20
-28.0895097788922214
 30
0.0
 11
-58.3862186589337071
 21
-28.0895097788922214
 31
0.0
1001
ITEMNAME
1000
LNSP2
  0
LINE
  5
1447
  8
250
  6
CONTINUOUS
 10
-35.4139049745202925
 20
-18.8136323989028291
 30
0.0
 11
-34.1249999989337169
 21
-17.2484374988922085
 31
0.0
  0
LINE
  5
1448
  8
250
  6
CONTINUOUS
 10
-34.8366036569175535
 20
-19.1470505044978907
 30
0.0
 11
-34.1249999989337169
 21
-17.2484374988922085
 31
0.0
  0
LINE
  5
1449
  8
250
  6
CONTINUOUS
 10
-34.1249999989337169
 20
-17.2484374988922085
 30
0.0
 11
-35.1252543157189194
 21
-18.9803414517003688
 31
0.0
  0
LINE
  5
144A
  8
250
  6
CONTINUOUS
 10
-35.1252543157189194
 20
-18.9803414517003688
 30
0.0
 11
-40.3862186589337213
 21
-28.0895097788922214
 31
0.0
1001
ACAD
1000
DSTYLE
1002
{
1070
     6
1000
OPEN
1070
    41
1040
2.0
1070
    42
1040
2.0
1070
    44
1040
2.0
1070
   140
1040
4.0
1070
   343
1005
0
1002
}
  0
LINE
  5
14E2
  8
240
  6
CONTINUOUS
 10
113.221468297228995
 20
35.7785317254722912
 30
0.0
 11
125.1715728784240014
 21
23.8284271228439692
 31
0.0
  0
ARC
  5
14E3
  8
240
  6
CONTINUOUS
 10
122.3431457511414067
 20
21.0000000006342908
 30
0.0
 40
4.0
 50
315.0
 51
44.9999999486184734
  0
LINE
  5
14E5
  8
240
  6
CONTINUOUS
 10
59.4164910139926477
 20
-47.5835089860065921
 30
0.0
 11
125.1715728758876054
 21
18.1715728758880708
 31
0.0
  0
LINE
  5
14E9
  8
240
  6
CONTINUOUS
 10
19.0500000000000007
 20
28.4999999999996696
 30
0.0
 11
34.9999999999984084
 21
28.5000000000001705
 31
0.0
  0
LINE
  5
14EA
  8
240
  6
CONTINUOUS
 10
19.0500000000000007
 20
-28.4999999999994387
 30
0.0
 11
34.9999999999995595
 21
-28.4999999999999396
 31
0.0
  0
ARC
  5
14EB
  8
241
  6
CONTINUOUS
 10
19.0999848011986089
 20
0.0000000000187867
 30
0.0
 40
8.0000000000332516
 50
270.0001088533975917
 51
89.9997479070921003
  0
LINE
  5
14EC
  8
245
  6
CENTER2
 10
109.3170522214730056
 20
19.9947217511375186
 30
0.0
 11
56.1235434224979599
 21
-33.1987870478374987
 31
0.0
  0
LINE
  5
14ED
  8
241
  6
CONTINUOUS
 10
34.9999999999984084
 20
28.5000000000001705
 30
0.0
 11
34.9999999999994316
 21
-29.1999999999999105
 31
0.0
  0
LINE
  5
14EE
  8
243
  6
HIDDEN2
 10
102.9684199459969989
 20
31.8894444302743807
 30
0.0
 11
36.0397731501612384
 21
-35.0392023655613514
 31
0.0
  0
ARC
  5
14FC
  8
240
  6
CONTINUOUS
 10
53.7537345064031413
 20
-41.9321364354026613
 30
0.0
 40
8.0003014299442103
 50
242.6346892068538068
 51
315.0576493750397162
  0
LINE
  5
1500
  8
240
  6
CONTINUOUS
 10
49.2634559672900991
 20
-48.2630415733052303
 30
0.0
 11
36.0397731501602721
 21
-35.0392023655608398
 31
0.0
  0
POLYLINE
  5
2096
  8
240
 66
     1
 10
0.0
 20
0.0
 30
0.0
 70
     8
  0
VERTEX
  5
2097
  8
240
 10
50.0763000000000034
 20
-49.0371999999999915
 30
0.0
 70
    32
  0
VERTEX
  5
2098
  8
240
 10
50.0718999999999994
 20
-49.0330999999999975
 30
0.0
 70
    32
  0
VERTEX
  5
2099
  8
240
 10
50.0673999999999992
 20
-49.0290999999999997
 30
0.0
 70
    32
  0
VERTEX
  5
209A
  8
240
 10
50.0630000000000024
 20
-49.0251000000000019
 30
0.0
 70
    32
  0
VERTEX
  5
209B
  8
240
 10
50.0585999999999984
 20
-49.021099999999997
 30
0.0
 70
    32
  0
VERTEX
  5
209C
  8
240
 10
50.0540999999999983
 20
-49.017000000000003
 30
0.0
 70
    32
  0
VERTEX
  5
209D
  8
240
 10
50.0497000000000014
 20
-49.012999999999991
 30
0.0
 70
    32
  0
VERTEX
  5
209E
  8
240
 10
50.0452999999999903
 20
-49.0090000000000003
 30
0.0
 70
    32
  0
VERTEX
  5
209F
  8
240
 10
50.0409000000000006
 20
-49.0050000000000026
 30
0.0
 70
    32
  0
VERTEX
  5
20A0
  8
240
 10
50.0364000000000004
 20
-49.0009000000000015
 30
0.0
 70
    32
  0
VERTEX
  5
20A1
  8
240
 10
50.0319999999999894
 20
-48.9968999999999895
 30
0.0
 70
    32
  0
VERTEX
  5
20A2
  8
240
 10
50.0275999999999996
 20
-48.9928999999999988
 30
0.0
 70
    32
  0
VERTEX
  5
20A3
  8
240
 10
50.0232000000000028
 20
-48.9887999999999977
 30
0.0
 70
    32
  0
VERTEX
  5
20A4
  8
240
 10
50.0187999999999917
 20
-48.9847999999999999
 30
0.0
 70
    32
  0
VERTEX
  5
20A5
  8
240
 10
50.014400000000002
 20
-48.9808000000000021
 30
0.0
 70
    32
  0
VERTEX
  5
20A6
  8
240
 10
50.0099000000000018
 20
-48.976700000000001
 30
0.0
 70
    32
  0
VERTEX
  5
20A7
  8
240
 10
50.0054999999999978
 20
-48.9727000000000032
 30
0.0
 70
    32
  0
VERTEX
  5
20A8
  8
240
 10
50.001100000000001
 20
-48.9686999999999912
 30
0.0
 70
    32
  0
VERTEX
  5
20A9
  8
240
 10
49.996699999999997
 20
-48.9647000000000006
 30
0.0
 70
    32
  0
VERTEX
  5
20AA
  8
240
 10
49.9923000000000002
 20
-48.9605999999999995
 30
0.0
 70
    32
  0
VERTEX
  5
20AB
  8
240
 10
49.9879000000000033
 20
-48.9566000000000017
 30
0.0
 70
    32
  0
VERTEX
  5
20AC
  8
240
 10
49.9834999999999994
 20
-48.9525999999999968
 30
0.0
 70
    32
  0
VERTEX
  5
20AD
  8
240
 10
49.9791000000000025
 20
-48.9485000000000028
 30
0.0
 70
    32
  0
VERTEX
  5
20AE
  8
240
 10
49.9746999999999915
 20
-48.9444999999999908
 30
0.0
 70
    32
  0
VERTEX
  5
20AF
  8
240
 10
49.9703000000000017
 20
-48.9405000000000001
 30
0.0
 70
    32
  0
VERTEX
  5
20B0
  8
240
 10
49.9658999999999978
 20
-48.936399999999999
 30
0.0
 70
    32
  0
VERTEX
  5
20B1
  8
240
 10
49.96159999999999
 20
-48.9324000000000012
 30
0.0
 70
    32
  0
VERTEX
  5
20B2
  8
240
 10
49.9572000000000003
 20
-48.9284000000000034
 30
0.0
 70
    32
  0
VERTEX
  5
20B3
  8
240
 10
49.9528000000000105
 20
-48.9243000000000023
 30
0.0
 70
    32
  0
VERTEX
  5
20B4
  8
240
 10
49.9483999999999924
 20
-48.9202999999999975
 30
0.0
 70
    32
  0
VERTEX
  5
20B5
  8
240
 10
49.9440000000000026
 20
-48.9162000000000035
 30
0.0
 70
    32
  0
VERTEX
  5
20B6
  8
240
 10
49.9395999999999987
 20
-48.9121999999999986
 30
0.0
 70
    32
  0
VERTEX
  5
20B7
  8
240
 10
49.9352999999999909
 20
-48.9082000000000008
 30
0.0
 70
    32
  0
VERTEX
  5
20B8
  8
240
 10
49.9309000000000012
 20
-48.9040999999999997
 30
0.0
 70
    32
  0
VERTEX
  5
20B9
  8
240
 10
49.9264999999999972
 20
-48.9001000000000019
 30
0.0
 70
    32
  0
VERTEX
  5
20BA
  8
240
 10
49.9221000000000004
 20
-48.896099999999997
 30
0.0
 70
    32
  0
VERTEX
  5
20BB
  8
240
 10
49.9177999999999997
 20
-48.892000000000003
 30
0.0
 70
    32
  0
VERTEX
  5
20BC
  8
240
 10
49.9134000000000029
 20
-48.887999999999991
 30
0.0
 70
    32
  0
VERTEX
  5
20BD
  8
240
 10
49.9089999999999918
 20
-48.883899999999997
 30
0.0
 70
    32
  0
VERTEX
  5
20BE
  8
240
 10
49.9046999999999983
 20
-48.8798999999999992
 30
0.0
 70
    32
  0
VERTEX
  5
20BF
  8
240
 10
49.9003000000000014
 20
-48.8759000000000015
 30
0.0
 70
    32
  0
VERTEX
  5
20C0
  8
240
 10
49.8958999999999904
 20
-48.8718000000000004
 30
0.0
 70
    32
  0
VERTEX
  5
20C1
  8
240
 10
49.8915999999999968
 20
-48.8678000000000026
 30
0.0
 70
    32
  0
VERTEX
  5
20C2
  8
240
 10
49.8872
 20
-48.8637000000000015
 30
0.0
 70
    32
  0
VERTEX
  5
20C3
  8
240
 10
49.8828999999999994
 20
-48.8596999999999966
 30
0.0
 70
    32
  0
VERTEX
  5
20C4
  8
240
 10
49.8785000000000025
 20
-48.8556999999999988
 30
0.0
 70
    32
  0
VERTEX
  5
20C5
  8
240
 10
49.8740999999999985
 20
-48.8515999999999906
 30
0.0
 70
    32
  0
VERTEX
  5
20C6
  8
240
 10
49.8697999999999908
 20
-48.8475999999999928
 30
0.0
 70
    32
  0
VERTEX
  5
20C7
  8
240
 10
49.8654000000000011
 20
-48.8434999999999988
 30
0.0
 70
    32
  0
VERTEX
  5
20C8
  8
240
 10
49.8611000000000004
 20
-48.839500000000001
 30
0.0
 70
    32
  0
VERTEX
  5
20C9
  8
240
 10
49.8567999999999998
 20
-48.8353999999999928
 30
0.0
 70
    32
  0
VERTEX
  5
20CA
  8
240
 10
49.85240000000001
 20
-48.8314000000000021
 30
0.0
 70
    32
  0
VERTEX
  5
20CB
  8
240
 10
49.8481000000000023
 20
-48.8273999999999972
 30
0.0
 70
    32
  0
VERTEX
  5
20CC
  8
240
 10
49.8436999999999983
 20
-48.8233000000000033
 30
0.0
 70
    32
  0
VERTEX
  5
20CD
  8
240
 10
49.8393999999999977
 20
-48.8192999999999984
 30
0.0
 70
    32
  0
VERTEX
  5
20CE
  8
240
 10
49.83509999999999
 20
-48.8151999999999973
 30
0.0
 70
    32
  0
VERTEX
  5
20CF
  8
240
 10
49.8307000000000002
 20
-48.8111999999999995
 30
0.0
 70
    32
  0
VERTEX
  5
20D0
  8
240
 10
49.8263999999999925
 20
-48.8070999999999984
 30
0.0
 70
    32
  0
VERTEX
  5
20D1
  8
240
 10
49.8220999999999989
 20
-48.8031000000000006
 30
0.0
 70
    32
  0
VERTEX
  5
20D2
  8
240
 10
49.8177000000000021
 20
-48.7989999999999995
 30
0.0
 70
    32
  0
VERTEX
  5
20D3
  8
240
 10
49.8134000000000015
 20
-48.7950000000000017
 30
0.0
 70
    32
  0
VERTEX
  5
20D4
  8
240
 10
49.8091000000000008
 20
-48.7909000000000006
 30
0.0
 70
    32
  0
VERTEX
  5
20D5
  8
240
 10
49.8048000000000002
 20
-48.7869000000000028
 30
0.0
 70
    32
  0
VERTEX
  5
20D6
  8
240
 10
49.8004000000000033
 20
-48.7828000000000017
 30
0.0
 70
    32
  0
VERTEX
  5
20D7
  8
240
 10
49.7961000000000027
 20
-48.7787999999999968
 30
0.0
 70
    32
  0
VERTEX
  5
20D8
  8
240
 10
49.7918000000000021
 20
-48.774799999999999
 30
0.0
 70
    32
  0
VERTEX
  5
20D9
  8
240
 10
49.7875000000000014
 20
-48.7706999999999908
 30
0.0
 70
    32
  0
VERTEX
  5
20DA
  8
240
 10
49.7832000000000008
 20
-48.7667000000000002
 30
0.0
 70
    32
  0
VERTEX
  5
20DB
  8
240
 10
49.7789000000000001
 20
-48.7625999999999991
 30
0.0
 70
    32
  0
VERTEX
  5
20DC
  8
240
 10
49.7745999999999995
 20
-48.7586000000000013
 30
0.0
 70
    32
  0
VERTEX
  5
20DD
  8
240
 10
49.7702000000000027
 20
-48.7545000000000002
 30
0.0
 70
    32
  0
VERTEX
  5
20DE
  8
240
 10
49.765900000000002
 20
-48.7505000000000024
 30
0.0
 70
    32
  0
VERTEX
  5
20DF
  8
240
 10
49.7616000000000014
 20
-48.7464000000000013
 30
0.0
 70
    32
  0
VERTEX
  5
20E0
  8
240
 10
49.7573000000000008
 20
-48.7424000000000035
 30
0.0
 70
    32
  0
VERTEX
  5
20E1
  8
240
 10
49.7530000000000001
 20
-48.7383000000000024
 30
0.0
 70
    32
  0
VERTEX
  5
20E2
  8
240
 10
49.7486999999999995
 20
-48.7342999999999904
 30
0.0
 70
    32
  0
VERTEX
  5
20E3
  8
240
 10
49.7443999999999988
 20
-48.7302000000000035
 30
0.0
 70
    32
  0
VERTEX
  5
20E4
  8
240
 10
49.7400999999999911
 20
-48.7261999999999986
 30
0.0
 70
    32
  0
VERTEX
  5
20E5
  8
240
 10
49.7359000000000009
 20
-48.7220999999999904
 30
0.0
 70
    32
  0
VERTEX
  5
20E6
  8
240
 10
49.7316000000000003
 20
-48.7180000000000035
 30
0.0
 70
    32
  0
VERTEX
  5
20E7
  8
240
 10
49.7272999999999996
 20
-48.7139999999999986
 30
0.0
 70
    32
  0
VERTEX
  5
20E8
  8
240
 10
49.722999999999999
 20
-48.7098999999999904
 30
0.0
 70
    32
  0
VERTEX
  5
20E9
  8
240
 10
49.7186999999999983
 20
-48.7058999999999926
 30
0.0
 70
    32
  0
VERTEX
  5
20EA
  8
240
 10
49.7143999999999977
 20
-48.7017999999999986
 30
0.0
 70
    32
  0
VERTEX
  5
20EB
  8
240
 10
49.71009999999999
 20
-48.6978000000000009
 30
0.0
 70
    32
  0
VERTEX
  5
20EC
  8
240
 10
49.7058999999999997
 20
-48.6936999999999927
 30
0.0
 70
    32
  0
VERTEX
  5
20ED
  8
240
 10
49.701599999999992
 20
-48.689700000000002
 30
0.0
 70
    32
  0
VERTEX
  5
20EE
  8
240
 10
49.6972999999999985
 20
-48.6856000000000009
 30
0.0
 70
    32
  0
VERTEX
  5
20EF
  8
240
 10
49.6929999999999978
 20
-48.6816000000000031
 30
0.0
 70
    32
  0
VERTEX
  5
20F0
  8
240
 10
49.6888000000000005
 20
-48.677500000000002
 30
0.0
 70
    32
  0
VERTEX
  5
20F1
  8
240
 10
49.6844999999999999
 20
-48.6734999999999971
 30
0.0
 70
    32
  0
VERTEX
  5
20F2
  8
240
 10
49.6801999999999992
 20
-48.6694000000000031
 30
0.0
 70
    32
  0
VERTEX
  5
20F3
  8
240
 10
49.6760000000000019
 20
-48.665300000000002
 30
0.0
 70
    32
  0
VERTEX
  5
20F4
  8
240
 10
49.6717000000000013
 20
-48.6612999999999971
 30
0.0
 70
    32
  0
VERTEX
  5
20F5
  8
240
 10
49.6674000000000007
 20
-48.6572000000000031
 30
0.0
 70
    32
  0
VERTEX
  5
20F6
  8
240
 10
49.6632000000000033
 20
-48.6531999999999982
 30
0.0
 70
    32
  0
VERTEX
  5
20F7
  8
240
 10
49.6589000000000027
 20
-48.6490999999999971
 30
0.0
 70
    32
  0
VERTEX
  5
20F8
  8
240
 10
49.6546999999999912
 20
-48.6450999999999993
 30
0.0
 70
    32
  0
VERTEX
  5
20F9
  8
240
 10
49.6503999999999976
 20
-48.6409999999999982
 30
0.0
 70
    32
  0
VERTEX
  5
20FA
  8
240
 10
49.6462000000000003
 20
-48.6368999999999971
 30
0.0
 70
    32
  0
VERTEX
  5
20FB
  8
240
 10
49.6418999999999997
 20
-48.6328999999999994
 30
0.0
 70
    32
  0
VERTEX
  5
20FC
  8
240
 10
49.6377000000000024
 20
-48.6287999999999982
 30
0.0
 70
    32
  0
VERTEX
  5
20FD
  8
240
 10
49.6334000000000017
 20
-48.6248000000000005
 30
0.0
 70
    32
  0
VERTEX
  5
20FE
  8
240
 10
49.6291999999999973
 20
-48.6206999999999994
 30
0.0
 70
    32
  0
VERTEX
  5
20FF
  8
240
 10
49.6248999999999896
 20
-48.6167000000000016
 30
0.0
 70
    32
  0
VERTEX
  5
2100
  8
240
 10
49.6206999999999994
 20
-48.6126000000000005
 30
0.0
 70
    32
  0
VERTEX
  5
2101
  8
240
 10
49.616500000000002
 20
-48.6084999999999994
 30
0.0
 70
    32
  0
VERTEX
  5
2102
  8
240
 10
49.6122000000000014
 20
-48.6045000000000016
 30
0.0
 70
    32
  0
VERTEX
  5
2103
  8
240
 10
49.6079999999999899
 20
-48.6004000000000005
 30
0.0
 70
    32
  0
VERTEX
  5
2104
  8
240
 10
49.6037999999999997
 20
-48.5964000000000027
 30
0.0
 70
    32
  0
VERTEX
  5
2105
  8
240
 10
49.599499999999999
 20
-48.5923000000000016
 30
0.0
 70
    32
  0
VERTEX
  5
2106
  8
240
 10
49.5953000000000017
 20
-48.5882000000000005
 30
0.0
 70
    32
  0
VERTEX
  5
2107
  8
240
 10
49.5910999999999902
 20
-48.5842000000000027
 30
0.0
 70
    32
  0
VERTEX
  5
2108
  8
240
 10
49.5869
 20
-48.5801000000000016
 30
0.0
 70
    32
  0
VERTEX
  5
2109
  8
240
 10
49.5825999999999993
 20
-48.5760999999999967
 30
0.0
 70
    32
  0
VERTEX
  5
210A
  8
240
 10
49.578400000000002
 20
-48.5720000000000027
 30
0.0
 70
    32
  0
VERTEX
  5
210B
  8
240
 10
49.5741999999999905
 20
-48.5679000000000016
 30
0.0
 70
    32
  0
VERTEX
  5
210C
  8
240
 10
49.5700000000000003
 20
-48.5638999999999967
 30
0.0
 70
    32
  0
VERTEX
  5
210D
  8
240
 10
49.565800000000003
 20
-48.5598000000000027
 30
0.0
 70
    32
  0
VERTEX
  5
210E
  8
240
 10
49.5615000000000023
 20
-48.5557999999999907
 30
0.0
 70
    32
  0
VERTEX
  5
210F
  8
240
 10
49.5572999999999908
 20
-48.5516999999999967
 30
0.0
 70
    32
  0
VERTEX
  5
2110
  8
240
 10
49.5531000000000006
 20
-48.5476000000000028
 30
0.0
 70
    32
  0
VERTEX
  5
2111
  8
240
 10
49.5489000000000033
 20
-48.5435999999999908
 30
0.0
 70
    32
  0
VERTEX
  5
2112
  8
240
 10
49.5446999999999989
 20
-48.5394999999999968
 30
0.0
 70
    32
  0
VERTEX
  5
2113
  8
240
 10
49.5405000000000015
 20
-48.5354000000000028
 30
0.0
 70
    32
  0
VERTEX
  5
2114
  8
240
 10
49.5362999999999971
 20
-48.5313999999999908
 30
0.0
 70
    32
  0
VERTEX
  5
2115
  8
240
 10
49.5320999999999998
 20
-48.5272999999999968
 30
0.0
 70
    32
  0
VERTEX
  5
2116
  8
240
 10
49.5279000000000025
 20
-48.523299999999999
 30
0.0
 70
    32
  0
VERTEX
  5
2117
  8
240
 10
49.5236999999999981
 20
-48.5191999999999908
 30
0.0
 70
    32
  0
VERTEX
  5
2118
  8
240
 10
49.5195000000000007
 20
-48.5150999999999968
 30
0.0
 70
    32
  0
VERTEX
  5
2119
  8
240
 10
49.5153000000000034
 20
-48.511099999999999
 30
0.0
 70
    32
  0
VERTEX
  5
211A
  8
240
 10
49.5110999999999919
 20
-48.5069999999999908
 30
0.0
 70
    32
  0
VERTEX
  5
211B
  8
240
 10
49.5069999999999979
 20
-48.5028999999999968
 30
0.0
 70
    32
  0
VERTEX
  5
211C
  8
240
 10
49.5028000000000006
 20
-48.498899999999999
 30
0.0
 70
    32
  0
VERTEX
  5
211D
  8
240
 10
49.4986000000000104
 20
-48.4947999999999908
 30
0.0
 70
    32
  0
VERTEX
  5
211E
  8
240
 10
49.4943999999999988
 20
-48.4908000000000001
 30
0.0
 70
    32
  0
VERTEX
  5
211F
  8
240
 10
49.4902000000000015
 20
-48.486699999999999
 30
0.0
 70
    32
  0
VERTEX
  5
2120
  8
240
 10
49.4861000000000004
 20
-48.4825999999999908
 30
0.0
 70
    32
  0
VERTEX
  5
2121
  8
240
 10
49.4819000000000031
 20
-48.4786000000000001
 30
0.0
 70
    32
  0
VERTEX
  5
2122
  8
240
 10
49.4776999999999987
 20
-48.474499999999999
 30
0.0
 70
    32
  0
VERTEX
  5
2123
  8
240
 10
49.4735000000000014
 20
-48.4703999999999908
 30
0.0
 70
    32
  0
VERTEX
  5
2124
  8
240
 10
49.4694000000000003
 20
-48.4664000000000001
 30
0.0
 70
    32
  0
VERTEX
  5
2125
  8
240
 10
49.4652000000000029
 20
-48.462299999999999
 30
0.0
 70
    32
  0
VERTEX
  5
2126
  8
240
 10
49.4609999999999985
 20
-48.4581999999999908
 30
0.0
 70
    32
  0
VERTEX
  5
2127
  8
240
 10
49.4568999999999903
 20
-48.4542000000000002
 30
0.0
 70
    32
  0
VERTEX
  5
2128
  8
240
 10
49.4527000000000001
 20
-48.4500999999999991
 30
0.0
 70
    32
  0
VERTEX
  5
2129
  8
240
 10
49.4485000000000028
 20
-48.4459999999999908
 30
0.0
 70
    32
  0
VERTEX
  5
212A
  8
240
 10
49.4444000000000017
 20
-48.4420000000000002
 30
0.0
 70
    32
  0
VERTEX
  5
212B
  8
240
 10
49.4401999999999973
 20
-48.4378999999999991
 30
0.0
 70
    32
  0
VERTEX
  5
212C
  8
240
 10
49.4361000000000033
 20
-48.4339000000000013
 30
0.0
 70
    32
  0
VERTEX
  5
212D
  8
240
 10
49.4318999999999988
 20
-48.4298000000000002
 30
0.0
 70
    32
  0
VERTEX
  5
212E
  8
240
 10
49.4277999999999906
 20
-48.4256999999999991
 30
0.0
 70
    32
  0
VERTEX
  5
212F
  8
240
 10
49.4236000000000004
 20
-48.4217000000000013
 30
0.0
 70
    32
  0
VERTEX
  5
2130
  8
240
 10
49.4194999999999993
 20
-48.4176000000000002
 30
0.0
 70
    32
  0
VERTEX
  5
2131
  8
240
 10
49.415300000000002
 20
-48.4134999999999991
 30
0.0
 70
    32
  0
VERTEX
  5
2132
  8
240
 10
49.4112000000000009
 20
-48.4095000000000013
 30
0.0
 70
    32
  0
VERTEX
  5
2133
  8
240
 10
49.4070999999999998
 20
-48.4054000000000002
 30
0.0
 70
    32
  0
VERTEX
  5
2134
  8
240
 10
49.4029000000000025
 20
-48.4012999999999991
 30
0.0
 70
    32
  0
VERTEX
  5
2135
  8
240
 10
49.3988000000000014
 20
-48.3973000000000013
 30
0.0
 70
    32
  0
VERTEX
  5
2136
  8
240
 10
49.3947000000000003
 20
-48.3932000000000002
 30
0.0
 70
    32
  0
VERTEX
  5
2137
  8
240
 10
49.390500000000003
 20
-48.3890999999999991
 30
0.0
 70
    32
  0
VERTEX
  5
2138
  8
240
 10
49.3864000000000019
 20
-48.3851000000000013
 30
0.0
 70
    32
  0
VERTEX
  5
2139
  8
240
 10
49.3823000000000008
 20
-48.3810000000000002
 30
0.0
 70
    32
  0
VERTEX
  5
213A
  8
240
 10
49.3781000000000034
 20
-48.3768999999999991
 30
0.0
 70
    32
  0
VERTEX
  5
213B
  8
240
 10
49.3740000000000023
 20
-48.3729000000000013
 30
0.0
 70
    32
  0
VERTEX
  5
213C
  8
240
 10
49.3699000000000012
 20
-48.3688000000000002
 30
0.0
 70
    32
  0
VERTEX
  5
213D
  8
240
 10
49.3658000000000001
 20
-48.3646999999999991
 30
0.0
 70
    32
  0
VERTEX
  5
213E
  8
240
 10
49.361699999999999
 20
-48.3607000000000014
 30
0.0
 70
    32
  0
VERTEX
  5
213F
  8
240
 10
49.3575000000000017
 20
-48.3566000000000003
 30
0.0
 70
    32
  0
VERTEX
  5
2140
  8
240
 10
49.3534000000000006
 20
-48.3524999999999991
 30
0.0
 70
    32
  0
VERTEX
  5
2141
  8
240
 10
49.3492999999999995
 20
-48.3485000000000014
 30
0.0
 70
    32
  0
VERTEX
  5
2142
  8
240
 10
49.3451999999999984
 20
-48.3444000000000003
 30
0.0
 70
    32
  0
VERTEX
  5
2143
  8
240
 10
49.3410999999999973
 20
-48.3402999999999992
 30
0.0
 70
    32
  0
VERTEX
  5
2144
  8
240
 10
49.3370000000000033
 20
-48.3363000000000014
 30
0.0
 70
    32
  0
VERTEX
  5
2145
  8
240
 10
49.3329000000000022
 20
-48.3322000000000003
 30
0.0
 70
    32
  0
VERTEX
  5
2146
  8
240
 10
49.3288000000000011
 20
-48.3280999999999992
 30
0.0
 70
    32
  0
VERTEX
  5
2147
  8
240
 10
49.3247
 20
-48.3241000000000014
 30
0.0
 70
    32
  0
VERTEX
  5
2148
  8
240
 10
49.3205999999999918
 20
-48.3200000000000003
 30
0.0
 70
    32
  0
VERTEX
  5
2149
  8
240
 10
49.3164999999999978
 20
-48.3158999999999992
 30
0.0
 70
    32
  0
VERTEX
  5
214A
  8
240
 10
49.3123999999999896
 20
-48.3119000000000014
 30
0.0
 70
    32
  0
VERTEX
  5
214B
  8
240
 10
49.3083000000000027
 20
-48.3078000000000003
 30
0.0
 70
    32
  0
VERTEX
  5
214C
  8
240
 10
49.3042000000000016
 20
-48.3036999999999992
 30
0.0
 70
    32
  0
VERTEX
  5
214D
  8
240
 10
49.3001000000000005
 20
-48.2997000000000014
 30
0.0
 70
    32
  0
VERTEX
  5
214E
  8
240
 10
49.2961000000000027
 20
-48.2956000000000003
 30
0.0
 70
    32
  0
VERTEX
  5
214F
  8
240
 10
49.2920000000000016
 20
-48.2914999999999992
 30
0.0
 70
    32
  0
VERTEX
  5
2150
  8
240
 10
49.2879000000000005
 20
-48.287399999999991
 30
0.0
 70
    32
  0
VERTEX
  5
2151
  8
240
 10
49.2837999999999994
 20
-48.2834000000000003
 30
0.0
 70
    32
  0
VERTEX
  5
2152
  8
240
 10
49.2796999999999983
 20
-48.2792999999999992
 30
0.0
 70
    32
  0
VERTEX
  5
2153
  8
240
 10
49.2757000000000005
 20
-48.275199999999991
 30
0.0
 70
    32
  0
VERTEX
  5
2154
  8
240
 10
49.2715999999999994
 20
-48.2712000000000003
 30
0.0
 70
    32
  0
VERTEX
  5
2155
  8
240
 10
49.2674999999999983
 20
-48.2670999999999992
 30
0.0
 70
    32
  0
VERTEX
  5
2156
  8
240
 10
49.2635000000000005
 20
-48.262999999999991
 30
0.0
 70
    32
  0
SEQEND
  5
2157
  8
240
  0
ARC
  5
1502
  8
240
  6
CONTINUOUS
 10
36.9999999999995524
 20
-33.1715728752538226
 30
0.0
 40
2.0
 50
180.0
 51
225.0
  0
LINE
  5
1503
  8
240
  6
CONTINUOUS
 10
35.5857864376264388
 20
-34.5857864376268722
 30
0.0
 11
36.0394877578603428
 21
-35.0394877578607691
 31
0.0
  0
POLYLINE
  5
2158
  8
240
 66
     1
 10
0.0
 20
0.0
 30
0.0
 70
     8
  0
VERTEX
  5
2159
  8
240
 10
36.0397999999999996
 20
-35.039200000000001
 30
0.0
 70
    32
  0
VERTEX
  5
215A
  8
240
 10
36.0397999999999996
 20
-35.039200000000001
 30
0.0
 70
    32
  0
VERTEX
  5
215B
  8
240
 10
36.0397999999999996
 20
-35.039200000000001
 30
0.0
 70
    32
  0
VERTEX
  5
215C
  8
240
 10
36.0397999999999996
 20
-35.039200000000001
 30
0.0
 70
    32
  0
VERTEX
  5
215D
  8
240
 10
36.0397000000000034
 20
-35.039200000000001
 30
0.0
 70
    32
  0
VERTEX
  5
215E
  8
240
 10
36.0397000000000034
 20
-35.039200000000001
 30
0.0
 70
    32
  0
VERTEX
  5
215F
  8
240
 10
36.0397000000000034
 20
-35.039200000000001
 30
0.0
 70
    32
  0
VERTEX
  5
2160
  8
240
 10
36.0397000000000034
 20
-35.039200000000001
 30
0.0
 70
    32
  0
VERTEX
  5
2161
  8
240
 10
36.0397000000000034
 20
-35.039200000000001
 30
0.0
 70
    32
  0
VERTEX
  5
2162
  8
240
 10
36.0397000000000034
 20
-35.0392999999999972
 30
0.0
 70
    32
  0
VERTEX
  5
2163
  8
240
 10
36.0397000000000034
 20
-35.0392999999999972
 30
0.0
 70
    32
  0
VERTEX
  5
2164
  8
240
 10
36.0397000000000034
 20
-35.0392999999999972
 30
0.0
 70
    32
  0
VERTEX
  5
2165
  8
240
 10
36.0397000000000034
 20
-35.0392999999999972
 30
0.0
 70
    32
  0
VERTEX
  5
2166
  8
240
 10
36.0397000000000034
 20
-35.0392999999999972
 30
0.0
 70
    32
  0
VERTEX
  5
2167
  8
240
 10
36.0397000000000034
 20
-35.0392999999999972
 30
0.0
 70
    32
  0
VERTEX
  5
2168
  8
240
 10
36.0397000000000034
 20
-35.0392999999999972
 30
0.0
 70
    32
  0
VERTEX
  5
2169
  8
240
 10
36.0397000000000034
 20
-35.0392999999999972
 30
0.0
 70
    32
  0
VERTEX
  5
216A
  8
240
 10
36.0397000000000034
 20
-35.0392999999999972
 30
0.0
 70
    32
  0
VERTEX
  5
216B
  8
240
 10
36.0397000000000034
 20
-35.0392999999999972
 30
0.0
 70
    32
  0
VERTEX
  5
216C
  8
240
 10
36.0397000000000034
 20
-35.0392999999999972
 30
0.0
 70
    32
  0
VERTEX
  5
216D
  8
240
 10
36.0397000000000034
 20
-35.0392999999999972
 30
0.0
 70
    32
  0
VERTEX
  5
216E
  8
240
 10
36.0397000000000034
 20
-35.0392999999999972
 30
0.0
 70
    32
  0
VERTEX
  5
216F
  8
240
 10
36.0397000000000034
 20
-35.0392999999999972
 30
0.0
 70
    32
  0
VERTEX
  5
2170
  8
240
 10
36.0397000000000034
 20
-35.0392999999999972
 30
0.0
 70
    32
  0
VERTEX
  5
2171
  8
240
 10
36.0396000000000001
 20
-35.0392999999999972
 30
0.0
 70
    32
  0
VERTEX
  5
2172
  8
240
 10
36.0396000000000001
 20
-35.0392999999999972
 30
0.0
 70
    32
  0
VERTEX
  5
2173
  8
240
 10
36.0396000000000001
 20
-35.0392999999999972
 30
0.0
 70
    32
  0
VERTEX
  5
2174
  8
240
 10
36.0396000000000001
 20
-35.0392999999999972
 30
0.0
 70
    32
  0
VERTEX
  5
2175
  8
240
 10
36.0396000000000001
 20
-35.0392999999999972
 30
0.0
 70
    32
  0
VERTEX
  5
2176
  8
240
 10
36.0396000000000001
 20
-35.0394000000000005
 30
0.0
 70
    32
  0
VERTEX
  5
2177
  8
240
 10
36.0396000000000001
 20
-35.0394000000000005
 30
0.0
 70
    32
  0
VERTEX
  5
2178
  8
240
 10
36.0396000000000001
 20
-35.0394000000000005
 30
0.0
 70
    32
  0
VERTEX
  5
2179
  8
240
 10
36.0396000000000001
 20
-35.0394000000000005
 30
0.0
 70
    32
  0
VERTEX
  5
217A
  8
240
 10
36.0396000000000001
 20
-35.0394000000000005
 30
0.0
 70
    32
  0
VERTEX
  5
217B
  8
240
 10
36.0396000000000001
 20
-35.0394000000000005
 30
0.0
 70
    32
  0
VERTEX
  5
217C
  8
240
 10
36.0396000000000001
 20
-35.0394000000000005
 30
0.0
 70
    32
  0
VERTEX
  5
217D
  8
240
 10
36.0396000000000001
 20
-35.0394000000000005
 30
0.0
 70
    32
  0
VERTEX
  5
217E
  8
240
 10
36.0396000000000001
 20
-35.0394000000000005
 30
0.0
 70
    32
  0
VERTEX
  5
217F
  8
240
 10
36.0396000000000001
 20
-35.0394000000000005
 30
0.0
 70
    32
  0
VERTEX
  5
2180
  8
240
 10
36.0396000000000001
 20
-35.0394000000000005
 30
0.0
 70
    32
  0
VERTEX
  5
2181
  8
240
 10
36.0396000000000001
 20
-35.0394000000000005
 30
0.0
 70
    32
  0
VERTEX
  5
2182
  8
240
 10
36.0396000000000001
 20
-35.0394000000000005
 30
0.0
 70
    32
  0
VERTEX
  5
2183
  8
240
 10
36.0396000000000001
 20
-35.0394000000000005
 30
0.0
 70
    32
  0
VERTEX
  5
2184
  8
240
 10
36.0396000000000001
 20
-35.0394000000000005
 30
0.0
 70
    32
  0
VERTEX
  5
2185
  8
240
 10
36.0396000000000001
 20
-35.0394000000000005
 30
0.0
 70
    32
  0
VERTEX
  5
2186
  8
240
 10
36.0396000000000001
 20
-35.0394000000000005
 30
0.0
 70
    32
  0
VERTEX
  5
2187
  8
240
 10
36.0396000000000001
 20
-35.0394000000000005
 30
0.0
 70
    32
  0
VERTEX
  5
2188
  8
240
 10
36.0396000000000001
 20
-35.0394000000000005
 30
0.0
 70
    32
  0
VERTEX
  5
2189
  8
240
 10
36.0396000000000001
 20
-35.0394000000000005
 30
0.0
 70
    32
  0
VERTEX
  5
218A
  8
240
 10
36.0396000000000001
 20
-35.0394000000000005
 30
0.0
 70
    32
  0
VERTEX
  5
218B
  8
240
 10
36.0396000000000001
 20
-35.0394000000000005
 30
0.0
 70
    32
  0
VERTEX
  5
218C
  8
240
 10
36.0394999999999968
 20
-35.0394000000000005
 30
0.0
 70
    32
  0
VERTEX
  5
218D
  8
240
 10
36.0394999999999968
 20
-35.0394000000000005
 30
0.0
 70
    32
  0
VERTEX
  5
218E
  8
240
 10
36.0394999999999968
 20
-35.0394000000000005
 30
0.0
 70
    32
  0
VERTEX
  5
218F
  8
240
 10
36.0394999999999968
 20
-35.0394000000000005
 30
0.0
 70
    32
  0
VERTEX
  5
2190
  8
240
 10
36.0394999999999968
 20
-35.0394000000000005
 30
0.0
 70
    32
  0
VERTEX
  5
2191
  8
240
 10
36.0394999999999968
 20
-35.0394000000000005
 30
0.0
 70
    32
  0
VERTEX
  5
2192
  8
240
 10
36.0394999999999968
 20
-35.0394000000000005
 30
0.0
 70
    32
  0
VERTEX
  5
2193
  8
240
 10
36.0394999999999968
 20
-35.0394000000000005
 30
0.0
 70
    32
  0
VERTEX
  5
2194
  8
240
 10
36.0394999999999968
 20
-35.0394000000000005
 30
0.0
 70
    32
  0
VERTEX
  5
2195
  8
240
 10
36.0394999999999968
 20
-35.0394000000000005
 30
0.0
 70
    32
  0
VERTEX
  5
2196
  8
240
 10
36.0394999999999968
 20
-35.0394999999999968
 30
0.0
 70
    32
  0
VERTEX
  5
2197
  8
240
 10
36.0394999999999968
 20
-35.0394999999999968
 30
0.0
 70
    32
  0
VERTEX
  5
2198
  8
240
 10
36.0394999999999968
 20
-35.0394999999999968
 30
0.0
 70
    32
  0
VERTEX
  5
2199
  8
240
 10
36.0394999999999968
 20
-35.0394999999999968
 30
0.0
 70
    32
  0
VERTEX
  5
219A
  8
240
 10
36.0394999999999968
 20
-35.0394999999999968
 30
0.0
 70
    32
  0
VERTEX
  5
219B
  8
240
 10
36.0394999999999968
 20
-35.0394999999999968
 30
0.0
 70
    32
  0
VERTEX
  5
219C
  8
240
 10
36.0394999999999968
 20
-35.0394999999999968
 30
0.0
 70
    32
  0
VERTEX
  5
219D
  8
240
 10
36.0394999999999968
 20
-35.0394999999999968
 30
0.0
 70
    32
  0
VERTEX
  5
219E
  8
240
 10
36.0394999999999968
 20
-35.0394999999999968
 30
0.0
 70
    32
  0
VERTEX
  5
219F
  8
240
 10
36.0394999999999968
 20
-35.0394999999999968
 30
0.0
 70
    32
  0
VERTEX
  5
21A0
  8
240
 10
36.0394999999999968
 20
-35.0394999999999968
 30
0.0
 70
    32
  0
VERTEX
  5
21A1
  8
240
 10
36.0394999999999968
 20
-35.0394999999999968
 30
0.0
 70
    32
  0
VERTEX
  5
21A2
  8
240
 10
36.0394999999999968
 20
-35.0394999999999968
 30
0.0
 70
    32
  0
VERTEX
  5
21A3
  8
240
 10
36.0394999999999968
 20
-35.0394999999999968
 30
0.0
 70
    32
  0
VERTEX
  5
21A4
  8
240
 10
36.0394999999999968
 20
-35.0394999999999968
 30
0.0
 70
    32
  0
VERTEX
  5
21A5
  8
240
 10
36.0394999999999968
 20
-35.0394999999999968
 30
0.0
 70
    32
  0
VERTEX
  5
21A6
  8
240
 10
36.0394999999999968
 20
-35.0394999999999968
 30
0.0
 70
    32
  0
VERTEX
  5
21A7
  8
240
 10
36.0394999999999968
 20
-35.0394999999999968
 30
0.0
 70
    32
  0
VERTEX
  5
21A8
  8
240
 10
36.0394999999999968
 20
-35.0394999999999968
 30
0.0
 70
    32
  0
VERTEX
  5
21A9
  8
240
 10
36.0394999999999968
 20
-35.0394999999999968
 30
0.0
 70
    32
  0
VERTEX
  5
21AA
  8
240
 10
36.0394999999999968
 20
-35.0394999999999968
 30
0.0
 70
    32
  0
VERTEX
  5
21AB
  8
240
 10
36.0394999999999968
 20
-35.0394999999999968
 30
0.0
 70
    32
  0
VERTEX
  5
21AC
  8
240
 10
36.0394999999999968
 20
-35.0394999999999968
 30
0.0
 70
    32
  0
VERTEX
  5
21AD
  8
240
 10
36.0394999999999968
 20
-35.0394999999999968
 30
0.0
 70
    32
  0
VERTEX
  5
21AE
  8
240
 10
36.0394999999999968
 20
-35.0394999999999968
 30
0.0
 70
    32
  0
VERTEX
  5
21AF
  8
240
 10
36.0394999999999968
 20
-35.0394999999999968
 30
0.0
 70
    32
  0
VERTEX
  5
21B0
  8
240
 10
36.0394999999999968
 20
-35.0394999999999968
 30
0.0
 70
    32
  0
VERTEX
  5
21B1
  8
240
 10
36.0394999999999968
 20
-35.0394999999999968
 30
0.0
 70
    32
  0
VERTEX
  5
21B2
  8
240
 10
36.0394999999999968
 20
-35.0394999999999968
 30
0.0
 70
    32
  0
VERTEX
  5
21B3
  8
240
 10
36.0394999999999968
 20
-35.0394999999999968
 30
0.0
 70
    32
  0
VERTEX
  5
21B4
  8
240
 10
36.0394999999999968
 20
-35.0394999999999968
 30
0.0
 70
    32
  0
VERTEX
  5
21B5
  8
240
 10
36.0394999999999968
 20
-35.0394999999999968
 30
0.0
 70
    32
  0
VERTEX
  5
21B6
  8
240
 10
36.0394999999999968
 20
-35.0394999999999968
 30
0.0
 70
    32
  0
VERTEX
  5
21B7
  8
240
 10
36.0394999999999968
 20
-35.0394999999999968
 30
0.0
 70
    32
  0
VERTEX
  5
21B8
  8
240
 10
36.0394999999999968
 20
-35.0394999999999968
 30
0.0
 70
    32
  0
SEQEND
  5
21B9
  8
240
  0
LINE
  5
1506
  8
240
  6
CONTINUOUS
 10
34.9999999999995595
 20
-33.1715728752538723
 30
0.0
 11
34.9999999999995595
 21
-28.4999999999999396
 31
0.0
  0
LINE
  5
1514
  8
240
  6
CONTINUOUS
 10
85.2304473782990613
 20
43.0
 30
0.0
 11
43.9999999999996376
 21
42.9999999999999005
 31
0.0
  0
LINE
  5
1516
  8
240
  6
CONTINUOUS
 10
34.9999999999984084
 20
33.9999999999987992
 30
0.0
 11
43.9999999999996376
 21
42.9999999999999005
 31
0.0
  0
LINE
  5
1518
  8
240
  6
CONTINUOUS
 10
34.9999999999984084
 20
33.9999999999987992
 30
0.0
 11
34.9999999999984084
 21
28.5000000000001705
 31
0.0
  0
LINE
  5
151B
  8
246
  6
PHANTOM2
 10
55.99999999999784
 20
55.0000000000000711
 30
0.0
 11
49.263455967288408
 21
48.2634559672892181
 31
0.0
  0
ARC
  5
151D
  8
240
  6
CONTINUOUS
 10
85.2304473782991039
 20
27.0
 30
0.0
 40
16.0
 50
45.0
 51
90.0
  0
LINE
  5
1524
  8
240
  6
CONTINUOUS
 10
99.9833565098812187
 20
34.8745078663875177
 30
0.0
 11
103.3219733356677068
 21
31.5358910406024187
 31
0.0
  0
LINE
  5
1530
  8
240
  6
CONTINUOUS
 10
96.5441558772838704
 20
38.3137084989847665
 30
0.0
 11
99.9833565098812187
 21
34.8745078663875177
 31
0.0
  0
LINE
  5
1532
  8
241
  6
CONTINUOUS
 10
103.3219733356669963
 20
31.5358910406017401
 30
0.0
 11
113.8578643762681963
 21
21.0000000000001315
 31
0.0
  0
ARC
  5
1535
  8
241
  6
CONTINUOUS
 10
106.786796564403005
 20
13.92893218813483
 30
0.0
 40
10.0
 50
315.0
 51
45.0
  0
LINE
  5
1538
  8
240
  6
CONTINUOUS
 10
107.564614052575493
 20
35.7785317353841492
 30
0.0
 11
103.3219733356669963
 21
31.5358910406017401
 31
0.0
  0
ARC
  5
1539
  8
240
  6
CONTINUOUS
 10
110.3930411699464003
 20
32.9501046032625879
 30
0.0
 40
4.0
 50
44.9999999486184734
 51
134.9999998505961116
  0
LINE
  5
1548
  8
241
  6
CONTINUOUS
 10
19.0500000000000007
 20
8.0000000000000853
 30
0.0
 11
19.0500000000000007
 21
28.5000000000000284
 31
0.0
  0
LINE
  5
15CA
  8
240
  6
CONTINUOUS
 10
302.2954146576194034
 20
-47.7856228245624806
 30
0.0
 11
302.2954146576194034
 21
-30.4363953520979784
 31
0.0
  0
POLYLINE
  5
21BA
  8
240
 66
     1
 10
0.0
 20
0.0
 30
0.0
 70
     8
  0
VERTEX
  5
21BB
  8
240
 10
276.8949999999999818
 20
-35.0394999999999968
 30
0.0
 70
    32
  0
VERTEX
  5
21BC
  8
240
 10
277.1630000000000109
 20
-35.0390000000000015
 30
0.0
 70
    32
  0
VERTEX
  5
21BD
  8
240
 10
277.4300000000000068
 20
-35.0373999999999981
 30
0.0
 70
    32
  0
VERTEX
  5
21BE
  8
240
 10
277.6979999999999791
 20
-35.0349000000000004
 30
0.0
 70
    32
  0
VERTEX
  5
21BF
  8
240
 10
277.964999999999975
 20
-35.0313000000000017
 30
0.0
 70
    32
  0
VERTEX
  5
21C0
  8
240
 10
278.2320000000000277
 20
-35.0266999999999982
 30
0.0
 70
    32
  0
VERTEX
  5
21C1
  8
240
 10
278.5
 20
-35.021099999999997
 30
0.0
 70
    32
  0
VERTEX
  5
21C2
  8
240
 10
278.7669999999999959
 20
-35.0144999999999982
 30
0.0
 70
    32
  0
VERTEX
  5
21C3
  8
240
 10
279.0339999999999918
 20
-35.0067999999999984
 30
0.0
 70
    32
  0
VERTEX
  5
21C4
  8
240
 10
279.3020000000000209
 20
-34.9981999999999971
 30
0.0
 70
    32
  0
VERTEX
  5
21C5
  8
240
 10
279.5690000000000168
 20
-34.9885000000000019
 30
0.0
 70
    32
  0
VERTEX
  5
21C6
  8
240
 10
279.8360000000000127
 20
-34.977800000000002
 30
0.0
 70
    32
  0
VERTEX
  5
21C7
  8
240
 10
280.103999999999985
 20
-34.9660000000000011
 30
0.0
 70
    32
  0
VERTEX
  5
21C8
  8
240
 10
280.3709999999999809
 20
-34.9532999999999987
 30
0.0
 70
    32
  0
VERTEX
  5
21C9
  8
240
 10
280.63900000000001
 20
-34.9395000000000024
 30
0.0
 70
    32
  0
VERTEX
  5
21CA
  8
240
 10
280.9060000000000059
 20
-34.9247000000000014
 30
0.0
 70
    32
  0
VERTEX
  5
21CB
  8
240
 10
281.1730000000000018
 20
-34.9089000000000027
 30
0.0
 70
    32
  0
VERTEX
  5
21CC
  8
240
 10
281.4409999999999741
 20
-34.8920999999999992
 30
0.0
 70
    32
  0
VERTEX
  5
21CD
  8
240
 10
281.7080000000000268
 20
-34.8742000000000019
 30
0.0
 70
    32
  0
VERTEX
  5
21CE
  8
240
 10
281.9750000000000227
 20
-34.855400000000003
 30
0.0
 70
    32
  0
VERTEX
  5
21CF
  8
240
 10
282.242999999999995
 20
-34.8355000000000103
 30
0.0
 70
    32
  0
VERTEX
  5
21D0
  8
240
 10
282.5099999999999909
 20
-34.8145999999999987
 30
0.0
 70
    32
  0
VERTEX
  5
21D1
  8
240
 10
282.77800000000002
 20
-34.7926000000000002
 30
0.0
 70
    32
  0
VERTEX
  5
21D2
  8
240
 10
283.0450000000000159
 20
-34.7697000000000003
 30
0.0
 70
    32
  0
VERTEX
  5
21D3
  8
240
 10
283.3120000000000118
 20
-34.7456999999999994
 30
0.0
 70
    32
  0
VERTEX
  5
21D4
  8
240
 10
283.5799999999999841
 20
-34.7207000000000008
 30
0.0
 70
    32
  0
VERTEX
  5
21D5
  8
240
 10
283.84699999999998
 20
-34.6946999999999974
 30
0.0
 70
    32
  0
VERTEX
  5
21D6
  8
240
 10
284.1139999999999759
 20
-34.6677000000000035
 30
0.0
 70
    32
  0
VERTEX
  5
21D7
  8
240
 10
284.382000000000005
 20
-34.6396000000000015
 30
0.0
 70
    32
  0
VERTEX
  5
21D8
  8
240
 10
284.6490000000000009
 20
-34.6105000000000018
 30
0.0
 70
    32
  0
VERTEX
  5
21D9
  8
240
 10
284.9159999999999968
 20
-34.5805000000000007
 30
0.0
 70
    32
  0
VERTEX
  5
21DA
  8
240
 10
285.1840000000000259
 20
-34.5493000000000023
 30
0.0
 70
    32
  0
VERTEX
  5
21DB
  8
240
 10
285.4510000000000218
 20
-34.5172000000000025
 30
0.0
 70
    32
  0
VERTEX
  5
21DC
  8
240
 10
285.7189999999999941
 20
-34.484099999999998
 30
0.0
 70
    32
  0
VERTEX
  5
21DD
  8
240
 10
285.98599999999999
 20
-34.4498999999999995
 30
0.0
 70
    32
  0
VERTEX
  5
21DE
  8
240
 10
286.2529999999999859
 20
-34.4147000000000105
 30
0.0
 70
    32
  0
VERTEX
  5
21DF
  8
240
 10
286.521000000000015
 20
-34.3785000000000025
 30
0.0
 70
    32
  0
VERTEX
  5
21E0
  8
240
 10
286.7880000000000109
 20
-34.3412000000000006
 30
0.0
 70
    32
  0
VERTEX
  5
21E1
  8
240
 10
287.0550000000000068
 20
-34.3029999999999973
 30
0.0
 70
    32
  0
VERTEX
  5
21E2
  8
240
 10
287.3229999999999791
 20
-34.2637
 30
0.0
 70
    32
  0
VERTEX
  5
21E3
  8
240
 10
287.589999999999975
 20
-34.223399999999998
 30
0.0
 70
    32
  0
VERTEX
  5
21E4
  8
240
 10
287.8580000000000041
 20
-34.1820999999999984
 30
0.0
 70
    32
  0
VERTEX
  5
21E5
  8
240
 10
288.125
 20
-34.139800000000001
 30
0.0
 70
    32
  0
VERTEX
  5
21E6
  8
240
 10
288.3919999999999959
 20
-34.0964000000000027
 30
0.0
 70
    32
  0
VERTEX
  5
21E7
  8
240
 10
288.6600000000000819
 20
-34.0521000000000029
 30
0.0
 70
    32
  0
VERTEX
  5
21E8
  8
240
 10
288.9270000000000209
 20
-34.0067000000000021
 30
0.0
 70
    32
  0
VERTEX
  5
21E9
  8
240
 10
289.1940000000000168
 20
-33.9602000000000004
 30
0.0
 70
    32
  0
VERTEX
  5
21EA
  8
240
 10
289.4619999999999891
 20
-33.9127999999999972
 30
0.0
 70
    32
  0
VERTEX
  5
21EB
  8
240
 10
289.728999999999985
 20
-33.8644000000000034
 30
0.0
 70
    32
  0
VERTEX
  5
21EC
  8
240
 10
289.9959999999999809
 20
-33.8149000000000015
 30
0.0
 70
    32
  0
VERTEX
  5
21ED
  8
240
 10
290.26400000000001
 20
-33.764400000000002
 30
0.0
 70
    32
  0
VERTEX
  5
21EE
  8
240
 10
290.5310000000000059
 20
-33.7128999999999976
 30
0.0
 70
    32
  0
VERTEX
  5
21EF
  8
240
 10
290.7989999999999782
 20
-33.6602999999999994
 30
0.0
 70
    32
  0
VERTEX
  5
21F0
  8
240
 10
291.0659999999999741
 20
-33.6067999999999998
 30
0.0
 70
    32
  0
VERTEX
  5
21F1
  8
240
 10
291.3330000000000268
 20
-33.5521999999999991
 30
0.0
 70
    32
  0
VERTEX
  5
21F2
  8
240
 10
291.6009999999999991
 20
-33.4966000000000008
 30
0.0
 70
    32
  0
VERTEX
  5
21F3
  8
240
 10
291.867999999999995
 20
-33.4399999999999977
 30
0.0
 70
    32
  0
VERTEX
  5
21F4
  8
240
 10
292.1349999999999909
 20
-33.382399999999997
 30
0.0
 70
    32
  0
VERTEX
  5
21F5
  8
240
 10
292.40300000000002
 20
-33.3237000000000023
 30
0.0
 70
    32
  0
VERTEX
  5
21F6
  8
240
 10
292.6700000000000159
 20
-33.2640000000000029
 30
0.0
 70
    32
  0
VERTEX
  5
21F7
  8
240
 10
292.9379999999999882
 20
-33.203400000000002
 30
0.0
 70
    32
  0
VERTEX
  5
21F8
  8
240
 10
293.2049999999999841
 20
-33.1415999999999968
 30
0.0
 70
    32
  0
VERTEX
  5
21F9
  8
240
 10
293.47199999999998
 20
-33.0788999999999973
 30
0.0
 70
    32
  0
VERTEX
  5
21FA
  8
240
 10
293.7400000000000091
 20
-33.0150999999999968
 30
0.0
 70
    32
  0
VERTEX
  5
21FB
  8
240
 10
294.007000000000005
 20
-32.9504000000000019
 30
0.0
 70
    32
  0
VERTEX
  5
21FC
  8
240
 10
294.2740000000000009
 20
-32.8845999999999989
 30
0.0
 70
    32
  0
VERTEX
  5
21FD
  8
240
 10
294.5419999999999732
 20
-32.8177999999999983
 30
0.0
 70
    32
  0
VERTEX
  5
21FE
  8
240
 10
294.8090000000000259
 20
-32.7498999999999967
 30
0.0
 70
    32
  0
VERTEX
  5
21FF
  8
240
 10
295.0760000000000218
 20
-32.6811000000000007
 30
0.0
 70
    32
  0
VERTEX
  5
2200
  8
240
 10
295.3439999999999941
 20
-32.6111999999999966
 30
0.0
 70
    32
  0
VERTEX
  5
2201
  8
240
 10
295.61099999999999
 20
-32.540300000000002
 30
0.0
 70
    32
  0
VERTEX
  5
2202
  8
240
 10
295.8790000000000191
 20
-32.4684000000000097
 30
0.0
 70
    32
  0
VERTEX
  5
2203
  8
240
 10
296.146000000000015
 20
-32.3954999999999984
 30
0.0
 70
    32
  0
VERTEX
  5
2204
  8
240
 10
296.4130000000000109
 20
-32.3215000000000003
 30
0.0
 70
    32
  0
VERTEX
  5
2205
  8
240
 10
296.6809999999999832
 20
-32.2464999999999975
 30
0.0
 70
    32
  0
VERTEX
  5
2206
  8
240
 10
296.9479999999999791
 20
-32.170499999999997
 30
0.0
 70
    32
  0
VERTEX
  5
2207
  8
240
 10
297.214999999999975
 20
-32.0934999999999988
 30
0.0
 70
    32
  0
VERTEX
  5
2208
  8
240
 10
297.4830000000000041
 20
-32.0155000000000101
 30
0.0
 70
    32
  0
VERTEX
  5
2209
  8
240
 10
297.75
 20
-31.936399999999999
 30
0.0
 70
    32
  0
VERTEX
  5
220A
  8
240
 10
298.0179999999999723
 20
-31.8563000000000009
 30
0.0
 70
    32
  0
VERTEX
  5
220B
  8
240
 10
298.285000000000025
 20
-31.7752000000000017
 30
0.0
 70
    32
  0
VERTEX
  5
220C
  8
240
 10
298.5520000000000209
 20
-31.6931000000000012
 30
0.0
 70
    32
  0
VERTEX
  5
220D
  8
240
 10
298.8199999999999932
 20
-31.6099999999999994
 30
0.0
 70
    32
  0
VERTEX
  5
220E
  8
240
 10
299.0869999999999891
 20
-31.5258000000000003
 30
0.0
 70
    32
  0
VERTEX
  5
220F
  8
240
 10
299.353999999999985
 20
-31.4406999999999996
 30
0.0
 70
    32
  0
VERTEX
  5
2210
  8
240
 10
299.6220000000000141
 20
-31.3545000000000016
 30
0.0
 70
    32
  0
VERTEX
  5
2211
  8
240
 10
299.88900000000001
 20
-31.267199999999999
 30
0.0
 70
    32
  0
VERTEX
  5
2212
  8
240
 10
300.1560000000000059
 20
-31.1789999999999985
 30
0.0
 70
    32
  0
VERTEX
  5
2213
  8
240
 10
300.4239999999999782
 20
-31.0898000000000003
 30
0.0
 70
    32
  0
VERTEX
  5
2214
  8
240
 10
300.6909999999999741
 20
-30.9995000000000012
 30
0.0
 70
    32
  0
VERTEX
  5
2215
  8
240
 10
300.9590000000000032
 20
-30.9082000000000008
 30
0.0
 70
    32
  0
VERTEX
  5
2216
  8
240
 10
301.2259999999999991
 20
-30.8158999999999992
 30
0.0
 70
    32
  0
VERTEX
  5
2217
  8
240
 10
301.492999999999995
 20
-30.7225000000000001
 30
0.0
 70
    32
  0
VERTEX
  5
2218
  8
240
 10
301.7610000000000241
 20
-30.6281999999999996
 30
0.0
 70
    32
  0
VERTEX
  5
2219
  8
240
 10
302.02800000000002
 20
-30.5328000000000017
 30
0.0
 70
    32
  0
VERTEX
  5
221A
  8
240
 10
302.2950000000000159
 20
-30.436399999999999
 30
0.0
 70
    32
  0
SEQEND
  5
221B
  8
240
  0
LINE
  5
15CC
  8
245
  6
CENTER2
 10
276.895414657619483
 20
-59.4546628152484118
 30
0.0
 11
276.895414657619483
 21
59.4546628152497831
 31
0.0
  0
ARC
  5
15CD
  8
240
  6
CONTINUOUS
 10
276.895414657619483
 20
0.000000000000739
 30
0.0
 40
54.9999999999999716
 50
311.057033844792727
 51
17.7388684805744816
  0
LINE
  5
15CE
  8
240
  6
CONTINUOUS
 10
245.3954146576193125
 20
-42.5317601286657165
 30
0.0
 11
245.3954146576193125
 21
19.0000000000007887
 31
0.0
  0
CIRCLE
  5
15CF
  8
246
  6
PHANTOM2
 10
276.895414657619483
 20
0.000000000000739
 30
0.0
 40
55.0
  0
LINE
  5
15D0
  8
241
  6
CONTINUOUS
 10
276.895414657619483
 20
31.8894444302749207
 30
0.0
 11
276.8954146576191988
 21
-35.0392023655600227
 31
0.0
  0
POLYLINE
  5
221C
  8
240
 66
     1
 10
0.0
 20
0.0
 30
0.0
 70
     8
  0
VERTEX
  5
221D
  8
240
 10
315.0110000000000241
 20
39.6512000000000029
 30
0.0
 70
    32
  0
VERTEX
  5
221E
  8
240
 10
315.0209999999999013
 20
39.6411000000000016
 30
0.0
 70
    32
  0
VERTEX
  5
221F
  8
240
 10
315.0319999999999823
 20
39.6310000000000002
 30
0.0
 70
    32
  0
VERTEX
  5
2220
  8
240
 10
315.0419999999999732
 20
39.6210000000000022
 30
0.0
 70
    32
  0
VERTEX
  5
2221
  8
240
 10
315.0529999999999973
 20
39.6109000000000009
 30
0.0
 70
    32
  0
VERTEX
  5
2222
  8
240
 10
315.0629999999999882
 20
39.6007999999999996
 30
0.0
 70
    32
  0
VERTEX
  5
2223
  8
240
 10
315.0740000000000123
 20
39.5906999999999982
 30
0.0
 70
    32
  0
VERTEX
  5
2224
  8
240
 10
315.0840000000000032
 20
39.5805999999999969
 30
0.0
 70
    32
  0
VERTEX
  5
2225
  8
240
 10
315.0950000000000273
 20
39.5705000000000027
 30
0.0
 70
    32
  0
VERTEX
  5
2226
  8
240
 10
315.1050000000000182
 20
39.5604000000000013
 30
0.0
 70
    32
  0
VERTEX
  5
2227
  8
240
 10
315.1159999999999854
 20
39.5501999999999967
 30
0.0
 70
    32
  0
VERTEX
  5
2228
  8
240
 10
315.1259999999999764
 20
39.5401000000000025
 30
0.0
 70
    32
  0
VERTEX
  5
2229
  8
240
 10
315.1370000000000005
 20
39.5298999999999978
 30
0.0
 70
    32
  0
VERTEX
  5
222A
  8
240
 10
315.1469999999999914
 20
39.5197999999999965
 30
0.0
 70
    32
  0
VERTEX
  5
222B
  8
240
 10
315.1580000000000155
 20
39.5095999999999989
 30
0.0
 70
    32
  0
VERTEX
  5
222C
  8
240
 10
315.1680000000000064
 20
39.4994000000000014
 30
0.0
 70
    32
  0
VERTEX
  5
222D
  8
240
 10
315.1789999999999736
 20
39.4891999999999967
 30
0.0
 70
    32
  0
VERTEX
  5
222E
  8
240
 10
315.1890000000000214
 20
39.4789999999999992
 30
0.0
 70
    32
  0
VERTEX
  5
222F
  8
240
 10
315.1999999999999886
 20
39.4688000000000017
 30
0.0
 70
    32
  0
VERTEX
  5
2230
  8
240
 10
315.2099999999999795
 20
39.458599999999997
 30
0.0
 70
    32
  0
VERTEX
  5
2231
  8
240
 10
315.2210000000000036
 20
39.4483999999999995
 30
0.0
 70
    32
  0
VERTEX
  5
2232
  8
240
 10
315.2309999999999945
 20
39.4380999999999986
 30
0.0
 70
    32
  0
VERTEX
  5
2233
  8
240
 10
315.2420000000000186
 20
39.4279000000000011
 30
0.0
 70
    32
  0
VERTEX
  5
2234
  8
240
 10
315.2520000000000095
 20
39.4177000000000035
 30
0.0
 70
    32
  0
VERTEX
  5
2235
  8
240
 10
315.2629999999999768
 20
39.4074000000000026
 30
0.0
 70
    32
  0
VERTEX
  5
2236
  8
240
 10
315.2730000000000246
 20
39.3971000000000018
 30
0.0
 70
    32
  0
VERTEX
  5
2237
  8
240
 10
315.2839999999999918
 20
39.3868999999999971
 30
0.0
 70
    32
  0
VERTEX
  5
2238
  8
240
 10
315.2939999999999827
 20
39.3766000000000105
 30
0.0
 70
    32
  0
VERTEX
  5
2239
  8
240
 10
315.3050000000000068
 20
39.3663000000000025
 30
0.0
 70
    32
  0
VERTEX
  5
223A
  8
240
 10
315.3159999999999741
 20
39.3560000000000016
 30
0.0
 70
    32
  0
VERTEX
  5
223B
  8
240
 10
315.3259999999999081
 20
39.3457000000000008
 30
0.0
 70
    32
  0
VERTEX
  5
223C
  8
240
 10
315.3369999999999891
 20
39.3353999999999999
 30
0.0
 70
    32
  0
VERTEX
  5
223D
  8
240
 10
315.34699999999998
 20
39.3250999999999991
 30
0.0
 70
    32
  0
VERTEX
  5
223E
  8
240
 10
315.3580000000000041
 20
39.314700000000002
 30
0.0
 70
    32
  0
VERTEX
  5
223F
  8
240
 10
315.367999999999995
 20
39.3044000000000011
 30
0.0
 70
    32
  0
VERTEX
  5
2240
  8
240
 10
315.3790000000000191
 20
39.2939999999999969
 30
0.0
 70
    32
  0
VERTEX
  5
2241
  8
240
 10
315.38900000000001
 20
39.2837000000000103
 30
0.0
 70
    32
  0
VERTEX
  5
2242
  8
240
 10
315.3999999999999773
 20
39.273299999999999
 30
0.0
 70
    32
  0
VERTEX
  5
2243
  8
240
 10
315.4110000000000014
 20
39.2629999999999981
 30
0.0
 70
    32
  0
VERTEX
  5
2244
  8
240
 10
315.4209999999999923
 20
39.252600000000001
 30
0.0
 70
    32
  0
VERTEX
  5
2245
  8
240
 10
315.4320000000000164
 20
39.2421999999999969
 30
0.0
 70
    32
  0
VERTEX
  5
2246
  8
240
 10
315.4420000000000073
 20
39.2317999999999998
 30
0.0
 70
    32
  0
VERTEX
  5
2247
  8
240
 10
315.4529999999999745
 20
39.2214000000000027
 30
0.0
 70
    32
  0
VERTEX
  5
2248
  8
240
 10
315.4630000000000223
 20
39.2109999999999985
 30
0.0
 70
    32
  0
VERTEX
  5
2249
  8
240
 10
315.4739999999999895
 20
39.2006000000000014
 30
0.0
 70
    32
  0
VERTEX
  5
224A
  8
240
 10
315.4850000000000136
 20
39.190100000000001
 30
0.0
 70
    32
  0
VERTEX
  5
224B
  8
240
 10
315.4950000000000045
 20
39.1796999999999969
 30
0.0
 70
    32
  0
VERTEX
  5
224C
  8
240
 10
315.5059999999999718
 20
39.1692999999999998
 30
0.0
 70
    32
  0
VERTEX
  5
224D
  8
240
 10
315.5159999999999059
 20
39.1587999999999994
 30
0.0
 70
    32
  0
VERTEX
  5
224E
  8
240
 10
315.5269999999999868
 20
39.1484000000000023
 30
0.0
 70
    32
  0
VERTEX
  5
224F
  8
240
 10
315.5380000000000109
 20
39.1379000000000019
 30
0.0
 70
    32
  0
VERTEX
  5
2250
  8
240
 10
315.5480000000000018
 20
39.1274999999999977
 30
0.0
 70
    32
  0
VERTEX
  5
2251
  8
240
 10
315.5590000000000259
 20
39.1169999999999973
 30
0.0
 70
    32
  0
VERTEX
  5
2252
  8
240
 10
315.5690000000000168
 20
39.1064999999999969
 30
0.0
 70
    32
  0
VERTEX
  5
2253
  8
240
 10
315.5799999999999841
 20
39.0959999999999965
 30
0.0
 70
    32
  0
VERTEX
  5
2254
  8
240
 10
315.5910000000000082
 20
39.0855000000000032
 30
0.0
 70
    32
  0
VERTEX
  5
2255
  8
240
 10
315.6009999999999991
 20
39.0750000000000028
 30
0.0
 70
    32
  0
VERTEX
  5
2256
  8
240
 10
315.6120000000000232
 20
39.0645000000000024
 30
0.0
 70
    32
  0
VERTEX
  5
2257
  8
240
 10
315.6220000000000141
 20
39.054000000000002
 30
0.0
 70
    32
  0
VERTEX
  5
2258
  8
240
 10
315.6329999999999814
 20
39.0435000000000016
 30
0.0
 70
    32
  0
VERTEX
  5
2259
  8
240
 10
315.6440000000000055
 20
39.0328999999999979
 30
0.0
 70
    32
  0
VERTEX
  5
225A
  8
240
 10
315.6539999999999964
 20
39.0223999999999975
 30
0.0
 70
    32
  0
VERTEX
  5
225B
  8
240
 10
315.6650000000000205
 20
39.0118000000000009
 30
0.0
 70
    32
  0
VERTEX
  5
225C
  8
240
 10
315.6750000000000114
 20
39.0013000000000005
 30
0.0
 70
    32
  0
VERTEX
  5
225D
  8
240
 10
315.6859999999999786
 20
38.9906999999999968
 30
0.0
 70
    32
  0
VERTEX
  5
225E
  8
240
 10
315.6970000000000027
 20
38.9802000000000106
 30
0.0
 70
    32
  0
VERTEX
  5
225F
  8
240
 10
315.7069999999999936
 20
38.9695999999999998
 30
0.0
 70
    32
  0
VERTEX
  5
2260
  8
240
 10
315.7180000000000177
 20
38.9590000000000103
 30
0.0
 70
    32
  0
VERTEX
  5
2261
  8
240
 10
315.7290000000000987
 20
38.9483999999999995
 30
0.0
 70
    32
  0
VERTEX
  5
2262
  8
240
 10
315.7389999999999759
 20
38.9378000000000029
 30
0.0
 70
    32
  0
VERTEX
  5
2263
  8
240
 10
315.75
 20
38.9271999999999991
 30
0.0
 70
    32
  0
VERTEX
  5
2264
  8
240
 10
315.7599999999999909
 20
38.9166000000000025
 30
0.0
 70
    32
  0
VERTEX
  5
2265
  8
240
 10
315.771000000000015
 20
38.9059999999999988
 30
0.0
 70
    32
  0
VERTEX
  5
2266
  8
240
 10
315.7819999999999823
 20
38.8954000000000022
 30
0.0
 70
    32
  0
VERTEX
  5
2267
  8
240
 10
315.7919999999999732
 20
38.8847999999999985
 30
0.0
 70
    32
  0
VERTEX
  5
2268
  8
240
 10
315.8029999999999973
 20
38.8742000000000019
 30
0.0
 70
    32
  0
VERTEX
  5
2269
  8
240
 10
315.8140000000000214
 20
38.8635000000000019
 30
0.0
 70
    32
  0
VERTEX
  5
226A
  8
240
 10
315.8240000000000123
 20
38.8528999999999982
 30
0.0
 70
    32
  0
VERTEX
  5
226B
  8
240
 10
315.8349999999999795
 20
38.8421999999999983
 30
0.0
 70
    32
  0
VERTEX
  5
226C
  8
240
 10
315.8450000000000273
 20
38.8316000000000017
 30
0.0
 70
    32
  0
VERTEX
  5
226D
  8
240
 10
315.8559999999999945
 20
38.8209000000000017
 30
0.0
 70
    32
  0
VERTEX
  5
226E
  8
240
 10
315.8670000000000186
 20
38.8102000000000018
 30
0.0
 70
    32
  0
VERTEX
  5
226F
  8
240
 10
315.8770000000000095
 20
38.7995999999999981
 30
0.0
 70
    32
  0
VERTEX
  5
2270
  8
240
 10
315.8879999999999768
 20
38.7888999999999982
 30
0.0
 70
    32
  0
VERTEX
  5
2271
  8
240
 10
315.8990000000000009
 20
38.7781999999999982
 30
0.0
 70
    32
  0
VERTEX
  5
2272
  8
240
 10
315.9089999999999918
 20
38.7674999999999983
 30
0.0
 70
    32
  0
VERTEX
  5
2273
  8
240
 10
315.9200000000000159
 20
38.7567999999999984
 30
0.0
 70
    32
  0
VERTEX
  5
2274
  8
240
 10
315.9300000000000068
 20
38.7460999999999984
 30
0.0
 70
    32
  0
VERTEX
  5
2275
  8
240
 10
315.9409999999999741
 20
38.7353999999999985
 30
0.0
 70
    32
  0
VERTEX
  5
2276
  8
240
 10
315.9519999999999982
 20
38.7246999999999986
 30
0.0
 70
    32
  0
VERTEX
  5
2277
  8
240
 10
315.9619999999999891
 20
38.7139999999999986
 30
0.0
 70
    32
  0
VERTEX
  5
2278
  8
240
 10
315.9730000000000132
 20
38.7032000000000025
 30
0.0
 70
    32
  0
VERTEX
  5
2279
  8
240
 10
315.9839999999999804
 20
38.6925000000000026
 30
0.0
 70
    32
  0
VERTEX
  5
227A
  8
240
 10
315.9940000000000282
 20
38.6818000000000026
 30
0.0
 70
    32
  0
VERTEX
  5
227B
  8
240
 10
316.0049999999999955
 20
38.6709999999999994
 30
0.0
 70
    32
  0
VERTEX
  5
227C
  8
240
 10
316.0149999999999864
 20
38.6602999999999994
 30
0.0
 70
    32
  0
VERTEX
  5
227D
  8
240
 10
316.0260000000000105
 20
38.6495000000000033
 30
0.0
 70
    32
  0
VERTEX
  5
227E
  8
240
 10
316.0369999999999777
 20
38.6388000000000034
 30
0.0
 70
    32
  0
VERTEX
  5
227F
  8
240
 10
316.0470000000000255
 20
38.6280000000000001
 30
0.0
 70
    32
  0
VERTEX
  5
2280
  8
240
 10
316.0579999999999927
 20
38.6171999999999969
 30
0.0
 70
    32
  0
VERTEX
  5
2281
  8
240
 10
316.0690000000000168
 20
38.6064999999999969
 30
0.0
 70
    32
  0
VERTEX
  5
2282
  8
240
 10
316.0790000000000077
 20
38.5957000000000008
 30
0.0
 70
    32
  0
VERTEX
  5
2283
  8
240
 10
316.089999999999975
 20
38.5848999999999975
 30
0.0
 70
    32
  0
VERTEX
  5
2284
  8
240
 10
316.1000000000000227
 20
38.5741000000000014
 30
0.0
 70
    32
  0
VERTEX
  5
2285
  8
240
 10
316.11099999999999
 20
38.5632999999999981
 30
0.0
 70
    32
  0
VERTEX
  5
2286
  8
240
 10
316.1220000000000141
 20
38.552500000000002
 30
0.0
 70
    32
  0
VERTEX
  5
2287
  8
240
 10
316.132000000000005
 20
38.5416999999999987
 30
0.0
 70
    32
  0
VERTEX
  5
2288
  8
240
 10
316.1429999999999723
 20
38.5309000000000026
 30
0.0
 70
    32
  0
VERTEX
  5
2289
  8
240
 10
316.1539999999999964
 20
38.5200999999999993
 30
0.0
 70
    32
  0
VERTEX
  5
228A
  8
240
 10
316.1639999999999873
 20
38.5093000000000032
 30
0.0
 70
    32
  0
VERTEX
  5
228B
  8
240
 10
316.1750000000000114
 20
38.4983999999999966
 30
0.0
 70
    32
  0
VERTEX
  5
228C
  8
240
 10
316.1850000000000023
 20
38.4876000000000005
 30
0.0
 70
    32
  0
VERTEX
  5
228D
  8
240
 10
316.1960000000000264
 20
38.4767999999999972
 30
0.0
 70
    32
  0
VERTEX
  5
228E
  8
240
 10
316.2069999999999936
 20
38.4658999999999978
 30
0.0
 70
    32
  0
VERTEX
  5
228F
  8
240
 10
316.2169999999999845
 20
38.4551000000000016
 30
0.0
 70
    32
  0
VERTEX
  5
2290
  8
240
 10
316.2280000000000086
 20
38.4442000000000021
 30
0.0
 70
    32
  0
VERTEX
  5
2291
  8
240
 10
316.2379999999999995
 20
38.4333999999999989
 30
0.0
 70
    32
  0
VERTEX
  5
2292
  8
240
 10
316.2490000000000236
 20
38.4224999999999994
 30
0.0
 70
    32
  0
VERTEX
  5
2293
  8
240
 10
316.2599999999999909
 20
38.4117000000000033
 30
0.0
 70
    32
  0
VERTEX
  5
2294
  8
240
 10
316.2699999999999818
 20
38.4007999999999967
 30
0.0
 70
    32
  0
VERTEX
  5
2295
  8
240
 10
316.2810000000000059
 20
38.3898999999999972
 30
0.0
 70
    32
  0
VERTEX
  5
2296
  8
240
 10
316.2909999999999968
 20
38.3791000000000011
 30
0.0
 70
    32
  0
VERTEX
  5
2297
  8
240
 10
316.3020000000000209
 20
38.3682000000000016
 30
0.0
 70
    32
  0
VERTEX
  5
2298
  8
240
 10
316.3129999999999882
 20
38.3573000000000022
 30
0.0
 70
    32
  0
VERTEX
  5
2299
  8
240
 10
316.3229999999999791
 20
38.3464000000000027
 30
0.0
 70
    32
  0
VERTEX
  5
229A
  8
240
 10
316.3340000000000032
 20
38.3355000000000103
 30
0.0
 70
    32
  0
VERTEX
  5
229B
  8
240
 10
316.3439999999999941
 20
38.3245999999999967
 30
0.0
 70
    32
  0
VERTEX
  5
229C
  8
240
 10
316.3550000000000182
 20
38.3136999999999972
 30
0.0
 70
    32
  0
SEQEND
  5
229D
  8
240
  0
LINE
  5
15D4
  8
245
  6
CENTER2
 10
216.6969490721120906
 20
0.0000000000006821
 30
0.0
 11
337.0938802431268186
 21
0.000000000000739
 31
0.0
  0
LINE
  5
15D5
  8
241
  6
CONTINUOUS
 10
317.2551436966942902
 20
37.3643181644266065
 30
0.0
 11
302.2954146576190055
 21
37.3643181644276865
 31
0.0
  0
POLYLINE
  5
229E
  8
240
 66
     1
 10
0.0
 20
0.0
 30
0.0
 70
     8
  0
VERTEX
  5
229F
  8
240
 10
245.3950000000000102
 20
19.0
 30
0.0
 70
    32
  0
VERTEX
  5
22A0
  8
240
 10
245.3950000000000102
 20
19.0304000000000002
 30
0.0
 70
    32
  0
VERTEX
  5
22A1
  8
240
 10
245.3950000000000102
 20
19.0608000000000004
 30
0.0
 70
    32
  0
VERTEX
  5
22A2
  8
240
 10
245.3959999999999866
 20
19.0912000000000006
 30
0.0
 70
    32
  0
VERTEX
  5
22A3
  8
240
 10
245.3959999999999866
 20
19.1217000000000006
 30
0.0
 70
    32
  0
VERTEX
  5
22A4
  8
240
 10
245.3959999999999866
 20
19.1521000000000008
 30
0.0
 70
    32
  0
VERTEX
  5
22A5
  8
240
 10
245.3959999999999866
 20
19.1826000000000008
 30
0.0
 70
    32
  0
VERTEX
  5
22A6
  8
240
 10
245.3959999999999866
 20
19.2131000000000007
 30
0.0
 70
    32
  0
VERTEX
  5
22A7
  8
240
 10
245.3969999999999914
 20
19.2436000000000007
 30
0.0
 70
    32
  0
VERTEX
  5
22A8
  8
240
 10
245.3969999999999914
 20
19.2741000000000007
 30
0.0
 70
    32
  0
VERTEX
  5
22A9
  8
240
 10
245.3969999999999914
 20
19.3046000000000006
 30
0.0
 70
    32
  0
VERTEX
  5
22AA
  8
240
 10
245.3979999999999961
 20
19.3351000000000006
 30
0.0
 70
    32
  0
VERTEX
  5
22AB
  8
240
 10
245.3979999999999961
 20
19.3657000000000004
 30
0.0
 70
    32
  0
VERTEX
  5
22AC
  8
240
 10
245.3990000000000009
 20
19.3963000000000001
 30
0.0
 70
    32
  0
VERTEX
  5
22AD
  8
240
 10
245.3990000000000009
 20
19.4268000000000001
 30
0.0
 70
    32
  0
VERTEX
  5
22AE
  8
240
 10
245.4000000000000057
 20
19.4573999999999998
 30
0.0
 70
    32
  0
VERTEX
  5
22AF
  8
240
 10
245.4000000000000057
 20
19.4879999999999995
 30
0.0
 70
    32
  0
VERTEX
  5
22B0
  8
240
 10
245.4010000000000105
 20
19.5186999999999991
 30
0.0
 70
    32
  0
VERTEX
  5
22B1
  8
240
 10
245.4019999999999868
 20
19.5492999999999988
 30
0.0
 70
    32
  0
VERTEX
  5
22B2
  8
240
 10
245.4019999999999868
 20
19.5798999999999985
 30
0.0
 70
    32
  0
VERTEX
  5
22B3
  8
240
 10
245.4029999999999916
 20
19.6106000000000016
 30
0.0
 70
    32
  0
VERTEX
  5
22B4
  8
240
 10
245.4039999999999964
 20
19.6413000000000011
 30
0.0
 70
    32
  0
VERTEX
  5
22B5
  8
240
 10
245.4050000000000011
 20
19.6719000000000008
 30
0.0
 70
    32
  0
VERTEX
  5
22B6
  8
240
 10
245.4060000000000059
 20
19.7026000000000003
 30
0.0
 70
    32
  0
VERTEX
  5
22B7
  8
240
 10
245.4070000000000107
 20
19.7333999999999996
 30
0.0
 70
    32
  0
VERTEX
  5
22B8
  8
240
 10
245.407999999999987
 20
19.7640999999999991
 30
0.0
 70
    32
  0
VERTEX
  5
22B9
  8
240
 10
245.4089999999999918
 20
19.7947999999999986
 30
0.0
 70
    32
  0
VERTEX
  5
22BA
  8
240
 10
245.4099999999999966
 20
19.8255000000000017
 30
0.0
 70
    32
  0
VERTEX
  5
22BB
  8
240
 10
245.4110000000000014
 20
19.8563000000000009
 30
0.0
 70
    32
  0
VERTEX
  5
22BC
  8
240
 10
245.4120000000000061
 20
19.8871000000000002
 30
0.0
 70
    32
  0
VERTEX
  5
22BD
  8
240
 10
245.4130000000000109
 20
19.9177999999999997
 30
0.0
 70
    32
  0
VERTEX
  5
22BE
  8
240
 10
245.4139999999999873
 20
19.948599999999999
 30
0.0
 70
    32
  0
VERTEX
  5
22BF
  8
240
 10
245.414999999999992
 20
19.9793999999999983
 30
0.0
 70
    32
  0
VERTEX
  5
22C0
  8
240
 10
245.4170000000000016
 20
20.0102000000000011
 30
0.0
 70
    32
  0
VERTEX
  5
22C1
  8
240
 10
245.4180000000000064
 20
20.0411000000000001
 30
0.0
 70
    32
  0
VERTEX
  5
22C2
  8
240
 10
245.4190000000000111
 20
20.0718999999999994
 30
0.0
 70
    32
  0
VERTEX
  5
22C3
  8
240
 10
245.4209999999999923
 20
20.1026999999999987
 30
0.0
 70
    32
  0
VERTEX
  5
22C4
  8
240
 10
245.421999999999997
 20
20.1336000000000013
 30
0.0
 70
    32
  0
VERTEX
  5
22C5
  8
240
 10
245.4240000000000066
 20
20.1645000000000003
 30
0.0
 70
    32
  0
VERTEX
  5
22C6
  8
240
 10
245.4250000000000114
 20
20.1952999999999996
 30
0.0
 70
    32
  0
VERTEX
  5
22C7
  8
240
 10
245.4269999999999925
 20
20.2261999999999986
 30
0.0
 70
    32
  0
VERTEX
  5
22C8
  8
240
 10
245.4279999999999973
 20
20.2571000000000012
 30
0.0
 70
    32
  0
VERTEX
  5
22C9
  8
240
 10
245.4300000000000068
 20
20.2880000000000003
 30
0.0
 70
    32
  0
VERTEX
  5
22CA
  8
240
 10
245.4319999999999879
 20
20.3188999999999993
 30
0.0
 70
    32
  0
VERTEX
  5
22CB
  8
240
 10
245.4329999999999927
 20
20.3497999999999983
 30
0.0
 70
    32
  0
VERTEX
  5
22CC
  8
240
 10
245.4350000000000023
 20
20.3808000000000007
 30
0.0
 70
    32
  0
VERTEX
  5
22CD
  8
240
 10
245.4370000000000118
 20
20.4116999999999997
 30
0.0
 70
    32
  0
VERTEX
  5
22CE
  8
240
 10
245.438999999999993
 20
20.4426999999999985
 30
0.0
 70
    32
  0
VERTEX
  5
22CF
  8
240
 10
245.4410000000000025
 20
20.4736000000000011
 30
0.0
 70
    32
  0
VERTEX
  5
22D0
  8
240
 10
245.4430000000000121
 20
20.5045999999999999
 30
0.0
 70
    32
  0
VERTEX
  5
22D1
  8
240
 10
245.4449999999999932
 20
20.5355999999999987
 30
0.0
 70
    32
  0
VERTEX
  5
22D2
  8
240
 10
245.4470000000000027
 20
20.5665000000000013
 30
0.0
 70
    32
  0
VERTEX
  5
22D3
  8
240
 10
245.4490000000000123
 20
20.5975000000000001
 30
0.0
 70
    32
  0
VERTEX
  5
22D4
  8
240
 10
245.4509999999999934
 20
20.6284999999999989
 30
0.0
 70
    32
  0
VERTEX
  5
22D5
  8
240
 10
245.453000000000003
 20
20.6595000000000013
 30
0.0
 70
    32
  0
VERTEX
  5
22D6
  8
240
 10
245.4550000000000125
 20
20.6905000000000001
 30
0.0
 70
    32
  0
VERTEX
  5
22D7
  8
240
 10
245.4569999999999936
 20
20.7215999999999987
 30
0.0
 70
    32
  0
VERTEX
  5
22D8
  8
240
 10
245.460000000000008
 20
20.752600000000001
 30
0.0
 70
    32
  0
VERTEX
  5
22D9
  8
240
 10
245.4619999999999891
 20
20.7835999999999999
 30
0.0
 70
    32
  0
VERTEX
  5
22DA
  8
240
 10
245.4639999999999986
 20
20.8146999999999984
 30
0.0
 70
    32
  0
VERTEX
  5
22DB
  8
240
 10
245.467000000000013
 20
20.8457000000000008
 30
0.0
 70
    32
  0
VERTEX
  5
22DC
  8
240
 10
245.4689999999999941
 20
20.8767999999999994
 30
0.0
 70
    32
  0
VERTEX
  5
22DD
  8
240
 10
245.4710000000000036
 20
20.9078000000000017
 30
0.0
 70
    32
  0
VERTEX
  5
22DE
  8
240
 10
245.4739999999999895
 20
20.9389000000000003
 30
0.0
 70
    32
  0
VERTEX
  5
22DF
  8
240
 10
245.4759999999999991
 20
20.9699999999999989
 30
0.0
 70
    32
  0
VERTEX
  5
22E0
  8
240
 10
245.4790000000000134
 20
21.001100000000001
 30
0.0
 70
    32
  0
VERTEX
  5
22E1
  8
240
 10
245.4819999999999993
 20
21.0321999999999996
 30
0.0
 70
    32
  0
VERTEX
  5
22E2
  8
240
 10
245.4840000000000089
 20
21.0633000000000017
 30
0.0
 70
    32
  0
VERTEX
  5
22E3
  8
240
 10
245.4869999999999948
 20
21.0944000000000003
 30
0.0
 70
    32
  0
VERTEX
  5
22E4
  8
240
 10
245.4900000000000091
 20
21.1254999999999988
 30
0.0
 70
    32
  0
VERTEX
  5
22E5
  8
240
 10
245.492999999999995
 20
21.156600000000001
 30
0.0
 70
    32
  0
VERTEX
  5
22E6
  8
240
 10
245.4950000000000045
 20
21.1876999999999995
 30
0.0
 70
    32
  0
VERTEX
  5
22E7
  8
240
 10
245.4979999999999905
 20
21.2188000000000017
 30
0.0
 70
    32
  0
VERTEX
  5
22E8
  8
240
 10
245.5010000000000048
 20
21.25
 30
0.0
 70
    32
  0
VERTEX
  5
22E9
  8
240
 10
245.5039999999999907
 20
21.2810999999999986
 30
0.0
 70
    32
  0
VERTEX
  5
22EA
  8
240
 10
245.507000000000005
 20
21.3122000000000007
 30
0.0
 70
    32
  0
VERTEX
  5
22EB
  8
240
 10
245.5099999999999909
 20
21.343399999999999
 30
0.0
 70
    32
  0
VERTEX
  5
22EC
  8
240
 10
245.5130000000000052
 20
21.3745000000000012
 30
0.0
 70
    32
  0
VERTEX
  5
22ED
  8
240
 10
245.5159999999999911
 20
21.4056999999999995
 30
0.0
 70
    32
  0
VERTEX
  5
22EE
  8
240
 10
245.5190000000000055
 20
21.4368000000000016
 30
0.0
 70
    32
  0
VERTEX
  5
22EF
  8
240
 10
245.5229999999999961
 20
21.468
 30
0.0
 70
    32
  0
VERTEX
  5
22F0
  8
240
 10
245.5260000000000105
 20
21.4991999999999983
 30
0.0
 70
    32
  0
VERTEX
  5
22F1
  8
240
 10
245.5289999999999964
 20
21.5303000000000004
 30
0.0
 70
    32
  0
VERTEX
  5
22F2
  8
240
 10
245.532999999999987
 20
21.5614999999999988
 30
0.0
 70
    32
  0
VERTEX
  5
22F3
  8
240
 10
245.5360000000000014
 20
21.5927000000000007
 30
0.0
 70
    32
  0
VERTEX
  5
22F4
  8
240
 10
245.5389999999999873
 20
21.623899999999999
 30
0.0
 70
    32
  0
VERTEX
  5
22F5
  8
240
 10
245.5430000000000064
 20
21.6551000000000009
 30
0.0
 70
    32
  0
VERTEX
  5
22F6
  8
240
 10
245.5459999999999923
 20
21.6861999999999995
 30
0.0
 70
    32
  0
VERTEX
  5
22F7
  8
240
 10
245.5500000000000114
 20
21.7174000000000014
 30
0.0
 70
    32
  0
VERTEX
  5
22F8
  8
240
 10
245.5529999999999973
 20
21.7485999999999997
 30
0.0
 70
    32
  0
VERTEX
  5
22F9
  8
240
 10
245.5569999999999879
 20
21.7798000000000016
 30
0.0
 70
    32
  0
VERTEX
  5
22FA
  8
240
 10
245.561000000000007
 20
21.8109999999999999
 30
0.0
 70
    32
  0
VERTEX
  5
22FB
  8
240
 10
245.563999999999993
 20
21.8421999999999983
 30
0.0
 70
    32
  0
VERTEX
  5
22FC
  8
240
 10
245.5680000000000121
 20
21.8734000000000002
 30
0.0
 70
    32
  0
VERTEX
  5
22FD
  8
240
 10
245.5720000000000027
 20
21.9045999999999985
 30
0.0
 70
    32
  0
VERTEX
  5
22FE
  8
240
 10
245.5759999999999934
 20
21.9358000000000004
 30
0.0
 70
    32
  0
VERTEX
  5
22FF
  8
240
 10
245.5800000000000125
 20
21.9670999999999985
 30
0.0
 70
    32
  0
VERTEX
  5
2300
  8
240
 10
245.5829999999999984
 20
21.9983000000000004
 30
0.0
 70
    32
  0
VERTEX
  5
2301
  8
240
 10
245.5869999999999891
 20
22.0294999999999987
 30
0.0
 70
    32
  0
VERTEX
  5
2302
  8
240
 10
245.5910000000000082
 20
22.0607000000000006
 30
0.0
 70
    32
  0
VERTEX
  5
2303
  8
240
 10
245.5949999999999989
 20
22.091899999999999
 30
0.0
 70
    32
  0
VERTEX
  5
2304
  8
240
 10
245.5999999999999943
 20
22.1231000000000009
 30
0.0
 70
    32
  0
VERTEX
  5
2305
  8
240
 10
245.6040000000000134
 20
22.154399999999999
 30
0.0
 70
    32
  0
VERTEX
  5
2306
  8
240
 10
245.6080000000000041
 20
22.1856000000000009
 30
0.0
 70
    32
  0
VERTEX
  5
2307
  8
240
 10
245.6119999999999948
 20
22.2167999999999992
 30
0.0
 70
    32
  0
VERTEX
  5
2308
  8
240
 10
245.6160000000000139
 20
22.2480000000000011
 30
0.0
 70
    32
  0
VERTEX
  5
2309
  8
240
 10
245.6210000000000093
 20
22.2791999999999994
 30
0.0
 70
    32
  0
VERTEX
  5
230A
  8
240
 10
245.625
 20
22.3105000000000011
 30
0.0
 70
    32
  0
VERTEX
  5
230B
  8
240
 10
245.6289999999999907
 20
22.3416999999999994
 30
0.0
 70
    32
  0
VERTEX
  5
230C
  8
240
 10
245.6339999999999861
 20
22.3729000000000013
 30
0.0
 70
    32
  0
VERTEX
  5
230D
  8
240
 10
245.6380000000000052
 20
22.4040999999999997
 30
0.0
 70
    32
  0
VERTEX
  5
230E
  8
240
 10
245.6430000000000007
 20
22.4354000000000013
 30
0.0
 70
    32
  0
VERTEX
  5
230F
  8
240
 10
245.6469999999999914
 20
22.4665999999999997
 30
0.0
 70
    32
  0
VERTEX
  5
2310
  8
240
 10
245.6519999999999868
 20
22.4978000000000016
 30
0.0
 70
    32
  0
VERTEX
  5
2311
  8
240
 10
245.6560000000000059
 20
22.5289999999999999
 30
0.0
 70
    32
  0
VERTEX
  5
2312
  8
240
 10
245.6610000000000014
 20
22.5603000000000016
 30
0.0
 70
    32
  0
VERTEX
  5
2313
  8
240
 10
245.6659999999999968
 20
22.5914999999999999
 30
0.0
 70
    32
  0
VERTEX
  5
2314
  8
240
 10
245.6699999999999875
 20
22.6226999999999983
 30
0.0
 70
    32
  0
VERTEX
  5
2315
  8
240
 10
245.6750000000000114
 20
22.6539000000000001
 30
0.0
 70
    32
  0
VERTEX
  5
2316
  8
240
 10
245.6800000000000068
 20
22.6850999999999985
 30
0.0
 70
    32
  0
VERTEX
  5
2317
  8
240
 10
245.6850000000000023
 20
22.7163000000000004
 30
0.0
 70
    32
  0
VERTEX
  5
2318
  8
240
 10
245.6899999999999977
 20
22.7475999999999985
 30
0.0
 70
    32
  0
VERTEX
  5
2319
  8
240
 10
245.6949999999999932
 20
22.7788000000000004
 30
0.0
 70
    32
  0
VERTEX
  5
231A
  8
240
 10
245.6999999999999886
 20
22.8099999999999987
 30
0.0
 70
    32
  0
VERTEX
  5
231B
  8
240
 10
245.7050000000000125
 20
22.8412000000000006
 30
0.0
 70
    32
  0
VERTEX
  5
231C
  8
240
 10
245.710000000000008
 20
22.872399999999999
 30
0.0
 70
    32
  0
VERTEX
  5
231D
  8
240
 10
245.7150000000000034
 20
22.9036000000000008
 30
0.0
 70
    32
  0
VERTEX
  5
231E
  8
240
 10
245.7199999999999989
 20
22.9347999999999992
 30
0.0
 70
    32
  0
VERTEX
  5
231F
  8
240
 10
245.7249999999999943
 20
22.9660000000000011
 30
0.0
 70
    32
  0
VERTEX
  5
2320
  8
240
 10
245.7309999999999945
 20
22.9971999999999994
 30
0.0
 70
    32
  0
VERTEX
  5
2321
  8
240
 10
245.73599999999999
 20
23.0284000000000013
 30
0.0
 70
    32
  0
VERTEX
  5
2322
  8
240
 10
245.7410000000000139
 20
23.0595999999999997
 30
0.0
 70
    32
  0
VERTEX
  5
2323
  8
240
 10
245.7470000000000141
 20
23.0908000000000015
 30
0.0
 70
    32
  0
VERTEX
  5
2324
  8
240
 10
245.7520000000000095
 20
23.1219999999999999
 30
0.0
 70
    32
  0
VERTEX
  5
2325
  8
240
 10
245.7580000000000098
 20
23.1530999999999985
 30
0.0
 70
    32
  0
VERTEX
  5
2326
  8
240
 10
245.7630000000000052
 20
23.1843000000000004
 30
0.0
 70
    32
  0
VERTEX
  5
2327
  8
240
 10
245.7690000000000055
 20
23.2154999999999987
 30
0.0
 70
    32
  0
VERTEX
  5
2328
  8
240
 10
245.7740000000000009
 20
23.2467000000000006
 30
0.0
 70
    32
  0
VERTEX
  5
2329
  8
240
 10
245.7800000000000011
 20
23.2777999999999992
 30
0.0
 70
    32
  0
VERTEX
  5
232A
  8
240
 10
245.7849999999999966
 20
23.3090000000000011
 30
0.0
 70
    32
  0
VERTEX
  5
232B
  8
240
 10
245.7909999999999968
 20
23.3401999999999994
 30
0.0
 70
    32
  0
VERTEX
  5
232C
  8
240
 10
245.796999999999997
 20
23.3713000000000015
 30
0.0
 70
    32
  0
VERTEX
  5
232D
  8
240
 10
245.8029999999999973
 20
23.4024999999999999
 30
0.0
 70
    32
  0
VERTEX
  5
232E
  8
240
 10
245.8079999999999927
 20
23.4335999999999984
 30
0.0
 70
    32
  0
VERTEX
  5
232F
  8
240
 10
245.813999999999993
 20
23.4648000000000003
 30
0.0
 70
    32
  0
VERTEX
  5
2330
  8
240
 10
245.8199999999999932
 20
23.4958999999999989
 30
0.0
 70
    32
  0
VERTEX
  5
2331
  8
240
 10
245.8259999999999934
 20
23.527000000000001
 30
0.0
 70
    32
  0
VERTEX
  5
2332
  8
240
 10
245.8319999999999936
 20
23.5580999999999996
 30
0.0
 70
    32
  0
VERTEX
  5
2333
  8
240
 10
245.8379999999999939
 20
23.5893000000000015
 30
0.0
 70
    32
  0
VERTEX
  5
2334
  8
240
 10
245.8439999999999941
 20
23.6204000000000001
 30
0.0
 70
    32
  0
VERTEX
  5
2335
  8
240
 10
245.8499999999999943
 20
23.6514999999999986
 30
0.0
 70
    32
  0
VERTEX
  5
2336
  8
240
 10
245.8569999999999993
 20
23.6826000000000008
 30
0.0
 70
    32
  0
VERTEX
  5
2337
  8
240
 10
245.8629999999999995
 20
23.7136999999999993
 30
0.0
 70
    32
  0
VERTEX
  5
2338
  8
240
 10
245.8689999999999998
 20
23.7448000000000015
 30
0.0
 70
    32
  0
VERTEX
  5
2339
  8
240
 10
245.875
 20
23.7759
 30
0.0
 70
    32
  0
VERTEX
  5
233A
  8
240
 10
245.882000000000005
 20
23.8069999999999986
 30
0.0
 70
    32
  0
VERTEX
  5
233B
  8
240
 10
245.8880000000000052
 20
23.838000000000001
 30
0.0
 70
    32
  0
VERTEX
  5
233C
  8
240
 10
245.8950000000000102
 20
23.8690999999999995
 30
0.0
 70
    32
  0
VERTEX
  5
233D
  8
240
 10
245.9010000000000105
 20
23.9002000000000017
 30
0.0
 70
    32
  0
VERTEX
  5
233E
  8
240
 10
245.9070000000000107
 20
23.9312000000000005
 30
0.0
 70
    32
  0
VERTEX
  5
233F
  8
240
 10
245.9139999999999873
 20
23.962299999999999
 30
0.0
 70
    32
  0
VERTEX
  5
2340
  8
240
 10
245.9209999999999923
 20
23.9933000000000014
 30
0.0
 70
    32
  0
VERTEX
  5
2341
  8
240
 10
245.9269999999999925
 20
24.0243000000000002
 30
0.0
 70
    32
  0
VERTEX
  5
2342
  8
240
 10
245.9339999999999975
 20
24.0553999999999988
 30
0.0
 70
    32
  0
VERTEX
  5
2343
  8
240
 10
245.9410000000000025
 20
24.0864000000000011
 30
0.0
 70
    32
  0
VERTEX
  5
2344
  8
240
 10
245.9470000000000027
 20
24.1173999999999999
 30
0.0
 70
    32
  0
VERTEX
  5
2345
  8
240
 10
245.9540000000000077
 20
24.1483999999999988
 30
0.0
 70
    32
  0
VERTEX
  5
2346
  8
240
 10
245.9610000000000127
 20
24.1794000000000011
 30
0.0
 70
    32
  0
VERTEX
  5
2347
  8
240
 10
245.9679999999999893
 20
24.2103999999999999
 30
0.0
 70
    32
  0
VERTEX
  5
2348
  8
240
 10
245.9749999999999943
 20
24.2413999999999987
 30
0.0
 70
    32
  0
VERTEX
  5
2349
  8
240
 10
245.9819999999999993
 20
24.2723000000000013
 30
0.0
 70
    32
  0
VERTEX
  5
234A
  8
240
 10
245.9890000000000043
 20
24.3033000000000001
 30
0.0
 70
    32
  0
VERTEX
  5
234B
  8
240
 10
245.9960000000000093
 20
24.3341999999999992
 30
0.0
 70
    32
  0
VERTEX
  5
234C
  8
240
 10
246.0029999999999859
 20
24.3652000000000015
 30
0.0
 70
    32
  0
VERTEX
  5
234D
  8
240
 10
246.0099999999999909
 20
24.3961000000000006
 30
0.0
 70
    32
  0
VERTEX
  5
234E
  8
240
 10
246.0169999999999959
 20
24.4270999999999994
 30
0.0
 70
    32
  0
VERTEX
  5
234F
  8
240
 10
246.0240000000000009
 20
24.4579999999999984
 30
0.0
 70
    32
  0
VERTEX
  5
2350
  8
240
 10
246.0320000000000107
 20
24.488900000000001
 30
0.0
 70
    32
  0
VERTEX
  5
2351
  8
240
 10
246.0389999999999873
 20
24.5198
 30
0.0
 70
    32
  0
VERTEX
  5
2352
  8
240
 10
246.0459999999999923
 20
24.5506999999999991
 30
0.0
 70
    32
  0
VERTEX
  5
2353
  8
240
 10
246.054000000000002
 20
24.5816000000000017
 30
0.0
 70
    32
  0
VERTEX
  5
2354
  8
240
 10
246.061000000000007
 20
24.6124000000000009
 30
0.0
 70
    32
  0
VERTEX
  5
2355
  8
240
 10
246.0680000000000121
 20
24.6433
 30
0.0
 70
    32
  0
VERTEX
  5
2356
  8
240
 10
246.0759999999999934
 20
24.674199999999999
 30
0.0
 70
    32
  0
VERTEX
  5
2357
  8
240
 10
246.0829999999999984
 20
24.7049999999999983
 30
0.0
 70
    32
  0
VERTEX
  5
2358
  8
240
 10
246.0910000000000082
 20
24.7358000000000011
 30
0.0
 70
    32
  0
VERTEX
  5
2359
  8
240
 10
246.0989999999999895
 20
24.7667000000000002
 30
0.0
 70
    32
  0
VERTEX
  5
235A
  8
240
 10
246.1059999999999945
 20
24.7974999999999994
 30
0.0
 70
    32
  0
VERTEX
  5
235B
  8
240
 10
246.1140000000000043
 20
24.8282999999999987
 30
0.0
 70
    32
  0
VERTEX
  5
235C
  8
240
 10
246.1220000000000141
 20
24.8591000000000015
 30
0.0
 70
    32
  0
VERTEX
  5
235D
  8
240
 10
246.1289999999999907
 20
24.889800000000001
 30
0.0
 70
    32
  0
VERTEX
  5
235E
  8
240
 10
246.1370000000000005
 20
24.9206000000000003
 30
0.0
 70
    32
  0
VERTEX
  5
235F
  8
240
 10
246.1450000000000102
 20
24.9513999999999996
 30
0.0
 70
    32
  0
VERTEX
  5
2360
  8
240
 10
246.1529999999999916
 20
24.9820999999999991
 30
0.0
 70
    32
  0
VERTEX
  5
2361
  8
240
 10
246.1610000000000014
 20
25.0128999999999984
 30
0.0
 70
    32
  0
VERTEX
  5
2362
  8
240
 10
246.1690000000000111
 20
25.0436000000000014
 30
0.0
 70
    32
  0
VERTEX
  5
2363
  8
240
 10
246.1769999999999925
 20
25.0743000000000009
 30
0.0
 70
    32
  0
VERTEX
  5
2364
  8
240
 10
246.1850000000000023
 20
25.1050000000000004
 30
0.0
 70
    32
  0
VERTEX
  5
2365
  8
240
 10
246.1930000000000121
 20
25.1356999999999999
 30
0.0
 70
    32
  0
VERTEX
  5
2366
  8
240
 10
246.2009999999999934
 20
25.1663999999999994
 30
0.0
 70
    32
  0
VERTEX
  5
2367
  8
240
 10
246.2090000000000032
 20
25.1969999999999992
 30
0.0
 70
    32
  0
VERTEX
  5
2368
  8
240
 10
246.2179999999999893
 20
25.2276999999999987
 30
0.0
 70
    32
  0
VERTEX
  5
2369
  8
240
 10
246.2259999999999991
 20
25.2582999999999984
 30
0.0
 70
    32
  0
VERTEX
  5
236A
  8
240
 10
246.2340000000000089
 20
25.2889000000000017
 30
0.0
 70
    32
  0
VERTEX
  5
236B
  8
240
 10
246.2419999999999902
 20
25.3196000000000012
 30
0.0
 70
    32
  0
VERTEX
  5
236C
  8
240
 10
246.2510000000000048
 20
25.350200000000001
 30
0.0
 70
    32
  0
VERTEX
  5
236D
  8
240
 10
246.2589999999999861
 20
25.3807000000000009
 30
0.0
 70
    32
  0
VERTEX
  5
236E
  8
240
 10
246.2680000000000007
 20
25.4113000000000007
 30
0.0
 70
    32
  0
VERTEX
  5
236F
  8
240
 10
246.2760000000000105
 20
25.4419000000000004
 30
0.0
 70
    32
  0
VERTEX
  5
2370
  8
240
 10
246.2849999999999966
 20
25.4724000000000004
 30
0.0
 70
    32
  0
VERTEX
  5
2371
  8
240
 10
246.2930000000000064
 20
25.5030000000000001
 30
0.0
 70
    32
  0
VERTEX
  5
2372
  8
240
 10
246.3019999999999925
 20
25.5335000000000001
 30
0.0
 70
    32
  0
VERTEX
  5
2373
  8
240
 10
246.3100000000000023
 20
25.5640000000000001
 30
0.0
 70
    32
  0
VERTEX
  5
2374
  8
240
 10
246.3189999999999884
 20
25.5945
 30
0.0
 70
    32
  0
VERTEX
  5
2375
  8
240
 10
246.328000000000003
 20
25.625
 30
0.0
 70
    32
  0
VERTEX
  5
2376
  8
240
 10
246.3369999999999891
 20
25.6554000000000002
 30
0.0
 70
    32
  0
VERTEX
  5
2377
  8
240
 10
246.3449999999999989
 20
25.6859000000000002
 30
0.0
 70
    32
  0
VERTEX
  5
2378
  8
240
 10
246.3540000000000134
 20
25.7163000000000004
 30
0.0
 70
    32
  0
VERTEX
  5
2379
  8
240
 10
246.3629999999999995
 20
25.7467000000000006
 30
0.0
 70
    32
  0
VERTEX
  5
237A
  8
240
 10
246.3720000000000141
 20
25.7771000000000008
 30
0.0
 70
    32
  0
VERTEX
  5
237B
  8
240
 10
246.3810000000000002
 20
25.807500000000001
 30
0.0
 70
    32
  0
VERTEX
  5
237C
  8
240
 10
246.3899999999999864
 20
25.8379000000000012
 30
0.0
 70
    32
  0
VERTEX
  5
237D
  8
240
 10
246.3990000000000009
 20
25.8683000000000014
 30
0.0
 70
    32
  0
VERTEX
  5
237E
  8
240
 10
246.407999999999987
 20
25.8985999999999983
 30
0.0
 70
    32
  0
VERTEX
  5
237F
  8
240
 10
246.4170000000000016
 20
25.9289999999999985
 30
0.0
 70
    32
  0
VERTEX
  5
2380
  8
240
 10
246.4269999999999925
 20
25.9592999999999989
 30
0.0
 70
    32
  0
VERTEX
  5
2381
  8
240
 10
246.436000000000007
 20
25.9895999999999994
 30
0.0
 70
    32
  0
VERTEX
  5
2382
  8
240
 10
246.4449999999999932
 20
26.0198999999999998
 30
0.0
 70
    32
  0
VERTEX
  5
2383
  8
240
 10
246.4540000000000077
 20
26.0501000000000005
 30
0.0
 70
    32
  0
VERTEX
  5
2384
  8
240
 10
246.4639999999999986
 20
26.0804000000000009
 30
0.0
 70
    32
  0
VERTEX
  5
2385
  8
240
 10
246.4730000000000132
 20
26.1106000000000016
 30
0.0
 70
    32
  0
VERTEX
  5
2386
  8
240
 10
246.4819999999999993
 20
26.1407999999999987
 30
0.0
 70
    32
  0
VERTEX
  5
2387
  8
240
 10
246.4919999999999902
 20
26.1709999999999994
 30
0.0
 70
    32
  0
VERTEX
  5
2388
  8
240
 10
246.5010000000000048
 20
26.2012
 30
0.0
 70
    32
  0
VERTEX
  5
2389
  8
240
 10
246.5109999999999957
 20
26.2314000000000007
 30
0.0
 70
    32
  0
VERTEX
  5
238A
  8
240
 10
246.5200000000000102
 20
26.2615000000000016
 30
0.0
 70
    32
  0
VERTEX
  5
238B
  8
240
 10
246.5300000000000011
 20
26.2916999999999987
 30
0.0
 70
    32
  0
VERTEX
  5
238C
  8
240
 10
246.539999999999992
 20
26.3217999999999996
 30
0.0
 70
    32
  0
VERTEX
  5
238D
  8
240
 10
246.5490000000000066
 20
26.3519000000000005
 30
0.0
 70
    32
  0
VERTEX
  5
238E
  8
240
 10
246.5589999999999975
 20
26.3820000000000014
 30
0.0
 70
    32
  0
VERTEX
  5
238F
  8
240
 10
246.5689999999999884
 20
26.4120999999999988
 30
0.0
 70
    32
  0
VERTEX
  5
2390
  8
240
 10
246.578000000000003
 20
26.4420999999999999
 30
0.0
 70
    32
  0
VERTEX
  5
2391
  8
240
 10
246.5879999999999939
 20
26.4721000000000011
 30
0.0
 70
    32
  0
VERTEX
  5
2392
  8
240
 10
246.5980000000000132
 20
26.5021999999999984
 30
0.0
 70
    32
  0
VERTEX
  5
2393
  8
240
 10
246.6080000000000041
 20
26.5321999999999996
 30
0.0
 70
    32
  0
VERTEX
  5
2394
  8
240
 10
246.617999999999995
 20
26.5621000000000009
 30
0.0
 70
    32
  0
VERTEX
  5
2395
  8
240
 10
246.6279999999999859
 20
26.5920999999999985
 30
0.0
 70
    32
  0
VERTEX
  5
2396
  8
240
 10
246.6380000000000052
 20
26.6219999999999999
 30
0.0
 70
    32
  0
VERTEX
  5
2397
  8
240
 10
246.6479999999999961
 20
26.652000000000001
 30
0.0
 70
    32
  0
VERTEX
  5
2398
  8
240
 10
246.657999999999987
 20
26.6818999999999988
 30
0.0
 70
    32
  0
VERTEX
  5
2399
  8
240
 10
246.6680000000000064
 20
26.7118000000000002
 30
0.0
 70
    32
  0
VERTEX
  5
239A
  8
240
 10
246.6779999999999973
 20
26.7415999999999983
 30
0.0
 70
    32
  0
VERTEX
  5
239B
  8
240
 10
246.688999999999993
 20
26.7714999999999996
 30
0.0
 70
    32
  0
VERTEX
  5
239C
  8
240
 10
246.6990000000000123
 20
26.8013000000000012
 30
0.0
 70
    32
  0
VERTEX
  5
239D
  8
240
 10
246.7090000000000032
 20
26.8310999999999993
 30
0.0
 70
    32
  0
VERTEX
  5
239E
  8
240
 10
246.7189999999999941
 20
26.8609000000000009
 30
0.0
 70
    32
  0
VERTEX
  5
239F
  8
240
 10
246.7299999999999898
 20
26.8906999999999989
 30
0.0
 70
    32
  0
VERTEX
  5
23A0
  8
240
 10
246.7400000000000091
 20
26.9204000000000008
 30
0.0
 70
    32
  0
VERTEX
  5
23A1
  8
240
 10
246.75
 20
26.9501999999999988
 30
0.0
 70
    32
  0
VERTEX
  5
23A2
  8
240
 10
246.7609999999999957
 20
26.9799000000000007
 30
0.0
 70
    32
  0
VERTEX
  5
23A3
  8
240
 10
246.7709999999999866
 20
27.0095999999999989
 30
0.0
 70
    32
  0
VERTEX
  5
23A4
  8
240
 10
246.7820000000000107
 20
27.0393000000000008
 30
0.0
 70
    32
  0
VERTEX
  5
23A5
  8
240
 10
246.7930000000000064
 20
27.0688999999999993
 30
0.0
 70
    32
  0
VERTEX
  5
23A6
  8
240
 10
246.8029999999999973
 20
27.0986000000000011
 30
0.0
 70
    32
  0
VERTEX
  5
23A7
  8
240
 10
246.813999999999993
 20
27.1281999999999996
 30
0.0
 70
    32
  0
VERTEX
  5
23A8
  8
240
 10
246.8240000000000123
 20
27.1578000000000017
 30
0.0
 70
    32
  0
VERTEX
  5
23A9
  8
240
 10
246.835000000000008
 20
27.1873000000000005
 30
0.0
 70
    32
  0
VERTEX
  5
23AA
  8
240
 10
246.8460000000000036
 20
27.216899999999999
 30
0.0
 70
    32
  0
VERTEX
  5
23AB
  8
240
 10
246.8569999999999993
 20
27.2464000000000013
 30
0.0
 70
    32
  0
VERTEX
  5
23AC
  8
240
 10
246.8669999999999902
 20
27.2759
 30
0.0
 70
    32
  0
VERTEX
  5
23AD
  8
240
 10
246.8779999999999859
 20
27.3053999999999988
 30
0.0
 70
    32
  0
VERTEX
  5
23AE
  8
240
 10
246.88900000000001
 20
27.3349000000000011
 30
0.0
 70
    32
  0
VERTEX
  5
23AF
  8
240
 10
246.9000000000000057
 20
27.3643000000000001
 30
0.0
 70
    32
  0
VERTEX
  5
23B0
  8
240
 10
246.9110000000000014
 20
27.3937999999999988
 30
0.0
 70
    32
  0
VERTEX
  5
23B1
  8
240
 10
246.921999999999997
 20
27.4232000000000014
 30
0.0
 70
    32
  0
VERTEX
  5
23B2
  8
240
 10
246.9329999999999927
 20
27.4526000000000003
 30
0.0
 70
    32
  0
VERTEX
  5
23B3
  8
240
 10
246.9439999999999884
 20
27.4818999999999996
 30
0.0
 70
    32
  0
VERTEX
  5
23B4
  8
240
 10
246.9550000000000125
 20
27.5112999999999985
 30
0.0
 70
    32
  0
VERTEX
  5
23B5
  8
240
 10
246.9660000000000082
 20
27.5406000000000013
 30
0.0
 70
    32
  0
VERTEX
  5
23B6
  8
240
 10
246.9780000000000086
 20
27.5699000000000005
 30
0.0
 70
    32
  0
VERTEX
  5
23B7
  8
240
 10
246.9890000000000043
 20
27.5991
 30
0.0
 70
    32
  0
VERTEX
  5
23B8
  8
240
 10
247.0
 20
27.6283999999999992
 30
0.0
 70
    32
  0
VERTEX
  5
23B9
  8
240
 10
247.0109999999999957
 20
27.6575999999999986
 30
0.0
 70
    32
  0
VERTEX
  5
23BA
  8
240
 10
247.0229999999999961
 20
27.6868000000000016
 30
0.0
 70
    32
  0
VERTEX
  5
23BB
  8
240
 10
247.0339999999999918
 20
27.7160000000000011
 30
0.0
 70
    32
  0
VERTEX
  5
23BC
  8
240
 10
247.0449999999999875
 20
27.7452000000000005
 30
0.0
 70
    32
  0
VERTEX
  5
23BD
  8
240
 10
247.0569999999999879
 20
27.7743000000000002
 30
0.0
 70
    32
  0
VERTEX
  5
23BE
  8
240
 10
247.0680000000000121
 20
27.8033999999999999
 30
0.0
 70
    32
  0
VERTEX
  5
23BF
  8
240
 10
247.0800000000000125
 20
27.8324999999999996
 30
0.0
 70
    32
  0
VERTEX
  5
23C0
  8
240
 10
247.0910000000000082
 20
27.8615999999999993
 30
0.0
 70
    32
  0
VERTEX
  5
23C1
  8
240
 10
247.1030000000000086
 20
27.8905999999999992
 30
0.0
 70
    32
  0
VERTEX
  5
23C2
  8
240
 10
247.1140000000000043
 20
27.9196999999999989
 30
0.0
 70
    32
  0
VERTEX
  5
23C3
  8
240
 10
247.1260000000000048
 20
27.9486999999999988
 30
0.0
 70
    32
  0
VERTEX
  5
23C4
  8
240
 10
247.1380000000000052
 20
27.9775999999999989
 30
0.0
 70
    32
  0
VERTEX
  5
23C5
  8
240
 10
247.1490000000000009
 20
28.0065999999999988
 30
0.0
 70
    32
  0
VERTEX
  5
23C6
  8
240
 10
247.1610000000000014
 20
28.035499999999999
 30
0.0
 70
    32
  0
VERTEX
  5
23C7
  8
240
 10
247.1730000000000018
 20
28.0643999999999991
 30
0.0
 70
    32
  0
VERTEX
  5
23C8
  8
240
 10
247.1850000000000023
 20
28.0932999999999993
 30
0.0
 70
    32
  0
VERTEX
  5
23C9
  8
240
 10
247.1970000000000027
 20
28.1221999999999994
 30
0.0
 70
    32
  0
VERTEX
  5
23CA
  8
240
 10
247.2090000000000032
 20
28.1509999999999998
 30
0.0
 70
    32
  0
VERTEX
  5
23CB
  8
240
 10
247.2199999999999989
 20
28.1798000000000002
 30
0.0
 70
    32
  0
VERTEX
  5
23CC
  8
240
 10
247.2319999999999993
 20
28.2086000000000006
 30
0.0
 70
    32
  0
VERTEX
  5
23CD
  8
240
 10
247.2439999999999998
 20
28.2374000000000009
 30
0.0
 70
    32
  0
VERTEX
  5
23CE
  8
240
 10
247.2560000000000002
 20
28.2661000000000016
 30
0.0
 70
    32
  0
VERTEX
  5
23CF
  8
240
 10
247.2680000000000007
 20
28.2947999999999986
 30
0.0
 70
    32
  0
VERTEX
  5
23D0
  8
240
 10
247.2800000000000011
 20
28.3234999999999992
 30
0.0
 70
    32
  0
VERTEX
  5
23D1
  8
240
 10
247.2930000000000064
 20
28.3521999999999998
 30
0.0
 70
    32
  0
VERTEX
  5
23D2
  8
240
 10
247.3050000000000068
 20
28.3809000000000005
 30
0.0
 70
    32
  0
VERTEX
  5
23D3
  8
240
 10
247.3170000000000073
 20
28.4095000000000013
 30
0.0
 70
    32
  0
VERTEX
  5
23D4
  8
240
 10
247.3290000000000077
 20
28.4380999999999986
 30
0.0
 70
    32
  0
VERTEX
  5
23D5
  8
240
 10
247.3410000000000082
 20
28.4665999999999997
 30
0.0
 70
    32
  0
VERTEX
  5
23D6
  8
240
 10
247.3540000000000134
 20
28.4952000000000005
 30
0.0
 70
    32
  0
VERTEX
  5
23D7
  8
240
 10
247.3660000000000139
 20
28.5237000000000016
 30
0.0
 70
    32
  0
VERTEX
  5
23D8
  8
240
 10
247.3779999999999859
 20
28.5521999999999991
 30
0.0
 70
    32
  0
VERTEX
  5
23D9
  8
240
 10
247.3909999999999911
 20
28.5807000000000002
 30
0.0
 70
    32
  0
VERTEX
  5
23DA
  8
240
 10
247.4029999999999916
 20
28.6091000000000015
 30
0.0
 70
    32
  0
VERTEX
  5
23DB
  8
240
 10
247.4159999999999968
 20
28.6375999999999991
 30
0.0
 70
    32
  0
VERTEX
  5
23DC
  8
240
 10
247.4279999999999973
 20
28.6659000000000006
 30
0.0
 70
    32
  0
VERTEX
  5
23DD
  8
240
 10
247.4399999999999977
 20
28.6942999999999984
 30
0.0
 70
    32
  0
VERTEX
  5
23DE
  8
240
 10
247.453000000000003
 20
28.7226999999999997
 30
0.0
 70
    32
  0
VERTEX
  5
23DF
  8
240
 10
247.4660000000000082
 20
28.7510000000000012
 30
0.0
 70
    32
  0
VERTEX
  5
23E0
  8
240
 10
247.4780000000000086
 20
28.7792999999999992
 30
0.0
 70
    32
  0
VERTEX
  5
23E1
  8
240
 10
247.4910000000000139
 20
28.807500000000001
 30
0.0
 70
    32
  0
VERTEX
  5
23E2
  8
240
 10
247.5039999999999907
 20
28.835799999999999
 30
0.0
 70
    32
  0
VERTEX
  5
23E3
  8
240
 10
247.5159999999999911
 20
28.8640000000000008
 30
0.0
 70
    32
  0
VERTEX
  5
23E4
  8
240
 10
247.5289999999999964
 20
28.892199999999999
 30
0.0
 70
    32
  0
VERTEX
  5
23E5
  8
240
 10
247.5420000000000016
 20
28.920300000000001
 30
0.0
 70
    32
  0
VERTEX
  5
23E6
  8
240
 10
247.554000000000002
 20
28.9484999999999992
 30
0.0
 70
    32
  0
VERTEX
  5
23E7
  8
240
 10
247.5670000000000073
 20
28.9766000000000012
 30
0.0
 70
    32
  0
VERTEX
  5
23E8
  8
240
 10
247.5800000000000125
 20
29.0046999999999997
 30
0.0
 70
    32
  0
VERTEX
  5
23E9
  8
240
 10
247.5929999999999893
 20
29.0326999999999984
 30
0.0
 70
    32
  0
VERTEX
  5
23EA
  8
240
 10
247.6059999999999945
 20
29.0608000000000004
 30
0.0
 70
    32
  0
VERTEX
  5
23EB
  8
240
 10
247.6189999999999998
 20
29.0887999999999991
 30
0.0
 70
    32
  0
VERTEX
  5
23EC
  8
240
 10
247.632000000000005
 20
29.1167000000000016
 30
0.0
 70
    32
  0
VERTEX
  5
23ED
  8
240
 10
247.6450000000000102
 20
29.1447000000000003
 30
0.0
 70
    32
  0
VERTEX
  5
23EE
  8
240
 10
247.657999999999987
 20
29.1725999999999992
 30
0.0
 70
    32
  0
VERTEX
  5
23EF
  8
240
 10
247.6709999999999923
 20
29.2005000000000017
 30
0.0
 70
    32
  0
VERTEX
  5
23F0
  8
240
 10
247.6839999999999975
 20
29.2283000000000008
 30
0.0
 70
    32
  0
VERTEX
  5
23F1
  8
240
 10
247.6970000000000027
 20
29.2561999999999998
 30
0.0
 70
    32
  0
VERTEX
  5
23F2
  8
240
 10
247.710000000000008
 20
29.2839999999999989
 30
0.0
 70
    32
  0
VERTEX
  5
23F3
  8
240
 10
247.7239999999999895
 20
29.3118000000000016
 30
0.0
 70
    32
  0
VERTEX
  5
23F4
  8
240
 10
247.7369999999999948
 20
29.339500000000001
 30
0.0
 70
    32
  0
VERTEX
  5
23F5
  8
240
 10
247.75
 20
29.3672000000000004
 30
0.0
 70
    32
  0
VERTEX
  5
23F6
  8
240
 10
247.7630000000000052
 20
29.3948999999999998
 30
0.0
 70
    32
  0
VERTEX
  5
23F7
  8
240
 10
247.7769999999999868
 20
29.4225999999999992
 30
0.0
 70
    32
  0
VERTEX
  5
23F8
  8
240
 10
247.789999999999992
 20
29.4501999999999988
 30
0.0
 70
    32
  0
VERTEX
  5
23F9
  8
240
 10
247.8029999999999973
 20
29.4777999999999984
 30
0.0
 70
    32
  0
VERTEX
  5
23FA
  8
240
 10
247.8170000000000073
 20
29.5054000000000016
 30
0.0
 70
    32
  0
VERTEX
  5
23FB
  8
240
 10
247.8300000000000125
 20
29.5330000000000013
 30
0.0
 70
    32
  0
VERTEX
  5
23FC
  8
240
 10
247.8439999999999941
 20
29.5605000000000011
 30
0.0
 70
    32
  0
VERTEX
  5
23FD
  8
240
 10
247.8569999999999993
 20
29.588000000000001
 30
0.0
 70
    32
  0
VERTEX
  5
23FE
  8
240
 10
247.8710000000000093
 20
29.6155000000000008
 30
0.0
 70
    32
  0
VERTEX
  5
23FF
  8
240
 10
247.8839999999999861
 20
29.6429000000000009
 30
0.0
 70
    32
  0
VERTEX
  5
2400
  8
240
 10
247.8979999999999961
 20
29.670300000000001
 30
0.0
 70
    32
  0
VERTEX
  5
2401
  8
240
 10
247.9110000000000014
 20
29.6977000000000011
 30
0.0
 70
    32
  0
VERTEX
  5
2402
  8
240
 10
247.9250000000000114
 20
29.7250000000000014
 30
0.0
 70
    32
  0
VERTEX
  5
2403
  8
240
 10
247.938999999999993
 20
29.7523000000000017
 30
0.0
 70
    32
  0
VERTEX
  5
2404
  8
240
 10
247.9519999999999982
 20
29.7795999999999985
 30
0.0
 70
    32
  0
VERTEX
  5
2405
  8
240
 10
247.9660000000000082
 20
29.8068999999999988
 30
0.0
 70
    32
  0
VERTEX
  5
2406
  8
240
 10
247.9799999999999898
 20
29.8340999999999994
 30
0.0
 70
    32
  0
VERTEX
  5
2407
  8
240
 10
247.9939999999999998
 20
29.8613
 30
0.0
 70
    32
  0
VERTEX
  5
2408
  8
240
 10
248.0080000000000098
 20
29.8885000000000005
 30
0.0
 70
    32
  0
VERTEX
  5
2409
  8
240
 10
248.0209999999999866
 20
29.9156000000000013
 30
0.0
 70
    32
  0
VERTEX
  5
240A
  8
240
 10
248.0349999999999966
 20
29.9426999999999985
 30
0.0
 70
    32
  0
VERTEX
  5
240B
  8
240
 10
248.0490000000000066
 20
29.9697999999999993
 30
0.0
 70
    32
  0
VERTEX
  5
240C
  8
240
 10
248.0629999999999882
 20
29.9968000000000004
 30
0.0
 70
    32
  0
VERTEX
  5
240D
  8
240
 10
248.0769999999999982
 20
30.0238000000000014
 30
0.0
 70
    32
  0
VERTEX
  5
240E
  8
240
 10
248.0910000000000082
 20
30.0507999999999988
 30
0.0
 70
    32
  0
VERTEX
  5
240F
  8
240
 10
248.1049999999999898
 20
30.0777999999999999
 30
0.0
 70
    32
  0
VERTEX
  5
2410
  8
240
 10
248.1189999999999998
 20
30.1047000000000011
 30
0.0
 70
    32
  0
VERTEX
  5
2411
  8
240
 10
248.1330000000000098
 20
30.1315999999999988
 30
0.0
 70
    32
  0
VERTEX
  5
2412
  8
240
 10
248.1469999999999914
 20
30.1584000000000003
 30
0.0
 70
    32
  0
VERTEX
  5
2413
  8
240
 10
248.1610000000000014
 20
30.1851999999999983
 30
0.0
 70
    32
  0
VERTEX
  5
2414
  8
240
 10
248.1750000000000114
 20
30.2119999999999997
 30
0.0
 70
    32
  0
VERTEX
  5
2415
  8
240
 10
248.1899999999999977
 20
30.2388000000000012
 30
0.0
 70
    32
  0
VERTEX
  5
2416
  8
240
 10
248.2040000000000077
 20
30.2654999999999994
 30
0.0
 70
    32
  0
VERTEX
  5
2417
  8
240
 10
248.2179999999999893
 20
30.2922000000000011
 30
0.0
 70
    32
  0
VERTEX
  5
2418
  8
240
 10
248.2319999999999993
 20
30.3188999999999993
 30
0.0
 70
    32
  0
VERTEX
  5
2419
  8
240
 10
248.2460000000000093
 20
30.3455000000000013
 30
0.0
 70
    32
  0
VERTEX
  5
241A
  8
240
 10
248.2609999999999957
 20
30.3720999999999997
 30
0.0
 70
    32
  0
VERTEX
  5
241B
  8
240
 10
248.2750000000000057
 20
30.3987000000000016
 30
0.0
 70
    32
  0
VERTEX
  5
241C
  8
240
 10
248.2889999999999873
 20
30.4252000000000002
 30
0.0
 70
    32
  0
VERTEX
  5
241D
  8
240
 10
248.304000000000002
 20
30.4517999999999986
 30
0.0
 70
    32
  0
VERTEX
  5
241E
  8
240
 10
248.3180000000000121
 20
30.4782000000000011
 30
0.0
 70
    32
  0
VERTEX
  5
241F
  8
240
 10
248.3329999999999984
 20
30.5046999999999997
 30
0.0
 70
    32
  0
VERTEX
  5
2420
  8
240
 10
248.3470000000000084
 20
30.5310999999999986
 30
0.0
 70
    32
  0
VERTEX
  5
2421
  8
240
 10
248.3619999999999948
 20
30.557500000000001
 30
0.0
 70
    32
  0
VERTEX
  5
2422
  8
240
 10
248.3760000000000048
 20
30.5838000000000001
 30
0.0
 70
    32
  0
VERTEX
  5
2423
  8
240
 10
248.3909999999999911
 20
30.6100999999999992
 30
0.0
 70
    32
  0
VERTEX
  5
2424
  8
240
 10
248.4050000000000011
 20
30.6363999999999983
 30
0.0
 70
    32
  0
VERTEX
  5
2425
  8
240
 10
248.4199999999999875
 20
30.6626000000000012
 30
0.0
 70
    32
  0
VERTEX
  5
2426
  8
240
 10
248.4339999999999975
 20
30.6889000000000003
 30
0.0
 70
    32
  0
VERTEX
  5
2427
  8
240
 10
248.4490000000000123
 20
30.7149999999999999
 30
0.0
 70
    32
  0
VERTEX
  5
2428
  8
240
 10
248.4639999999999986
 20
30.7411999999999992
 30
0.0
 70
    32
  0
VERTEX
  5
2429
  8
240
 10
248.4780000000000086
 20
30.7672999999999988
 30
0.0
 70
    32
  0
VERTEX
  5
242A
  8
240
 10
248.492999999999995
 20
30.7933999999999983
 30
0.0
 70
    32
  0
VERTEX
  5
242B
  8
240
 10
248.5080000000000098
 20
30.8194000000000017
 30
0.0
 70
    32
  0
VERTEX
  5
242C
  8
240
 10
248.5219999999999914
 20
30.8454000000000015
 30
0.0
 70
    32
  0
VERTEX
  5
242D
  8
240
 10
248.5370000000000061
 20
30.8714000000000013
 30
0.0
 70
    32
  0
VERTEX
  5
242E
  8
240
 10
248.5519999999999925
 20
30.8974000000000011
 30
0.0
 70
    32
  0
VERTEX
  5
242F
  8
240
 10
248.5670000000000073
 20
30.9233000000000011
 30
0.0
 70
    32
  0
VERTEX
  5
2430
  8
240
 10
248.5819999999999936
 20
30.9492000000000012
 30
0.0
 70
    32
  0
VERTEX
  5
2431
  8
240
 10
248.5960000000000036
 20
30.9750000000000014
 30
0.0
 70
    32
  0
VERTEX
  5
2432
  8
240
 10
248.61099999999999
 20
31.0008000000000017
 30
0.0
 70
    32
  0
VERTEX
  5
2433
  8
240
 10
248.6260000000000048
 20
31.0265999999999984
 30
0.0
 70
    32
  0
VERTEX
  5
2434
  8
240
 10
248.6409999999999911
 20
31.0522999999999989
 30
0.0
 70
    32
  0
VERTEX
  5
2435
  8
240
 10
248.6560000000000059
 20
31.0780999999999992
 30
0.0
 70
    32
  0
VERTEX
  5
2436
  8
240
 10
248.6709999999999923
 20
31.1036999999999999
 30
0.0
 70
    32
  0
VERTEX
  5
2437
  8
240
 10
248.686000000000007
 20
31.1294000000000004
 30
0.0
 70
    32
  0
VERTEX
  5
2438
  8
240
 10
248.7009999999999934
 20
31.1550000000000011
 30
0.0
 70
    32
  0
VERTEX
  5
2439
  8
240
 10
248.7160000000000082
 20
31.1804999999999986
 30
0.0
 70
    32
  0
VERTEX
  5
243A
  8
240
 10
248.7309999999999945
 20
31.2060999999999993
 30
0.0
 70
    32
  0
VERTEX
  5
243B
  8
240
 10
248.7460000000000093
 20
31.2316000000000003
 30
0.0
 70
    32
  0
VERTEX
  5
243C
  8
240
 10
248.7609999999999957
 20
31.2570000000000014
 30
0.0
 70
    32
  0
VERTEX
  5
243D
  8
240
 10
248.7760000000000105
 20
31.2824999999999989
 30
0.0
 70
    32
  0
VERTEX
  5
243E
  8
240
 10
248.7920000000000016
 20
31.3079000000000001
 30
0.0
 70
    32
  0
VERTEX
  5
243F
  8
240
 10
248.8069999999999879
 20
31.3332000000000015
 30
0.0
 70
    32
  0
VERTEX
  5
2440
  8
240
 10
248.8220000000000027
 20
31.3585999999999991
 30
0.0
 70
    32
  0
VERTEX
  5
2441
  8
240
 10
248.8369999999999891
 20
31.3838000000000008
 30
0.0
 70
    32
  0
VERTEX
  5
2442
  8
240
 10
248.8520000000000039
 20
31.4090999999999987
 30
0.0
 70
    32
  0
VERTEX
  5
2443
  8
240
 10
248.867999999999995
 20
31.4343000000000004
 30
0.0
 70
    32
  0
VERTEX
  5
2444
  8
240
 10
248.8830000000000098
 20
31.4594999999999985
 30
0.0
 70
    32
  0
VERTEX
  5
2445
  8
240
 10
248.8979999999999961
 20
31.4847000000000001
 30
0.0
 70
    32
  0
VERTEX
  5
2446
  8
240
 10
248.9139999999999873
 20
31.5097999999999985
 30
0.0
 70
    32
  0
VERTEX
  5
2447
  8
240
 10
248.929000000000002
 20
31.5348000000000006
 30
0.0
 70
    32
  0
VERTEX
  5
2448
  8
240
 10
248.9439999999999884
 20
31.559899999999999
 30
0.0
 70
    32
  0
VERTEX
  5
2449
  8
240
 10
248.960000000000008
 20
31.5849000000000011
 30
0.0
 70
    32
  0
VERTEX
  5
244A
  8
240
 10
248.9749999999999943
 20
31.6098999999999997
 30
0.0
 70
    32
  0
VERTEX
  5
244B
  8
240
 10
248.9900000000000091
 20
31.6347999999999985
 30
0.0
 70
    32
  0
VERTEX
  5
244C
  8
240
 10
249.0060000000000002
 20
31.6597000000000008
 30
0.0
 70
    32
  0
VERTEX
  5
244D
  8
240
 10
249.0209999999999866
 20
31.6844999999999999
 30
0.0
 70
    32
  0
VERTEX
  5
244E
  8
240
 10
249.0370000000000061
 20
31.7093999999999987
 30
0.0
 70
    32
  0
VERTEX
  5
244F
  8
240
 10
249.0519999999999925
 20
31.7342000000000013
 30
0.0
 70
    32
  0
VERTEX
  5
2450
  8
240
 10
249.0680000000000121
 20
31.7589000000000006
 30
0.0
 70
    32
  0
VERTEX
  5
2451
  8
240
 10
249.0829999999999984
 20
31.7835999999999999
 30
0.0
 70
    32
  0
VERTEX
  5
2452
  8
240
 10
249.0989999999999895
 20
31.8082999999999991
 30
0.0
 70
    32
  0
VERTEX
  5
2453
  8
240
 10
249.1140000000000043
 20
31.8328999999999986
 30
0.0
 70
    32
  0
VERTEX
  5
2454
  8
240
 10
249.1299999999999955
 20
31.8575000000000017
 30
0.0
 70
    32
  0
VERTEX
  5
2455
  8
240
 10
249.1459999999999866
 20
31.8821000000000012
 30
0.0
 70
    32
  0
VERTEX
  5
2456
  8
240
 10
249.1610000000000014
 20
31.906600000000001
 30
0.0
 70
    32
  0
VERTEX
  5
2457
  8
240
 10
249.1769999999999925
 20
31.9311000000000007
 30
0.0
 70
    32
  0
VERTEX
  5
2458
  8
240
 10
249.1930000000000121
 20
31.9556000000000004
 30
0.0
 70
    32
  0
VERTEX
  5
2459
  8
240
 10
249.2079999999999984
 20
31.9800000000000004
 30
0.0
 70
    32
  0
VERTEX
  5
245A
  8
240
 10
249.2239999999999895
 20
32.0043999999999969
 30
0.0
 70
    32
  0
VERTEX
  5
245B
  8
240
 10
249.2400000000000091
 20
32.0287000000000006
 30
0.0
 70
    32
  0
VERTEX
  5
245C
  8
240
 10
249.2549999999999955
 20
32.0529999999999973
 30
0.0
 70
    32
  0
VERTEX
  5
245D
  8
240
 10
249.2709999999999866
 20
32.077300000000001
 30
0.0
 70
    32
  0
VERTEX
  5
245E
  8
240
 10
249.2870000000000061
 20
32.1015000000000015
 30
0.0
 70
    32
  0
VERTEX
  5
245F
  8
240
 10
249.3029999999999973
 20
32.1257000000000019
 30
0.0
 70
    32
  0
VERTEX
  5
2460
  8
240
 10
249.3189999999999884
 20
32.1499000000000024
 30
0.0
 70
    32
  0
VERTEX
  5
2461
  8
240
 10
249.3340000000000032
 20
32.1739999999999995
 30
0.0
 70
    32
  0
VERTEX
  5
2462
  8
240
 10
249.3499999999999943
 20
32.1980999999999966
 30
0.0
 70
    32
  0
VERTEX
  5
2463
  8
240
 10
249.3660000000000139
 20
32.2220999999999975
 30
0.0
 70
    32
  0
VERTEX
  5
2464
  8
240
 10
249.382000000000005
 20
32.2460999999999984
 30
0.0
 70
    32
  0
VERTEX
  5
2465
  8
240
 10
249.3979999999999961
 20
32.2700999999999993
 30
0.0
 70
    32
  0
VERTEX
  5
2466
  8
240
 10
249.4139999999999873
 20
32.2939999999999969
 30
0.0
 70
    32
  0
VERTEX
  5
2467
  8
240
 10
249.4300000000000068
 20
32.3179000000000016
 30
0.0
 70
    32
  0
VERTEX
  5
2468
  8
240
 10
249.445999999999998
 20
32.3417999999999992
 30
0.0
 70
    32
  0
VERTEX
  5
2469
  8
240
 10
249.4619999999999891
 20
32.3656000000000006
 30
0.0
 70
    32
  0
VERTEX
  5
246A
  8
240
 10
249.4770000000000039
 20
32.389400000000002
 30
0.0
 70
    32
  0
VERTEX
  5
246B
  8
240
 10
249.492999999999995
 20
32.4131
 30
0.0
 70
    32
  0
VERTEX
  5
246C
  8
240
 10
249.5089999999999861
 20
32.4367999999999981
 30
0.0
 70
    32
  0
VERTEX
  5
246D
  8
240
 10
249.5250000000000057
 20
32.4605000000000032
 30
0.0
 70
    32
  0
VERTEX
  5
246E
  8
240
 10
249.5420000000000016
 20
32.484099999999998
 30
0.0
 70
    32
  0
VERTEX
  5
246F
  8
240
 10
249.5579999999999927
 20
32.5076999999999998
 30
0.0
 70
    32
  0
VERTEX
  5
2470
  8
240
 10
249.5740000000000123
 20
32.5311999999999983
 30
0.0
 70
    32
  0
VERTEX
  5
2471
  8
240
 10
249.5900000000000034
 20
32.5546999999999969
 30
0.0
 70
    32
  0
VERTEX
  5
2472
  8
240
 10
249.6059999999999945
 20
32.5782000000000096
 30
0.0
 70
    32
  0
VERTEX
  5
2473
  8
240
 10
249.6220000000000141
 20
32.6015999999999977
 30
0.0
 70
    32
  0
VERTEX
  5
2474
  8
240
 10
249.6380000000000052
 20
32.625
 30
0.0
 70
    32
  0
VERTEX
  5
2475
  8
240
 10
249.6539999999999964
 20
32.6484000000000023
 30
0.0
 70
    32
  0
VERTEX
  5
2476
  8
240
 10
249.6699999999999875
 20
32.6717000000000013
 30
0.0
 70
    32
  0
VERTEX
  5
2477
  8
240
 10
249.686000000000007
 20
32.6950000000000003
 30
0.0
 70
    32
  0
VERTEX
  5
2478
  8
240
 10
249.703000000000003
 20
32.7182000000000031
 30
0.0
 70
    32
  0
VERTEX
  5
2479
  8
240
 10
249.7189999999999941
 20
32.7413999999999987
 30
0.0
 70
    32
  0
VERTEX
  5
247A
  8
240
 10
249.7350000000000136
 20
32.7646000000000015
 30
0.0
 70
    32
  0
VERTEX
  5
247B
  8
240
 10
249.7510000000000048
 20
32.787700000000001
 30
0.0
 70
    32
  0
VERTEX
  5
247C
  8
240
 10
249.7669999999999959
 20
32.8108000000000004
 30
0.0
 70
    32
  0
VERTEX
  5
247D
  8
240
 10
249.7839999999999918
 20
32.8337999999999965
 30
0.0
 70
    32
  0
VERTEX
  5
247E
  8
240
 10
249.8000000000000114
 20
32.8567999999999998
 30
0.0
 70
    32
  0
VERTEX
  5
247F
  8
240
 10
249.8160000000000025
 20
32.8798000000000101
 30
0.0
 70
    32
  0
VERTEX
  5
2480
  8
240
 10
249.8319999999999936
 20
32.9027000000000029
 30
0.0
 70
    32
  0
VERTEX
  5
2481
  8
240
 10
249.8489999999999895
 20
32.9256000000000029
 30
0.0
 70
    32
  0
VERTEX
  5
2482
  8
240
 10
249.8650000000000091
 20
32.9485000000000028
 30
0.0
 70
    32
  0
VERTEX
  5
2483
  8
240
 10
249.8810000000000002
 20
32.9712999999999994
 30
0.0
 70
    32
  0
VERTEX
  5
2484
  8
240
 10
249.8979999999999961
 20
32.9939999999999998
 30
0.0
 70
    32
  0
VERTEX
  5
2485
  8
240
 10
249.9139999999999873
 20
33.0167000000000002
 30
0.0
 70
    32
  0
VERTEX
  5
2486
  8
240
 10
249.9300000000000068
 20
33.0394000000000005
 30
0.0
 70
    32
  0
VERTEX
  5
2487
  8
240
 10
249.9470000000000027
 20
33.0621000000000009
 30
0.0
 70
    32
  0
VERTEX
  5
2488
  8
240
 10
249.9629999999999939
 20
33.084699999999998
 30
0.0
 70
    32
  0
VERTEX
  5
2489
  8
240
 10
249.9790000000000134
 20
33.1073000000000022
 30
0.0
 70
    32
  0
VERTEX
  5
248A
  8
240
 10
249.9960000000000093
 20
33.129800000000003
 30
0.0
 70
    32
  0
VERTEX
  5
248B
  8
240
 10
250.0120000000000005
 20
33.1522999999999968
 30
0.0
 70
    32
  0
VERTEX
  5
248C
  8
240
 10
250.0289999999999964
 20
33.1747000000000014
 30
0.0
 70
    32
  0
VERTEX
  5
248D
  8
240
 10
250.0449999999999875
 20
33.1970999999999989
 30
0.0
 70
    32
  0
VERTEX
  5
248E
  8
240
 10
250.061000000000007
 20
33.2194999999999965
 30
0.0
 70
    32
  0
VERTEX
  5
248F
  8
240
 10
250.078000000000003
 20
33.2417999999999978
 30
0.0
 70
    32
  0
VERTEX
  5
2490
  8
240
 10
250.0939999999999941
 20
33.2640999999999991
 30
0.0
 70
    32
  0
VERTEX
  5
2491
  8
240
 10
250.11099999999999
 20
33.2862999999999971
 30
0.0
 70
    32
  0
VERTEX
  5
2492
  8
240
 10
250.1270000000000095
 20
33.3085000000000022
 30
0.0
 70
    32
  0
VERTEX
  5
2493
  8
240
 10
250.1440000000000055
 20
33.3307000000000002
 30
0.0
 70
    32
  0
VERTEX
  5
2494
  8
240
 10
250.1599999999999966
 20
33.352800000000002
 30
0.0
 70
    32
  0
VERTEX
  5
2495
  8
240
 10
250.1769999999999925
 20
33.3748999999999967
 30
0.0
 70
    32
  0
VERTEX
  5
2496
  8
240
 10
250.1930000000000121
 20
33.3969000000000023
 30
0.0
 70
    32
  0
VERTEX
  5
2497
  8
240
 10
250.210000000000008
 20
33.4189000000000007
 30
0.0
 70
    32
  0
VERTEX
  5
2498
  8
240
 10
250.2259999999999991
 20
33.4408999999999992
 30
0.0
 70
    32
  0
VERTEX
  5
2499
  8
240
 10
250.242999999999995
 20
33.4628000000000014
 30
0.0
 70
    32
  0
VERTEX
  5
249A
  8
240
 10
250.2589999999999861
 20
33.4846999999999966
 30
0.0
 70
    32
  0
VERTEX
  5
249B
  8
240
 10
250.2760000000000105
 20
33.5065000000000026
 30
0.0
 70
    32
  0
VERTEX
  5
249C
  8
240
 10
250.2920000000000016
 20
33.5283000000000015
 30
0.0
 70
    32
  0
VERTEX
  5
249D
  8
240
 10
250.3089999999999975
 20
33.5501000000000005
 30
0.0
 70
    32
  0
VERTEX
  5
249E
  8
240
 10
250.3249999999999886
 20
33.5718000000000032
 30
0.0
 70
    32
  0
VERTEX
  5
249F
  8
240
 10
250.342000000000013
 20
33.5934999999999988
 30
0.0
 70
    32
  0
VERTEX
  5
24A0
  8
240
 10
250.3590000000000089
 20
33.6150999999999982
 30
0.0
 70
    32
  0
VERTEX
  5
24A1
  8
240
 10
250.375
 20
33.6366999999999976
 30
0.0
 70
    32
  0
VERTEX
  5
24A2
  8
240
 10
250.3919999999999959
 20
33.6582000000000008
 30
0.0
 70
    32
  0
VERTEX
  5
24A3
  8
240
 10
250.407999999999987
 20
33.6796999999999969
 30
0.0
 70
    32
  0
VERTEX
  5
24A4
  8
240
 10
250.4250000000000114
 20
33.7012
 30
0.0
 70
    32
  0
VERTEX
  5
24A5
  8
240
 10
250.4420000000000073
 20
33.7225999999999999
 30
0.0
 70
    32
  0
VERTEX
  5
24A6
  8
240
 10
250.4579999999999984
 20
33.7439999999999998
 30
0.0
 70
    32
  0
VERTEX
  5
24A7
  8
240
 10
250.4749999999999943
 20
33.7653000000000105
 30
0.0
 70
    32
  0
VERTEX
  5
24A8
  8
240
 10
250.4919999999999902
 20
33.7866
 30
0.0
 70
    32
  0
VERTEX
  5
24A9
  8
240
 10
250.5080000000000098
 20
33.8078999999999965
 30
0.0
 70
    32
  0
VERTEX
  5
24AA
  8
240
 10
250.5250000000000057
 20
33.8290999999999968
 30
0.0
 70
    32
  0
VERTEX
  5
24AB
  8
240
 10
250.5420000000000016
 20
33.8502999999999972
 30
0.0
 70
    32
  0
VERTEX
  5
24AC
  8
240
 10
250.5579999999999927
 20
33.8714000000000013
 30
0.0
 70
    32
  0
VERTEX
  5
24AD
  8
240
 10
250.5749999999999886
 20
33.8924999999999983
 30
0.0
 70
    32
  0
VERTEX
  5
24AE
  8
240
 10
250.592000000000013
 20
33.9136000000000095
 30
0.0
 70
    32
  0
VERTEX
  5
24AF
  8
240
 10
250.6080000000000041
 20
33.9346000000000103
 30
0.0
 70
    32
  0
VERTEX
  5
24B0
  8
240
 10
250.625
 20
33.9555000000000007
 30
0.0
 70
    32
  0
VERTEX
  5
24B1
  8
240
 10
250.6419999999999959
 20
33.9765000000000015
 30
0.0
 70
    32
  0
VERTEX
  5
24B2
  8
240
 10
250.657999999999987
 20
33.997399999999999
 30
0.0
 70
    32
  0
VERTEX
  5
24B3
  8
240
 10
250.6750000000000114
 20
34.0182000000000002
 30
0.0
 70
    32
  0
VERTEX
  5
24B4
  8
240
 10
250.6920000000000073
 20
34.0390000000000015
 30
0.0
 70
    32
  0
VERTEX
  5
24B5
  8
240
 10
250.7079999999999984
 20
34.0598000000000027
 30
0.0
 70
    32
  0
VERTEX
  5
24B6
  8
240
 10
250.7249999999999943
 20
34.0805000000000007
 30
0.0
 70
    32
  0
VERTEX
  5
24B7
  8
240
 10
250.7419999999999902
 20
34.1011999999999986
 30
0.0
 70
    32
  0
VERTEX
  5
24B8
  8
240
 10
250.7589999999999861
 20
34.1218000000000004
 30
0.0
 70
    32
  0
VERTEX
  5
24B9
  8
240
 10
250.7750000000000057
 20
34.1424000000000021
 30
0.0
 70
    32
  0
VERTEX
  5
24BA
  8
240
 10
250.7920000000000016
 20
34.1629000000000005
 30
0.0
 70
    32
  0
VERTEX
  5
24BB
  8
240
 10
250.8089999999999975
 20
34.1833999999999989
 30
0.0
 70
    32
  0
VERTEX
  5
24BC
  8
240
 10
250.8259999999999934
 20
34.2038999999999973
 30
0.0
 70
    32
  0
VERTEX
  5
24BD
  8
240
 10
250.842000000000013
 20
34.2242999999999995
 30
0.0
 70
    32
  0
VERTEX
  5
24BE
  8
240
 10
250.8590000000000089
 20
34.2447000000000017
 30
0.0
 70
    32
  0
VERTEX
  5
24BF
  8
240
 10
250.8760000000000048
 20
34.2650000000000006
 30
0.0
 70
    32
  0
VERTEX
  5
24C0
  8
240
 10
250.8930000000000007
 20
34.2852999999999994
 30
0.0
 70
    32
  0
VERTEX
  5
24C1
  8
240
 10
250.9089999999999918
 20
34.3055999999999983
 30
0.0
 70
    32
  0
VERTEX
  5
24C2
  8
240
 10
250.9259999999999877
 20
34.325800000000001
 30
0.0
 70
    32
  0
VERTEX
  5
24C3
  8
240
 10
250.9430000000000121
 20
34.3459999999999965
 30
0.0
 70
    32
  0
VERTEX
  5
24C4
  8
240
 10
250.960000000000008
 20
34.366100000000003
 30
0.0
 70
    32
  0
VERTEX
  5
24C5
  8
240
 10
250.9759999999999991
 20
34.3862000000000023
 30
0.0
 70
    32
  0
VERTEX
  5
24C6
  8
240
 10
250.992999999999995
 20
34.4061999999999983
 30
0.0
 70
    32
  0
VERTEX
  5
24C7
  8
240
 10
251.0099999999999909
 20
34.4262000000000015
 30
0.0
 70
    32
  0
VERTEX
  5
24C8
  8
240
 10
251.0269999999999868
 20
34.4461999999999975
 30
0.0
 70
    32
  0
VERTEX
  5
24C9
  8
240
 10
251.0430000000000064
 20
34.4660999999999973
 30
0.0
 70
    32
  0
VERTEX
  5
24CA
  8
240
 10
251.0600000000000023
 20
34.4859999999999971
 30
0.0
 70
    32
  0
VERTEX
  5
24CB
  8
240
 10
251.0769999999999982
 20
34.5058000000000007
 30
0.0
 70
    32
  0
VERTEX
  5
24CC
  8
240
 10
251.0939999999999941
 20
34.5255999999999972
 30
0.0
 70
    32
  0
VERTEX
  5
24CD
  8
240
 10
251.1100000000000136
 20
34.5452999999999975
 30
0.0
 70
    32
  0
VERTEX
  5
24CE
  8
240
 10
251.1270000000000095
 20
34.565100000000001
 30
0.0
 70
    32
  0
VERTEX
  5
24CF
  8
240
 10
251.1440000000000055
 20
34.584699999999998
 30
0.0
 70
    32
  0
VERTEX
  5
24D0
  8
240
 10
251.1610000000000014
 20
34.6043000000000092
 30
0.0
 70
    32
  0
VERTEX
  5
24D1
  8
240
 10
251.1769999999999925
 20
34.623899999999999
 30
0.0
 70
    32
  0
VERTEX
  5
24D2
  8
240
 10
251.1939999999999884
 20
34.6433999999999997
 30
0.0
 70
    32
  0
VERTEX
  5
24D3
  8
240
 10
251.2110000000000127
 20
34.6629000000000005
 30
0.0
 70
    32
  0
VERTEX
  5
24D4
  8
240
 10
251.2280000000000086
 20
34.6824000000000012
 30
0.0
 70
    32
  0
VERTEX
  5
24D5
  8
240
 10
251.2450000000000045
 20
34.7017999999999986
 30
0.0
 70
    32
  0
VERTEX
  5
24D6
  8
240
 10
251.2609999999999957
 20
34.7210999999999999
 30
0.0
 70
    32
  0
VERTEX
  5
24D7
  8
240
 10
251.2779999999999916
 20
34.7404999999999973
 30
0.0
 70
    32
  0
VERTEX
  5
24D8
  8
240
 10
251.2949999999999875
 20
34.7597000000000023
 30
0.0
 70
    32
  0
VERTEX
  5
24D9
  8
240
 10
251.3120000000000118
 20
34.7790000000000035
 30
0.0
 70
    32
  0
VERTEX
  5
24DA
  8
240
 10
251.328000000000003
 20
34.7982000000000014
 30
0.0
 70
    32
  0
VERTEX
  5
24DB
  8
240
 10
251.3449999999999989
 20
34.8173000000000101
 30
0.0
 70
    32
  0
VERTEX
  5
24DC
  8
240
 10
251.3619999999999948
 20
34.8363999999999976
 30
0.0
 70
    32
  0
VERTEX
  5
24DD
  8
240
 10
251.3789999999999907
 20
34.8554999999999993
 30
0.0
 70
    32
  0
VERTEX
  5
24DE
  8
240
 10
251.3950000000000102
 20
34.8744999999999976
 30
0.0
 70
    32
  0
SEQEND
  5
24DF
  8
240
  0
LINE
  5
15E3
  8
240
  6
CONTINUOUS
 10
245.3954146576193125
 20
16.7573593128817606
 30
0.0
 11
245.3954146576193125
 21
19.0000000000007887
 31
0.0
  0
LINE
  5
15E8
  8
241
  6
CONTINUOUS
 10
302.2954146576190055
 20
37.3643181644276865
 30
0.0
 11
302.2954146576196877
 21
-30.4363953520979216
 31
0.0
  0
LINE
  5
15E9
  8
241
  6
CONTINUOUS
 10
302.2954146576194034
 20
31.8894444302747004
 30
0.0
 11
276.895414657619483
 21
31.8894444302749314
 31
0.0
  0
LINE
  5
15EA
  8
240
  6
CONTINUOUS
 10
269.395414657619483
 20
43.0000000000007319
 30
0.0
 11
306.6947435091221905
 21
43.0000000000007887
 31
0.0
  0
CIRCLE
  5
15EC
  8
241
  6
CONTINUOUS
 10
262.895414657619483
 20
32.0000000000006324
 30
0.0
 40
6.0000000000000089
  0
ARC
  5
15ED
  8
241
  6
CONTINUOUS
 10
262.895414657619483
 20
32.0000000000005684
 30
0.0
 40
8.0000000000000036
 50
170.2277029383510865
 51
9.7722970616423961
  0
POLYLINE
  5
15EE
  8
241
  6
CONTINUOUS
 66
     1
 10
0.0
 20
0.0
 30
0.0
 70
     8
  0
VERTEX
  5
24E0
  8
241
 10
255.0109999999999957
 20
33.3579000000000008
 30
0.0
 70
    32
  0
VERTEX
  5
24E1
  8
241
 10
255.0349999999999966
 20
33.4838999999999984
 30
0.0
 70
    32
  0
VERTEX
  5
24E2
  8
241
 10
255.0629999999999882
 20
33.6096000000000004
 30
0.0
 70
    32
  0
VERTEX
  5
24E3
  8
241
 10
255.0949999999999989
 20
33.7347999999999999
 30
0.0
 70
    32
  0
VERTEX
  5
24E4
  8
241
 10
255.1310000000000002
 20
33.859499999999997
 30
0.0
 70
    32
  0
VERTEX
  5
24E5
  8
241
 10
255.1709999999999923
 20
33.9834999999999994
 30
0.0
 70
    32
  0
VERTEX
  5
24E6
  8
241
 10
255.2139999999999986
 20
34.1069000000000102
 30
0.0
 70
    32
  0
VERTEX
  5
24E7
  8
241
 10
255.2620000000000005
 20
34.2295000000000016
 30
0.0
 70
    32
  0
VERTEX
  5
24E8
  8
241
 10
255.313999999999993
 20
34.3513999999999982
 30
0.0
 70
    32
  0
VERTEX
  5
24E9
  8
241
 10
255.3689999999999998
 20
34.4724000000000004
 30
0.0
 70
    32
  0
VERTEX
  5
24EA
  8
241
 10
255.4279999999999973
 20
34.5923999999999978
 30
0.0
 70
    32
  0
VERTEX
  5
24EB
  8
241
 10
255.4919999999999902
 20
34.7115000000000009
 30
0.0
 70
    32
  0
VERTEX
  5
24EC
  8
241
 10
255.5589999999999975
 20
34.8295999999999992
 30
0.0
 70
    32
  0
VERTEX
  5
24ED
  8
241
 10
255.6289999999999907
 20
34.9465000000000003
 30
0.0
 70
    32
  0
VERTEX
  5
24EE
  8
241
 10
255.7040000000000077
 20
35.0623000000000005
 30
0.0
 70
    32
  0
VERTEX
  5
24EF
  8
241
 10
255.7820000000000107
 20
35.1769000000000034
 30
0.0
 70
    32
  0
VERTEX
  5
24F0
  8
241
 10
255.8640000000000043
 20
35.2901000000000025
 30
0.0
 70
    32
  0
VERTEX
  5
24F1
  8
241
 10
255.9490000000000123
 20
35.4020999999999972
 30
0.0
 70
    32
  0
VERTEX
  5
24F2
  8
241
 10
256.0380000000000109
 20
35.5125999999999991
 30
0.0
 70
    32
  0
VERTEX
  5
24F3
  8
241
 10
256.1309999999999718
 20
35.621699999999997
 30
0.0
 70
    32
  0
VERTEX
  5
24F4
  8
241
 10
256.2269999999999754
 20
35.7293000000000021
 30
0.0
 70
    32
  0
VERTEX
  5
24F5
  8
241
 10
256.3260000000000218
 20
35.8352999999999966
 30
0.0
 70
    32
  0
VERTEX
  5
24F6
  8
241
 10
256.4289999999999736
 20
35.939700000000002
 30
0.0
 70
    32
  0
VERTEX
  5
24F7
  8
241
 10
256.535000000000025
 20
36.0424000000000007
 30
0.0
 70
    32
  0
VERTEX
  5
24F8
  8
241
 10
256.6449999999999818
 20
36.1433999999999997
 30
0.0
 70
    32
  0
VERTEX
  5
24F9
  8
241
 10
256.757000000000005
 20
36.242600000000003
 30
0.0
 70
    32
  0
VERTEX
  5
24FA
  8
241
 10
256.8729999999999905
 20
36.3400000000000034
 30
0.0
 70
    32
  0
VERTEX
  5
24FB
  8
241
 10
256.9920000000000186
 20
36.4354999999999976
 30
0.0
 70
    32
  0
VERTEX
  5
24FC
  8
241
 10
257.1129999999999995
 20
36.5290999999999997
 30
0.0
 70
    32
  0
VERTEX
  5
24FD
  8
241
 10
257.2379999999999995
 20
36.6206999999999994
 30
0.0
 70
    32
  0
VERTEX
  5
24FE
  8
241
 10
257.3659999999999854
 20
36.7102999999999966
 30
0.0
 70
    32
  0
VERTEX
  5
24FF
  8
241
 10
257.4970000000000141
 20
36.7978000000000023
 30
0.0
 70
    32
  0
VERTEX
  5
2500
  8
241
 10
257.6299999999999955
 20
36.8832000000000022
 30
0.0
 70
    32
  0
VERTEX
  5
2501
  8
241
 10
257.7660000000000196
 20
36.9665000000000035
 30
0.0
 70
    32
  0
VERTEX
  5
2502
  8
241
 10
257.9049999999999727
 20
37.0474999999999994
 30
0.0
 70
    32
  0
VERTEX
  5
2503
  8
241
 10
258.0459999999999923
 20
37.1263000000000005
 30
0.0
 70
    32
  0
VERTEX
  5
2504
  8
241
 10
258.1890000000000214
 20
37.2028000000000105
 30
0.0
 70
    32
  0
VERTEX
  5
2505
  8
241
 10
258.3349999999999795
 20
37.277000000000001
 30
0.0
 70
    32
  0
VERTEX
  5
2506
  8
241
 10
258.4839999999999804
 20
37.3489000000000004
 30
0.0
 70
    32
  0
VERTEX
  5
2507
  8
241
 10
258.6349999999999909
 20
37.4183000000000021
 30
0.0
 70
    32
  0
VERTEX
  5
2508
  8
241
 10
258.7880000000000109
 20
37.4853999999999985
 30
0.0
 70
    32
  0
VERTEX
  5
2509
  8
241
 10
258.9429999999999836
 20
37.5499000000000009
 30
0.0
 70
    32
  0
VERTEX
  5
250A
  8
241
 10
259.1000000000000227
 20
37.6120000000000019
 30
0.0
 70
    32
  0
VERTEX
  5
250B
  8
241
 10
259.2590000000000146
 20
37.6715000000000018
 30
0.0
 70
    32
  0
VERTEX
  5
250C
  8
241
 10
259.4190000000000964
 20
37.7284999999999968
 30
0.0
 70
    32
  0
VERTEX
  5
250D
  8
241
 10
259.5819999999999936
 20
37.7828000000000017
 30
0.0
 70
    32
  0
VERTEX
  5
250E
  8
241
 10
259.7459999999999809
 20
37.8346000000000018
 30
0.0
 70
    32
  0
VERTEX
  5
250F
  8
241
 10
259.9119999999999777
 20
37.8836999999999975
 30
0.0
 70
    32
  0
VERTEX
  5
2510
  8
241
 10
260.0799999999999841
 20
37.9301000000000101
 30
0.0
 70
    32
  0
VERTEX
  5
2511
  8
241
 10
260.2490000000000236
 20
37.9739000000000004
 30
0.0
 70
    32
  0
VERTEX
  5
2512
  8
241
 10
260.4189999999999827
 20
38.0148999999999972
 30
0.0
 70
    32
  0
VERTEX
  5
2513
  8
241
 10
260.589999999999975
 20
38.0531999999999968
 30
0.0
 70
    32
  0
VERTEX
  5
2514
  8
241
 10
260.7629999999999768
 20
38.0887000000000029
 30
0.0
 70
    32
  0
VERTEX
  5
2515
  8
241
 10
260.9370000000000118
 20
38.1214999999999975
 30
0.0
 70
    32
  0
VERTEX
  5
2516
  8
241
 10
261.1120000000000232
 20
38.1514999999999986
 30
0.0
 70
    32
  0
VERTEX
  5
2517
  8
241
 10
261.2880000000000109
 20
38.1786000000000101
 30
0.0
 70
    32
  0
VERTEX
  5
2518
  8
241
 10
261.4639999999999986
 20
38.2030000000000101
 30
0.0
 70
    32
  0
VERTEX
  5
2519
  8
241
 10
261.6410000000000196
 20
38.224499999999999
 30
0.0
 70
    32
  0
VERTEX
  5
251A
  8
241
 10
261.8190000000000168
 20
38.2430999999999983
 30
0.0
 70
    32
  0
VERTEX
  5
251B
  8
241
 10
261.9979999999999905
 20
38.258899999999997
 30
0.0
 70
    32
  0
VERTEX
  5
251C
  8
241
 10
262.1770000000000209
 20
38.2719000000000023
 30
0.0
 70
    32
  0
VERTEX
  5
251D
  8
241
 10
262.3559999999999945
 20
38.2819000000000003
 30
0.0
 70
    32
  0
VERTEX
  5
251E
  8
241
 10
262.5360000000000014
 20
38.2890999999999977
 30
0.0
 70
    32
  0
VERTEX
  5
251F
  8
241
 10
262.7160000000000082
 20
38.2935000000000016
 30
0.0
 70
    32
  0
VERTEX
  5
2520
  8
241
 10
262.8949999999999818
 20
38.2948999999999984
 30
0.0
 70
    32
  0
VERTEX
  5
2521
  8
241
 10
263.0749999999999886
 20
38.2935000000000016
 30
0.0
 70
    32
  0
VERTEX
  5
2522
  8
241
 10
263.2549999999999955
 20
38.2890999999999977
 30
0.0
 70
    32
  0
VERTEX
  5
2523
  8
241
 10
263.4350000000000023
 20
38.2819000000000003
 30
0.0
 70
    32
  0
VERTEX
  5
2524
  8
241
 10
263.6140000000000896
 20
38.2719000000000023
 30
0.0
 70
    32
  0
VERTEX
  5
2525
  8
241
 10
263.7930000000000064
 20
38.258899999999997
 30
0.0
 70
    32
  0
VERTEX
  5
2526
  8
241
 10
263.9710000000000036
 20
38.2430999999999983
 30
0.0
 70
    32
  0
VERTEX
  5
2527
  8
241
 10
264.1490000000000009
 20
38.224499999999999
 30
0.0
 70
    32
  0
VERTEX
  5
2528
  8
241
 10
264.3269999999999982
 20
38.2030000000000101
 30
0.0
 70
    32
  0
VERTEX
  5
2529
  8
241
 10
264.5029999999999859
 20
38.1786000000000101
 30
0.0
 70
    32
  0
VERTEX
  5
252A
  8
241
 10
264.6789999999999736
 20
38.1514999999999986
 30
0.0
 70
    32
  0
VERTEX
  5
252B
  8
241
 10
264.8540000000000987
 20
38.1214999999999975
 30
0.0
 70
    32
  0
VERTEX
  5
252C
  8
241
 10
265.02800000000002
 20
38.0887000000000029
 30
0.0
 70
    32
  0
VERTEX
  5
252D
  8
241
 10
265.1999999999999886
 20
38.0531999999999968
 30
0.0
 70
    32
  0
VERTEX
  5
252E
  8
241
 10
265.3720000000000141
 20
38.0148999999999972
 30
0.0
 70
    32
  0
VERTEX
  5
252F
  8
241
 10
265.5419999999999732
 20
37.9739000000000004
 30
0.0
 70
    32
  0
VERTEX
  5
2530
  8
241
 10
265.7110000000000127
 20
37.9301000000000101
 30
0.0
 70
    32
  0
VERTEX
  5
2531
  8
241
 10
265.8790000000000191
 20
37.8836999999999975
 30
0.0
 70
    32
  0
VERTEX
  5
2532
  8
241
 10
266.0439999999999827
 20
37.8346000000000018
 30
0.0
 70
    32
  0
VERTEX
  5
2533
  8
241
 10
266.2090000000000032
 20
37.7828000000000017
 30
0.0
 70
    32
  0
VERTEX
  5
2534
  8
241
 10
266.3709999999999809
 20
37.7284999999999968
 30
0.0
 70
    32
  0
VERTEX
  5
2535
  8
241
 10
266.5319999999999823
 20
37.6715000000000018
 30
0.0
 70
    32
  0
VERTEX
  5
2536
  8
241
 10
266.6909999999999741
 20
37.6120000000000019
 30
0.0
 70
    32
  0
VERTEX
  5
2537
  8
241
 10
266.8480000000000132
 20
37.5499000000000009
 30
0.0
 70
    32
  0
VERTEX
  5
2538
  8
241
 10
267.0029999999999859
 20
37.4853999999999985
 30
0.0
 70
    32
  0
VERTEX
  5
2539
  8
241
 10
267.1560000000000059
 20
37.4183000000000021
 30
0.0
 70
    32
  0
VERTEX
  5
253A
  8
241
 10
267.3070000000000164
 20
37.3489000000000004
 30
0.0
 70
    32
  0
VERTEX
  5
253B
  8
241
 10
267.4549999999999841
 20
37.277000000000001
 30
0.0
 70
    32
  0
VERTEX
  5
253C
  8
241
 10
267.6009999999999991
 20
37.2028000000000105
 30
0.0
 70
    32
  0
VERTEX
  5
253D
  8
241
 10
267.7450000000000045
 20
37.1263000000000005
 30
0.0
 70
    32
  0
VERTEX
  5
253E
  8
241
 10
267.8860000000000241
 20
37.0474999999999994
 30
0.0
 70
    32
  0
VERTEX
  5
253F
  8
241
 10
268.0249999999999773
 20
36.9665000000000035
 30
0.0
 70
    32
  0
VERTEX
  5
2540
  8
241
 10
268.1610000000000014
 20
36.8832000000000022
 30
0.0
 70
    32
  0
VERTEX
  5
2541
  8
241
 10
268.2939999999999827
 20
36.7978000000000023
 30
0.0
 70
    32
  0
VERTEX
  5
2542
  8
241
 10
268.4250000000000114
 20
36.7102999999999966
 30
0.0
 70
    32
  0
VERTEX
  5
2543
  8
241
 10
268.5529999999999973
 20
36.6206999999999994
 30
0.0
 70
    32
  0
VERTEX
  5
2544
  8
241
 10
268.6770000000000209
 20
36.5290999999999997
 30
0.0
 70
    32
  0
VERTEX
  5
2545
  8
241
 10
268.7989999999999782
 20
36.4354999999999976
 30
0.0
 70
    32
  0
VERTEX
  5
2546
  8
241
 10
268.9180000000000064
 20
36.3400000000000034
 30
0.0
 70
    32
  0
VERTEX
  5
2547
  8
241
 10
269.0339999999999918
 20
36.242600000000003
 30
0.0
 70
    32
  0
VERTEX
  5
2548
  8
241
 10
269.146000000000015
 20
36.1433999999999997
 30
0.0
 70
    32
  0
VERTEX
  5
2549
  8
241
 10
269.2559999999999718
 20
36.0424000000000007
 30
0.0
 70
    32
  0
VERTEX
  5
254A
  8
241
 10
269.3620000000000232
 20
35.939700000000002
 30
0.0
 70
    32
  0
VERTEX
  5
254B
  8
241
 10
269.464999999999975
 20
35.8352999999999966
 30
0.0
 70
    32
  0
VERTEX
  5
254C
  8
241
 10
269.5640000000000214
 20
35.7293000000000021
 30
0.0
 70
    32
  0
VERTEX
  5
254D
  8
241
 10
269.660000000000025
 20
35.621699999999997
 30
0.0
 70
    32
  0
VERTEX
  5
254E
  8
241
 10
269.7520000000000095
 20
35.5125999999999991
 30
0.0
 70
    32
  0
VERTEX
  5
254F
  8
241
 10
269.8410000000000082
 20
35.4020999999999972
 30
0.0
 70
    32
  0
VERTEX
  5
2550
  8
241
 10
269.9270000000000209
 20
35.2901000000000025
 30
0.0
 70
    32
  0
VERTEX
  5
2551
  8
241
 10
270.0090000000000146
 20
35.1769000000000034
 30
0.0
 70
    32
  0
VERTEX
  5
2552
  8
241
 10
270.0869999999999891
 20
35.0623000000000005
 30
0.0
 70
    32
  0
VERTEX
  5
2553
  8
241
 10
270.1610000000000014
 20
34.9465000000000003
 30
0.0
 70
    32
  0
VERTEX
  5
2554
  8
241
 10
270.2320000000000277
 20
34.8295999999999992
 30
0.0
 70
    32
  0
VERTEX
  5
2555
  8
241
 10
270.2989999999999782
 20
34.7115000000000009
 30
0.0
 70
    32
  0
VERTEX
  5
2556
  8
241
 10
270.3620000000000232
 20
34.5923999999999978
 30
0.0
 70
    32
  0
VERTEX
  5
2557
  8
241
 10
270.4220000000000255
 20
34.4724000000000004
 30
0.0
 70
    32
  0
VERTEX
  5
2558
  8
241
 10
270.4769999999999754
 20
34.3513999999999982
 30
0.0
 70
    32
  0
VERTEX
  5
2559
  8
241
 10
270.5289999999999964
 20
34.2295000000000016
 30
0.0
 70
    32
  0
VERTEX
  5
255A
  8
241
 10
270.5769999999999982
 20
34.1069000000000102
 30
0.0
 70
    32
  0
VERTEX
  5
255B
  8
241
 10
270.6200000000000045
 20
33.9834999999999994
 30
0.0
 70
    32
  0
VERTEX
  5
255C
  8
241
 10
270.660000000000025
 20
33.859499999999997
 30
0.0
 70
    32
  0
VERTEX
  5
255D
  8
241
 10
270.6960000000000264
 20
33.7347999999999999
 30
0.0
 70
    32
  0
VERTEX
  5
255E
  8
241
 10
270.7280000000000086
 20
33.6096000000000004
 30
0.0
 70
    32
  0
VERTEX
  5
255F
  8
241
 10
270.7559999999999718
 20
33.4838999999999984
 30
0.0
 70
    32
  0
VERTEX
  5
2560
  8
241
 10
270.7789999999999964
 20
33.3579000000000008
 30
0.0
 70
    32
  0
SEQEND
  5
2561
  8
241
  0
ARC
  5
15EF
  8
240
  6
CONTINUOUS
 10
269.395414657619483
 20
19.0000000000007887
 30
0.0
 40
24.0
 50
126.4150539484366931
 51
138.5903778907301955
  0
POLYLINE
  5
2562
  8
240
 66
     1
 10
0.0
 20
0.0
 30
0.0
 70
     8
  0
VERTEX
  5
2563
  8
240
 10
255.1479999999999961
 20
38.3136999999999972
 30
0.0
 70
    32
  0
VERTEX
  5
2564
  8
240
 10
255.1879999999999882
 20
38.3430000000000106
 30
0.0
 70
    32
  0
VERTEX
  5
2565
  8
240
 10
255.2280000000000086
 20
38.3723000000000027
 30
0.0
 70
    32
  0
VERTEX
  5
2566
  8
240
 10
255.2680000000000007
 20
38.4014999999999986
 30
0.0
 70
    32
  0
VERTEX
  5
2567
  8
240
 10
255.3079999999999927
 20
38.4305999999999983
 30
0.0
 70
    32
  0
VERTEX
  5
2568
  8
240
 10
255.3480000000000132
 20
38.4596000000000018
 30
0.0
 70
    32
  0
VERTEX
  5
2569
  8
240
 10
255.3880000000000052
 20
38.4885000000000019
 30
0.0
 70
    32
  0
VERTEX
  5
256A
  8
240
 10
255.429000000000002
 20
38.5174000000000021
 30
0.0
 70
    32
  0
VERTEX
  5
256B
  8
240
 10
255.4689999999999941
 20
38.5461999999999989
 30
0.0
 70
    32
  0
VERTEX
  5
256C
  8
240
 10
255.5089999999999861
 20
38.5748000000000104
 30
0.0
 70
    32
  0
VERTEX
  5
256D
  8
240
 10
255.5500000000000114
 20
38.6034999999999968
 30
0.0
 70
    32
  0
VERTEX
  5
256E
  8
240
 10
255.5900000000000034
 20
38.6319999999999979
 30
0.0
 70
    32
  0
VERTEX
  5
256F
  8
240
 10
255.6310000000000002
 20
38.6604000000000028
 30
0.0
 70
    32
  0
VERTEX
  5
2570
  8
240
 10
255.6709999999999923
 20
38.6888000000000005
 30
0.0
 70
    32
  0
VERTEX
  5
2571
  8
240
 10
255.7119999999999891
 20
38.7171000000000021
 30
0.0
 70
    32
  0
VERTEX
  5
2572
  8
240
 10
255.7529999999999859
 20
38.7453000000000003
 30
0.0
 70
    32
  0
VERTEX
  5
2573
  8
240
 10
255.7930000000000064
 20
38.7734000000000023
 30
0.0
 70
    32
  0
VERTEX
  5
2574
  8
240
 10
255.8340000000000032
 20
38.801400000000001
 30
0.0
 70
    32
  0
VERTEX
  5
2575
  8
240
 10
255.875
 20
38.8293000000000035
 30
0.0
 70
    32
  0
VERTEX
  5
2576
  8
240
 10
255.9159999999999968
 20
38.8571999999999989
 30
0.0
 70
    32
  0
VERTEX
  5
2577
  8
240
 10
255.9569999999999936
 20
38.884999999999998
 30
0.0
 70
    32
  0
VERTEX
  5
2578
  8
240
 10
255.9979999999999905
 20
38.912700000000001
 30
0.0
 70
    32
  0
VERTEX
  5
2579
  8
240
 10
256.0389999999999873
 20
38.9403000000000006
 30
0.0
 70
    32
  0
VERTEX
  5
257A
  8
240
 10
256.0810000000000173
 20
38.9677999999999969
 30
0.0
 70
    32
  0
VERTEX
  5
257B
  8
240
 10
256.1220000000000141
 20
38.995199999999997
 30
0.0
 70
    32
  0
VERTEX
  5
257C
  8
240
 10
256.1630000000000109
 20
39.0225999999999971
 30
0.0
 70
    32
  0
VERTEX
  5
257D
  8
240
 10
256.2040000000000077
 20
39.0499000000000009
 30
0.0
 70
    32
  0
VERTEX
  5
257E
  8
240
 10
256.2459999999999809
 20
39.0769999999999982
 30
0.0
 70
    32
  0
VERTEX
  5
257F
  8
240
 10
256.2869999999999777
 20
39.1041000000000025
 30
0.0
 70
    32
  0
VERTEX
  5
2580
  8
240
 10
256.3290000000000077
 20
39.1311999999999998
 30
0.0
 70
    32
  0
VERTEX
  5
2581
  8
240
 10
256.3700000000000045
 20
39.1580999999999975
 30
0.0
 70
    32
  0
VERTEX
  5
2582
  8
240
 10
256.4119999999999777
 20
39.184899999999999
 30
0.0
 70
    32
  0
VERTEX
  5
2583
  8
240
 10
256.4540000000000077
 20
39.2117000000000004
 30
0.0
 70
    32
  0
VERTEX
  5
2584
  8
240
 10
256.4959999999999809
 20
39.2383999999999986
 30
0.0
 70
    32
  0
VERTEX
  5
2585
  8
240
 10
256.5370000000000914
 20
39.2648999999999972
 30
0.0
 70
    32
  0
VERTEX
  5
2586
  8
240
 10
256.5790000000000077
 20
39.291400000000003
 30
0.0
 70
    32
  0
VERTEX
  5
2587
  8
240
 10
256.6209999999999809
 20
39.3177999999999983
 30
0.0
 70
    32
  0
VERTEX
  5
2588
  8
240
 10
256.6630000000000109
 20
39.3442000000000007
 30
0.0
 70
    32
  0
VERTEX
  5
2589
  8
240
 10
256.7049999999999841
 20
39.3703999999999965
 30
0.0
 70
    32
  0
VERTEX
  5
258A
  8
240
 10
256.7470000000000141
 20
39.3965000000000032
 30
0.0
 70
    32
  0
VERTEX
  5
258B
  8
240
 10
256.7889999999999873
 20
39.4226000000000028
 30
0.0
 70
    32
  0
VERTEX
  5
258C
  8
240
 10
256.8310000000000173
 20
39.448599999999999
 30
0.0
 70
    32
  0
VERTEX
  5
258D
  8
240
 10
256.8740000000000236
 20
39.474499999999999
 30
0.0
 70
    32
  0
VERTEX
  5
258E
  8
240
 10
256.9159999999999968
 20
39.5001999999999995
 30
0.0
 70
    32
  0
VERTEX
  5
258F
  8
240
 10
256.9580000000000268
 20
39.5260000000000034
 30
0.0
 70
    32
  0
VERTEX
  5
2590
  8
240
 10
257.0009999999999764
 20
39.5516000000000005
 30
0.0
 70
    32
  0
VERTEX
  5
2591
  8
240
 10
257.0430000000000064
 20
39.5771000000000015
 30
0.0
 70
    32
  0
VERTEX
  5
2592
  8
240
 10
257.0860000000000127
 20
39.6024999999999991
 30
0.0
 70
    32
  0
VERTEX
  5
2593
  8
240
 10
257.1279999999999859
 20
39.6278999999999968
 30
0.0
 70
    32
  0
VERTEX
  5
2594
  8
240
 10
257.1709999999999923
 20
39.6531999999999982
 30
0.0
 70
    32
  0
VERTEX
  5
2595
  8
240
 10
257.2130000000000223
 20
39.6783000000000001
 30
0.0
 70
    32
  0
VERTEX
  5
2596
  8
240
 10
257.2559999999999718
 20
39.703400000000002
 30
0.0
 70
    32
  0
VERTEX
  5
2597
  8
240
 10
257.2989999999999782
 20
39.7284000000000006
 30
0.0
 70
    32
  0
VERTEX
  5
2598
  8
240
 10
257.3410000000000082
 20
39.7533000000000101
 30
0.0
 70
    32
  0
VERTEX
  5
2599
  8
240
 10
257.3840000000000146
 20
39.778100000000002
 30
0.0
 70
    32
  0
VERTEX
  5
259A
  8
240
 10
257.4270000000000209
 20
39.8027999999999977
 30
0.0
 70
    32
  0
VERTEX
  5
259B
  8
240
 10
257.4700000000000273
 20
39.8275000000000006
 30
0.0
 70
    32
  0
VERTEX
  5
259C
  8
240
 10
257.5129999999999768
 20
39.8519999999999968
 30
0.0
 70
    32
  0
VERTEX
  5
259D
  8
240
 10
257.5559999999999832
 20
39.8765000000000001
 30
0.0
 70
    32
  0
VERTEX
  5
259E
  8
240
 10
257.5989999999999895
 20
39.9007999999999967
 30
0.0
 70
    32
  0
VERTEX
  5
259F
  8
240
 10
257.6419999999999959
 20
39.9251000000000005
 30
0.0
 70
    32
  0
VERTEX
  5
25A0
  8
240
 10
257.6850000000000023
 20
39.9493000000000009
 30
0.0
 70
    32
  0
VERTEX
  5
25A1
  8
240
 10
257.7280000000000086
 20
39.9733000000000018
 30
0.0
 70
    32
  0
VERTEX
  5
25A2
  8
240
 10
257.7719999999999914
 20
39.9973000000000027
 30
0.0
 70
    32
  0
VERTEX
  5
25A3
  8
240
 10
257.8149999999999977
 20
40.0212000000000003
 30
0.0
 70
    32
  0
VERTEX
  5
25A4
  8
240
 10
257.8580000000000041
 20
40.0450000000000017
 30
0.0
 70
    32
  0
VERTEX
  5
25A5
  8
240
 10
257.9019999999999868
 20
40.0688000000000031
 30
0.0
 70
    32
  0
VERTEX
  5
25A6
  8
240
 10
257.9449999999999932
 20
40.0923999999999978
 30
0.0
 70
    32
  0
VERTEX
  5
25A7
  8
240
 10
257.9889999999999759
 20
40.1159000000000034
 30
0.0
 70
    32
  0
VERTEX
  5
25A8
  8
240
 10
258.0319999999999823
 20
40.1392999999999986
 30
0.0
 70
    32
  0
VERTEX
  5
25A9
  8
240
 10
258.0760000000000218
 20
40.162700000000001
 30
0.0
 70
    32
  0
VERTEX
  5
25AA
  8
240
 10
258.1190000000000282
 20
40.1858999999999895
 30
0.0
 70
    32
  0
VERTEX
  5
25AB
  8
240
 10
258.1630000000000109
 20
40.2090999999999923
 30
0.0
 70
    32
  0
VERTEX
  5
25AC
  8
240
 10
258.2060000000000173
 20
40.2321999999999989
 30
0.0
 70
    32
  0
VERTEX
  5
25AD
  8
240
 10
258.25
 20
40.2550999999999917
 30
0.0
 70
    32
  0
VERTEX
  5
25AE
  8
240
 10
258.2939999999999827
 20
40.2779999999999987
 30
0.0
 70
    32
  0
VERTEX
  5
25AF
  8
240
 10
258.3380000000000223
 20
40.3008000000000024
 30
0.0
 70
    32
  0
VERTEX
  5
25B0
  8
240
 10
258.382000000000005
 20
40.3235000000000028
 30
0.0
 70
    32
  0
VERTEX
  5
25B1
  8
240
 10
258.4250000000000114
 20
40.3460999999999927
 30
0.0
 70
    32
  0
VERTEX
  5
25B2
  8
240
 10
258.4689999999999941
 20
40.3685999999999865
 30
0.0
 70
    32
  0
VERTEX
  5
25B3
  8
240
 10
258.5129999999999768
 20
40.3909999999999982
 30
0.0
 70
    32
  0
VERTEX
  5
25B4
  8
240
 10
258.5570000000000164
 20
40.4132999999999996
 30
0.0
 70
    32
  0
VERTEX
  5
25B5
  8
240
 10
258.6009999999999991
 20
40.4356000000000009
 30
0.0
 70
    32
  0
VERTEX
  5
25B6
  8
240
 10
258.6449999999999818
 20
40.4577000000000027
 30
0.0
 70
    32
  0
VERTEX
  5
25B7
  8
240
 10
258.6899999999999977
 20
40.4797000000000011
 30
0.0
 70
    32
  0
VERTEX
  5
25B8
  8
240
 10
258.7340000000000941
 20
40.5016999999999996
 30
0.0
 70
    32
  0
VERTEX
  5
25B9
  8
240
 10
258.77800000000002
 20
40.5234999999999914
 30
0.0
 70
    32
  0
VERTEX
  5
25BA
  8
240
 10
258.8220000000000027
 20
40.5452999999999903
 30
0.0
 70
    32
  0
VERTEX
  5
25BB
  8
240
 10
258.8659999999999854
 20
40.5668999999999897
 30
0.0
 70
    32
  0
VERTEX
  5
25BC
  8
240
 10
258.9110000000000014
 20
40.5885000000000034
 30
0.0
 70
    32
  0
VERTEX
  5
25BD
  8
240
 10
258.9549999999999841
 20
40.6099999999999923
 30
0.0
 70
    32
  0
VERTEX
  5
25BE
  8
240
 10
258.9990000000000236
 20
40.6313999999999922
 30
0.0
 70
    32
  0
VERTEX
  5
25BF
  8
240
 10
259.0439999999999827
 20
40.6525999999999996
 30
0.0
 70
    32
  0
VERTEX
  5
25C0
  8
240
 10
259.0880000000000223
 20
40.6737999999999928
 30
0.0
 70
    32
  0
VERTEX
  5
25C1
  8
240
 10
259.1329999999999814
 20
40.694899999999997
 30
0.0
 70
    32
  0
VERTEX
  5
25C2
  8
240
 10
259.1770000000000209
 20
40.7158999999999907
 30
0.0
 70
    32
  0
VERTEX
  5
25C3
  8
240
 10
259.22199999999998
 20
40.7368000000000023
 30
0.0
 70
    32
  0
VERTEX
  5
25C4
  8
240
 10
259.2659999999999059
 20
40.7575999999999894
 30
0.0
 70
    32
  0
VERTEX
  5
25C5
  8
240
 10
259.3109999999999786
 20
40.7783999999999978
 30
0.0
 70
    32
  0
VERTEX
  5
25C6
  8
240
 10
259.3559999999999945
 20
40.7989999999999995
 30
0.0
 70
    32
  0
VERTEX
  5
25C7
  8
240
 10
259.3999999999999773
 20
40.8194999999999908
 30
0.0
 70
    32
  0
VERTEX
  5
25C8
  8
240
 10
259.4449999999999932
 20
40.8399000000000001
 30
0.0
 70
    32
  0
VERTEX
  5
25C9
  8
240
 10
259.4900000000000091
 20
40.8603000000000023
 30
0.0
 70
    32
  0
VERTEX
  5
25CA
  8
240
 10
259.535000000000025
 20
40.8804999999999907
 30
0.0
 70
    32
  0
VERTEX
  5
25CB
  8
240
 10
259.5799999999999841
 20
40.9006999999999934
 30
0.0
 70
    32
  0
VERTEX
  5
25CC
  8
240
 10
259.6240000000000236
 20
40.9206999999999894
 30
0.0
 70
    32
  0
VERTEX
  5
25CD
  8
240
 10
259.6690000000000964
 20
40.9406999999999996
 30
0.0
 70
    32
  0
VERTEX
  5
25CE
  8
240
 10
259.7139999999999986
 20
40.9605000000000032
 30
0.0
 70
    32
  0
VERTEX
  5
25CF
  8
240
 10
259.7590000000000146
 20
40.9802999999999997
 30
0.0
 70
    32
  0
VERTEX
  5
25D0
  8
240
 10
259.8040000000000873
 20
40.9998999999999967
 30
0.0
 70
    32
  0
VERTEX
  5
25D1
  8
240
 10
259.8489999999999895
 20
41.0195000000000007
 30
0.0
 70
    32
  0
VERTEX
  5
25D2
  8
240
 10
259.8940000000000055
 20
41.0390000000000015
 30
0.0
 70
    32
  0
VERTEX
  5
25D3
  8
240
 10
259.9390000000000214
 20
41.0583999999999918
 30
0.0
 70
    32
  0
VERTEX
  5
25D4
  8
240
 10
259.9839999999999804
 20
41.0775999999999897
 30
0.0
 70
    32
  0
VERTEX
  5
25D5
  8
240
 10
260.0289999999999964
 20
41.0967999999999876
 30
0.0
 70
    32
  0
VERTEX
  5
25D6
  8
240
 10
260.0749999999999886
 20
41.1159000000000034
 30
0.0
 70
    32
  0
VERTEX
  5
25D7
  8
240
 10
260.1200000000000045
 20
41.1349000000000018
 30
0.0
 70
    32
  0
VERTEX
  5
25D8
  8
240
 10
260.1650000000000205
 20
41.1537999999999968
 30
0.0
 70
    32
  0
VERTEX
  5
25D9
  8
240
 10
260.2099999999999795
 20
41.1726000000000028
 30
0.0
 70
    32
  0
VERTEX
  5
25DA
  8
240
 10
260.2549999999999955
 20
41.1912999999999982
 30
0.0
 70
    32
  0
VERTEX
  5
25DB
  8
240
 10
260.3009999999999877
 20
41.2098999999999904
 30
0.0
 70
    32
  0
VERTEX
  5
25DC
  8
240
 10
260.3460000000000036
 20
41.2284000000000006
 30
0.0
 70
    32
  0
VERTEX
  5
25DD
  8
240
 10
260.3909999999999059
 20
41.2468000000000004
 30
0.0
 70
    32
  0
VERTEX
  5
25DE
  8
240
 10
260.4370000000000118
 20
41.2652000000000001
 30
0.0
 70
    32
  0
VERTEX
  5
25DF
  8
240
 10
260.4820000000000277
 20
41.2834000000000003
 30
0.0
 70
    32
  0
VERTEX
  5
25E0
  8
240
 10
260.52800000000002
 20
41.3014999999999901
 30
0.0
 70
    32
  0
VERTEX
  5
25E1
  8
240
 10
260.5729999999999791
 20
41.3194999999999908
 30
0.0
 70
    32
  0
VERTEX
  5
25E2
  8
240
 10
260.6190000000000282
 20
41.3374000000000024
 30
0.0
 70
    32
  0
VERTEX
  5
25E3
  8
240
 10
260.6639999999999873
 20
41.3552999999999997
 30
0.0
 70
    32
  0
VERTEX
  5
25E4
  8
240
 10
260.7099999999999795
 20
41.3729999999999905
 30
0.0
 70
    32
  0
VERTEX
  5
25E5
  8
240
 10
260.7549999999999955
 20
41.3905999999999921
 30
0.0
 70
    32
  0
VERTEX
  5
25E6
  8
240
 10
260.8009999999999877
 20
41.4082000000000008
 30
0.0
 70
    32
  0
VERTEX
  5
25E7
  8
240
 10
260.8460000000000036
 20
41.4256000000000029
 30
0.0
 70
    32
  0
VERTEX
  5
25E8
  8
240
 10
260.8919999999999959
 20
41.4429999999999978
 30
0.0
 70
    32
  0
VERTEX
  5
25E9
  8
240
 10
260.9370000000000118
 20
41.4602000000000004
 30
0.0
 70
    32
  0
VERTEX
  5
25EA
  8
240
 10
260.9830000000000041
 20
41.4774000000000029
 30
0.0
 70
    32
  0
VERTEX
  5
25EB
  8
240
 10
261.0289999999999964
 20
41.4943999999999988
 30
0.0
 70
    32
  0
VERTEX
  5
25EC
  8
240
 10
261.0749999999999886
 20
41.5114000000000019
 30
0.0
 70
    32
  0
VERTEX
  5
25ED
  8
240
 10
261.1200000000000045
 20
41.5281999999999982
 30
0.0
 70
    32
  0
VERTEX
  5
25EE
  8
240
 10
261.1659999999999968
 20
41.5450000000000017
 30
0.0
 70
    32
  0
VERTEX
  5
25EF
  8
240
 10
261.2119999999999891
 20
41.5615999999999914
 30
0.0
 70
    32
  0
VERTEX
  5
25F0
  8
240
 10
261.2579999999999814
 20
41.5782000000000025
 30
0.0
 70
    32
  0
VERTEX
  5
25F1
  8
240
 10
261.3029999999999973
 20
41.5945999999999998
 30
0.0
 70
    32
  0
VERTEX
  5
25F2
  8
240
 10
261.3489999999999895
 20
41.6109999999999971
 30
0.0
 70
    32
  0
VERTEX
  5
25F3
  8
240
 10
261.3949999999999818
 20
41.6272999999999911
 30
0.0
 70
    32
  0
VERTEX
  5
25F4
  8
240
 10
261.4409999999999741
 20
41.6433999999999997
 30
0.0
 70
    32
  0
VERTEX
  5
25F5
  8
240
 10
261.4870000000000232
 20
41.6595000000000013
 30
0.0
 70
    32
  0
VERTEX
  5
25F6
  8
240
 10
261.5330000000000155
 20
41.6754999999999995
 30
0.0
 70
    32
  0
VERTEX
  5
25F7
  8
240
 10
261.5790000000000077
 20
41.6912999999999982
 30
0.0
 70
    32
  0
VERTEX
  5
25F8
  8
240
 10
261.6240000000000236
 20
41.7070999999999898
 30
0.0
 70
    32
  0
VERTEX
  5
25F9
  8
240
 10
261.6700000000000159
 20
41.7227999999999923
 30
0.0
 70
    32
  0
VERTEX
  5
25FA
  8
240
 10
261.7160000000000082
 20
41.7383000000000024
 30
0.0
 70
    32
  0
VERTEX
  5
25FB
  8
240
 10
261.7620000000000005
 20
41.7537999999999911
 30
0.0
 70
    32
  0
VERTEX
  5
25FC
  8
240
 10
261.8079999999999927
 20
41.7691999999999908
 30
0.0
 70
    32
  0
VERTEX
  5
25FD
  8
240
 10
261.853999999999985
 20
41.784399999999998
 30
0.0
 70
    32
  0
VERTEX
  5
25FE
  8
240
 10
261.8999999999999773
 20
41.7995999999999981
 30
0.0
 70
    32
  0
VERTEX
  5
25FF
  8
240
 10
261.9460000000000264
 20
41.814700000000002
 30
0.0
 70
    32
  0
VERTEX
  5
2600
  8
240
 10
261.9920000000000186
 20
41.8297000000000025
 30
0.0
 70
    32
  0
VERTEX
  5
2601
  8
240
 10
262.0389999999999873
 20
41.8445999999999998
 30
0.0
 70
    32
  0
VERTEX
  5
2602
  8
240
 10
262.0849999999999795
 20
41.8594000000000008
 30
0.0
 70
    32
  0
VERTEX
  5
2603
  8
240
 10
262.1309999999999718
 20
41.8740000000000023
 30
0.0
 70
    32
  0
VERTEX
  5
2604
  8
240
 10
262.1770000000000209
 20
41.8885999999999967
 30
0.0
 70
    32
  0
VERTEX
  5
2605
  8
240
 10
262.2230000000000132
 20
41.903100000000002
 30
0.0
 70
    32
  0
VERTEX
  5
2606
  8
240
 10
262.2690000000000055
 20
41.9174999999999898
 30
0.0
 70
    32
  0
VERTEX
  5
2607
  8
240
 10
262.3149999999999977
 20
41.9318000000000026
 30
0.0
 70
    32
  0
VERTEX
  5
2608
  8
240
 10
262.36099999999999
 20
41.945999999999998
 30
0.0
 70
    32
  0
VERTEX
  5
2609
  8
240
 10
262.4080000000000155
 20
41.9600999999999971
 30
0.0
 70
    32
  0
VERTEX
  5
260A
  8
240
 10
262.4540000000000077
 20
41.9741
 30
0.0
 70
    32
  0
VERTEX
  5
260B
  8
240
 10
262.5
 20
41.9879999999999995
 30
0.0
 70
    32
  0
VERTEX
  5
260C
  8
240
 10
262.5459999999999923
 20
42.0018000000000029
 30
0.0
 70
    32
  0
VERTEX
  5
260D
  8
240
 10
262.5919999999999845
 20
42.015500000000003
 30
0.0
 70
    32
  0
VERTEX
  5
260E
  8
240
 10
262.63900000000001
 20
42.0290999999999997
 30
0.0
 70
    32
  0
VERTEX
  5
260F
  8
240
 10
262.6850000000000023
 20
42.0426000000000002
 30
0.0
 70
    32
  0
VERTEX
  5
2610
  8
240
 10
262.7309999999999945
 20
42.0559999999999903
 30
0.0
 70
    32
  0
VERTEX
  5
2611
  8
240
 10
262.7769999999999868
 20
42.0692999999999913
 30
0.0
 70
    32
  0
VERTEX
  5
2612
  8
240
 10
262.8240000000000123
 20
42.0825999999999993
 30
0.0
 70
    32
  0
VERTEX
  5
2613
  8
240
 10
262.8700000000000045
 20
42.0957000000000008
 30
0.0
 70
    32
  0
VERTEX
  5
2614
  8
240
 10
262.9159999999999968
 20
42.1086999999999918
 30
0.0
 70
    32
  0
VERTEX
  5
2615
  8
240
 10
262.9630000000000223
 20
42.1215999999999866
 30
0.0
 70
    32
  0
VERTEX
  5
2616
  8
240
 10
263.0090000000000146
 20
42.1345000000000027
 30
0.0
 70
    32
  0
VERTEX
  5
2617
  8
240
 10
263.0550000000000068
 20
42.1471999999999909
 30
0.0
 70
    32
  0
VERTEX
  5
2618
  8
240
 10
263.1009999999999991
 20
42.1597999999999971
 30
0.0
 70
    32
  0
VERTEX
  5
2619
  8
240
 10
263.1480000000000246
 20
42.1724000000000032
 30
0.0
 70
    32
  0
VERTEX
  5
261A
  8
240
 10
263.1940000000000168
 20
42.1848000000000027
 30
0.0
 70
    32
  0
VERTEX
  5
261B
  8
240
 10
263.2400000000000091
 20
42.1970999999999989
 30
0.0
 70
    32
  0
VERTEX
  5
261C
  8
240
 10
263.2869999999999777
 20
42.2094000000000023
 30
0.0
 70
    32
  0
VERTEX
  5
261D
  8
240
 10
263.3330000000000268
 20
42.2214999999999989
 30
0.0
 70
    32
  0
VERTEX
  5
261E
  8
240
 10
263.3790000000000191
 20
42.2336000000000027
 30
0.0
 70
    32
  0
VERTEX
  5
261F
  8
240
 10
263.4259999999999877
 20
42.2454999999999927
 30
0.0
 70
    32
  0
VERTEX
  5
2620
  8
240
 10
263.47199999999998
 20
42.257399999999997
 30
0.0
 70
    32
  0
VERTEX
  5
2621
  8
240
 10
263.5190000000000055
 20
42.2691000000000017
 30
0.0
 70
    32
  0
VERTEX
  5
2622
  8
240
 10
263.5649999999999977
 20
42.2807999999999993
 30
0.0
 70
    32
  0
VERTEX
  5
2623
  8
240
 10
263.61099999999999
 20
42.2923999999999864
 30
0.0
 70
    32
  0
VERTEX
  5
2624
  8
240
 10
263.6580000000000155
 20
42.3038000000000025
 30
0.0
 70
    32
  0
VERTEX
  5
2625
  8
240
 10
263.7040000000000077
 20
42.3151999999999902
 30
0.0
 70
    32
  0
VERTEX
  5
2626
  8
240
 10
263.75
 20
42.3265000000000029
 30
0.0
 70
    32
  0
VERTEX
  5
2627
  8
240
 10
263.7970000000000255
 20
42.3376000000000019
 30
0.0
 70
    32
  0
VERTEX
  5
2628
  8
240
 10
263.8430000000000177
 20
42.3486999999999867
 30
0.0
 70
    32
  0
VERTEX
  5
2629
  8
240
 10
263.88900000000001
 20
42.3596999999999966
 30
0.0
 70
    32
  0
VERTEX
  5
262A
  8
240
 10
263.9359999999999786
 20
42.3706000000000031
 30
0.0
 70
    32
  0
VERTEX
  5
262B
  8
240
 10
263.9820000000000277
 20
42.3813999999999993
 30
0.0
 70
    32
  0
VERTEX
  5
262C
  8
240
 10
264.0289999999999964
 20
42.3920999999999921
 30
0.0
 70
    32
  0
VERTEX
  5
262D
  8
240
 10
264.0749999999999886
 20
42.4027000000000029
 30
0.0
 70
    32
  0
VERTEX
  5
262E
  8
240
 10
264.1209999999999809
 20
42.4132000000000033
 30
0.0
 70
    32
  0
VERTEX
  5
262F
  8
240
 10
264.1680000000000064
 20
42.4236000000000004
 30
0.0
 70
    32
  0
VERTEX
  5
2630
  8
240
 10
264.2139999999999986
 20
42.4339000000000013
 30
0.0
 70
    32
  0
VERTEX
  5
2631
  8
240
 10
264.2599999999999909
 20
42.4440999999999988
 30
0.0
 70
    32
  0
VERTEX
  5
2632
  8
240
 10
264.3070000000000164
 20
42.4542000000000002
 30
0.0
 70
    32
  0
VERTEX
  5
2633
  8
240
 10
264.3530000000000086
 20
42.4641999999999911
 30
0.0
 70
    32
  0
VERTEX
  5
2634
  8
240
 10
264.3999999999999773
 20
42.4741
 30
0.0
 70
    32
  0
VERTEX
  5
2635
  8
240
 10
264.4460000000000264
 20
42.4840000000000018
 30
0.0
 70
    32
  0
VERTEX
  5
2636
  8
240
 10
264.4920000000000186
 20
42.4936999999999898
 30
0.0
 70
    32
  0
VERTEX
  5
2637
  8
240
 10
264.5389999999999873
 20
42.503300000000003
 30
0.0
 70
    32
  0
VERTEX
  5
2638
  8
240
 10
264.5849999999999795
 20
42.5127999999999986
 30
0.0
 70
    32
  0
VERTEX
  5
2639
  8
240
 10
264.6309999999999718
 20
42.5222999999999871
 30
0.0
 70
    32
  0
VERTEX
  5
263A
  8
240
 10
264.6779999999999973
 20
42.5315999999999974
 30
0.0
 70
    32
  0
VERTEX
  5
263B
  8
240
 10
264.7239999999999895
 20
42.5409000000000006
 30
0.0
 70
    32
  0
VERTEX
  5
263C
  8
240
 10
264.7699999999999818
 20
42.5499999999999901
 30
0.0
 70
    32
  0
VERTEX
  5
263D
  8
240
 10
264.8170000000000073
 20
42.5591000000000008
 30
0.0
 70
    32
  0
VERTEX
  5
263E
  8
240
 10
264.8629999999999995
 20
42.5679999999999978
 30
0.0
 70
    32
  0
VERTEX
  5
263F
  8
240
 10
264.9089999999999918
 20
42.576900000000002
 30
0.0
 70
    32
  0
VERTEX
  5
2640
  8
240
 10
264.9549999999999841
 20
42.5857000000000028
 30
0.0
 70
    32
  0
VERTEX
  5
2641
  8
240
 10
265.0020000000000095
 20
42.5942999999999969
 30
0.0
 70
    32
  0
VERTEX
  5
2642
  8
240
 10
265.0480000000000018
 20
42.6028999999999982
 30
0.0
 70
    32
  0
VERTEX
  5
2643
  8
240
 10
265.0939999999999941
 20
42.6114000000000033
 30
0.0
 70
    32
  0
VERTEX
  5
2644
  8
240
 10
265.1399999999999864
 20
42.6197999999999979
 30
0.0
 70
    32
  0
VERTEX
  5
2645
  8
240
 10
265.1870000000000118
 20
42.6281000000000034
 30
0.0
 70
    32
  0
VERTEX
  5
2646
  8
240
 10
265.2330000000000041
 20
42.6362999999999985
 30
0.0
 70
    32
  0
VERTEX
  5
2647
  8
240
 10
265.2789999999999964
 20
42.6443999999999903
 30
0.0
 70
    32
  0
VERTEX
  5
2648
  8
240
 10
265.3249999999999886
 20
42.6524000000000001
 30
0.0
 70
    32
  0
VERTEX
  5
2649
  8
240
 10
265.3720000000000141
 20
42.6602999999999923
 30
0.0
 70
    32
  0
VERTEX
  5
264A
  8
240
 10
265.4180000000000064
 20
42.6681000000000026
 30
0.0
 70
    32
  0
VERTEX
  5
264B
  8
240
 10
265.4639999999999986
 20
42.6758000000000024
 30
0.0
 70
    32
  0
VERTEX
  5
264C
  8
240
 10
265.5099999999999909
 20
42.6833999999999989
 30
0.0
 70
    32
  0
VERTEX
  5
264D
  8
240
 10
265.5559999999999832
 20
42.6908999999999992
 30
0.0
 70
    32
  0
VERTEX
  5
264E
  8
240
 10
265.6019999999999754
 20
42.6983999999999995
 30
0.0
 70
    32
  0
VERTEX
  5
264F
  8
240
 10
265.6490000000000009
 20
42.7057000000000002
 30
0.0
 70
    32
  0
VERTEX
  5
2650
  8
240
 10
265.6949999999999932
 20
42.713000000000001
 30
0.0
 70
    32
  0
VERTEX
  5
2651
  8
240
 10
265.7409999999999854
 20
42.7201000000000022
 30
0.0
 70
    32
  0
VERTEX
  5
2652
  8
240
 10
265.7869999999999777
 20
42.7272000000000034
 30
0.0
 70
    32
  0
VERTEX
  5
2653
  8
240
 10
265.8330000000000268
 20
42.734099999999998
 30
0.0
 70
    32
  0
VERTEX
  5
2654
  8
240
 10
265.8790000000000191
 20
42.7409999999999926
 30
0.0
 70
    32
  0
VERTEX
  5
2655
  8
240
 10
265.9250000000000114
 20
42.7477000000000018
 30
0.0
 70
    32
  0
VERTEX
  5
2656
  8
240
 10
265.9710000000000036
 20
42.7543999999999897
 30
0.0
 70
    32
  0
VERTEX
  5
2657
  8
240
 10
266.0169999999999959
 20
42.7610000000000028
 30
0.0
 70
    32
  0
VERTEX
  5
2658
  8
240
 10
266.0629999999999882
 20
42.7674999999999912
 30
0.0
 70
    32
  0
VERTEX
  5
2659
  8
240
 10
266.1090000000000941
 20
42.7738999999999905
 30
0.0
 70
    32
  0
VERTEX
  5
265A
  8
240
 10
266.1549999999999727
 20
42.7802000000000007
 30
0.0
 70
    32
  0
VERTEX
  5
265B
  8
240
 10
266.2009999999999081
 20
42.7864000000000004
 30
0.0
 70
    32
  0
VERTEX
  5
265C
  8
240
 10
266.2470000000000141
 20
42.7924999999999969
 30
0.0
 70
    32
  0
VERTEX
  5
265D
  8
240
 10
266.2930000000000064
 20
42.79849999999999
 30
0.0
 70
    32
  0
VERTEX
  5
265E
  8
240
 10
266.3389999999999986
 20
42.8044000000000011
 30
0.0
 70
    32
  0
VERTEX
  5
265F
  8
240
 10
266.3849999999999909
 20
42.810299999999998
 30
0.0
 70
    32
  0
VERTEX
  5
2660
  8
240
 10
266.4300000000000068
 20
42.8160000000000025
 30
0.0
 70
    32
  0
VERTEX
  5
2661
  8
240
 10
266.4759999999999991
 20
42.8216999999999928
 30
0.0
 70
    32
  0
VERTEX
  5
2662
  8
240
 10
266.5219999999999914
 20
42.8271999999999977
 30
0.0
 70
    32
  0
VERTEX
  5
2663
  8
240
 10
266.5679999999999836
 20
42.8327000000000027
 30
0.0
 70
    32
  0
VERTEX
  5
2664
  8
240
 10
266.6139999999999759
 20
42.8380999999999901
 30
0.0
 70
    32
  0
VERTEX
  5
2665
  8
240
 10
266.6589999999999918
 20
42.8434000000000026
 30
0.0
 70
    32
  0
VERTEX
  5
2666
  8
240
 10
266.7049999999999841
 20
42.8485999999999976
 30
0.0
 70
    32
  0
VERTEX
  5
2667
  8
240
 10
266.7509999999999764
 20
42.8537000000000035
 30
0.0
 70
    32
  0
VERTEX
  5
2668
  8
240
 10
266.7970000000000255
 20
42.8586999999999989
 30
0.0
 70
    32
  0
VERTEX
  5
2669
  8
240
 10
266.8419999999999845
 20
42.8635999999999981
 30
0.0
 70
    32
  0
VERTEX
  5
266A
  8
240
 10
266.8879999999999768
 20
42.8684000000000012
 30
0.0
 70
    32
  0
VERTEX
  5
266B
  8
240
 10
266.9329999999999927
 20
42.8731999999999971
 30
0.0
 70
    32
  0
VERTEX
  5
266C
  8
240
 10
266.978999999999985
 20
42.8778000000000006
 30
0.0
 70
    32
  0
VERTEX
  5
266D
  8
240
 10
267.0249999999999773
 20
42.882399999999997
 30
0.0
 70
    32
  0
VERTEX
  5
266E
  8
240
 10
267.0699999999999932
 20
42.88689999999999
 30
0.0
 70
    32
  0
VERTEX
  5
266F
  8
240
 10
267.1159999999999854
 20
42.8913000000000011
 30
0.0
 70
    32
  0
VERTEX
  5
2670
  8
240
 10
267.1610000000000014
 20
42.8956000000000017
 30
0.0
 70
    32
  0
VERTEX
  5
2671
  8
240
 10
267.2069999999999936
 20
42.8997999999999919
 30
0.0
 70
    32
  0
VERTEX
  5
2672
  8
240
 10
267.2520000000000095
 20
42.9039000000000001
 30
0.0
 70
    32
  0
VERTEX
  5
2673
  8
240
 10
267.2980000000000018
 20
42.9078999999999979
 30
0.0
 70
    32
  0
VERTEX
  5
2674
  8
240
 10
267.3430000000000177
 20
42.9117999999999924
 30
0.0
 70
    32
  0
VERTEX
  5
2675
  8
240
 10
267.3879999999999768
 20
42.9157000000000011
 30
0.0
 70
    32
  0
VERTEX
  5
2676
  8
240
 10
267.4340000000000259
 20
42.9194000000000031
 30
0.0
 70
    32
  0
VERTEX
  5
2677
  8
240
 10
267.4790000000000987
 20
42.9230999999999909
 30
0.0
 70
    32
  0
VERTEX
  5
2678
  8
240
 10
267.5240000000000009
 20
42.9266999999999967
 30
0.0
 70
    32
  0
VERTEX
  5
2679
  8
240
 10
267.5690000000000168
 20
42.9301999999999992
 30
0.0
 70
    32
  0
VERTEX
  5
267A
  8
240
 10
267.6150000000000091
 20
42.9335999999999913
 30
0.0
 70
    32
  0
VERTEX
  5
267B
  8
240
 10
267.660000000000025
 20
42.9369000000000014
 30
0.0
 70
    32
  0
VERTEX
  5
267C
  8
240
 10
267.7049999999999841
 20
42.9401999999999902
 30
0.0
 70
    32
  0
VERTEX
  5
267D
  8
240
 10
267.75
 20
42.9433000000000007
 30
0.0
 70
    32
  0
VERTEX
  5
267E
  8
240
 10
267.7950000000000159
 20
42.946399999999997
 30
0.0
 70
    32
  0
VERTEX
  5
267F
  8
240
 10
267.839999999999975
 20
42.9492999999999867
 30
0.0
 70
    32
  0
VERTEX
  5
2680
  8
240
 10
267.8849999999999909
 20
42.9521999999999906
 30
0.0
 70
    32
  0
VERTEX
  5
2681
  8
240
 10
267.9300000000000068
 20
42.9549999999999912
 30
0.0
 70
    32
  0
VERTEX
  5
2682
  8
240
 10
267.9750000000000227
 20
42.9577000000000027
 30
0.0
 70
    32
  0
VERTEX
  5
2683
  8
240
 10
268.0199999999999818
 20
42.9603999999999999
 30
0.0
 70
    32
  0
VERTEX
  5
2684
  8
240
 10
268.0649999999999977
 20
42.9628999999999905
 30
0.0
 70
    32
  0
VERTEX
  5
2685
  8
240
 10
268.1100000000000136
 20
42.9654000000000025
 30
0.0
 70
    32
  0
VERTEX
  5
2686
  8
240
 10
268.1549999999999727
 20
42.9677000000000007
 30
0.0
 70
    32
  0
VERTEX
  5
2687
  8
240
 10
268.1999999999999886
 20
42.9699999999999918
 30
0.0
 70
    32
  0
VERTEX
  5
2688
  8
240
 10
268.2440000000000282
 20
42.9722000000000008
 30
0.0
 70
    32
  0
VERTEX
  5
2689
  8
240
 10
268.2889999999999873
 20
42.9742999999999995
 30
0.0
 70
    32
  0
VERTEX
  5
268A
  8
240
 10
268.3340000000000032
 20
42.9763999999999982
 30
0.0
 70
    32
  0
VERTEX
  5
268B
  8
240
 10
268.3790000000000191
 20
42.9782999999999973
 30
0.0
 70
    32
  0
VERTEX
  5
268C
  8
240
 10
268.4230000000000018
 20
42.9802000000000035
 30
0.0
 70
    32
  0
VERTEX
  5
268D
  8
240
 10
268.4680000000000177
 20
42.9819000000000031
 30
0.0
 70
    32
  0
VERTEX
  5
268E
  8
240
 10
268.5120000000000005
 20
42.9836000000000027
 30
0.0
 70
    32
  0
VERTEX
  5
268F
  8
240
 10
268.5570000000000164
 20
42.9851999999999919
 30
0.0
 70
    32
  0
VERTEX
  5
2690
  8
240
 10
268.6009999999999991
 20
42.9868000000000023
 30
0.0
 70
    32
  0
VERTEX
  5
2691
  8
240
 10
268.646000000000015
 20
42.9881999999999991
 30
0.0
 70
    32
  0
VERTEX
  5
2692
  8
240
 10
268.6899999999999977
 20
42.9896000000000029
 30
0.0
 70
    32
  0
VERTEX
  5
2693
  8
240
 10
268.7350000000000136
 20
42.9908000000000001
 30
0.0
 70
    32
  0
VERTEX
  5
2694
  8
240
 10
268.7789999999999964
 20
42.9919999999999902
 30
0.0
 70
    32
  0
VERTEX
  5
2695
  8
240
 10
268.8229999999999791
 20
42.9930999999999983
 30
0.0
 70
    32
  0
VERTEX
  5
2696
  8
240
 10
268.867999999999995
 20
42.9941000000000031
 30
0.0
 70
    32
  0
VERTEX
  5
2697
  8
240
 10
268.9119999999999777
 20
42.9951000000000008
 30
0.0
 70
    32
  0
VERTEX
  5
2698
  8
240
 10
268.9560000000000173
 20
42.9958999999999989
 30
0.0
 70
    32
  0
VERTEX
  5
2699
  8
240
 10
269.0
 20
42.9966999999999899
 30
0.0
 70
    32
  0
VERTEX
  5
269A
  8
240
 10
269.0440000000000964
 20
42.9973999999999918
 30
0.0
 70
    32
  0
VERTEX
  5
269B
  8
240
 10
269.0879999999999086
 20
42.9979999999999976
 30
0.0
 70
    32
  0
VERTEX
  5
269C
  8
240
 10
269.132000000000005
 20
42.9984999999999999
 30
0.0
 70
    32
  0
VERTEX
  5
269D
  8
240
 10
269.1759999999999877
 20
42.9990000000000023
 30
0.0
 70
    32
  0
VERTEX
  5
269E
  8
240
 10
269.2200000000000273
 20
42.9994000000000014
 30
0.0
 70
    32
  0
VERTEX
  5
269F
  8
240
 10
269.26400000000001
 20
42.9996000000000009
 30
0.0
 70
    32
  0
VERTEX
  5
26A0
  8
240
 10
269.3079999999999927
 20
42.9998000000000005
 30
0.0
 70
    32
  0
VERTEX
  5
26A1
  8
240
 10
269.3519999999999754
 20
43.0
 30
0.0
 70
    32
  0
VERTEX
  5
26A2
  8
240
 10
269.3949999999999818
 20
43.0
 30
0.0
 70
    32
  0
SEQEND
  5
26A3
  8
240
  0
ARC
  5
15FC
  8
240
  6
CONTINUOUS
 10
306.6947435091221905
 20
31.0000000000006786
 30
0.0
 40
12.0
 50
46.1313356566860833
 51
90.0
  0
ARC
  5
1605
  8
240
  6
CONTINUOUS
 10
276.895414657619483
 20
0.000000000000739
 30
0.0
 40
55.0
 50
41.0530683242614671
 51
44.1558827874811328
  0
ARC
  5
1606
  8
240
  6
CONTINUOUS
 10
276.895414657619483
 20
0.000000000000739
 30
0.0
 40
55.0
 50
27.3198317440380301
 51
38.6679339944745024
  0
POLYLINE
  5
26A4
  8
240
 66
     1
 10
0.0
 20
0.0
 30
0.0
 70
     8
  0
VERTEX
  5
26A5
  8
240
 10
318.3709999999999809
 20
36.121699999999997
 30
0.0
 70
    32
  0
VERTEX
  5
26A6
  8
240
 10
318.3709999999999809
 20
36.121699999999997
 30
0.0
 70
    32
  0
VERTEX
  5
26A7
  8
240
 10
318.3709999999999809
 20
36.1216000000000008
 30
0.0
 70
    32
  0
VERTEX
  5
26A8
  8
240
 10
318.3709999999999809
 20
36.1216000000000008
 30
0.0
 70
    32
  0
VERTEX
  5
26A9
  8
240
 10
318.3709999999999809
 20
36.1214999999999975
 30
0.0
 70
    32
  0
VERTEX
  5
26AA
  8
240
 10
318.3709999999999809
 20
36.121299999999998
 30
0.0
 70
    32
  0
VERTEX
  5
26AB
  8
240
 10
318.3709999999999809
 20
36.1212000000000018
 30
0.0
 70
    32
  0
VERTEX
  5
26AC
  8
240
 10
318.3720000000000141
 20
36.1210000000000022
 30
0.0
 70
    32
  0
VERTEX
  5
26AD
  8
240
 10
318.3720000000000141
 20
36.1208000000000098
 30
0.0
 70
    32
  0
VERTEX
  5
26AE
  8
240
 10
318.3720000000000141
 20
36.1206000000000031
 30
0.0
 70
    32
  0
VERTEX
  5
26AF
  8
240
 10
318.3720000000000141
 20
36.1203000000000003
 30
0.0
 70
    32
  0
VERTEX
  5
26B0
  8
240
 10
318.3720000000000141
 20
36.1199999999999974
 30
0.0
 70
    32
  0
VERTEX
  5
26B1
  8
240
 10
318.3729999999999905
 20
36.1197000000000017
 30
0.0
 70
    32
  0
VERTEX
  5
26B2
  8
240
 10
318.3729999999999905
 20
36.1193999999999988
 30
0.0
 70
    32
  0
VERTEX
  5
26B3
  8
240
 10
318.3729999999999905
 20
36.1189999999999998
 30
0.0
 70
    32
  0
VERTEX
  5
26B4
  8
240
 10
318.3740000000000236
 20
36.1186000000000007
 30
0.0
 70
    32
  0
VERTEX
  5
26B5
  8
240
 10
318.3740000000000236
 20
36.1182000000000016
 30
0.0
 70
    32
  0
VERTEX
  5
26B6
  8
240
 10
318.3740000000000236
 20
36.1178000000000026
 30
0.0
 70
    32
  0
VERTEX
  5
26B7
  8
240
 10
318.375
 20
36.1173000000000002
 30
0.0
 70
    32
  0
VERTEX
  5
26B8
  8
240
 10
318.375
 20
36.1167999999999978
 30
0.0
 70
    32
  0
VERTEX
  5
26B9
  8
240
 10
318.3759999999999764
 20
36.1163000000000025
 30
0.0
 70
    32
  0
VERTEX
  5
26BA
  8
240
 10
318.3759999999999764
 20
36.1156999999999968
 30
0.0
 70
    32
  0
VERTEX
  5
26BB
  8
240
 10
318.3770000000000095
 20
36.1152000000000015
 30
0.0
 70
    32
  0
VERTEX
  5
26BC
  8
240
 10
318.3770000000000095
 20
36.11460000000001
 30
0.0
 70
    32
  0
VERTEX
  5
26BD
  8
240
 10
318.3779999999999859
 20
36.113900000000001
 30
0.0
 70
    32
  0
VERTEX
  5
26BE
  8
240
 10
318.3779999999999859
 20
36.1133000000000095
 30
0.0
 70
    32
  0
VERTEX
  5
26BF
  8
240
 10
318.3790000000000191
 20
36.1126000000000005
 30
0.0
 70
    32
  0
VERTEX
  5
26C0
  8
240
 10
318.3799999999999955
 20
36.1118999999999986
 30
0.0
 70
    32
  0
VERTEX
  5
26C1
  8
240
 10
318.3799999999999955
 20
36.1111000000000004
 30
0.0
 70
    32
  0
VERTEX
  5
26C2
  8
240
 10
318.3809999999999718
 20
36.1103000000000023
 30
0.0
 70
    32
  0
VERTEX
  5
26C3
  8
240
 10
318.382000000000005
 20
36.109499999999997
 30
0.0
 70
    32
  0
VERTEX
  5
26C4
  8
240
 10
318.382000000000005
 20
36.1086999999999989
 30
0.0
 70
    32
  0
VERTEX
  5
26C5
  8
240
 10
318.3829999999999814
 20
36.1079000000000008
 30
0.0
 70
    32
  0
VERTEX
  5
26C6
  8
240
 10
318.3840000000000146
 20
36.1069999999999993
 30
0.0
 70
    32
  0
VERTEX
  5
26C7
  8
240
 10
318.3849999999999909
 20
36.1060999999999979
 30
0.0
 70
    32
  0
VERTEX
  5
26C8
  8
240
 10
318.3849999999999909
 20
36.1052000000000106
 30
0.0
 70
    32
  0
VERTEX
  5
26C9
  8
240
 10
318.3860000000000241
 20
36.1041999999999987
 30
0.0
 70
    32
  0
VERTEX
  5
26CA
  8
240
 10
318.3870000000000005
 20
36.1032000000000011
 30
0.0
 70
    32
  0
VERTEX
  5
26CB
  8
240
 10
318.3879999999999768
 20
36.1022000000000034
 30
0.0
 70
    32
  0
VERTEX
  5
26CC
  8
240
 10
318.38900000000001
 20
36.1011999999999986
 30
0.0
 70
    32
  0
VERTEX
  5
26CD
  8
240
 10
318.3899999999999864
 20
36.1000999999999976
 30
0.0
 70
    32
  0
VERTEX
  5
26CE
  8
240
 10
318.3910000000000196
 20
36.0989999999999966
 30
0.0
 70
    32
  0
VERTEX
  5
26CF
  8
240
 10
318.3919999999999959
 20
36.0979000000000028
 30
0.0
 70
    32
  0
VERTEX
  5
26D0
  8
240
 10
318.3929999999999723
 20
36.0966999999999985
 30
0.0
 70
    32
  0
VERTEX
  5
26D1
  8
240
 10
318.3940000000000055
 20
36.0955999999999975
 30
0.0
 70
    32
  0
VERTEX
  5
26D2
  8
240
 10
318.3949999999999818
 20
36.0944000000000003
 30
0.0
 70
    32
  0
VERTEX
  5
26D3
  8
240
 10
318.3959999999999013
 20
36.0930999999999997
 30
0.0
 70
    32
  0
VERTEX
  5
26D4
  8
240
 10
318.3969999999999914
 20
36.0919000000000025
 30
0.0
 70
    32
  0
VERTEX
  5
26D5
  8
240
 10
318.3980000000000246
 20
36.090600000000002
 30
0.0
 70
    32
  0
VERTEX
  5
26D6
  8
240
 10
318.3990000000000009
 20
36.0893000000000015
 30
0.0
 70
    32
  0
VERTEX
  5
26D7
  8
240
 10
318.3999999999999773
 20
36.0878999999999976
 30
0.0
 70
    32
  0
VERTEX
  5
26D8
  8
240
 10
318.4019999999999868
 20
36.0865999999999971
 30
0.0
 70
    32
  0
VERTEX
  5
26D9
  8
240
 10
318.40300000000002
 20
36.0852000000000004
 30
0.0
 70
    32
  0
VERTEX
  5
26DA
  8
240
 10
318.4039999999999964
 20
36.0837999999999965
 30
0.0
 70
    32
  0
VERTEX
  5
26DB
  8
240
 10
318.4049999999999727
 20
36.0822999999999965
 30
0.0
 70
    32
  0
VERTEX
  5
26DC
  8
240
 10
318.4069999999999823
 20
36.0808000000000106
 30
0.0
 70
    32
  0
VERTEX
  5
26DD
  8
240
 10
318.4080000000000155
 20
36.0793000000000035
 30
0.0
 70
    32
  0
VERTEX
  5
26DE
  8
240
 10
318.4089999999999918
 20
36.0778000000000034
 30
0.0
 70
    32
  0
VERTEX
  5
26DF
  8
240
 10
318.4110000000000014
 20
36.0762
 30
0.0
 70
    32
  0
VERTEX
  5
26E0
  8
240
 10
318.4119999999999777
 20
36.0747
 30
0.0
 70
    32
  0
VERTEX
  5
26E1
  8
240
 10
318.4130000000000109
 20
36.0730000000000004
 30
0.0
 70
    32
  0
VERTEX
  5
26E2
  8
240
 10
318.4150000000000205
 20
36.071399999999997
 30
0.0
 70
    32
  0
VERTEX
  5
26E3
  8
240
 10
318.4159999999999968
 20
36.0696999999999974
 30
0.0
 70
    32
  0
VERTEX
  5
26E4
  8
240
 10
318.4180000000000064
 20
36.0679999999999978
 30
0.0
 70
    32
  0
VERTEX
  5
26E5
  8
240
 10
318.4189999999999827
 20
36.0662999999999982
 30
0.0
 70
    32
  0
VERTEX
  5
26E6
  8
240
 10
318.4209999999999923
 20
36.0645999999999987
 30
0.0
 70
    32
  0
VERTEX
  5
26E7
  8
240
 10
318.4220000000000255
 20
36.0628000000000029
 30
0.0
 70
    32
  0
VERTEX
  5
26E8
  8
240
 10
318.4239999999999782
 20
36.0609999999999999
 30
0.0
 70
    32
  0
VERTEX
  5
26E9
  8
240
 10
318.4250000000000114
 20
36.059199999999997
 30
0.0
 70
    32
  0
VERTEX
  5
26EA
  8
240
 10
318.4270000000000209
 20
36.0572999999999979
 30
0.0
 70
    32
  0
VERTEX
  5
26EB
  8
240
 10
318.4289999999999736
 20
36.0553999999999988
 30
0.0
 70
    32
  0
VERTEX
  5
26EC
  8
240
 10
318.4300000000000068
 20
36.0534999999999997
 30
0.0
 70
    32
  0
VERTEX
  5
26ED
  8
240
 10
318.4320000000000164
 20
36.0516000000000005
 30
0.0
 70
    32
  0
VERTEX
  5
26EE
  8
240
 10
318.4340000000000259
 20
36.0495999999999981
 30
0.0
 70
    32
  0
VERTEX
  5
26EF
  8
240
 10
318.4350000000000023
 20
36.0476000000000099
 30
0.0
 70
    32
  0
VERTEX
  5
26F0
  8
240
 10
318.4370000000000118
 20
36.0456000000000003
 30
0.0
 70
    32
  0
VERTEX
  5
26F1
  8
240
 10
318.4390000000000214
 20
36.0435999999999979
 30
0.0
 70
    32
  0
VERTEX
  5
26F2
  8
240
 10
318.4409999999999741
 20
36.0414999999999992
 30
0.0
 70
    32
  0
VERTEX
  5
26F3
  8
240
 10
318.4429999999999836
 20
36.0394000000000005
 30
0.0
 70
    32
  0
VERTEX
  5
26F4
  8
240
 10
318.4440000000000168
 20
36.0371999999999986
 30
0.0
 70
    32
  0
VERTEX
  5
26F5
  8
240
 10
318.4460000000000264
 20
36.0350999999999999
 30
0.0
 70
    32
  0
VERTEX
  5
26F6
  8
240
 10
318.4479999999999791
 20
36.0328999999999979
 30
0.0
 70
    32
  0
VERTEX
  5
26F7
  8
240
 10
318.4499999999999886
 20
36.0307000000000102
 30
0.0
 70
    32
  0
VERTEX
  5
26F8
  8
240
 10
318.4519999999999982
 20
36.0285000000000011
 30
0.0
 70
    32
  0
VERTEX
  5
26F9
  8
240
 10
318.4540000000000077
 20
36.0262000000000029
 30
0.0
 70
    32
  0
VERTEX
  5
26FA
  8
240
 10
318.4560000000000173
 20
36.0238999999999976
 30
0.0
 70
    32
  0
VERTEX
  5
26FB
  8
240
 10
318.4580000000000268
 20
36.0215999999999994
 30
0.0
 70
    32
  0
VERTEX
  5
26FC
  8
240
 10
318.4599999999999795
 20
36.0191999999999979
 30
0.0
 70
    32
  0
VERTEX
  5
26FD
  8
240
 10
318.4619999999999891
 20
36.0168000000000035
 30
0.0
 70
    32
  0
VERTEX
  5
26FE
  8
240
 10
318.4639999999999986
 20
36.014400000000002
 30
0.0
 70
    32
  0
VERTEX
  5
26FF
  8
240
 10
318.4660000000000082
 20
36.0120000000000005
 30
0.0
 70
    32
  0
VERTEX
  5
2700
  8
240
 10
318.4680000000000177
 20
36.0095000000000027
 30
0.0
 70
    32
  0
VERTEX
  5
2701
  8
240
 10
318.4710000000000036
 20
36.0071000000000012
 30
0.0
 70
    32
  0
VERTEX
  5
2702
  8
240
 10
318.4730000000000132
 20
36.0045000000000002
 30
0.0
 70
    32
  0
VERTEX
  5
2703
  8
240
 10
318.4750000000000227
 20
36.0020000000000024
 30
0.0
 70
    32
  0
VERTEX
  5
2704
  8
240
 10
318.4769999999999754
 20
35.9994000000000014
 30
0.0
 70
    32
  0
VERTEX
  5
2705
  8
240
 10
318.478999999999985
 20
35.9968000000000004
 30
0.0
 70
    32
  0
VERTEX
  5
2706
  8
240
 10
318.4820000000000277
 20
35.9941999999999993
 30
0.0
 70
    32
  0
VERTEX
  5
2707
  8
240
 10
318.4839999999999804
 20
35.9915999999999983
 30
0.0
 70
    32
  0
VERTEX
  5
2708
  8
240
 10
318.48599999999999
 20
35.988900000000001
 30
0.0
 70
    32
  0
VERTEX
  5
2709
  8
240
 10
318.4889999999999759
 20
35.9861999999999966
 30
0.0
 70
    32
  0
VERTEX
  5
270A
  8
240
 10
318.4909999999999854
 20
35.9834999999999994
 30
0.0
 70
    32
  0
VERTEX
  5
270B
  8
240
 10
318.492999999999995
 20
35.9806999999999988
 30
0.0
 70
    32
  0
VERTEX
  5
270C
  8
240
 10
318.4959999999999809
 20
35.9778999999999982
 30
0.0
 70
    32
  0
VERTEX
  5
270D
  8
240
 10
318.4979999999999905
 20
35.9750999999999976
 30
0.0
 70
    32
  0
VERTEX
  5
270E
  8
240
 10
318.5009999999999764
 20
35.9722999999999971
 30
0.0
 70
    32
  0
VERTEX
  5
270F
  8
240
 10
318.5029999999999859
 20
35.9694000000000003
 30
0.0
 70
    32
  0
VERTEX
  5
2710
  8
240
 10
318.5059999999999718
 20
35.9665000000000035
 30
0.0
 70
    32
  0
VERTEX
  5
2711
  8
240
 10
318.5079999999999814
 20
35.9635999999999996
 30
0.0
 70
    32
  0
VERTEX
  5
2712
  8
240
 10
318.5110000000000241
 20
35.9607000000000028
 30
0.0
 70
    32
  0
VERTEX
  5
2713
  8
240
 10
318.5129999999999768
 20
35.9577000000000027
 30
0.0
 70
    32
  0
VERTEX
  5
2714
  8
240
 10
318.5160000000000196
 20
35.9547000000000097
 30
0.0
 70
    32
  0
VERTEX
  5
2715
  8
240
 10
318.5179999999999723
 20
35.9517000000000024
 30
0.0
 70
    32
  0
VERTEX
  5
2716
  8
240
 10
318.521000000000015
 20
35.948599999999999
 30
0.0
 70
    32
  0
VERTEX
  5
2717
  8
240
 10
318.5240000000000009
 20
35.9455000000000027
 30
0.0
 70
    32
  0
VERTEX
  5
2718
  8
240
 10
318.5260000000000105
 20
35.9423999999999992
 30
0.0
 70
    32
  0
VERTEX
  5
2719
  8
240
 10
318.5289999999999964
 20
35.9393000000000029
 30
0.0
 70
    32
  0
VERTEX
  5
271A
  8
240
 10
318.5319999999999823
 20
35.9361999999999995
 30
0.0
 70
    32
  0
VERTEX
  5
271B
  8
240
 10
318.535000000000025
 20
35.9329999999999998
 30
0.0
 70
    32
  0
VERTEX
  5
271C
  8
240
 10
318.5369999999999777
 20
35.9298000000000002
 30
0.0
 70
    32
  0
VERTEX
  5
271D
  8
240
 10
318.5400000000000205
 20
35.9264999999999972
 30
0.0
 70
    32
  0
VERTEX
  5
271E
  8
240
 10
318.5430000000000064
 20
35.9232999999999976
 30
0.0
 70
    32
  0
VERTEX
  5
271F
  8
240
 10
318.5459999999999923
 20
35.9200000000000017
 30
0.0
 70
    32
  0
VERTEX
  5
2720
  8
240
 10
318.5490000000000919
 20
35.9166999999999987
 30
0.0
 70
    32
  0
VERTEX
  5
2721
  8
240
 10
318.5520000000000209
 20
35.9132999999999996
 30
0.0
 70
    32
  0
VERTEX
  5
2722
  8
240
 10
318.5539999999999736
 20
35.9099999999999966
 30
0.0
 70
    32
  0
VERTEX
  5
2723
  8
240
 10
318.5570000000000164
 20
35.9065999999999974
 30
0.0
 70
    32
  0
VERTEX
  5
2724
  8
240
 10
318.5600000000000023
 20
35.9031999999999982
 30
0.0
 70
    32
  0
VERTEX
  5
2725
  8
240
 10
318.5629999999999882
 20
35.8997000000000028
 30
0.0
 70
    32
  0
VERTEX
  5
2726
  8
240
 10
318.5659999999999741
 20
35.8962999999999965
 30
0.0
 70
    32
  0
VERTEX
  5
2727
  8
240
 10
318.5690000000000168
 20
35.8928000000000011
 30
0.0
 70
    32
  0
VERTEX
  5
2728
  8
240
 10
318.5720000000000027
 20
35.8892999999999986
 30
0.0
 70
    32
  0
VERTEX
  5
2729
  8
240
 10
318.5749999999999886
 20
35.8856999999999999
 30
0.0
 70
    32
  0
VERTEX
  5
272A
  8
240
 10
318.5779999999999745
 20
35.8821000000000012
 30
0.0
 70
    32
  0
VERTEX
  5
272B
  8
240
 10
318.5819999999999936
 20
35.8785999999999987
 30
0.0
 70
    32
  0
VERTEX
  5
272C
  8
240
 10
318.5849999999999795
 20
35.8748999999999967
 30
0.0
 70
    32
  0
VERTEX
  5
272D
  8
240
 10
318.5880000000000223
 20
35.871299999999998
 30
0.0
 70
    32
  0
VERTEX
  5
272E
  8
240
 10
318.5910000000000082
 20
35.867600000000003
 30
0.0
 70
    32
  0
VERTEX
  5
272F
  8
240
 10
318.5939999999999941
 20
35.863900000000001
 30
0.0
 70
    32
  0
VERTEX
  5
2730
  8
240
 10
318.59699999999998
 20
35.860199999999999
 30
0.0
 70
    32
  0
VERTEX
  5
2731
  8
240
 10
318.6009999999999991
 20
35.8564999999999969
 30
0.0
 70
    32
  0
VERTEX
  5
2732
  8
240
 10
318.6040000000000987
 20
35.8526999999999987
 30
0.0
 70
    32
  0
VERTEX
  5
2733
  8
240
 10
318.6070000000000277
 20
35.8489000000000004
 30
0.0
 70
    32
  0
VERTEX
  5
2734
  8
240
 10
318.6100000000000136
 20
35.8451000000000022
 30
0.0
 70
    32
  0
VERTEX
  5
2735
  8
240
 10
318.6139999999999759
 20
35.8412000000000006
 30
0.0
 70
    32
  0
VERTEX
  5
2736
  8
240
 10
318.6170000000000186
 20
35.8374000000000095
 30
0.0
 70
    32
  0
VERTEX
  5
2737
  8
240
 10
318.6200000000000045
 20
35.8335000000000008
 30
0.0
 70
    32
  0
VERTEX
  5
2738
  8
240
 10
318.6240000000000236
 20
35.829500000000003
 30
0.0
 70
    32
  0
VERTEX
  5
2739
  8
240
 10
318.6270000000000095
 20
35.8256000000000014
 30
0.0
 70
    32
  0
VERTEX
  5
273A
  8
240
 10
318.6299999999999955
 20
35.8215999999999966
 30
0.0
 70
    32
  0
VERTEX
  5
273B
  8
240
 10
318.6340000000000146
 20
35.8175999999999988
 30
0.0
 70
    32
  0
VERTEX
  5
273C
  8
240
 10
318.6370000000000005
 20
35.813600000000001
 30
0.0
 70
    32
  0
VERTEX
  5
273D
  8
240
 10
318.6409999999999059
 20
35.8096000000000103
 30
0.0
 70
    32
  0
VERTEX
  5
273E
  8
240
 10
318.6440000000000055
 20
35.8055000000000092
 30
0.0
 70
    32
  0
VERTEX
  5
273F
  8
240
 10
318.6479999999999109
 20
35.801400000000001
 30
0.0
 70
    32
  0
VERTEX
  5
2740
  8
240
 10
318.6510000000000105
 20
35.7972999999999999
 30
0.0
 70
    32
  0
VERTEX
  5
2741
  8
240
 10
318.6549999999999727
 20
35.7931999999999988
 30
0.0
 70
    32
  0
VERTEX
  5
2742
  8
240
 10
318.6580000000000155
 20
35.7890000000000015
 30
0.0
 70
    32
  0
VERTEX
  5
2743
  8
240
 10
318.6619999999999777
 20
35.7847999999999971
 30
0.0
 70
    32
  0
VERTEX
  5
2744
  8
240
 10
318.6659999999999968
 20
35.7805999999999997
 30
0.0
 70
    32
  0
VERTEX
  5
2745
  8
240
 10
318.6689999999999827
 20
35.7764000000000095
 30
0.0
 70
    32
  0
VERTEX
  5
2746
  8
240
 10
318.6730000000000018
 20
35.7721000000000018
 30
0.0
 70
    32
  0
VERTEX
  5
2747
  8
240
 10
318.6770000000000209
 20
35.7678000000000011
 30
0.0
 70
    32
  0
VERTEX
  5
2748
  8
240
 10
318.6800000000000068
 20
35.7635000000000005
 30
0.0
 70
    32
  0
VERTEX
  5
2749
  8
240
 10
318.6840000000000259
 20
35.7591999999999999
 30
0.0
 70
    32
  0
VERTEX
  5
274A
  8
240
 10
318.6879999999999882
 20
35.7548000000000101
 30
0.0
 70
    32
  0
VERTEX
  5
274B
  8
240
 10
318.6909999999999741
 20
35.7503999999999991
 30
0.0
 70
    32
  0
VERTEX
  5
274C
  8
240
 10
318.6949999999999932
 20
35.7460000000000022
 30
0.0
 70
    32
  0
VERTEX
  5
274D
  8
240
 10
318.6990000000000123
 20
35.7415999999999983
 30
0.0
 70
    32
  0
VERTEX
  5
274E
  8
240
 10
318.7029999999999745
 20
35.7370999999999981
 30
0.0
 70
    32
  0
VERTEX
  5
274F
  8
240
 10
318.7069999999999936
 20
35.7327000000000012
 30
0.0
 70
    32
  0
VERTEX
  5
2750
  8
240
 10
318.7099999999999795
 20
35.7282000000000011
 30
0.0
 70
    32
  0
VERTEX
  5
2751
  8
240
 10
318.7139999999999986
 20
35.7235999999999976
 30
0.0
 70
    32
  0
VERTEX
  5
2752
  8
240
 10
318.7180000000000177
 20
35.7190999999999974
 30
0.0
 70
    32
  0
VERTEX
  5
2753
  8
240
 10
318.72199999999998
 20
35.714500000000001
 30
0.0
 70
    32
  0
VERTEX
  5
2754
  8
240
 10
318.7259999999999991
 20
35.7098999999999975
 30
0.0
 70
    32
  0
VERTEX
  5
2755
  8
240
 10
318.7300000000000182
 20
35.7053000000000011
 30
0.0
 70
    32
  0
VERTEX
  5
2756
  8
240
 10
318.7339999999999804
 20
35.7006999999999977
 30
0.0
 70
    32
  0
VERTEX
  5
2757
  8
240
 10
318.7379999999999995
 20
35.695999999999998
 30
0.0
 70
    32
  0
VERTEX
  5
2758
  8
240
 10
318.7420000000000186
 20
35.6912999999999982
 30
0.0
 70
    32
  0
VERTEX
  5
2759
  8
240
 10
318.7459999999999809
 20
35.6865999999999985
 30
0.0
 70
    32
  0
VERTEX
  5
275A
  8
240
 10
318.75
 20
35.6818999999999988
 30
0.0
 70
    32
  0
VERTEX
  5
275B
  8
240
 10
318.7540000000000191
 20
35.6771000000000029
 30
0.0
 70
    32
  0
VERTEX
  5
275C
  8
240
 10
318.7579999999999814
 20
35.6722999999999999
 30
0.0
 70
    32
  0
VERTEX
  5
275D
  8
240
 10
318.7620000000000005
 20
35.6674999999999969
 30
0.0
 70
    32
  0
VERTEX
  5
275E
  8
240
 10
318.7660000000000196
 20
35.662700000000001
 30
0.0
 70
    32
  0
VERTEX
  5
275F
  8
240
 10
318.7699999999999818
 20
35.6578000000000017
 30
0.0
 70
    32
  0
VERTEX
  5
2760
  8
240
 10
318.7749999999999773
 20
35.6529000000000025
 30
0.0
 70
    32
  0
VERTEX
  5
2761
  8
240
 10
318.7789999999999964
 20
35.6480999999999995
 30
0.0
 70
    32
  0
VERTEX
  5
2762
  8
240
 10
318.7830000000000155
 20
35.6430999999999969
 30
0.0
 70
    32
  0
VERTEX
  5
2763
  8
240
 10
318.7869999999999777
 20
35.6381999999999977
 30
0.0
 70
    32
  0
VERTEX
  5
2764
  8
240
 10
318.7909999999999968
 20
35.6332000000000022
 30
0.0
 70
    32
  0
VERTEX
  5
2765
  8
240
 10
318.7959999999999923
 20
35.6281999999999996
 30
0.0
 70
    32
  0
VERTEX
  5
2766
  8
240
 10
318.8000000000000114
 20
35.6231999999999971
 30
0.0
 70
    32
  0
VERTEX
  5
2767
  8
240
 10
318.8039999999999736
 20
35.6182000000000016
 30
0.0
 70
    32
  0
VERTEX
  5
2768
  8
240
 10
318.8079999999999927
 20
35.61310000000001
 30
0.0
 70
    32
  0
VERTEX
  5
2769
  8
240
 10
318.8129999999999882
 20
35.6081000000000003
 30
0.0
 70
    32
  0
VERTEX
  5
276A
  8
240
 10
318.8170000000000073
 20
35.6030000000000015
 30
0.0
 70
    32
  0
VERTEX
  5
276B
  8
240
 10
318.8210000000000264
 20
35.5977999999999994
 30
0.0
 70
    32
  0
VERTEX
  5
276C
  8
240
 10
318.8260000000000218
 20
35.5927000000000007
 30
0.0
 70
    32
  0
VERTEX
  5
276D
  8
240
 10
318.8299999999999841
 20
35.5874999999999986
 30
0.0
 70
    32
  0
VERTEX
  5
276E
  8
240
 10
318.8349999999999795
 20
35.5822999999999965
 30
0.0
 70
    32
  0
VERTEX
  5
276F
  8
240
 10
318.8389999999999986
 20
35.5771000000000015
 30
0.0
 70
    32
  0
VERTEX
  5
2770
  8
240
 10
318.8430000000000177
 20
35.5718999999999994
 30
0.0
 70
    32
  0
VERTEX
  5
2771
  8
240
 10
318.8480000000000132
 20
35.5666999999999973
 30
0.0
 70
    32
  0
VERTEX
  5
2772
  8
240
 10
318.8519999999999754
 20
35.561399999999999
 30
0.0
 70
    32
  0
VERTEX
  5
2773
  8
240
 10
318.8570000000000277
 20
35.5561000000000007
 30
0.0
 70
    32
  0
VERTEX
  5
2774
  8
240
 10
318.86099999999999
 20
35.5508000000000024
 30
0.0
 70
    32
  0
VERTEX
  5
2775
  8
240
 10
318.8659999999999854
 20
35.5454000000000008
 30
0.0
 70
    32
  0
VERTEX
  5
2776
  8
240
 10
318.8700000000000045
 20
35.5401000000000025
 30
0.0
 70
    32
  0
VERTEX
  5
2777
  8
240
 10
318.875
 20
35.5347000000000008
 30
0.0
 70
    32
  0
VERTEX
  5
2778
  8
240
 10
318.8799999999999955
 20
35.5292999999999992
 30
0.0
 70
    32
  0
VERTEX
  5
2779
  8
240
 10
318.8840000000000146
 20
35.5238999999999976
 30
0.0
 70
    32
  0
VERTEX
  5
277A
  8
240
 10
318.88900000000001
 20
35.5183999999999997
 30
0.0
 70
    32
  0
VERTEX
  5
277B
  8
240
 10
318.8929999999999723
 20
35.5129999999999981
 30
0.0
 70
    32
  0
VERTEX
  5
277C
  8
240
 10
318.8980000000000246
 20
35.5075000000000003
 30
0.0
 70
    32
  0
VERTEX
  5
277D
  8
240
 10
318.90300000000002
 20
35.5020000000000024
 30
0.0
 70
    32
  0
VERTEX
  5
277E
  8
240
 10
318.9069999999999823
 20
35.4964999999999975
 30
0.0
 70
    32
  0
VERTEX
  5
277F
  8
240
 10
318.9119999999999777
 20
35.4909000000000034
 30
0.0
 70
    32
  0
VERTEX
  5
2780
  8
240
 10
318.9169999999999732
 20
35.4853000000000023
 30
0.0
 70
    32
  0
VERTEX
  5
2781
  8
240
 10
318.9209999999999923
 20
35.4797999999999973
 30
0.0
 70
    32
  0
VERTEX
  5
2782
  8
240
 10
318.9259999999999877
 20
35.4742000000000104
 30
0.0
 70
    32
  0
VERTEX
  5
2783
  8
240
 10
318.9309999999999832
 20
35.4684999999999988
 30
0.0
 70
    32
  0
VERTEX
  5
2784
  8
240
 10
318.9359999999999786
 20
35.4628999999999976
 30
0.0
 70
    32
  0
VERTEX
  5
2785
  8
240
 10
318.9399999999999977
 20
35.4572000000000003
 30
0.0
 70
    32
  0
VERTEX
  5
2786
  8
240
 10
318.9449999999999932
 20
35.4515000000000029
 30
0.0
 70
    32
  0
VERTEX
  5
2787
  8
240
 10
318.9499999999999886
 20
35.4457999999999984
 30
0.0
 70
    32
  0
VERTEX
  5
2788
  8
240
 10
318.9549999999999841
 20
35.440100000000001
 30
0.0
 70
    32
  0
VERTEX
  5
2789
  8
240
 10
318.9599999999999795
 20
35.4343999999999966
 30
0.0
 70
    32
  0
VERTEX
  5
278A
  8
240
 10
318.964999999999975
 20
35.4286000000000101
 30
0.0
 70
    32
  0
VERTEX
  5
278B
  8
240
 10
318.9689999999999941
 20
35.4228000000000023
 30
0.0
 70
    32
  0
VERTEX
  5
278C
  8
240
 10
318.9739999999999895
 20
35.4170000000000016
 30
0.0
 70
    32
  0
VERTEX
  5
278D
  8
240
 10
318.978999999999985
 20
35.4112000000000009
 30
0.0
 70
    32
  0
VERTEX
  5
278E
  8
240
 10
318.9839999999999804
 20
35.4054000000000002
 30
0.0
 70
    32
  0
VERTEX
  5
278F
  8
240
 10
318.9890000000000896
 20
35.3995000000000104
 30
0.0
 70
    32
  0
VERTEX
  5
2790
  8
240
 10
318.9940000000000282
 20
35.3935999999999993
 30
0.0
 70
    32
  0
VERTEX
  5
2791
  8
240
 10
318.9990000000000236
 20
35.3877000000000024
 30
0.0
 70
    32
  0
VERTEX
  5
2792
  8
240
 10
319.0040000000000191
 20
35.3817999999999984
 30
0.0
 70
    32
  0
VERTEX
  5
2793
  8
240
 10
319.0090000000000146
 20
35.3759000000000015
 30
0.0
 70
    32
  0
VERTEX
  5
2794
  8
240
 10
319.01400000000001
 20
35.3699000000000012
 30
0.0
 70
    32
  0
VERTEX
  5
2795
  8
240
 10
319.0190000000000055
 20
35.363900000000001
 30
0.0
 70
    32
  0
VERTEX
  5
2796
  8
240
 10
319.0240000000000009
 20
35.357999999999997
 30
0.0
 70
    32
  0
VERTEX
  5
2797
  8
240
 10
319.0289999999999964
 20
35.3519000000000005
 30
0.0
 70
    32
  0
VERTEX
  5
2798
  8
240
 10
319.0339999999999918
 20
35.3459000000000003
 30
0.0
 70
    32
  0
VERTEX
  5
2799
  8
240
 10
319.0389999999999873
 20
35.3399000000000001
 30
0.0
 70
    32
  0
VERTEX
  5
279A
  8
240
 10
319.0440000000000964
 20
35.3337999999999965
 30
0.0
 70
    32
  0
VERTEX
  5
279B
  8
240
 10
319.0489999999999782
 20
35.3277000000000001
 30
0.0
 70
    32
  0
VERTEX
  5
279C
  8
240
 10
319.0539999999999736
 20
35.3215999999999966
 30
0.0
 70
    32
  0
VERTEX
  5
279D
  8
240
 10
319.0600000000000023
 20
35.3155000000000001
 30
0.0
 70
    32
  0
VERTEX
  5
279E
  8
240
 10
319.0649999999999977
 20
35.3093999999999966
 30
0.0
 70
    32
  0
VERTEX
  5
279F
  8
240
 10
319.0699999999999932
 20
35.3031999999999968
 30
0.0
 70
    32
  0
VERTEX
  5
27A0
  8
240
 10
319.0749999999999886
 20
35.296999999999997
 30
0.0
 70
    32
  0
VERTEX
  5
27A1
  8
240
 10
319.0799999999999841
 20
35.2909000000000006
 30
0.0
 70
    32
  0
VERTEX
  5
27A2
  8
240
 10
319.0849999999999795
 20
35.2847000000000008
 30
0.0
 70
    32
  0
VERTEX
  5
27A3
  8
240
 10
319.0910000000000082
 20
35.2783999999999978
 30
0.0
 70
    32
  0
VERTEX
  5
27A4
  8
240
 10
319.0960000000000036
 20
35.272199999999998
 30
0.0
 70
    32
  0
VERTEX
  5
27A5
  8
240
 10
319.1009999999999991
 20
35.2659000000000091
 30
0.0
 70
    32
  0
VERTEX
  5
27A6
  8
240
 10
319.1059999999999945
 20
35.2597000000000023
 30
0.0
 70
    32
  0
VERTEX
  5
27A7
  8
240
 10
319.1120000000000232
 20
35.2533999999999992
 30
0.0
 70
    32
  0
VERTEX
  5
27A8
  8
240
 10
319.1170000000000186
 20
35.2471000000000103
 30
0.0
 70
    32
  0
VERTEX
  5
27A9
  8
240
 10
319.1220000000000141
 20
35.2406999999999968
 30
0.0
 70
    32
  0
VERTEX
  5
27AA
  8
240
 10
319.1270000000000095
 20
35.2344000000000008
 30
0.0
 70
    32
  0
VERTEX
  5
27AB
  8
240
 10
319.1329999999999814
 20
35.2280000000000015
 30
0.0
 70
    32
  0
VERTEX
  5
27AC
  8
240
 10
319.1379999999999768
 20
35.2216000000000022
 30
0.0
 70
    32
  0
VERTEX
  5
27AD
  8
240
 10
319.1429999999999723
 20
35.2152999999999992
 30
0.0
 70
    32
  0
VERTEX
  5
27AE
  8
240
 10
319.1490000000000009
 20
35.2087999999999965
 30
0.0
 70
    32
  0
VERTEX
  5
27AF
  8
240
 10
319.1539999999999964
 20
35.2023999999999972
 30
0.0
 70
    32
  0
VERTEX
  5
27B0
  8
240
 10
319.1589999999999918
 20
35.195999999999998
 30
0.0
 70
    32
  0
VERTEX
  5
27B1
  8
240
 10
319.1650000000000205
 20
35.1895000000000024
 30
0.0
 70
    32
  0
VERTEX
  5
27B2
  8
240
 10
319.1700000000000159
 20
35.1829999999999998
 30
0.0
 70
    32
  0
VERTEX
  5
27B3
  8
240
 10
319.1759999999999877
 20
35.1766000000000005
 30
0.0
 70
    32
  0
VERTEX
  5
27B4
  8
240
 10
319.1809999999999832
 20
35.1700000000000017
 30
0.0
 70
    32
  0
VERTEX
  5
27B5
  8
240
 10
319.1859999999999786
 20
35.1634999999999991
 30
0.0
 70
    32
  0
VERTEX
  5
27B6
  8
240
 10
319.1920000000000073
 20
35.1569999999999965
 30
0.0
 70
    32
  0
VERTEX
  5
27B7
  8
240
 10
319.1970000000000027
 20
35.1503999999999976
 30
0.0
 70
    32
  0
VERTEX
  5
27B8
  8
240
 10
319.2029999999999745
 20
35.1439000000000092
 30
0.0
 70
    32
  0
VERTEX
  5
27B9
  8
240
 10
319.2080000000000268
 20
35.1373000000000104
 30
0.0
 70
    32
  0
VERTEX
  5
27BA
  8
240
 10
319.2139999999999986
 20
35.1306999999999974
 30
0.0
 70
    32
  0
VERTEX
  5
27BB
  8
240
 10
319.2189999999999941
 20
35.1240999999999985
 30
0.0
 70
    32
  0
VERTEX
  5
27BC
  8
240
 10
319.2250000000000227
 20
35.1174000000000035
 30
0.0
 70
    32
  0
VERTEX
  5
27BD
  8
240
 10
319.2300000000000182
 20
35.1107999999999976
 30
0.0
 70
    32
  0
VERTEX
  5
27BE
  8
240
 10
319.23599999999999
 20
35.1041000000000025
 30
0.0
 70
    32
  0
VERTEX
  5
27BF
  8
240
 10
319.2409999999999854
 20
35.0974000000000004
 30
0.0
 70
    32
  0
VERTEX
  5
27C0
  8
240
 10
319.2470000000000141
 20
35.0908000000000015
 30
0.0
 70
    32
  0
VERTEX
  5
27C1
  8
240
 10
319.2520000000000095
 20
35.0840000000000032
 30
0.0
 70
    32
  0
VERTEX
  5
27C2
  8
240
 10
319.2579999999999814
 20
35.077300000000001
 30
0.0
 70
    32
  0
VERTEX
  5
27C3
  8
240
 10
319.2629999999999768
 20
35.0705999999999989
 30
0.0
 70
    32
  0
VERTEX
  5
27C4
  8
240
 10
319.2690000000000055
 20
35.0638000000000005
 30
0.0
 70
    32
  0
VERTEX
  5
27C5
  8
240
 10
319.2749999999999773
 20
35.0570999999999984
 30
0.0
 70
    32
  0
VERTEX
  5
27C6
  8
240
 10
319.2799999999999727
 20
35.0503
 30
0.0
 70
    32
  0
VERTEX
  5
27C7
  8
240
 10
319.2860000000000014
 20
35.0435000000000016
 30
0.0
 70
    32
  0
VERTEX
  5
27C8
  8
240
 10
319.2909999999999968
 20
35.0367000000000033
 30
0.0
 70
    32
  0
VERTEX
  5
27C9
  8
240
 10
319.2970000000000255
 20
35.0298999999999978
 30
0.0
 70
    32
  0
VERTEX
  5
27CA
  8
240
 10
319.3029999999999973
 20
35.0230999999999995
 30
0.0
 70
    32
  0
VERTEX
  5
27CB
  8
240
 10
319.3079999999999927
 20
35.0161999999999978
 30
0.0
 70
    32
  0
VERTEX
  5
27CC
  8
240
 10
319.3140000000000214
 20
35.0093999999999994
 30
0.0
 70
    32
  0
VERTEX
  5
27CD
  8
240
 10
319.3199999999999932
 20
35.0024999999999977
 30
0.0
 70
    32
  0
VERTEX
  5
27CE
  8
240
 10
319.3249999999999886
 20
34.9956000000000103
 30
0.0
 70
    32
  0
VERTEX
  5
27CF
  8
240
 10
319.3310000000000173
 20
34.9887000000000015
 30
0.0
 70
    32
  0
VERTEX
  5
27D0
  8
240
 10
319.3369999999999891
 20
34.9817999999999998
 30
0.0
 70
    32
  0
VERTEX
  5
27D1
  8
240
 10
319.3430000000000177
 20
34.9748999999999981
 30
0.0
 70
    32
  0
VERTEX
  5
27D2
  8
240
 10
319.3480000000000132
 20
34.9680000000000035
 30
0.0
 70
    32
  0
VERTEX
  5
27D3
  8
240
 10
319.353999999999985
 20
34.9609999999999985
 30
0.0
 70
    32
  0
VERTEX
  5
27D4
  8
240
 10
319.3600000000000136
 20
34.9540999999999968
 30
0.0
 70
    32
  0
VERTEX
  5
27D5
  8
240
 10
319.3650000000000091
 20
34.9470999999999989
 30
0.0
 70
    32
  0
VERTEX
  5
27D6
  8
240
 10
319.3709999999999809
 20
34.940100000000001
 30
0.0
 70
    32
  0
VERTEX
  5
27D7
  8
240
 10
319.3770000000000095
 20
34.9331000000000103
 30
0.0
 70
    32
  0
VERTEX
  5
27D8
  8
240
 10
319.3829999999999814
 20
34.9260999999999981
 30
0.0
 70
    32
  0
VERTEX
  5
27D9
  8
240
 10
319.3879999999999768
 20
34.9191000000000003
 30
0.0
 70
    32
  0
VERTEX
  5
27DA
  8
240
 10
319.3940000000000055
 20
34.911999999999999
 30
0.0
 70
    32
  0
VERTEX
  5
27DB
  8
240
 10
319.3999999999999773
 20
34.9050000000000011
 30
0.0
 70
    32
  0
VERTEX
  5
27DC
  8
240
 10
319.4060000000000059
 20
34.8980000000000103
 30
0.0
 70
    32
  0
VERTEX
  5
27DD
  8
240
 10
319.4119999999999777
 20
34.890900000000002
 30
0.0
 70
    32
  0
VERTEX
  5
27DE
  8
240
 10
319.4169999999999732
 20
34.8838000000000008
 30
0.0
 70
    32
  0
VERTEX
  5
27DF
  8
240
 10
319.4230000000000018
 20
34.8766999999999996
 30
0.0
 70
    32
  0
VERTEX
  5
27E0
  8
240
 10
319.4289999999999736
 20
34.8695999999999984
 30
0.0
 70
    32
  0
VERTEX
  5
27E1
  8
240
 10
319.4350000000000023
 20
34.8624999999999972
 30
0.0
 70
    32
  0
VERTEX
  5
27E2
  8
240
 10
319.4409999999999741
 20
34.855400000000003
 30
0.0
 70
    32
  0
VERTEX
  5
27E3
  8
240
 10
319.4470000000000027
 20
34.8483000000000018
 30
0.0
 70
    32
  0
VERTEX
  5
27E4
  8
240
 10
319.4519999999999982
 20
34.8410999999999973
 30
0.0
 70
    32
  0
VERTEX
  5
27E5
  8
240
 10
319.4580000000000268
 20
34.8340000000000032
 30
0.0
 70
    32
  0
VERTEX
  5
27E6
  8
240
 10
319.4639999999999986
 20
34.8267999999999986
 30
0.0
 70
    32
  0
VERTEX
  5
27E7
  8
240
 10
319.4700000000000273
 20
34.8196000000000012
 30
0.0
 70
    32
  0
VERTEX
  5
27E8
  8
240
 10
319.4759999999999991
 20
34.8125
 30
0.0
 70
    32
  0
VERTEX
  5
27E9
  8
240
 10
319.4820000000000277
 20
34.8053000000000026
 30
0.0
 70
    32
  0
VERTEX
  5
27EA
  8
240
 10
319.4879999999999995
 20
34.798099999999998
 30
0.0
 70
    32
  0
VERTEX
  5
27EB
  8
240
 10
319.492999999999995
 20
34.7909000000000006
 30
0.0
 70
    32
  0
VERTEX
  5
27EC
  8
240
 10
319.4990000000000236
 20
34.7835999999999999
 30
0.0
 70
    32
  0
VERTEX
  5
27ED
  8
240
 10
319.5049999999999955
 20
34.7764000000000024
 30
0.0
 70
    32
  0
VERTEX
  5
27EE
  8
240
 10
319.5110000000000241
 20
34.7691999999999979
 30
0.0
 70
    32
  0
VERTEX
  5
27EF
  8
240
 10
319.5169999999999959
 20
34.7618999999999971
 30
0.0
 70
    32
  0
VERTEX
  5
27F0
  8
240
 10
319.5230000000000246
 20
34.7546999999999997
 30
0.0
 70
    32
  0
VERTEX
  5
27F1
  8
240
 10
319.5289999999999964
 20
34.747399999999999
 30
0.0
 70
    32
  0
VERTEX
  5
27F2
  8
240
 10
319.535000000000025
 20
34.7400999999999982
 30
0.0
 70
    32
  0
VERTEX
  5
27F3
  8
240
 10
319.5409999999999968
 20
34.7327999999999975
 30
0.0
 70
    32
  0
VERTEX
  5
27F4
  8
240
 10
319.5470000000000255
 20
34.7254999999999967
 30
0.0
 70
    32
  0
VERTEX
  5
27F5
  8
240
 10
319.5529999999999973
 20
34.7182000000000102
 30
0.0
 70
    32
  0
VERTEX
  5
27F6
  8
240
 10
319.5590000000000259
 20
34.7109000000000023
 30
0.0
 70
    32
  0
VERTEX
  5
27F7
  8
240
 10
319.5649999999999977
 20
34.7036000000000016
 30
0.0
 70
    32
  0
VERTEX
  5
27F8
  8
240
 10
319.5710000000000264
 20
34.6963000000000008
 30
0.0
 70
    32
  0
VERTEX
  5
27F9
  8
240
 10
319.5769999999999982
 20
34.6890000000000001
 30
0.0
 70
    32
  0
VERTEX
  5
27FA
  8
240
 10
319.5819999999999936
 20
34.6816000000000102
 30
0.0
 70
    32
  0
VERTEX
  5
27FB
  8
240
 10
319.5880000000000223
 20
34.6743000000000023
 30
0.0
 70
    32
  0
VERTEX
  5
27FC
  8
240
 10
319.5939999999999941
 20
34.6668999999999983
 30
0.0
 70
    32
  0
VERTEX
  5
27FD
  8
240
 10
319.6000000000000227
 20
34.6595000000000013
 30
0.0
 70
    32
  0
VERTEX
  5
27FE
  8
240
 10
319.6059999999999945
 20
34.6522000000000006
 30
0.0
 70
    32
  0
VERTEX
  5
27FF
  8
240
 10
319.6120000000000232
 20
34.6447999999999965
 30
0.0
 70
    32
  0
VERTEX
  5
2800
  8
240
 10
319.617999999999995
 20
34.6373999999999995
 30
0.0
 70
    32
  0
VERTEX
  5
2801
  8
240
 10
319.6240000000000236
 20
34.6300000000000026
 30
0.0
 70
    32
  0
VERTEX
  5
2802
  8
240
 10
319.6299999999999955
 20
34.6225999999999985
 30
0.0
 70
    32
  0
VERTEX
  5
2803
  8
240
 10
319.6360000000000241
 20
34.6152000000000015
 30
0.0
 70
    32
  0
VERTEX
  5
2804
  8
240
 10
319.6419999999999959
 20
34.6077999999999975
 30
0.0
 70
    32
  0
VERTEX
  5
2805
  8
240
 10
319.6480000000000246
 20
34.6002999999999972
 30
0.0
 70
    32
  0
VERTEX
  5
2806
  8
240
 10
319.6539999999999964
 20
34.5929000000000002
 30
0.0
 70
    32
  0
VERTEX
  5
2807
  8
240
 10
319.660000000000025
 20
34.5855000000000103
 30
0.0
 70
    32
  0
VERTEX
  5
2808
  8
240
 10
319.6659999999999968
 20
34.5780000000000101
 30
0.0
 70
    32
  0
VERTEX
  5
2809
  8
240
 10
319.6720000000000255
 20
34.5705999999999989
 30
0.0
 70
    32
  0
VERTEX
  5
280A
  8
240
 10
319.6779999999999973
 20
34.5630999999999986
 30
0.0
 70
    32
  0
VERTEX
  5
280B
  8
240
 10
319.6840000000000259
 20
34.5557000000000016
 30
0.0
 70
    32
  0
VERTEX
  5
280C
  8
240
 10
319.6909999999999741
 20
34.5482000000000014
 30
0.0
 70
    32
  0
VERTEX
  5
280D
  8
240
 10
319.6970000000000027
 20
34.5407000000000011
 30
0.0
 70
    32
  0
VERTEX
  5
280E
  8
240
 10
319.7029999999999745
 20
34.5332000000000008
 30
0.0
 70
    32
  0
VERTEX
  5
280F
  8
240
 10
319.7090000000000032
 20
34.5257000000000005
 30
0.0
 70
    32
  0
VERTEX
  5
2810
  8
240
 10
319.714999999999975
 20
34.5182000000000002
 30
0.0
 70
    32
  0
VERTEX
  5
2811
  8
240
 10
319.7210000000000036
 20
34.5106999999999999
 30
0.0
 70
    32
  0
VERTEX
  5
2812
  8
240
 10
319.7269999999999754
 20
34.5031000000000034
 30
0.0
 70
    32
  0
VERTEX
  5
2813
  8
240
 10
319.7330000000000041
 20
34.4954999999999998
 30
0.0
 70
    32
  0
VERTEX
  5
2814
  8
240
 10
319.7389999999999759
 20
34.4879000000000104
 30
0.0
 70
    32
  0
VERTEX
  5
2815
  8
240
 10
319.7450000000000045
 20
34.4802999999999997
 30
0.0
 70
    32
  0
VERTEX
  5
2816
  8
240
 10
319.7509999999999764
 20
34.4727000000000032
 30
0.0
 70
    32
  0
VERTEX
  5
2817
  8
240
 10
319.757000000000005
 20
34.4650999999999996
 30
0.0
 70
    32
  0
VERTEX
  5
2818
  8
240
 10
319.76400000000001
 20
34.4573999999999998
 30
0.0
 70
    32
  0
VERTEX
  5
2819
  8
240
 10
319.7699999999999818
 20
34.4498000000000104
 30
0.0
 70
    32
  0
VERTEX
  5
281A
  8
240
 10
319.7760000000000105
 20
34.4421000000000035
 30
0.0
 70
    32
  0
VERTEX
  5
281B
  8
240
 10
319.7819999999999823
 20
34.4343999999999966
 30
0.0
 70
    32
  0
VERTEX
  5
281C
  8
240
 10
319.7880000000000109
 20
34.4266000000000005
 30
0.0
 70
    32
  0
VERTEX
  5
281D
  8
240
 10
319.7950000000000159
 20
34.4189000000000007
 30
0.0
 70
    32
  0
VERTEX
  5
281E
  8
240
 10
319.8009999999999877
 20
34.4112000000000009
 30
0.0
 70
    32
  0
VERTEX
  5
281F
  8
240
 10
319.8070000000000164
 20
34.4033999999999978
 30
0.0
 70
    32
  0
VERTEX
  5
2820
  8
240
 10
319.8129999999999882
 20
34.3956000000000017
 30
0.0
 70
    32
  0
VERTEX
  5
2821
  8
240
 10
319.8199999999999932
 20
34.3877999999999986
 30
0.0
 70
    32
  0
VERTEX
  5
2822
  8
240
 10
319.8260000000000218
 20
34.3800000000000097
 30
0.0
 70
    32
  0
VERTEX
  5
2823
  8
240
 10
319.8319999999999936
 20
34.3721999999999994
 30
0.0
 70
    32
  0
VERTEX
  5
2824
  8
240
 10
319.8380000000000223
 20
34.3643000000000001
 30
0.0
 70
    32
  0
SEQEND
  5
2825
  8
240
  0
POLYLINE
  5
2826
  8
240
 66
     1
 10
0.0
 20
0.0
 30
0.0
 70
     8
  0
VERTEX
  5
2827
  8
240
 10
325.7610000000000241
 20
25.2425999999999995
 30
0.0
 70
    32
  0
VERTEX
  5
2828
  8
240
 10
325.7660000000000196
 20
25.2314000000000007
 30
0.0
 70
    32
  0
VERTEX
  5
2829
  8
240
 10
325.7719999999999914
 20
25.2200999999999986
 30
0.0
 70
    32
  0
VERTEX
  5
282A
  8
240
 10
325.77800000000002
 20
25.2088000000000001
 30
0.0
 70
    32
  0
VERTEX
  5
282B
  8
240
 10
325.7839999999999918
 20
25.1975000000000016
 30
0.0
 70
    32
  0
VERTEX
  5
282C
  8
240
 10
325.7900000000000205
 20
25.1860999999999997
 30
0.0
 70
    32
  0
VERTEX
  5
282D
  8
240
 10
325.7959999999999923
 20
25.1747000000000014
 30
0.0
 70
    32
  0
VERTEX
  5
282E
  8
240
 10
325.8020000000000209
 20
25.1631999999999998
 30
0.0
 70
    32
  0
VERTEX
  5
282F
  8
240
 10
325.8070000000000164
 20
25.1517000000000017
 30
0.0
 70
    32
  0
VERTEX
  5
2830
  8
240
 10
325.8129999999999882
 20
25.1402000000000001
 30
0.0
 70
    32
  0
VERTEX
  5
2831
  8
240
 10
325.8190000000000168
 20
25.1286999999999985
 30
0.0
 70
    32
  0
VERTEX
  5
2832
  8
240
 10
325.8249999999999886
 20
25.1171000000000006
 30
0.0
 70
    32
  0
VERTEX
  5
2833
  8
240
 10
325.8310000000000173
 20
25.1053999999999995
 30
0.0
 70
    32
  0
VERTEX
  5
2834
  8
240
 10
325.8369999999999891
 20
25.0938000000000017
 30
0.0
 70
    32
  0
VERTEX
  5
2835
  8
240
 10
325.8430000000000177
 20
25.0821000000000005
 30
0.0
 70
    32
  0
VERTEX
  5
2836
  8
240
 10
325.8489999999999895
 20
25.0702999999999996
 30
0.0
 70
    32
  0
VERTEX
  5
2837
  8
240
 10
325.8550000000000182
 20
25.0585999999999984
 30
0.0
 70
    32
  0
VERTEX
  5
2838
  8
240
 10
325.86099999999999
 20
25.0468000000000011
 30
0.0
 70
    32
  0
VERTEX
  5
2839
  8
240
 10
325.8670000000000186
 20
25.0349000000000004
 30
0.0
 70
    32
  0
VERTEX
  5
283A
  8
240
 10
325.8729999999999905
 20
25.0229999999999997
 30
0.0
 70
    32
  0
VERTEX
  5
283B
  8
240
 10
325.8799999999999955
 20
25.011099999999999
 30
0.0
 70
    32
  0
VERTEX
  5
283C
  8
240
 10
325.8860000000000241
 20
24.9991999999999983
 30
0.0
 70
    32
  0
VERTEX
  5
283D
  8
240
 10
325.8919999999999959
 20
24.9872000000000014
 30
0.0
 70
    32
  0
VERTEX
  5
283E
  8
240
 10
325.8980000000000246
 20
24.975200000000001
 30
0.0
 70
    32
  0
VERTEX
  5
283F
  8
240
 10
325.9039999999999964
 20
24.9632000000000005
 30
0.0
 70
    32
  0
VERTEX
  5
2840
  8
240
 10
325.910000000000025
 20
24.9511000000000003
 30
0.0
 70
    32
  0
VERTEX
  5
2841
  8
240
 10
325.9159999999999968
 20
24.9390000000000001
 30
0.0
 70
    32
  0
VERTEX
  5
2842
  8
240
 10
325.9220000000000255
 20
24.9268000000000001
 30
0.0
 70
    32
  0
VERTEX
  5
2843
  8
240
 10
325.9289999999999736
 20
24.9146000000000001
 30
0.0
 70
    32
  0
VERTEX
  5
2844
  8
240
 10
325.9350000000000023
 20
24.9024000000000001
 30
0.0
 70
    32
  0
VERTEX
  5
2845
  8
240
 10
325.9409999999999741
 20
24.8902000000000001
 30
0.0
 70
    32
  0
VERTEX
  5
2846
  8
240
 10
325.9470000000000027
 20
24.8779000000000003
 30
0.0
 70
    32
  0
VERTEX
  5
2847
  8
240
 10
325.9540000000000077
 20
24.8656000000000006
 30
0.0
 70
    32
  0
VERTEX
  5
2848
  8
240
 10
325.9599999999999795
 20
24.8533000000000008
 30
0.0
 70
    32
  0
VERTEX
  5
2849
  8
240
 10
325.9660000000000082
 20
24.8409000000000013
 30
0.0
 70
    32
  0
VERTEX
  5
284A
  8
240
 10
325.97199999999998
 20
24.8284999999999982
 30
0.0
 70
    32
  0
VERTEX
  5
284B
  8
240
 10
325.9790000000000987
 20
24.8159999999999989
 30
0.0
 70
    32
  0
VERTEX
  5
284C
  8
240
 10
325.9850000000000136
 20
24.8035999999999994
 30
0.0
 70
    32
  0
VERTEX
  5
284D
  8
240
 10
325.9909999999999854
 20
24.7910000000000004
 30
0.0
 70
    32
  0
VERTEX
  5
284E
  8
240
 10
325.9979999999999905
 20
24.7785000000000011
 30
0.0
 70
    32
  0
VERTEX
  5
284F
  8
240
 10
326.0040000000000191
 20
24.7658999999999985
 30
0.0
 70
    32
  0
VERTEX
  5
2850
  8
240
 10
326.0099999999999909
 20
24.7532999999999994
 30
0.0
 70
    32
  0
VERTEX
  5
2851
  8
240
 10
326.0169999999999959
 20
24.7407000000000004
 30
0.0
 70
    32
  0
VERTEX
  5
2852
  8
240
 10
326.0230000000000246
 20
24.7280000000000015
 30
0.0
 70
    32
  0
VERTEX
  5
2853
  8
240
 10
326.0289999999999964
 20
24.7152999999999992
 30
0.0
 70
    32
  0
VERTEX
  5
2854
  8
240
 10
326.0360000000000014
 20
24.7026000000000003
 30
0.0
 70
    32
  0
VERTEX
  5
2855
  8
240
 10
326.0419999999999732
 20
24.6899000000000015
 30
0.0
 70
    32
  0
VERTEX
  5
2856
  8
240
 10
326.0489999999999782
 20
24.6770999999999994
 30
0.0
 70
    32
  0
VERTEX
  5
2857
  8
240
 10
326.0550000000000068
 20
24.664200000000001
 30
0.0
 70
    32
  0
VERTEX
  5
2858
  8
240
 10
326.0620000000000118
 20
24.6513999999999989
 30
0.0
 70
    32
  0
VERTEX
  5
2859
  8
240
 10
326.0679999999999836
 20
24.6385000000000005
 30
0.0
 70
    32
  0
VERTEX
  5
285A
  8
240
 10
326.0740000000000123
 20
24.6255999999999986
 30
0.0
 70
    32
  0
VERTEX
  5
285B
  8
240
 10
326.0810000000000173
 20
24.6126000000000005
 30
0.0
 70
    32
  0
VERTEX
  5
285C
  8
240
 10
326.0869999999999891
 20
24.5996999999999986
 30
0.0
 70
    32
  0
VERTEX
  5
285D
  8
240
 10
326.0939999999999941
 20
24.5867000000000004
 30
0.0
 70
    32
  0
VERTEX
  5
285E
  8
240
 10
326.1000000000000227
 20
24.573599999999999
 30
0.0
 70
    32
  0
VERTEX
  5
285F
  8
240
 10
326.1070000000000277
 20
24.5606000000000009
 30
0.0
 70
    32
  0
VERTEX
  5
2860
  8
240
 10
326.1140000000000896
 20
24.5474999999999994
 30
0.0
 70
    32
  0
VERTEX
  5
2861
  8
240
 10
326.1200000000000045
 20
24.5343000000000018
 30
0.0
 70
    32
  0
VERTEX
  5
2862
  8
240
 10
326.1270000000000095
 20
24.5212000000000003
 30
0.0
 70
    32
  0
VERTEX
  5
2863
  8
240
 10
326.1329999999999814
 20
24.5079999999999991
 30
0.0
 70
    32
  0
VERTEX
  5
2864
  8
240
 10
326.1399999999999864
 20
24.4948000000000015
 30
0.0
 70
    32
  0
VERTEX
  5
2865
  8
240
 10
326.146000000000015
 20
24.4815000000000005
 30
0.0
 70
    32
  0
VERTEX
  5
2866
  8
240
 10
326.15300000000002
 20
24.4682999999999993
 30
0.0
 70
    32
  0
VERTEX
  5
2867
  8
240
 10
326.160000000000025
 20
24.4549999999999983
 30
0.0
 70
    32
  0
VERTEX
  5
2868
  8
240
 10
326.1659999999999968
 20
24.4416000000000011
 30
0.0
 70
    32
  0
VERTEX
  5
2869
  8
240
 10
326.1730000000000018
 20
24.4283000000000001
 30
0.0
 70
    32
  0
VERTEX
  5
286A
  8
240
 10
326.1789999999999736
 20
24.4148999999999994
 30
0.0
 70
    32
  0
VERTEX
  5
286B
  8
240
 10
326.1859999999999786
 20
24.4014999999999986
 30
0.0
 70
    32
  0
VERTEX
  5
286C
  8
240
 10
326.1929999999999836
 20
24.3880000000000017
 30
0.0
 70
    32
  0
VERTEX
  5
286D
  8
240
 10
326.1990000000000123
 20
24.3746000000000009
 30
0.0
 70
    32
  0
VERTEX
  5
286E
  8
240
 10
326.2059999999999036
 20
24.3611000000000004
 30
0.0
 70
    32
  0
VERTEX
  5
286F
  8
240
 10
326.2129999999999086
 20
24.3475000000000001
 30
0.0
 70
    32
  0
VERTEX
  5
2870
  8
240
 10
326.2189999999999941
 20
24.3339999999999996
 30
0.0
 70
    32
  0
VERTEX
  5
2871
  8
240
 10
326.2259999999999991
 20
24.3203999999999994
 30
0.0
 70
    32
  0
VERTEX
  5
2872
  8
240
 10
326.2330000000000041
 20
24.3067999999999991
 30
0.0
 70
    32
  0
VERTEX
  5
2873
  8
240
 10
326.2400000000000091
 20
24.293099999999999
 30
0.0
 70
    32
  0
VERTEX
  5
2874
  8
240
 10
326.2459999999999809
 20
24.2794999999999987
 30
0.0
 70
    32
  0
VERTEX
  5
2875
  8
240
 10
326.2529999999999859
 20
24.2657999999999987
 30
0.0
 70
    32
  0
VERTEX
  5
2876
  8
240
 10
326.2599999999999909
 20
24.2519999999999989
 30
0.0
 70
    32
  0
VERTEX
  5
2877
  8
240
 10
326.2669999999999959
 20
24.2382999999999988
 30
0.0
 70
    32
  0
VERTEX
  5
2878
  8
240
 10
326.2730000000000246
 20
24.224499999999999
 30
0.0
 70
    32
  0
VERTEX
  5
2879
  8
240
 10
326.2799999999999727
 20
24.2106999999999992
 30
0.0
 70
    32
  0
VERTEX
  5
287A
  8
240
 10
326.2869999999999777
 20
24.1968999999999994
 30
0.0
 70
    32
  0
VERTEX
  5
287B
  8
240
 10
326.2939999999999827
 20
24.1829999999999998
 30
0.0
 70
    32
  0
VERTEX
  5
287C
  8
240
 10
326.3000000000000114
 20
24.1691000000000003
 30
0.0
 70
    32
  0
VERTEX
  5
287D
  8
240
 10
326.3070000000000164
 20
24.1552000000000007
 30
0.0
 70
    32
  0
VERTEX
  5
287E
  8
240
 10
326.3140000000000214
 20
24.1413000000000011
 30
0.0
 70
    32
  0
VERTEX
  5
287F
  8
240
 10
326.3210000000000264
 20
24.1274000000000015
 30
0.0
 70
    32
  0
VERTEX
  5
2880
  8
240
 10
326.3279999999999745
 20
24.1133999999999986
 30
0.0
 70
    32
  0
VERTEX
  5
2881
  8
240
 10
326.3340000000000032
 20
24.0993999999999993
 30
0.0
 70
    32
  0
VERTEX
  5
2882
  8
240
 10
326.3410000000000082
 20
24.0853000000000002
 30
0.0
 70
    32
  0
VERTEX
  5
2883
  8
240
 10
326.3480000000000132
 20
24.0713000000000008
 30
0.0
 70
    32
  0
VERTEX
  5
2884
  8
240
 10
326.3550000000000182
 20
24.0572000000000017
 30
0.0
 70
    32
  0
VERTEX
  5
2885
  8
240
 10
326.3620000000000232
 20
24.043099999999999
 30
0.0
 70
    32
  0
VERTEX
  5
2886
  8
240
 10
326.3690000000000282
 20
24.0289000000000001
 30
0.0
 70
    32
  0
VERTEX
  5
2887
  8
240
 10
326.3759999999999764
 20
24.014800000000001
 30
0.0
 70
    32
  0
VERTEX
  5
2888
  8
240
 10
326.382000000000005
 20
24.0005999999999986
 30
0.0
 70
    32
  0
VERTEX
  5
2889
  8
240
 10
326.38900000000001
 20
23.9863999999999997
 30
0.0
 70
    32
  0
VERTEX
  5
288A
  8
240
 10
326.3959999999999013
 20
23.9722000000000008
 30
0.0
 70
    32
  0
VERTEX
  5
288B
  8
240
 10
326.40300000000002
 20
23.9578999999999986
 30
0.0
 70
    32
  0
VERTEX
  5
288C
  8
240
 10
326.410000000000025
 20
23.9436999999999998
 30
0.0
 70
    32
  0
VERTEX
  5
288D
  8
240
 10
326.4169999999999732
 20
23.9294000000000011
 30
0.0
 70
    32
  0
VERTEX
  5
288E
  8
240
 10
326.4239999999999782
 20
23.9149999999999991
 30
0.0
 70
    32
  0
VERTEX
  5
288F
  8
240
 10
326.4309999999999832
 20
23.9007000000000005
 30
0.0
 70
    32
  0
VERTEX
  5
2890
  8
240
 10
326.4379999999999882
 20
23.8862999999999985
 30
0.0
 70
    32
  0
VERTEX
  5
2891
  8
240
 10
326.4449999999999932
 20
23.8719000000000001
 30
0.0
 70
    32
  0
VERTEX
  5
2892
  8
240
 10
326.4519999999999982
 20
23.8575000000000017
 30
0.0
 70
    32
  0
VERTEX
  5
2893
  8
240
 10
326.4590000000000032
 20
23.8430999999999997
 30
0.0
 70
    32
  0
VERTEX
  5
2894
  8
240
 10
326.4660000000000082
 20
23.8286000000000016
 30
0.0
 70
    32
  0
VERTEX
  5
2895
  8
240
 10
326.47199999999998
 20
23.8141999999999996
 30
0.0
 70
    32
  0
VERTEX
  5
2896
  8
240
 10
326.478999999999985
 20
23.7997000000000014
 30
0.0
 70
    32
  0
VERTEX
  5
2897
  8
240
 10
326.48599999999999
 20
23.7850999999999999
 30
0.0
 70
    32
  0
VERTEX
  5
2898
  8
240
 10
326.492999999999995
 20
23.7706000000000017
 30
0.0
 70
    32
  0
VERTEX
  5
2899
  8
240
 10
326.5
 20
23.7560000000000002
 30
0.0
 70
    32
  0
VERTEX
  5
289A
  8
240
 10
326.507000000000005
 20
23.7413999999999987
 30
0.0
 70
    32
  0
VERTEX
  5
289B
  8
240
 10
326.51400000000001
 20
23.7268000000000008
 30
0.0
 70
    32
  0
VERTEX
  5
289C
  8
240
 10
326.521000000000015
 20
23.7121999999999993
 30
0.0
 70
    32
  0
VERTEX
  5
289D
  8
240
 10
326.52800000000002
 20
23.6976000000000013
 30
0.0
 70
    32
  0
VERTEX
  5
289E
  8
240
 10
326.535000000000025
 20
23.6829000000000001
 30
0.0
 70
    32
  0
VERTEX
  5
289F
  8
240
 10
326.5419999999999732
 20
23.6681999999999988
 30
0.0
 70
    32
  0
VERTEX
  5
28A0
  8
240
 10
326.5489999999999782
 20
23.6535000000000011
 30
0.0
 70
    32
  0
VERTEX
  5
28A1
  8
240
 10
326.5559999999999832
 20
23.6387999999999998
 30
0.0
 70
    32
  0
VERTEX
  5
28A2
  8
240
 10
326.5629999999999882
 20
23.6239999999999988
 30
0.0
 70
    32
  0
VERTEX
  5
28A3
  8
240
 10
326.5699999999999932
 20
23.6092000000000013
 30
0.0
 70
    32
  0
VERTEX
  5
28A4
  8
240
 10
326.5769999999999982
 20
23.5944000000000003
 30
0.0
 70
    32
  0
VERTEX
  5
28A5
  8
240
 10
326.5840000000000032
 20
23.5795999999999992
 30
0.0
 70
    32
  0
VERTEX
  5
28A6
  8
240
 10
326.5910000000000082
 20
23.5648000000000017
 30
0.0
 70
    32
  0
VERTEX
  5
28A7
  8
240
 10
326.5989999999999895
 20
23.5500000000000007
 30
0.0
 70
    32
  0
VERTEX
  5
28A8
  8
240
 10
326.6059999999999945
 20
23.5350999999999999
 30
0.0
 70
    32
  0
VERTEX
  5
28A9
  8
240
 10
326.6129999999999995
 20
23.5201999999999991
 30
0.0
 70
    32
  0
VERTEX
  5
28AA
  8
240
 10
326.6200000000000045
 20
23.5052999999999983
 30
0.0
 70
    32
  0
VERTEX
  5
28AB
  8
240
 10
326.6270000000000095
 20
23.4904000000000011
 30
0.0
 70
    32
  0
VERTEX
  5
28AC
  8
240
 10
326.6340000000000146
 20
23.4754000000000005
 30
0.0
 70
    32
  0
VERTEX
  5
28AD
  8
240
 10
326.6410000000000196
 20
23.4604999999999997
 30
0.0
 70
    32
  0
VERTEX
  5
28AE
  8
240
 10
326.6480000000000246
 20
23.4454999999999991
 30
0.0
 70
    32
  0
VERTEX
  5
28AF
  8
240
 10
326.6549999999999727
 20
23.4304999999999986
 30
0.0
 70
    32
  0
VERTEX
  5
28B0
  8
240
 10
326.6619999999999777
 20
23.4155000000000015
 30
0.0
 70
    32
  0
VERTEX
  5
28B1
  8
240
 10
326.6689999999999827
 20
23.400500000000001
 30
0.0
 70
    32
  0
VERTEX
  5
28B2
  8
240
 10
326.6759999999999877
 20
23.3854000000000006
 30
0.0
 70
    32
  0
VERTEX
  5
28B3
  8
240
 10
326.6829999999999927
 20
23.3704000000000001
 30
0.0
 70
    32
  0
VERTEX
  5
28B4
  8
240
 10
326.6899999999999977
 20
23.3552999999999997
 30
0.0
 70
    32
  0
VERTEX
  5
28B5
  8
240
 10
326.6970000000000027
 20
23.3401999999999994
 30
0.0
 70
    32
  0
VERTEX
  5
28B6
  8
240
 10
326.7040000000000077
 20
23.3250999999999991
 30
0.0
 70
    32
  0
VERTEX
  5
28B7
  8
240
 10
326.7119999999999891
 20
23.309899999999999
 30
0.0
 70
    32
  0
VERTEX
  5
28B8
  8
240
 10
326.7189999999999941
 20
23.2947999999999986
 30
0.0
 70
    32
  0
VERTEX
  5
28B9
  8
240
 10
326.7259999999999991
 20
23.2795999999999985
 30
0.0
 70
    32
  0
VERTEX
  5
28BA
  8
240
 10
326.7330000000000041
 20
23.2643999999999984
 30
0.0
 70
    32
  0
VERTEX
  5
28BB
  8
240
 10
326.7400000000000091
 20
23.2491999999999983
 30
0.0
 70
    32
  0
VERTEX
  5
28BC
  8
240
 10
326.7470000000000141
 20
23.2340000000000018
 30
0.0
 70
    32
  0
VERTEX
  5
28BD
  8
240
 10
326.7540000000000191
 20
23.2188000000000017
 30
0.0
 70
    32
  0
VERTEX
  5
28BE
  8
240
 10
326.7610000000000241
 20
23.2034999999999982
 30
0.0
 70
    32
  0
VERTEX
  5
28BF
  8
240
 10
326.7679999999999723
 20
23.1883000000000017
 30
0.0
 70
    32
  0
VERTEX
  5
28C0
  8
240
 10
326.7749999999999773
 20
23.1729999999999983
 30
0.0
 70
    32
  0
VERTEX
  5
28C1
  8
240
 10
326.7819999999999823
 20
23.1576999999999984
 30
0.0
 70
    32
  0
VERTEX
  5
28C2
  8
240
 10
326.7900000000000205
 20
23.1423999999999985
 30
0.0
 70
    32
  0
VERTEX
  5
28C3
  8
240
 10
326.7970000000000255
 20
23.1270999999999987
 30
0.0
 70
    32
  0
VERTEX
  5
28C4
  8
240
 10
326.8039999999999736
 20
23.111699999999999
 30
0.0
 70
    32
  0
VERTEX
  5
28C5
  8
240
 10
326.8109999999999786
 20
23.0963999999999992
 30
0.0
 70
    32
  0
VERTEX
  5
28C6
  8
240
 10
326.8179999999999836
 20
23.0809999999999995
 30
0.0
 70
    32
  0
VERTEX
  5
28C7
  8
240
 10
326.8249999999999886
 20
23.0655999999999999
 30
0.0
 70
    32
  0
VERTEX
  5
28C8
  8
240
 10
326.8319999999999936
 20
23.0502000000000002
 30
0.0
 70
    32
  0
VERTEX
  5
28C9
  8
240
 10
326.8389999999999986
 20
23.0348000000000006
 30
0.0
 70
    32
  0
VERTEX
  5
28CA
  8
240
 10
326.8460000000000036
 20
23.019400000000001
 30
0.0
 70
    32
  0
VERTEX
  5
28CB
  8
240
 10
326.8540000000000987
 20
23.0040000000000013
 30
0.0
 70
    32
  0
VERTEX
  5
28CC
  8
240
 10
326.86099999999999
 20
22.9884999999999984
 30
0.0
 70
    32
  0
VERTEX
  5
28CD
  8
240
 10
326.867999999999995
 20
22.9730999999999987
 30
0.0
 70
    32
  0
VERTEX
  5
28CE
  8
240
 10
326.875
 20
22.9575999999999993
 30
0.0
 70
    32
  0
VERTEX
  5
28CF
  8
240
 10
326.882000000000005
 20
22.9420999999999999
 30
0.0
 70
    32
  0
VERTEX
  5
28D0
  8
240
 10
326.88900000000001
 20
22.9266000000000005
 30
0.0
 70
    32
  0
VERTEX
  5
28D1
  8
240
 10
326.896000000000015
 20
22.9111000000000011
 30
0.0
 70
    32
  0
VERTEX
  5
28D2
  8
240
 10
326.90300000000002
 20
22.8956000000000017
 30
0.0
 70
    32
  0
VERTEX
  5
28D3
  8
240
 10
326.910000000000025
 20
22.879999999999999
 30
0.0
 70
    32
  0
VERTEX
  5
28D4
  8
240
 10
326.9180000000000064
 20
22.8644999999999996
 30
0.0
 70
    32
  0
VERTEX
  5
28D5
  8
240
 10
326.9250000000000114
 20
22.8489000000000004
 30
0.0
 70
    32
  0
VERTEX
  5
28D6
  8
240
 10
326.9320000000000164
 20
22.833400000000001
 30
0.0
 70
    32
  0
VERTEX
  5
28D7
  8
240
 10
326.9390000000000214
 20
22.8177999999999983
 30
0.0
 70
    32
  0
VERTEX
  5
28D8
  8
240
 10
326.9460000000000264
 20
22.8021999999999991
 30
0.0
 70
    32
  0
VERTEX
  5
28D9
  8
240
 10
326.9529999999999745
 20
22.7866
 30
0.0
 70
    32
  0
VERTEX
  5
28DA
  8
240
 10
326.9599999999999795
 20
22.7710000000000008
 30
0.0
 70
    32
  0
VERTEX
  5
28DB
  8
240
 10
326.9669999999999845
 20
22.7554000000000016
 30
0.0
 70
    32
  0
VERTEX
  5
28DC
  8
240
 10
326.9739999999999895
 20
22.7396999999999991
 30
0.0
 70
    32
  0
VERTEX
  5
28DD
  8
240
 10
326.9809999999999945
 20
22.7241
 30
0.0
 70
    32
  0
VERTEX
  5
28DE
  8
240
 10
326.9889999999999759
 20
22.7085000000000008
 30
0.0
 70
    32
  0
VERTEX
  5
28DF
  8
240
 10
326.9959999999999809
 20
22.6927999999999983
 30
0.0
 70
    32
  0
VERTEX
  5
28E0
  8
240
 10
327.0029999999999859
 20
22.6770999999999994
 30
0.0
 70
    32
  0
VERTEX
  5
28E1
  8
240
 10
327.0099999999999909
 20
22.6614000000000004
 30
0.0
 70
    32
  0
VERTEX
  5
28E2
  8
240
 10
327.0169999999999959
 20
22.6458000000000013
 30
0.0
 70
    32
  0
VERTEX
  5
28E3
  8
240
 10
327.0240000000000009
 20
22.6300999999999988
 30
0.0
 70
    32
  0
VERTEX
  5
28E4
  8
240
 10
327.0310000000000059
 20
22.6143999999999998
 30
0.0
 70
    32
  0
VERTEX
  5
28E5
  8
240
 10
327.0380000000000109
 20
22.5986000000000011
 30
0.0
 70
    32
  0
VERTEX
  5
28E6
  8
240
 10
327.0450000000000159
 20
22.5828999999999986
 30
0.0
 70
    32
  0
VERTEX
  5
28E7
  8
240
 10
327.0520000000000209
 20
22.5671999999999997
 30
0.0
 70
    32
  0
VERTEX
  5
28E8
  8
240
 10
327.0590000000000259
 20
22.5515000000000008
 30
0.0
 70
    32
  0
VERTEX
  5
28E9
  8
240
 10
327.0670000000000073
 20
22.5356999999999985
 30
0.0
 70
    32
  0
VERTEX
  5
28EA
  8
240
 10
327.0740000000000123
 20
22.5199999999999996
 30
0.0
 70
    32
  0
VERTEX
  5
28EB
  8
240
 10
327.0809999999999036
 20
22.5042000000000009
 30
0.0
 70
    32
  0
VERTEX
  5
28EC
  8
240
 10
327.0880000000000223
 20
22.4883999999999986
 30
0.0
 70
    32
  0
VERTEX
  5
28ED
  8
240
 10
327.0950000000000273
 20
22.4726999999999997
 30
0.0
 70
    32
  0
VERTEX
  5
28EE
  8
240
 10
327.1019999999999754
 20
22.456900000000001
 30
0.0
 70
    32
  0
VERTEX
  5
28EF
  8
240
 10
327.1089999999999804
 20
22.4410999999999987
 30
0.0
 70
    32
  0
VERTEX
  5
28F0
  8
240
 10
327.1159999999999854
 20
22.4253
 30
0.0
 70
    32
  0
VERTEX
  5
28F1
  8
240
 10
327.1229999999999905
 20
22.4095000000000013
 30
0.0
 70
    32
  0
VERTEX
  5
28F2
  8
240
 10
327.1299999999999955
 20
22.3936999999999991
 30
0.0
 70
    32
  0
VERTEX
  5
28F3
  8
240
 10
327.1370000000000005
 20
22.3779000000000003
 30
0.0
 70
    32
  0
VERTEX
  5
28F4
  8
240
 10
327.1440000000000055
 20
22.3621000000000016
 30
0.0
 70
    32
  0
VERTEX
  5
28F5
  8
240
 10
327.1510000000000105
 20
22.3462999999999994
 30
0.0
 70
    32
  0
VERTEX
  5
28F6
  8
240
 10
327.1580000000000155
 20
22.3304000000000009
 30
0.0
 70
    32
  0
VERTEX
  5
28F7
  8
240
 10
327.1650000000000205
 20
22.3145999999999987
 30
0.0
 70
    32
  0
VERTEX
  5
28F8
  8
240
 10
327.1720000000000255
 20
22.2988
 30
0.0
 70
    32
  0
VERTEX
  5
28F9
  8
240
 10
327.1789999999999736
 20
22.2829000000000015
 30
0.0
 70
    32
  0
VERTEX
  5
28FA
  8
240
 10
327.1859999999999786
 20
22.2670999999999992
 30
0.0
 70
    32
  0
VERTEX
  5
28FB
  8
240
 10
327.1929999999999836
 20
22.2513000000000005
 30
0.0
 70
    32
  0
VERTEX
  5
28FC
  8
240
 10
327.1999999999999886
 20
22.2353999999999985
 30
0.0
 70
    32
  0
VERTEX
  5
28FD
  8
240
 10
327.2069999999999936
 20
22.2195
 30
0.0
 70
    32
  0
VERTEX
  5
28FE
  8
240
 10
327.2139999999999986
 20
22.2037000000000013
 30
0.0
 70
    32
  0
VERTEX
  5
28FF
  8
240
 10
327.2210000000000036
 20
22.1877999999999993
 30
0.0
 70
    32
  0
VERTEX
  5
2900
  8
240
 10
327.2280000000000086
 20
22.1720000000000006
 30
0.0
 70
    32
  0
VERTEX
  5
2901
  8
240
 10
327.2350000000000136
 20
22.1560999999999986
 30
0.0
 70
    32
  0
VERTEX
  5
2902
  8
240
 10
327.2420000000000186
 20
22.1402000000000001
 30
0.0
 70
    32
  0
VERTEX
  5
2903
  8
240
 10
327.2490000000000236
 20
22.1243000000000016
 30
0.0
 70
    32
  0
VERTEX
  5
2904
  8
240
 10
327.2559999999999718
 20
22.1084999999999994
 30
0.0
 70
    32
  0
VERTEX
  5
2905
  8
240
 10
327.2629999999999768
 20
22.0926000000000009
 30
0.0
 70
    32
  0
VERTEX
  5
2906
  8
240
 10
327.2699999999999818
 20
22.0766999999999989
 30
0.0
 70
    32
  0
VERTEX
  5
2907
  8
240
 10
327.2769999999999868
 20
22.0608000000000004
 30
0.0
 70
    32
  0
VERTEX
  5
2908
  8
240
 10
327.2839999999999918
 20
22.0448999999999984
 30
0.0
 70
    32
  0
VERTEX
  5
2909
  8
240
 10
327.2909999999999968
 20
22.0290999999999997
 30
0.0
 70
    32
  0
VERTEX
  5
290A
  8
240
 10
327.2980000000000018
 20
22.0132000000000012
 30
0.0
 70
    32
  0
VERTEX
  5
290B
  8
240
 10
327.3050000000000068
 20
21.9972999999999992
 30
0.0
 70
    32
  0
VERTEX
  5
290C
  8
240
 10
327.3120000000000118
 20
21.9814000000000007
 30
0.0
 70
    32
  0
VERTEX
  5
290D
  8
240
 10
327.3190000000000168
 20
21.9654999999999987
 30
0.0
 70
    32
  0
VERTEX
  5
290E
  8
240
 10
327.3260000000000218
 20
21.9496000000000002
 30
0.0
 70
    32
  0
VERTEX
  5
290F
  8
240
 10
327.3330000000000268
 20
21.9337000000000018
 30
0.0
 70
    32
  0
VERTEX
  5
2910
  8
240
 10
327.339999999999975
 20
21.9177999999999997
 30
0.0
 70
    32
  0
VERTEX
  5
2911
  8
240
 10
327.3460000000000036
 20
21.902000000000001
 30
0.0
 70
    32
  0
VERTEX
  5
2912
  8
240
 10
327.3530000000000086
 20
21.886099999999999
 30
0.0
 70
    32
  0
VERTEX
  5
2913
  8
240
 10
327.3600000000000136
 20
21.8702000000000005
 30
0.0
 70
    32
  0
VERTEX
  5
2914
  8
240
 10
327.3670000000000186
 20
21.8542999999999985
 30
0.0
 70
    32
  0
VERTEX
  5
2915
  8
240
 10
327.3740000000000236
 20
21.8384
 30
0.0
 70
    32
  0
VERTEX
  5
2916
  8
240
 10
327.3809999999999718
 20
21.8225000000000016
 30
0.0
 70
    32
  0
VERTEX
  5
2917
  8
240
 10
327.3879999999999768
 20
21.8066999999999993
 30
0.0
 70
    32
  0
VERTEX
  5
2918
  8
240
 10
327.3949999999999818
 20
21.7908000000000008
 30
0.0
 70
    32
  0
VERTEX
  5
2919
  8
240
 10
327.4010000000000105
 20
21.7748999999999988
 30
0.0
 70
    32
  0
VERTEX
  5
291A
  8
240
 10
327.4080000000000155
 20
21.7590000000000003
 30
0.0
 70
    32
  0
VERTEX
  5
291B
  8
240
 10
327.4150000000000205
 20
21.7432000000000016
 30
0.0
 70
    32
  0
VERTEX
  5
291C
  8
240
 10
327.4220000000000255
 20
21.7272999999999996
 30
0.0
 70
    32
  0
VERTEX
  5
291D
  8
240
 10
327.4290000000000873
 20
21.7114000000000011
 30
0.0
 70
    32
  0
VERTEX
  5
291E
  8
240
 10
327.4359999999999786
 20
21.6955999999999989
 30
0.0
 70
    32
  0
VERTEX
  5
291F
  8
240
 10
327.4420000000000073
 20
21.6797000000000004
 30
0.0
 70
    32
  0
VERTEX
  5
2920
  8
240
 10
327.4490000000000123
 20
21.6637999999999984
 30
0.0
 70
    32
  0
VERTEX
  5
2921
  8
240
 10
327.4560000000000173
 20
21.6479999999999997
 30
0.0
 70
    32
  0
VERTEX
  5
2922
  8
240
 10
327.4630000000000223
 20
21.6321000000000012
 30
0.0
 70
    32
  0
VERTEX
  5
2923
  8
240
 10
327.4689999999999941
 20
21.616299999999999
 30
0.0
 70
    32
  0
VERTEX
  5
2924
  8
240
 10
327.4759999999999991
 20
21.6005000000000003
 30
0.0
 70
    32
  0
VERTEX
  5
2925
  8
240
 10
327.4830000000000041
 20
21.5845999999999982
 30
0.0
 70
    32
  0
VERTEX
  5
2926
  8
240
 10
327.4900000000000091
 20
21.5687999999999995
 30
0.0
 70
    32
  0
VERTEX
  5
2927
  8
240
 10
327.4959999999999809
 20
21.5530000000000008
 30
0.0
 70
    32
  0
VERTEX
  5
2928
  8
240
 10
327.5029999999999859
 20
21.5370999999999988
 30
0.0
 70
    32
  0
VERTEX
  5
2929
  8
240
 10
327.5099999999999909
 20
21.5213000000000001
 30
0.0
 70
    32
  0
VERTEX
  5
292A
  8
240
 10
327.5169999999999959
 20
21.5055000000000014
 30
0.0
 70
    32
  0
VERTEX
  5
292B
  8
240
 10
327.5230000000000246
 20
21.4896999999999991
 30
0.0
 70
    32
  0
VERTEX
  5
292C
  8
240
 10
327.5299999999999727
 20
21.4739000000000004
 30
0.0
 70
    32
  0
VERTEX
  5
292D
  8
240
 10
327.5370000000000914
 20
21.4581000000000017
 30
0.0
 70
    32
  0
VERTEX
  5
292E
  8
240
 10
327.5430000000000064
 20
21.4422999999999995
 30
0.0
 70
    32
  0
VERTEX
  5
292F
  8
240
 10
327.5500000000000114
 20
21.4266000000000005
 30
0.0
 70
    32
  0
VERTEX
  5
2930
  8
240
 10
327.5570000000000164
 20
21.4107999999999983
 30
0.0
 70
    32
  0
VERTEX
  5
2931
  8
240
 10
327.5629999999999882
 20
21.3949999999999996
 30
0.0
 70
    32
  0
VERTEX
  5
2932
  8
240
 10
327.5699999999999932
 20
21.3793000000000006
 30
0.0
 70
    32
  0
VERTEX
  5
2933
  8
240
 10
327.5769999999999982
 20
21.3634999999999984
 30
0.0
 70
    32
  0
VERTEX
  5
2934
  8
240
 10
327.5830000000000268
 20
21.3477999999999994
 30
0.0
 70
    32
  0
VERTEX
  5
2935
  8
240
 10
327.589999999999975
 20
21.3321000000000005
 30
0.0
 70
    32
  0
VERTEX
  5
2936
  8
240
 10
327.59699999999998
 20
21.3162999999999982
 30
0.0
 70
    32
  0
VERTEX
  5
2937
  8
240
 10
327.6030000000000086
 20
21.3005999999999993
 30
0.0
 70
    32
  0
VERTEX
  5
2938
  8
240
 10
327.6100000000000136
 20
21.2849000000000004
 30
0.0
 70
    32
  0
VERTEX
  5
2939
  8
240
 10
327.6159999999999854
 20
21.2692000000000014
 30
0.0
 70
    32
  0
VERTEX
  5
293A
  8
240
 10
327.6229999999999905
 20
21.2534999999999989
 30
0.0
 70
    32
  0
VERTEX
  5
293B
  8
240
 10
327.6299999999999955
 20
21.2378
 30
0.0
 70
    32
  0
VERTEX
  5
293C
  8
240
 10
327.6360000000000241
 20
21.2222000000000008
 30
0.0
 70
    32
  0
VERTEX
  5
293D
  8
240
 10
327.6429999999999723
 20
21.2064999999999984
 30
0.0
 70
    32
  0
VERTEX
  5
293E
  8
240
 10
327.6490000000000009
 20
21.1908999999999992
 30
0.0
 70
    32
  0
VERTEX
  5
293F
  8
240
 10
327.6560000000000059
 20
21.1752000000000002
 30
0.0
 70
    32
  0
VERTEX
  5
2940
  8
240
 10
327.6619999999999777
 20
21.1596000000000011
 30
0.0
 70
    32
  0
VERTEX
  5
2941
  8
240
 10
327.6689999999999827
 20
21.1439999999999984
 30
0.0
 70
    32
  0
VERTEX
  5
2942
  8
240
 10
327.6750000000000114
 20
21.1283999999999992
 30
0.0
 70
    32
  0
VERTEX
  5
2943
  8
240
 10
327.6820000000000164
 20
21.1128
 30
0.0
 70
    32
  0
VERTEX
  5
2944
  8
240
 10
327.6880000000001019
 20
21.0972000000000008
 30
0.0
 70
    32
  0
VERTEX
  5
2945
  8
240
 10
327.6949999999999932
 20
21.0816000000000017
 30
0.0
 70
    32
  0
VERTEX
  5
2946
  8
240
 10
327.7010000000000218
 20
21.0659999999999989
 30
0.0
 70
    32
  0
VERTEX
  5
2947
  8
240
 10
327.7080000000000268
 20
21.0504999999999995
 30
0.0
 70
    32
  0
VERTEX
  5
2948
  8
240
 10
327.7139999999999986
 20
21.0350000000000001
 30
0.0
 70
    32
  0
VERTEX
  5
2949
  8
240
 10
327.7200000000000841
 20
21.019400000000001
 30
0.0
 70
    32
  0
VERTEX
  5
294A
  8
240
 10
327.7269999999999754
 20
21.0039000000000016
 30
0.0
 70
    32
  0
VERTEX
  5
294B
  8
240
 10
327.7330000000000041
 20
20.9883999999999986
 30
0.0
 70
    32
  0
VERTEX
  5
294C
  8
240
 10
327.7400000000000091
 20
20.9728999999999992
 30
0.0
 70
    32
  0
VERTEX
  5
294D
  8
240
 10
327.7459999999999809
 20
20.9573
 30
0.0
 70
    32
  0
VERTEX
  5
294E
  8
240
 10
327.7519999999998959
 20
20.9418000000000006
 30
0.0
 70
    32
  0
VERTEX
  5
294F
  8
240
 10
327.7590000000000146
 20
20.9262000000000015
 30
0.0
 70
    32
  0
VERTEX
  5
2950
  8
240
 10
327.7649999999999864
 20
20.9105999999999987
 30
0.0
 70
    32
  0
VERTEX
  5
2951
  8
240
 10
327.7719999999999914
 20
20.8949999999999996
 30
0.0
 70
    32
  0
VERTEX
  5
2952
  8
240
 10
327.77800000000002
 20
20.8794000000000004
 30
0.0
 70
    32
  0
VERTEX
  5
2953
  8
240
 10
327.785000000000025
 20
20.8637000000000015
 30
0.0
 70
    32
  0
VERTEX
  5
2954
  8
240
 10
327.7909999999999968
 20
20.8480999999999987
 30
0.0
 70
    32
  0
VERTEX
  5
2955
  8
240
 10
327.7970000000000255
 20
20.8323999999999998
 30
0.0
 70
    32
  0
VERTEX
  5
2956
  8
240
 10
327.8039999999999736
 20
20.8167000000000009
 30
0.0
 70
    32
  0
VERTEX
  5
2957
  8
240
 10
327.8100000000000023
 20
20.8009999999999984
 30
0.0
 70
    32
  0
VERTEX
  5
2958
  8
240
 10
327.8169999999998936
 20
20.7852999999999994
 30
0.0
 70
    32
  0
VERTEX
  5
2959
  8
240
 10
327.8230000000000928
 20
20.7695000000000007
 30
0.0
 70
    32
  0
VERTEX
  5
295A
  8
240
 10
327.8290000000000077
 20
20.7537999999999982
 30
0.0
 70
    32
  0
VERTEX
  5
295B
  8
240
 10
327.8360000000000127
 20
20.7379999999999995
 30
0.0
 70
    32
  0
VERTEX
  5
295C
  8
240
 10
327.8419999999999845
 20
20.7222000000000008
 30
0.0
 70
    32
  0
VERTEX
  5
295D
  8
240
 10
327.8489999999999895
 20
20.7063999999999986
 30
0.0
 70
    32
  0
VERTEX
  5
295E
  8
240
 10
327.8550000000000182
 20
20.6905999999999999
 30
0.0
 70
    32
  0
VERTEX
  5
295F
  8
240
 10
327.8620000000000232
 20
20.6748000000000012
 30
0.0
 70
    32
  0
VERTEX
  5
2960
  8
240
 10
327.867999999999995
 20
20.6589999999999989
 30
0.0
 70
    32
  0
VERTEX
  5
2961
  8
240
 10
327.8740000000000236
 20
20.6431000000000004
 30
0.0
 70
    32
  0
VERTEX
  5
2962
  8
240
 10
327.8809999999999718
 20
20.6273000000000017
 30
0.0
 70
    32
  0
VERTEX
  5
2963
  8
240
 10
327.8869999999998868
 20
20.6113999999999997
 30
0.0
 70
    32
  0
VERTEX
  5
2964
  8
240
 10
327.8940000000000055
 20
20.5955000000000013
 30
0.0
 70
    32
  0
VERTEX
  5
2965
  8
240
 10
327.8999999999999773
 20
20.5795999999999992
 30
0.0
 70
    32
  0
VERTEX
  5
2966
  8
240
 10
327.9060000000000059
 20
20.5637000000000008
 30
0.0
 70
    32
  0
VERTEX
  5
2967
  8
240
 10
327.9130000000000109
 20
20.5477999999999987
 30
0.0
 70
    32
  0
VERTEX
  5
2968
  8
240
 10
327.9189999999999827
 20
20.5319000000000003
 30
0.0
 70
    32
  0
VERTEX
  5
2969
  8
240
 10
327.9259999999999877
 20
20.5159999999999982
 30
0.0
 70
    32
  0
VERTEX
  5
296A
  8
240
 10
327.9320000000000164
 20
20.5
 30
0.0
 70
    32
  0
VERTEX
  5
296B
  8
240
 10
327.9390000000000214
 20
20.4841000000000015
 30
0.0
 70
    32
  0
VERTEX
  5
296C
  8
240
 10
327.9449999999999932
 20
20.4680999999999997
 30
0.0
 70
    32
  0
VERTEX
  5
296D
  8
240
 10
327.9510000000000218
 20
20.4521000000000015
 30
0.0
 70
    32
  0
VERTEX
  5
296E
  8
240
 10
327.9580000000000268
 20
20.4360999999999997
 30
0.0
 70
    32
  0
VERTEX
  5
296F
  8
240
 10
327.9639999999999986
 20
20.4201000000000015
 30
0.0
 70
    32
  0
VERTEX
  5
2970
  8
240
 10
327.9710000000000036
 20
20.4040999999999997
 30
0.0
 70
    32
  0
VERTEX
  5
2971
  8
240
 10
327.9769999999999754
 20
20.3881000000000014
 30
0.0
 70
    32
  0
VERTEX
  5
2972
  8
240
 10
327.9830000000000041
 20
20.3720999999999997
 30
0.0
 70
    32
  0
VERTEX
  5
2973
  8
240
 10
327.9900000000000091
 20
20.3561000000000014
 30
0.0
 70
    32
  0
VERTEX
  5
2974
  8
240
 10
327.9959999999999809
 20
20.3399999999999999
 30
0.0
 70
    32
  0
VERTEX
  5
2975
  8
240
 10
328.0019999999998959
 20
20.3240000000000016
 30
0.0
 70
    32
  0
VERTEX
  5
2976
  8
240
 10
328.0090000000000146
 20
20.3079000000000001
 30
0.0
 70
    32
  0
VERTEX
  5
2977
  8
240
 10
328.0149999999999864
 20
20.2918999999999983
 30
0.0
 70
    32
  0
VERTEX
  5
2978
  8
240
 10
328.0219999999999914
 20
20.2758000000000003
 30
0.0
 70
    32
  0
VERTEX
  5
2979
  8
240
 10
328.02800000000002
 20
20.2596999999999987
 30
0.0
 70
    32
  0
VERTEX
  5
297A
  8
240
 10
328.0339999999999918
 20
20.2436000000000007
 30
0.0
 70
    32
  0
VERTEX
  5
297B
  8
240
 10
328.0409999999999968
 20
20.2274999999999991
 30
0.0
 70
    32
  0
VERTEX
  5
297C
  8
240
 10
328.0470000000000255
 20
20.2114000000000011
 30
0.0
 70
    32
  0
VERTEX
  5
297D
  8
240
 10
328.053000000000111
 20
20.1952999999999996
 30
0.0
 70
    32
  0
VERTEX
  5
297E
  8
240
 10
328.0600000000000023
 20
20.1792000000000016
 30
0.0
 70
    32
  0
VERTEX
  5
297F
  8
240
 10
328.0659999999999741
 20
20.1631
 30
0.0
 70
    32
  0
VERTEX
  5
2980
  8
240
 10
328.0730000000000928
 20
20.1469999999999985
 30
0.0
 70
    32
  0
VERTEX
  5
2981
  8
240
 10
328.0790000000000077
 20
20.1309000000000005
 30
0.0
 70
    32
  0
VERTEX
  5
2982
  8
240
 10
328.0849999999999795
 20
20.1147999999999989
 30
0.0
 70
    32
  0
VERTEX
  5
2983
  8
240
 10
328.0919999999999845
 20
20.0986000000000011
 30
0.0
 70
    32
  0
VERTEX
  5
2984
  8
240
 10
328.0980000000000132
 20
20.0824999999999996
 30
0.0
 70
    32
  0
VERTEX
  5
2985
  8
240
 10
328.103999999999985
 20
20.0662999999999982
 30
0.0
 70
    32
  0
VERTEX
  5
2986
  8
240
 10
328.11099999999999
 20
20.0502000000000002
 30
0.0
 70
    32
  0
VERTEX
  5
2987
  8
240
 10
328.116999999999905
 20
20.0340999999999987
 30
0.0
 70
    32
  0
VERTEX
  5
2988
  8
240
 10
328.1230000000001041
 20
20.0179000000000009
 30
0.0
 70
    32
  0
VERTEX
  5
2989
  8
240
 10
328.1290000000000191
 20
20.0016999999999996
 30
0.0
 70
    32
  0
VERTEX
  5
298A
  8
240
 10
328.1360000000000241
 20
19.9856000000000016
 30
0.0
 70
    32
  0
VERTEX
  5
298B
  8
240
 10
328.1419999999999959
 20
19.9694000000000003
 30
0.0
 70
    32
  0
VERTEX
  5
298C
  8
240
 10
328.1480000000000246
 20
19.9532999999999987
 30
0.0
 70
    32
  0
VERTEX
  5
298D
  8
240
 10
328.1549999999999727
 20
19.9371000000000009
 30
0.0
 70
    32
  0
VERTEX
  5
298E
  8
240
 10
328.1610000000000014
 20
19.9208999999999996
 30
0.0
 70
    32
  0
VERTEX
  5
298F
  8
240
 10
328.1669999999999732
 20
19.9048000000000016
 30
0.0
 70
    32
  0
VERTEX
  5
2990
  8
240
 10
328.1739999999999782
 20
19.8886000000000003
 30
0.0
 70
    32
  0
VERTEX
  5
2991
  8
240
 10
328.1800000000000068
 20
19.872399999999999
 30
0.0
 70
    32
  0
VERTEX
  5
2992
  8
240
 10
328.1859999999999786
 20
19.8563000000000009
 30
0.0
 70
    32
  0
VERTEX
  5
2993
  8
240
 10
328.1919999999998936
 20
19.8400999999999996
 30
0.0
 70
    32
  0
VERTEX
  5
2994
  8
240
 10
328.1990000000000123
 20
19.8238999999999983
 30
0.0
 70
    32
  0
VERTEX
  5
2995
  8
240
 10
328.2049999999999841
 20
19.8077000000000005
 30
0.0
 70
    32
  0
VERTEX
  5
2996
  8
240
 10
328.2110000000000127
 20
19.791599999999999
 30
0.0
 70
    32
  0
VERTEX
  5
2997
  8
240
 10
328.2169999999999845
 20
19.7754000000000012
 30
0.0
 70
    32
  0
VERTEX
  5
2998
  8
240
 10
328.2239999999999895
 20
19.7591999999999999
 30
0.0
 70
    32
  0
VERTEX
  5
2999
  8
240
 10
328.2300000000000182
 20
19.7429999999999986
 30
0.0
 70
    32
  0
VERTEX
  5
299A
  8
240
 10
328.23599999999999
 20
19.7269000000000005
 30
0.0
 70
    32
  0
VERTEX
  5
299B
  8
240
 10
328.2420000000000186
 20
19.7106999999999992
 30
0.0
 70
    32
  0
VERTEX
  5
299C
  8
240
 10
328.2479999999999905
 20
19.6945000000000014
 30
0.0
 70
    32
  0
VERTEX
  5
299D
  8
240
 10
328.2549999999999955
 20
19.6783999999999999
 30
0.0
 70
    32
  0
VERTEX
  5
299E
  8
240
 10
328.2610000000000241
 20
19.6621999999999986
 30
0.0
 70
    32
  0
VERTEX
  5
299F
  8
240
 10
328.2669999999999959
 20
19.6460000000000008
 30
0.0
 70
    32
  0
VERTEX
  5
29A0
  8
240
 10
328.2730000000000246
 20
19.6298999999999992
 30
0.0
 70
    32
  0
VERTEX
  5
29A1
  8
240
 10
328.2789999999999964
 20
19.6137000000000015
 30
0.0
 70
    32
  0
VERTEX
  5
29A2
  8
240
 10
328.285000000000025
 20
19.5975999999999999
 30
0.0
 70
    32
  0
VERTEX
  5
29A3
  8
240
 10
328.2919999999999732
 20
19.5813999999999986
 30
0.0
 70
    32
  0
VERTEX
  5
29A4
  8
240
 10
328.2980000000000018
 20
19.5653000000000006
 30
0.0
 70
    32
  0
VERTEX
  5
29A5
  8
240
 10
328.3039999999999736
 20
19.5490999999999993
 30
0.0
 70
    32
  0
VERTEX
  5
29A6
  8
240
 10
328.3100000000000023
 20
19.5330000000000013
 30
0.0
 70
    32
  0
VERTEX
  5
29A7
  8
240
 10
328.3159999999999741
 20
19.5167999999999999
 30
0.0
 70
    32
  0
VERTEX
  5
29A8
  8
240
 10
328.3220000000000027
 20
19.5006999999999984
 30
0.0
 70
    32
  0
VERTEX
  5
29A9
  8
240
 10
328.3279999999999745
 20
19.4846000000000004
 30
0.0
 70
    32
  0
VERTEX
  5
29AA
  8
240
 10
328.3340000000000032
 20
19.4684999999999988
 30
0.0
 70
    32
  0
VERTEX
  5
29AB
  8
240
 10
328.3410000000000082
 20
19.452300000000001
 30
0.0
 70
    32
  0
VERTEX
  5
29AC
  8
240
 10
328.34699999999998
 20
19.4361999999999995
 30
0.0
 70
    32
  0
VERTEX
  5
29AD
  8
240
 10
328.3530000000000086
 20
19.4201000000000015
 30
0.0
 70
    32
  0
VERTEX
  5
29AE
  8
240
 10
328.3589999999999804
 20
19.4039999999999999
 30
0.0
 70
    32
  0
VERTEX
  5
29AF
  8
240
 10
328.3650000000000091
 20
19.3878999999999984
 30
0.0
 70
    32
  0
VERTEX
  5
29B0
  8
240
 10
328.3709999999999809
 20
19.3718000000000004
 30
0.0
 70
    32
  0
VERTEX
  5
29B1
  8
240
 10
328.3770000000000095
 20
19.3556999999999988
 30
0.0
 70
    32
  0
VERTEX
  5
29B2
  8
240
 10
328.3829999999999814
 20
19.3397000000000006
 30
0.0
 70
    32
  0
VERTEX
  5
29B3
  8
240
 10
328.38900000000001
 20
19.323599999999999
 30
0.0
 70
    32
  0
VERTEX
  5
29B4
  8
240
 10
328.3949999999999818
 20
19.307500000000001
 30
0.0
 70
    32
  0
VERTEX
  5
29B5
  8
240
 10
328.4010000000000105
 20
19.2914999999999992
 30
0.0
 70
    32
  0
VERTEX
  5
29B6
  8
240
 10
328.4069999999999823
 20
19.2754000000000012
 30
0.0
 70
    32
  0
VERTEX
  5
29B7
  8
240
 10
328.4130000000000109
 20
19.2593999999999994
 30
0.0
 70
    32
  0
VERTEX
  5
29B8
  8
240
 10
328.4190000000000964
 20
19.2433000000000014
 30
0.0
 70
    32
  0
VERTEX
  5
29B9
  8
240
 10
328.4250000000000114
 20
19.2272999999999996
 30
0.0
 70
    32
  0
VERTEX
  5
29BA
  8
240
 10
328.4309999999999832
 20
19.2113000000000014
 30
0.0
 70
    32
  0
VERTEX
  5
29BB
  8
240
 10
328.4370000000000118
 20
19.1952999999999996
 30
0.0
 70
    32
  0
VERTEX
  5
29BC
  8
240
 10
328.4429999999999836
 20
19.1793000000000013
 30
0.0
 70
    32
  0
VERTEX
  5
29BD
  8
240
 10
328.4490000000000123
 20
19.1632999999999996
 30
0.0
 70
    32
  0
VERTEX
  5
29BE
  8
240
 10
328.4549999999999841
 20
19.1473000000000013
 30
0.0
 70
    32
  0
VERTEX
  5
29BF
  8
240
 10
328.4610000000000127
 20
19.1312999999999995
 30
0.0
 70
    32
  0
VERTEX
  5
29C0
  8
240
 10
328.4669999999999845
 20
19.1154000000000011
 30
0.0
 70
    32
  0
VERTEX
  5
29C1
  8
240
 10
328.4730000000000132
 20
19.0993999999999993
 30
0.0
 70
    32
  0
VERTEX
  5
29C2
  8
240
 10
328.478999999999985
 20
19.0835000000000008
 30
0.0
 70
    32
  0
VERTEX
  5
29C3
  8
240
 10
328.4839999999999804
 20
19.067499999999999
 30
0.0
 70
    32
  0
VERTEX
  5
29C4
  8
240
 10
328.4900000000000091
 20
19.0516000000000005
 30
0.0
 70
    32
  0
VERTEX
  5
29C5
  8
240
 10
328.4959999999999809
 20
19.0356999999999985
 30
0.0
 70
    32
  0
VERTEX
  5
29C6
  8
240
 10
328.5019999999998959
 20
19.0198
 30
0.0
 70
    32
  0
VERTEX
  5
29C7
  8
240
 10
328.508000000000095
 20
19.0039000000000016
 30
0.0
 70
    32
  0
VERTEX
  5
29C8
  8
240
 10
328.51400000000001
 20
18.9879999999999995
 30
0.0
 70
    32
  0
VERTEX
  5
29C9
  8
240
 10
328.5199999999999818
 20
18.9722000000000008
 30
0.0
 70
    32
  0
VERTEX
  5
29CA
  8
240
 10
328.5249999999999773
 20
18.9562999999999988
 30
0.0
 70
    32
  0
VERTEX
  5
29CB
  8
240
 10
328.5310000000000059
 20
18.9405000000000001
 30
0.0
 70
    32
  0
VERTEX
  5
29CC
  8
240
 10
328.5369999999999777
 20
18.9246000000000016
 30
0.0
 70
    32
  0
VERTEX
  5
29CD
  8
240
 10
328.5430000000000064
 20
18.9087999999999994
 30
0.0
 70
    32
  0
VERTEX
  5
29CE
  8
240
 10
328.5489999999999782
 20
18.8930000000000007
 30
0.0
 70
    32
  0
VERTEX
  5
29CF
  8
240
 10
328.5540000000000873
 20
18.8771999999999984
 30
0.0
 70
    32
  0
VERTEX
  5
29D0
  8
240
 10
328.5600000000000023
 20
18.8613999999999997
 30
0.0
 70
    32
  0
VERTEX
  5
29D1
  8
240
 10
328.5659999999999741
 20
18.8457000000000008
 30
0.0
 70
    32
  0
VERTEX
  5
29D2
  8
240
 10
328.571999999999889
 20
18.8298999999999985
 30
0.0
 70
    32
  0
VERTEX
  5
29D3
  8
240
 10
328.5769999999999982
 20
18.8141999999999996
 30
0.0
 70
    32
  0
VERTEX
  5
29D4
  8
240
 10
328.5830000000000268
 20
18.7985000000000007
 30
0.0
 70
    32
  0
VERTEX
  5
29D5
  8
240
 10
328.5889999999999986
 20
18.7828000000000017
 30
0.0
 70
    32
  0
VERTEX
  5
29D6
  8
240
 10
328.5950000000000273
 20
18.7670999999999992
 30
0.0
 70
    32
  0
VERTEX
  5
29D7
  8
240
 10
328.6000000000000227
 20
18.7514000000000003
 30
0.0
 70
    32
  0
VERTEX
  5
29D8
  8
240
 10
328.6059999999999945
 20
18.7357000000000014
 30
0.0
 70
    32
  0
VERTEX
  5
29D9
  8
240
 10
328.6120000000000232
 20
18.7200999999999986
 30
0.0
 70
    32
  0
VERTEX
  5
29DA
  8
240
 10
328.6170000000000186
 20
18.7044999999999995
 30
0.0
 70
    32
  0
VERTEX
  5
29DB
  8
240
 10
328.6230000000001041
 20
18.6888000000000005
 30
0.0
 70
    32
  0
VERTEX
  5
29DC
  8
240
 10
328.6279999999999859
 20
18.6732000000000014
 30
0.0
 70
    32
  0
VERTEX
  5
29DD
  8
240
 10
328.6340000000000146
 20
18.6576999999999984
 30
0.0
 70
    32
  0
VERTEX
  5
29DE
  8
240
 10
328.6399999999999864
 20
18.6420999999999992
 30
0.0
 70
    32
  0
VERTEX
  5
29DF
  8
240
 10
328.6449999999999818
 20
18.6265000000000001
 30
0.0
 70
    32
  0
VERTEX
  5
29E0
  8
240
 10
328.6510000000000105
 20
18.6110000000000007
 30
0.0
 70
    32
  0
VERTEX
  5
29E1
  8
240
 10
328.6560000000000059
 20
18.5955000000000013
 30
0.0
 70
    32
  0
VERTEX
  5
29E2
  8
240
 10
328.6619999999999777
 20
18.5799999999999983
 30
0.0
 70
    32
  0
VERTEX
  5
29E3
  8
240
 10
328.6680000000000064
 20
18.5644999999999989
 30
0.0
 70
    32
  0
VERTEX
  5
29E4
  8
240
 10
328.6730000000000018
 20
18.5489999999999995
 30
0.0
 70
    32
  0
VERTEX
  5
29E5
  8
240
 10
328.6789999999999736
 20
18.5335999999999999
 30
0.0
 70
    32
  0
VERTEX
  5
29E6
  8
240
 10
328.6840000000000259
 20
18.5181000000000004
 30
0.0
 70
    32
  0
VERTEX
  5
29E7
  8
240
 10
328.6899999999999977
 20
18.5027000000000008
 30
0.0
 70
    32
  0
VERTEX
  5
29E8
  8
240
 10
328.6949999999999932
 20
18.4873000000000012
 30
0.0
 70
    32
  0
VERTEX
  5
29E9
  8
240
 10
328.7009999999999081
 20
18.4719000000000015
 30
0.0
 70
    32
  0
VERTEX
  5
29EA
  8
240
 10
328.7060000000000173
 20
18.4566000000000017
 30
0.0
 70
    32
  0
VERTEX
  5
29EB
  8
240
 10
328.7119999999999891
 20
18.4411999999999985
 30
0.0
 70
    32
  0
VERTEX
  5
29EC
  8
240
 10
328.7169999999999845
 20
18.4258999999999986
 30
0.0
 70
    32
  0
VERTEX
  5
29ED
  8
240
 10
328.7230000000000132
 20
18.4105999999999987
 30
0.0
 70
    32
  0
VERTEX
  5
29EE
  8
240
 10
328.7280000000000086
 20
18.3952999999999989
 30
0.0
 70
    32
  0
VERTEX
  5
29EF
  8
240
 10
328.7330000000000041
 20
18.3800999999999988
 30
0.0
 70
    32
  0
VERTEX
  5
29F0
  8
240
 10
328.7389999999999759
 20
18.3647999999999989
 30
0.0
 70
    32
  0
VERTEX
  5
29F1
  8
240
 10
328.7440000000000282
 20
18.3495999999999988
 30
0.0
 70
    32
  0
VERTEX
  5
29F2
  8
240
 10
328.75
 20
18.3343999999999987
 30
0.0
 70
    32
  0
VERTEX
  5
29F3
  8
240
 10
328.7549999999999955
 20
18.3191999999999986
 30
0.0
 70
    32
  0
VERTEX
  5
29F4
  8
240
 10
328.7599999999999909
 20
18.3039999999999985
 30
0.0
 70
    32
  0
VERTEX
  5
29F5
  8
240
 10
328.7660000000000196
 20
18.2889000000000017
 30
0.0
 70
    32
  0
VERTEX
  5
29F6
  8
240
 10
328.771000000000015
 20
18.2737000000000016
 30
0.0
 70
    32
  0
VERTEX
  5
29F7
  8
240
 10
328.7760000000000105
 20
18.2586000000000013
 30
0.0
 70
    32
  0
VERTEX
  5
29F8
  8
240
 10
328.7819999999999823
 20
18.2436000000000007
 30
0.0
 70
    32
  0
VERTEX
  5
29F9
  8
240
 10
328.7869999999999777
 20
18.2285000000000004
 30
0.0
 70
    32
  0
VERTEX
  5
29FA
  8
240
 10
328.7919999999999732
 20
18.2134999999999998
 30
0.0
 70
    32
  0
VERTEX
  5
29FB
  8
240
 10
328.7970000000000255
 20
18.1983999999999995
 30
0.0
 70
    32
  0
VERTEX
  5
29FC
  8
240
 10
328.8029999999999973
 20
18.1833999999999989
 30
0.0
 70
    32
  0
VERTEX
  5
29FD
  8
240
 10
328.8080000000001064
 20
18.1685000000000016
 30
0.0
 70
    32
  0
VERTEX
  5
29FE
  8
240
 10
328.8130000000001019
 20
18.1535000000000011
 30
0.0
 70
    32
  0
VERTEX
  5
29FF
  8
240
 10
328.8179999999999836
 20
18.1386000000000003
 30
0.0
 70
    32
  0
VERTEX
  5
2A00
  8
240
 10
328.8240000000000123
 20
18.1236999999999995
 30
0.0
 70
    32
  0
VERTEX
  5
2A01
  8
240
 10
328.8290000000000077
 20
18.1087999999999987
 30
0.0
 70
    32
  0
VERTEX
  5
2A02
  8
240
 10
328.8340000000000032
 20
18.0939000000000014
 30
0.0
 70
    32
  0
VERTEX
  5
2A03
  8
240
 10
328.8389999999999986
 20
18.0791000000000004
 30
0.0
 70
    32
  0
VERTEX
  5
2A04
  8
240
 10
328.8439999999999941
 20
18.0642999999999994
 30
0.0
 70
    32
  0
VERTEX
  5
2A05
  8
240
 10
328.8489999999999895
 20
18.0494999999999983
 30
0.0
 70
    32
  0
VERTEX
  5
2A06
  8
240
 10
328.8550000000000182
 20
18.0347000000000008
 30
0.0
 70
    32
  0
VERTEX
  5
2A07
  8
240
 10
328.8600000000000136
 20
18.0199999999999996
 30
0.0
 70
    32
  0
VERTEX
  5
2A08
  8
240
 10
328.8650000000000091
 20
18.0052999999999983
 30
0.0
 70
    32
  0
VERTEX
  5
2A09
  8
240
 10
328.8700000000000045
 20
17.9906000000000006
 30
0.0
 70
    32
  0
VERTEX
  5
2A0A
  8
240
 10
328.875
 20
17.9758999999999993
 30
0.0
 70
    32
  0
VERTEX
  5
2A0B
  8
240
 10
328.8799999999999955
 20
17.9613000000000014
 30
0.0
 70
    32
  0
VERTEX
  5
2A0C
  8
240
 10
328.8849999999999909
 20
17.9466000000000001
 30
0.0
 70
    32
  0
VERTEX
  5
2A0D
  8
240
 10
328.8899999999999864
 20
17.9320999999999984
 30
0.0
 70
    32
  0
VERTEX
  5
2A0E
  8
240
 10
328.8949999999999818
 20
17.9175000000000004
 30
0.0
 70
    32
  0
VERTEX
  5
2A0F
  8
240
 10
328.8999999999999773
 20
17.9028999999999989
 30
0.0
 70
    32
  0
VERTEX
  5
2A10
  8
240
 10
328.9049999999999727
 20
17.8884000000000007
 30
0.0
 70
    32
  0
VERTEX
  5
2A11
  8
240
 10
328.910000000000025
 20
17.873899999999999
 30
0.0
 70
    32
  0
VERTEX
  5
2A12
  8
240
 10
328.9150000000000205
 20
17.8595000000000006
 30
0.0
 70
    32
  0
VERTEX
  5
2A13
  8
240
 10
328.9200000000000159
 20
17.8450999999999986
 30
0.0
 70
    32
  0
VERTEX
  5
2A14
  8
240
 10
328.9250000000000114
 20
17.8306000000000004
 30
0.0
 70
    32
  0
VERTEX
  5
2A15
  8
240
 10
328.9300000000000068
 20
17.8162999999999982
 30
0.0
 70
    32
  0
VERTEX
  5
2A16
  8
240
 10
328.9350000000000023
 20
17.8018999999999998
 30
0.0
 70
    32
  0
VERTEX
  5
2A17
  8
240
 10
328.9399999999999977
 20
17.7876000000000012
 30
0.0
 70
    32
  0
VERTEX
  5
2A18
  8
240
 10
328.9449999999999932
 20
17.773299999999999
 30
0.0
 70
    32
  0
VERTEX
  5
2A19
  8
240
 10
328.9490000000000123
 20
17.7590000000000003
 30
0.0
 70
    32
  0
VERTEX
  5
2A1A
  8
240
 10
328.9540000000000077
 20
17.7448000000000015
 30
0.0
 70
    32
  0
VERTEX
  5
2A1B
  8
240
 10
328.9590000000000032
 20
17.730599999999999
 30
0.0
 70
    32
  0
VERTEX
  5
2A1C
  8
240
 10
328.9639999999999986
 20
17.7164000000000001
 30
0.0
 70
    32
  0
VERTEX
  5
2A1D
  8
240
 10
328.9689999999999941
 20
17.7022000000000013
 30
0.0
 70
    32
  0
VERTEX
  5
2A1E
  8
240
 10
328.9739999999999895
 20
17.6880999999999986
 30
0.0
 70
    32
  0
VERTEX
  5
2A1F
  8
240
 10
328.9780000000000086
 20
17.6739999999999995
 30
0.0
 70
    32
  0
VERTEX
  5
2A20
  8
240
 10
328.9830000000000041
 20
17.6599000000000004
 30
0.0
 70
    32
  0
VERTEX
  5
2A21
  8
240
 10
328.9880000000001132
 20
17.645900000000001
 30
0.0
 70
    32
  0
VERTEX
  5
2A22
  8
240
 10
328.992999999999995
 20
17.6319000000000017
 30
0.0
 70
    32
  0
VERTEX
  5
2A23
  8
240
 10
328.9970000000000141
 20
17.6178999999999988
 30
0.0
 70
    32
  0
VERTEX
  5
2A24
  8
240
 10
329.0020000000000095
 20
17.6038999999999994
 30
0.0
 70
    32
  0
VERTEX
  5
2A25
  8
240
 10
329.007000000000005
 20
17.5899999999999999
 30
0.0
 70
    32
  0
VERTEX
  5
2A26
  8
240
 10
329.0110000000000241
 20
17.5761000000000003
 30
0.0
 70
    32
  0
VERTEX
  5
2A27
  8
240
 10
329.0160000000000196
 20
17.5623000000000005
 30
0.0
 70
    32
  0
VERTEX
  5
2A28
  8
240
 10
329.021000000000015
 20
17.5485000000000007
 30
0.0
 70
    32
  0
VERTEX
  5
2A29
  8
240
 10
329.0249999999999773
 20
17.5347000000000008
 30
0.0
 70
    32
  0
VERTEX
  5
2A2A
  8
240
 10
329.0299999999999727
 20
17.520900000000001
 30
0.0
 70
    32
  0
VERTEX
  5
2A2B
  8
240
 10
329.035000000000025
 20
17.507200000000001
 30
0.0
 70
    32
  0
VERTEX
  5
2A2C
  8
240
 10
329.0389999999999873
 20
17.4934000000000012
 30
0.0
 70
    32
  0
VERTEX
  5
2A2D
  8
240
 10
329.0439999999999827
 20
17.4798000000000009
 30
0.0
 70
    32
  0
VERTEX
  5
2A2E
  8
240
 10
329.0480000000000018
 20
17.4661000000000008
 30
0.0
 70
    32
  0
VERTEX
  5
2A2F
  8
240
 10
329.0529999999999973
 20
17.4525000000000006
 30
0.0
 70
    32
  0
VERTEX
  5
2A30
  8
240
 10
329.0570000000000164
 20
17.4390000000000001
 30
0.0
 70
    32
  0
VERTEX
  5
2A31
  8
240
 10
329.0620000000000118
 20
17.4253999999999998
 30
0.0
 70
    32
  0
VERTEX
  5
2A32
  8
240
 10
329.0669999999998936
 20
17.4118999999999993
 30
0.0
 70
    32
  0
VERTEX
  5
2A33
  8
240
 10
329.0710000000000264
 20
17.3983999999999988
 30
0.0
 70
    32
  0
VERTEX
  5
2A34
  8
240
 10
329.0760000000000218
 20
17.3850000000000016
 30
0.0
 70
    32
  0
VERTEX
  5
2A35
  8
240
 10
329.0799999999999841
 20
17.3716000000000008
 30
0.0
 70
    32
  0
VERTEX
  5
2A36
  8
240
 10
329.0840000000000032
 20
17.3582000000000001
 30
0.0
 70
    32
  0
VERTEX
  5
2A37
  8
240
 10
329.0889999999999986
 20
17.3447999999999993
 30
0.0
 70
    32
  0
VERTEX
  5
2A38
  8
240
 10
329.0930000000000177
 20
17.3314999999999984
 30
0.0
 70
    32
  0
VERTEX
  5
2A39
  8
240
 10
329.0980000000000132
 20
17.3182000000000009
 30
0.0
 70
    32
  0
VERTEX
  5
2A3A
  8
240
 10
329.1019999999999754
 20
17.3049999999999997
 30
0.0
 70
    32
  0
VERTEX
  5
2A3B
  8
240
 10
329.1059999999999945
 20
17.2917999999999985
 30
0.0
 70
    32
  0
VERTEX
  5
2A3C
  8
240
 10
329.11099999999999
 20
17.2786000000000008
 30
0.0
 70
    32
  0
VERTEX
  5
2A3D
  8
240
 10
329.1150000000000091
 20
17.2653999999999996
 30
0.0
 70
    32
  0
VERTEX
  5
2A3E
  8
240
 10
329.1200000000000045
 20
17.2523000000000017
 30
0.0
 70
    32
  0
VERTEX
  5
2A3F
  8
240
 10
329.1240000000000236
 20
17.2392000000000003
 30
0.0
 70
    32
  0
VERTEX
  5
2A40
  8
240
 10
329.1279999999999859
 20
17.2261999999999986
 30
0.0
 70
    32
  0
VERTEX
  5
2A41
  8
240
 10
329.1319999999998913
 20
17.2132000000000005
 30
0.0
 70
    32
  0
VERTEX
  5
2A42
  8
240
 10
329.1370000000000005
 20
17.2001999999999988
 30
0.0
 70
    32
  0
VERTEX
  5
2A43
  8
240
 10
329.1409999999999059
 20
17.1873000000000005
 30
0.0
 70
    32
  0
VERTEX
  5
2A44
  8
240
 10
329.1449999999999818
 20
17.1742999999999988
 30
0.0
 70
    32
  0
VERTEX
  5
2A45
  8
240
 10
329.1490000000000009
 20
17.1615000000000002
 30
0.0
 70
    32
  0
VERTEX
  5
2A46
  8
240
 10
329.1539999999999964
 20
17.1485999999999983
 30
0.0
 70
    32
  0
VERTEX
  5
2A47
  8
240
 10
329.1580000000000155
 20
17.1357999999999997
 30
0.0
 70
    32
  0
VERTEX
  5
2A48
  8
240
 10
329.1619999999999777
 20
17.1231000000000009
 30
0.0
 70
    32
  0
VERTEX
  5
2A49
  8
240
 10
329.1659999999999968
 20
17.1102999999999987
 30
0.0
 70
    32
  0
VERTEX
  5
2A4A
  8
240
 10
329.1700000000000159
 20
17.0975999999999999
 30
0.0
 70
    32
  0
VERTEX
  5
2A4B
  8
240
 10
329.1750000000000114
 20
17.0850000000000009
 30
0.0
 70
    32
  0
VERTEX
  5
2A4C
  8
240
 10
329.1789999999999736
 20
17.0723999999999982
 30
0.0
 70
    32
  0
VERTEX
  5
2A4D
  8
240
 10
329.1829999999999927
 20
17.0597999999999992
 30
0.0
 70
    32
  0
VERTEX
  5
2A4E
  8
240
 10
329.1869999999998981
 20
17.0472000000000001
 30
0.0
 70
    32
  0
VERTEX
  5
2A4F
  8
240
 10
329.1909999999999741
 20
17.0347000000000008
 30
0.0
 70
    32
  0
VERTEX
  5
2A50
  8
240
 10
329.1949999999999932
 20
17.0222000000000016
 30
0.0
 70
    32
  0
VERTEX
  5
2A51
  8
240
 10
329.1990000000000123
 20
17.0097999999999985
 30
0.0
 70
    32
  0
VERTEX
  5
2A52
  8
240
 10
329.2029999999999745
 20
16.997399999999999
 30
0.0
 70
    32
  0
VERTEX
  5
2A53
  8
240
 10
329.2069999999999936
 20
16.9849999999999994
 30
0.0
 70
    32
  0
VERTEX
  5
2A54
  8
240
 10
329.2110000000000127
 20
16.9726999999999997
 30
0.0
 70
    32
  0
VERTEX
  5
2A55
  8
240
 10
329.214999999999975
 20
16.9603999999999999
 30
0.0
 70
    32
  0
VERTEX
  5
2A56
  8
240
 10
329.2189999999999941
 20
16.9481999999999999
 30
0.0
 70
    32
  0
VERTEX
  5
2A57
  8
240
 10
329.2230000000000132
 20
16.9359000000000002
 30
0.0
 70
    32
  0
VERTEX
  5
2A58
  8
240
 10
329.2269999999999754
 20
16.9238
 30
0.0
 70
    32
  0
VERTEX
  5
2A59
  8
240
 10
329.2309999999999945
 20
16.9116
 30
0.0
 70
    32
  0
VERTEX
  5
2A5A
  8
240
 10
329.2350000000000136
 20
16.8994999999999997
 30
0.0
 70
    32
  0
VERTEX
  5
2A5B
  8
240
 10
329.2390000000000896
 20
16.8874999999999993
 30
0.0
 70
    32
  0
VERTEX
  5
2A5C
  8
240
 10
329.242999999999995
 20
16.8753999999999991
 30
0.0
 70
    32
  0
VERTEX
  5
2A5D
  8
240
 10
329.2459999999999809
 20
16.8634999999999984
 30
0.0
 70
    32
  0
VERTEX
  5
2A5E
  8
240
 10
329.25
 20
16.8515000000000015
 30
0.0
 70
    32
  0
VERTEX
  5
2A5F
  8
240
 10
329.2540000000000191
 20
16.8396000000000008
 30
0.0
 70
    32
  0
VERTEX
  5
2A60
  8
240
 10
329.2579999999999814
 20
16.8277000000000001
 30
0.0
 70
    32
  0
VERTEX
  5
2A61
  8
240
 10
329.2619999999998868
 20
16.8158999999999992
 30
0.0
 70
    32
  0
VERTEX
  5
2A62
  8
240
 10
329.2649999999999864
 20
16.8040999999999983
 30
0.0
 70
    32
  0
VERTEX
  5
2A63
  8
240
 10
329.2690000000000055
 20
16.7924000000000007
 30
0.0
 70
    32
  0
VERTEX
  5
2A64
  8
240
 10
329.2730000000000246
 20
16.7806999999999995
 30
0.0
 70
    32
  0
VERTEX
  5
2A65
  8
240
 10
329.2769999999999868
 20
16.7689999999999984
 30
0.0
 70
    32
  0
VERTEX
  5
2A66
  8
240
 10
329.2799999999999727
 20
16.7574000000000005
 30
0.0
 70
    32
  0
SEQEND
  5
2A67
  8
240
  0
ARC
  5
1609
  8
240
  6
CONTINUOUS
 10
257.3757585574281848
 20
-32.8319304662876519
 30
0.0
 40
16.0673834696222393
 50
229.6258638073556995
 51
247.6557208093628901
  0
ARC
  5
160A
  8
240
  6
CONTINUOUS
 10
250.571741152057001
 20
-40.7574116917555216
 30
0.0
 40
5.6222466899706447
 50
208.0521815583697958
 51
230.1310632475125999
  0
ARC
  5
160B
  8
240
  6
CONTINUOUS
 10
247.5022862926315099
 20
-42.47320227908898
 30
0.0
 40
2.1076852488369191
 50
181.5920543273562942
 51
206.1290943175579002
  0
LINE
  5
160C
  8
240
  6
CONTINUOUS
 10
263.269156235423111
 20
-49.93250352560176
 30
0.0
 11
276.895414657619483
 21
-49.93250352560176
 31
0.0
  0
ARC
  5
160D
  8
240
  6
CONTINUOUS
 10
262.7589313807268923
 20
-19.1686049109323413
 30
0.0
 40
30.7520955556985385
 50
248.0570789506984966
 51
268.4072636444298041
  0
POLYLINE
  5
2A68
  8
240
 66
     1
 10
0.0
 20
0.0
 30
0.0
 70
     8
  0
VERTEX
  5
2A69
  8
240
 10
251.3950000000000102
 20
-47.5893999999999906
 30
0.0
 70
    32
  0
VERTEX
  5
2A6A
  8
240
 10
251.3940000000000055
 20
-47.5902000000000029
 30
0.0
 70
    32
  0
VERTEX
  5
2A6B
  8
240
 10
251.3930000000000007
 20
-47.5910000000000011
 30
0.0
 70
    32
  0
VERTEX
  5
2A6C
  8
240
 10
251.3919999999999959
 20
-47.5917999999999921
 30
0.0
 70
    32
  0
VERTEX
  5
2A6D
  8
240
 10
251.3909999999999911
 20
-47.5925999999999974
 30
0.0
 70
    32
  0
VERTEX
  5
2A6E
  8
240
 10
251.3899999999999864
 20
-47.5934999999999988
 30
0.0
 70
    32
  0
VERTEX
  5
2A6F
  8
240
 10
251.38900000000001
 20
-47.5942999999999969
 30
0.0
 70
    32
  0
VERTEX
  5
2A70
  8
240
 10
251.3880000000000052
 20
-47.5951000000000022
 30
0.0
 70
    32
  0
VERTEX
  5
2A71
  8
240
 10
251.3870000000000005
 20
-47.5959000000000003
 30
0.0
 70
    32
  0
VERTEX
  5
2A72
  8
240
 10
251.3859999999999957
 20
-47.5966999999999913
 30
0.0
 70
    32
  0
VERTEX
  5
2A73
  8
240
 10
251.3849999999999909
 20
-47.5974999999999895
 30
0.0
 70
    32
  0
VERTEX
  5
2A74
  8
240
 10
251.3839999999999861
 20
-47.5983999999999909
 30
0.0
 70
    32
  0
VERTEX
  5
2A75
  8
240
 10
251.3830000000000098
 20
-47.5992000000000033
 30
0.0
 70
    32
  0
VERTEX
  5
2A76
  8
240
 10
251.382000000000005
 20
-47.6000000000000014
 30
0.0
 70
    32
  0
VERTEX
  5
2A77
  8
240
 10
251.3810000000000002
 20
-47.6007999999999996
 30
0.0
 70
    32
  0
VERTEX
  5
2A78
  8
240
 10
251.3799999999999955
 20
-47.6015999999999906
 30
0.0
 70
    32
  0
VERTEX
  5
2A79
  8
240
 10
251.3789999999999907
 20
-47.6024999999999991
 30
0.0
 70
    32
  0
VERTEX
  5
2A7A
  8
240
 10
251.3779999999999859
 20
-47.6032999999999902
 30
0.0
 70
    32
  0
VERTEX
  5
2A7B
  8
240
 10
251.3770000000000095
 20
-47.6041000000000025
 30
0.0
 70
    32
  0
VERTEX
  5
2A7C
  8
240
 10
251.3760000000000048
 20
-47.6048999999999864
 30
0.0
 70
    32
  0
VERTEX
  5
2A7D
  8
240
 10
251.375
 20
-47.6056999999999988
 30
0.0
 70
    32
  0
VERTEX
  5
2A7E
  8
240
 10
251.3739999999999952
 20
-47.6064999999999969
 30
0.0
 70
    32
  0
VERTEX
  5
2A7F
  8
240
 10
251.3729999999999905
 20
-47.6073999999999984
 30
0.0
 70
    32
  0
VERTEX
  5
2A80
  8
240
 10
251.3720000000000141
 20
-47.6081999999999894
 30
0.0
 70
    32
  0
VERTEX
  5
2A81
  8
240
 10
251.3710000000000093
 20
-47.6090000000000018
 30
0.0
 70
    32
  0
VERTEX
  5
2A82
  8
240
 10
251.3700000000000045
 20
-47.6097999999999928
 30
0.0
 70
    32
  0
VERTEX
  5
2A83
  8
240
 10
251.3689999999999998
 20
-47.6105999999999909
 30
0.0
 70
    32
  0
VERTEX
  5
2A84
  8
240
 10
251.367999999999995
 20
-47.6114999999999924
 30
0.0
 70
    32
  0
VERTEX
  5
2A85
  8
240
 10
251.3669999999999902
 20
-47.6122999999999976
 30
0.0
 70
    32
  0
VERTEX
  5
2A86
  8
240
 10
251.3660000000000139
 20
-47.6131000000000029
 30
0.0
 70
    32
  0
VERTEX
  5
2A87
  8
240
 10
251.3650000000000091
 20
-47.613900000000001
 30
0.0
 70
    32
  0
VERTEX
  5
2A88
  8
240
 10
251.3640000000000043
 20
-47.6146999999999991
 30
0.0
 70
    32
  0
VERTEX
  5
2A89
  8
240
 10
251.3629999999999995
 20
-47.6154999999999902
 30
0.0
 70
    32
  0
VERTEX
  5
2A8A
  8
240
 10
251.3619999999999948
 20
-47.6163999999999916
 30
0.0
 70
    32
  0
VERTEX
  5
2A8B
  8
240
 10
251.36099999999999
 20
-47.6171999999999898
 30
0.0
 70
    32
  0
VERTEX
  5
2A8C
  8
240
 10
251.3600000000000136
 20
-47.6180000000000021
 30
0.0
 70
    32
  0
VERTEX
  5
2A8D
  8
240
 10
251.3590000000000089
 20
-47.6188000000000002
 30
0.0
 70
    32
  0
VERTEX
  5
2A8E
  8
240
 10
251.3580000000000041
 20
-47.6195999999999984
 30
0.0
 70
    32
  0
VERTEX
  5
2A8F
  8
240
 10
251.3569999999999993
 20
-47.6203999999999894
 30
0.0
 70
    32
  0
VERTEX
  5
2A90
  8
240
 10
251.3559999999999945
 20
-47.6212999999999909
 30
0.0
 70
    32
  0
VERTEX
  5
2A91
  8
240
 10
251.3549999999999898
 20
-47.6221000000000032
 30
0.0
 70
    32
  0
VERTEX
  5
2A92
  8
240
 10
251.3540000000000134
 20
-47.6229000000000013
 30
0.0
 70
    32
  0
VERTEX
  5
2A93
  8
240
 10
251.3530000000000086
 20
-47.6236999999999924
 30
0.0
 70
    32
  0
VERTEX
  5
2A94
  8
240
 10
251.3520000000000039
 20
-47.6244999999999976
 30
0.0
 70
    32
  0
VERTEX
  5
2A95
  8
240
 10
251.3509999999999991
 20
-47.6253000000000029
 30
0.0
 70
    32
  0
VERTEX
  5
2A96
  8
240
 10
251.3499999999999943
 20
-47.6261999999999972
 30
0.0
 70
    32
  0
VERTEX
  5
2A97
  8
240
 10
251.3489999999999895
 20
-47.6270000000000024
 30
0.0
 70
    32
  0
VERTEX
  5
2A98
  8
240
 10
251.3480000000000132
 20
-47.6278000000000006
 30
0.0
 70
    32
  0
VERTEX
  5
2A99
  8
240
 10
251.3470000000000084
 20
-47.6285999999999916
 30
0.0
 70
    32
  0
VERTEX
  5
2A9A
  8
240
 10
251.3460000000000036
 20
-47.6293999999999897
 30
0.0
 70
    32
  0
VERTEX
  5
2A9B
  8
240
 10
251.3449999999999989
 20
-47.6302000000000021
 30
0.0
 70
    32
  0
VERTEX
  5
2A9C
  8
240
 10
251.3439999999999941
 20
-47.6311000000000035
 30
0.0
 70
    32
  0
VERTEX
  5
2A9D
  8
240
 10
251.3429999999999893
 20
-47.6319000000000017
 30
0.0
 70
    32
  0
VERTEX
  5
2A9E
  8
240
 10
251.342000000000013
 20
-47.6326999999999998
 30
0.0
 70
    32
  0
VERTEX
  5
2A9F
  8
240
 10
251.3410000000000082
 20
-47.6334999999999908
 30
0.0
 70
    32
  0
VERTEX
  5
2AA0
  8
240
 10
251.3400000000000034
 20
-47.6343000000000032
 30
0.0
 70
    32
  0
VERTEX
  5
2AA1
  8
240
 10
251.3389999999999986
 20
-47.6351000000000013
 30
0.0
 70
    32
  0
VERTEX
  5
2AA2
  8
240
 10
251.3379999999999939
 20
-47.6360000000000028
 30
0.0
 70
    32
  0
VERTEX
  5
2AA3
  8
240
 10
251.3369999999999891
 20
-47.6367999999999867
 30
0.0
 70
    32
  0
VERTEX
  5
2AA4
  8
240
 10
251.3360000000000127
 20
-47.6375999999999991
 30
0.0
 70
    32
  0
VERTEX
  5
2AA5
  8
240
 10
251.335000000000008
 20
-47.6383999999999972
 30
0.0
 70
    32
  0
VERTEX
  5
2AA6
  8
240
 10
251.3340000000000032
 20
-47.6392000000000024
 30
0.0
 70
    32
  0
VERTEX
  5
2AA7
  8
240
 10
251.3329999999999984
 20
-47.6400000000000006
 30
0.0
 70
    32
  0
VERTEX
  5
2AA8
  8
240
 10
251.3319999999999936
 20
-47.640900000000002
 30
0.0
 70
    32
  0
VERTEX
  5
2AA9
  8
240
 10
251.3309999999999889
 20
-47.6417000000000002
 30
0.0
 70
    32
  0
VERTEX
  5
2AAA
  8
240
 10
251.3300000000000125
 20
-47.6424999999999912
 30
0.0
 70
    32
  0
VERTEX
  5
2AAB
  8
240
 10
251.3290000000000077
 20
-47.6433000000000035
 30
0.0
 70
    32
  0
VERTEX
  5
2AAC
  8
240
 10
251.328000000000003
 20
-47.6441000000000017
 30
0.0
 70
    32
  0
VERTEX
  5
2AAD
  8
240
 10
251.3269999999999982
 20
-47.6448999999999998
 30
0.0
 70
    32
  0
VERTEX
  5
2AAE
  8
240
 10
251.3259999999999934
 20
-47.6456999999999908
 30
0.0
 70
    32
  0
VERTEX
  5
2AAF
  8
240
 10
251.3249999999999886
 20
-47.6465999999999994
 30
0.0
 70
    32
  0
VERTEX
  5
2AB0
  8
240
 10
251.3240000000000123
 20
-47.6473999999999904
 30
0.0
 70
    32
  0
VERTEX
  5
2AB1
  8
240
 10
251.3230000000000075
 20
-47.6482000000000028
 30
0.0
 70
    32
  0
VERTEX
  5
2AB2
  8
240
 10
251.3220000000000027
 20
-47.6489999999999867
 30
0.0
 70
    32
  0
VERTEX
  5
2AB3
  8
240
 10
251.320999999999998
 20
-47.649799999999999
 30
0.0
 70
    32
  0
VERTEX
  5
2AB4
  8
240
 10
251.3199999999999932
 20
-47.6505999999999972
 30
0.0
 70
    32
  0
VERTEX
  5
2AB5
  8
240
 10
251.3189999999999884
 20
-47.6514000000000024
 30
0.0
 70
    32
  0
VERTEX
  5
2AB6
  8
240
 10
251.3180000000000121
 20
-47.6522999999999897
 30
0.0
 70
    32
  0
VERTEX
  5
2AB7
  8
240
 10
251.3170000000000073
 20
-47.653100000000002
 30
0.0
 70
    32
  0
VERTEX
  5
2AB8
  8
240
 10
251.3160000000000025
 20
-47.6539000000000001
 30
0.0
 70
    32
  0
VERTEX
  5
2AB9
  8
240
 10
251.3149999999999977
 20
-47.6546999999999912
 30
0.0
 70
    32
  0
VERTEX
  5
2ABA
  8
240
 10
251.313999999999993
 20
-47.6555000000000035
 30
0.0
 70
    32
  0
VERTEX
  5
2ABB
  8
240
 10
251.3129999999999882
 20
-47.6563000000000017
 30
0.0
 70
    32
  0
VERTEX
  5
2ABC
  8
240
 10
251.3120000000000118
 20
-47.6570999999999998
 30
0.0
 70
    32
  0
VERTEX
  5
2ABD
  8
240
 10
251.311000000000007
 20
-47.6580000000000013
 30
0.0
 70
    32
  0
VERTEX
  5
2ABE
  8
240
 10
251.3100000000000023
 20
-47.6587999999999994
 30
0.0
 70
    32
  0
VERTEX
  5
2ABF
  8
240
 10
251.3089999999999975
 20
-47.6595999999999904
 30
0.0
 70
    32
  0
VERTEX
  5
2AC0
  8
240
 10
251.3079999999999927
 20
-47.6604000000000028
 30
0.0
 70
    32
  0
VERTEX
  5
2AC1
  8
240
 10
251.3069999999999879
 20
-47.6611999999999867
 30
0.0
 70
    32
  0
VERTEX
  5
2AC2
  8
240
 10
251.3060000000000116
 20
-47.661999999999999
 30
0.0
 70
    32
  0
VERTEX
  5
2AC3
  8
240
 10
251.3050000000000068
 20
-47.6627999999999972
 30
0.0
 70
    32
  0
VERTEX
  5
2AC4
  8
240
 10
251.304000000000002
 20
-47.6636999999999986
 30
0.0
 70
    32
  0
VERTEX
  5
2AC5
  8
240
 10
251.3029999999999973
 20
-47.6644999999999897
 30
0.0
 70
    32
  0
VERTEX
  5
2AC6
  8
240
 10
251.3019999999999925
 20
-47.665300000000002
 30
0.0
 70
    32
  0
VERTEX
  5
2AC7
  8
240
 10
251.3009999999999877
 20
-47.6661000000000001
 30
0.0
 70
    32
  0
VERTEX
  5
2AC8
  8
240
 10
251.3000000000000114
 20
-47.6668999999999912
 30
0.0
 70
    32
  0
VERTEX
  5
2AC9
  8
240
 10
251.2990000000000066
 20
-47.6677000000000035
 30
0.0
 70
    32
  0
VERTEX
  5
2ACA
  8
240
 10
251.2980000000000018
 20
-47.6685000000000016
 30
0.0
 70
    32
  0
VERTEX
  5
2ACB
  8
240
 10
251.296999999999997
 20
-47.6694000000000031
 30
0.0
 70
    32
  0
VERTEX
  5
2ACC
  8
240
 10
251.2959999999999923
 20
-47.6702000000000012
 30
0.0
 70
    32
  0
VERTEX
  5
2ACD
  8
240
 10
251.2949999999999875
 20
-47.6709999999999994
 30
0.0
 70
    32
  0
VERTEX
  5
2ACE
  8
240
 10
251.2940000000000111
 20
-47.6717999999999904
 30
0.0
 70
    32
  0
VERTEX
  5
2ACF
  8
240
 10
251.2930000000000064
 20
-47.6726000000000028
 30
0.0
 70
    32
  0
VERTEX
  5
2AD0
  8
240
 10
251.2920000000000016
 20
-47.6733999999999867
 30
0.0
 70
    32
  0
VERTEX
  5
2AD1
  8
240
 10
251.2909999999999968
 20
-47.674199999999999
 30
0.0
 70
    32
  0
VERTEX
  5
2AD2
  8
240
 10
251.289999999999992
 20
-47.6749999999999972
 30
0.0
 70
    32
  0
VERTEX
  5
2AD3
  8
240
 10
251.2889999999999873
 20
-47.6758999999999986
 30
0.0
 70
    32
  0
VERTEX
  5
2AD4
  8
240
 10
251.2880000000000109
 20
-47.6766999999999896
 30
0.0
 70
    32
  0
VERTEX
  5
2AD5
  8
240
 10
251.2870000000000061
 20
-47.677500000000002
 30
0.0
 70
    32
  0
VERTEX
  5
2AD6
  8
240
 10
251.2860000000000014
 20
-47.6783000000000001
 30
0.0
 70
    32
  0
VERTEX
  5
2AD7
  8
240
 10
251.2849999999999966
 20
-47.6790999999999912
 30
0.0
 70
    32
  0
VERTEX
  5
2AD8
  8
240
 10
251.2839999999999918
 20
-47.6799000000000035
 30
0.0
 70
    32
  0
VERTEX
  5
2AD9
  8
240
 10
251.282999999999987
 20
-47.6807000000000016
 30
0.0
 70
    32
  0
VERTEX
  5
2ADA
  8
240
 10
251.2820000000000107
 20
-47.6814999999999998
 30
0.0
 70
    32
  0
VERTEX
  5
2ADB
  8
240
 10
251.2810000000000059
 20
-47.6824000000000012
 30
0.0
 70
    32
  0
VERTEX
  5
2ADC
  8
240
 10
251.2800000000000011
 20
-47.6831999999999994
 30
0.0
 70
    32
  0
VERTEX
  5
2ADD
  8
240
 10
251.2789999999999964
 20
-47.6839999999999904
 30
0.0
 70
    32
  0
VERTEX
  5
2ADE
  8
240
 10
251.2779999999999916
 20
-47.6848000000000027
 30
0.0
 70
    32
  0
VERTEX
  5
2ADF
  8
240
 10
251.2769999999999868
 20
-47.6855999999999867
 30
0.0
 70
    32
  0
VERTEX
  5
2AE0
  8
240
 10
251.2760000000000105
 20
-47.686399999999999
 30
0.0
 70
    32
  0
VERTEX
  5
2AE1
  8
240
 10
251.2740000000000009
 20
-47.6871999999999971
 30
0.0
 70
    32
  0
VERTEX
  5
2AE2
  8
240
 10
251.2729999999999961
 20
-47.6880000000000024
 30
0.0
 70
    32
  0
VERTEX
  5
2AE3
  8
240
 10
251.2719999999999914
 20
-47.6888999999999896
 30
0.0
 70
    32
  0
VERTEX
  5
2AE4
  8
240
 10
251.2709999999999866
 20
-47.689700000000002
 30
0.0
 70
    32
  0
VERTEX
  5
2AE5
  8
240
 10
251.2700000000000102
 20
-47.6905000000000001
 30
0.0
 70
    32
  0
VERTEX
  5
2AE6
  8
240
 10
251.2690000000000055
 20
-47.6912999999999911
 30
0.0
 70
    32
  0
VERTEX
  5
2AE7
  8
240
 10
251.2680000000000007
 20
-47.6921000000000035
 30
0.0
 70
    32
  0
VERTEX
  5
2AE8
  8
240
 10
251.2669999999999959
 20
-47.6929000000000016
 30
0.0
 70
    32
  0
SEQEND
  5
2AE9
  8
240
  0
LINE
  5
160F
  8
240
  6
CONTINUOUS
 10
261.9041795473956995
 20
-49.9088192948664684
 30
0.0
 11
263.269156235423111
 21
-49.93250352560176
 31
0.0
  0
LINE
  5
1610
  8
240
  6
CONTINUOUS
 10
276.895414657619483
 20
-35.0394877578592912
 30
0.0
 11
276.895414657619483
 21
-49.9327889179009574
 31
0.0
  0
POLYLINE
  5
2AEA
  8
240
 66
     1
 10
0.0
 20
0.0
 30
0.0
 70
     8
  0
VERTEX
  5
2AEB
  8
240
 10
302.2950000000000159
 20
-47.7856000000000023
 30
0.0
 70
    32
  0
VERTEX
  5
2AEC
  8
240
 10
302.3220000000000027
 20
-47.7747999999999919
 30
0.0
 70
    32
  0
VERTEX
  5
2AED
  8
240
 10
302.3489999999999895
 20
-47.7638999999999996
 30
0.0
 70
    32
  0
VERTEX
  5
2AEE
  8
240
 10
302.3759999999999764
 20
-47.7530000000000001
 30
0.0
 70
    32
  0
VERTEX
  5
2AEF
  8
240
 10
302.40300000000002
 20
-47.7421000000000006
 30
0.0
 70
    32
  0
VERTEX
  5
2AF0
  8
240
 10
302.4300000000000068
 20
-47.7312000000000012
 30
0.0
 70
    32
  0
VERTEX
  5
2AF1
  8
240
 10
302.4569999999999936
 20
-47.7201999999999984
 30
0.0
 70
    32
  0
VERTEX
  5
2AF2
  8
240
 10
302.4840000000000941
 20
-47.7092000000000027
 30
0.0
 70
    32
  0
VERTEX
  5
2AF3
  8
240
 10
302.5110000000000241
 20
-47.6981999999999999
 30
0.0
 70
    32
  0
VERTEX
  5
2AF4
  8
240
 10
302.5389999999999873
 20
-47.6871999999999971
 30
0.0
 70
    32
  0
VERTEX
  5
2AF5
  8
240
 10
302.5659999999999741
 20
-47.6761999999999873
 30
0.0
 70
    32
  0
VERTEX
  5
2AF6
  8
240
 10
302.5930000000000177
 20
-47.6651000000000025
 30
0.0
 70
    32
  0
VERTEX
  5
2AF7
  8
240
 10
302.6200000000000045
 20
-47.6540000000000035
 30
0.0
 70
    32
  0
VERTEX
  5
2AF8
  8
240
 10
302.6469999999999914
 20
-47.6428999999999903
 30
0.0
 70
    32
  0
VERTEX
  5
2AF9
  8
240
 10
302.6739999999999782
 20
-47.6317999999999984
 30
0.0
 70
    32
  0
VERTEX
  5
2AFA
  8
240
 10
302.7010000000000218
 20
-47.6206000000000031
 30
0.0
 70
    32
  0
VERTEX
  5
2AFB
  8
240
 10
302.7280000000000086
 20
-47.609499999999997
 30
0.0
 70
    32
  0
VERTEX
  5
2AFC
  8
240
 10
302.7549999999999955
 20
-47.5983000000000018
 30
0.0
 70
    32
  0
VERTEX
  5
2AFD
  8
240
 10
302.7819999999999823
 20
-47.5870999999999924
 30
0.0
 70
    32
  0
VERTEX
  5
2AFE
  8
240
 10
302.8090000000000259
 20
-47.5757999999999868
 30
0.0
 70
    32
  0
VERTEX
  5
2AFF
  8
240
 10
302.8369999999999891
 20
-47.5645999999999916
 30
0.0
 70
    32
  0
VERTEX
  5
2B00
  8
240
 10
302.8639999999999759
 20
-47.553299999999993
 30
0.0
 70
    32
  0
VERTEX
  5
2B01
  8
240
 10
302.8910000000000196
 20
-47.5419999999999874
 30
0.0
 70
    32
  0
VERTEX
  5
2B02
  8
240
 10
302.9180000000000064
 20
-47.5307000000000031
 30
0.0
 70
    32
  0
VERTEX
  5
2B03
  8
240
 10
302.9449999999999932
 20
-47.5193000000000012
 30
0.0
 70
    32
  0
VERTEX
  5
2B04
  8
240
 10
302.97199999999998
 20
-47.5078999999999994
 30
0.0
 70
    32
  0
VERTEX
  5
2B05
  8
240
 10
302.9990000000000236
 20
-47.4966000000000008
 30
0.0
 70
    32
  0
VERTEX
  5
2B06
  8
240
 10
303.0269999999999868
 20
-47.485199999999999
 30
0.0
 70
    32
  0
VERTEX
  5
2B07
  8
240
 10
303.0539999999999736
 20
-47.4737000000000009
 30
0.0
 70
    32
  0
VERTEX
  5
2B08
  8
240
 10
303.0810000000000173
 20
-47.4622999999999919
 30
0.0
 70
    32
  0
VERTEX
  5
2B09
  8
240
 10
303.1080000000000041
 20
-47.450800000000001
 30
0.0
 70
    32
  0
VERTEX
  5
2B0A
  8
240
 10
303.1349999999999909
 20
-47.4393000000000029
 30
0.0
 70
    32
  0
VERTEX
  5
2B0B
  8
240
 10
303.1619999999999777
 20
-47.4277999999999906
 30
0.0
 70
    32
  0
VERTEX
  5
2B0C
  8
240
 10
303.1899999999999977
 20
-47.4162999999999926
 30
0.0
 70
    32
  0
VERTEX
  5
2B0D
  8
240
 10
303.2169999999999845
 20
-47.4046999999999983
 30
0.0
 70
    32
  0
VERTEX
  5
2B0E
  8
240
 10
303.2440000000000282
 20
-47.3930999999999898
 30
0.0
 70
    32
  0
VERTEX
  5
2B0F
  8
240
 10
303.271000000000015
 20
-47.3815999999999917
 30
0.0
 70
    32
  0
VERTEX
  5
2B10
  8
240
 10
303.2980000000000018
 20
-47.3699000000000012
 30
0.0
 70
    32
  0
VERTEX
  5
2B11
  8
240
 10
303.3249999999999886
 20
-47.3582999999999927
 30
0.0
 70
    32
  0
VERTEX
  5
2B12
  8
240
 10
303.3530000000000086
 20
-47.3466999999999985
 30
0.0
 70
    32
  0
VERTEX
  5
2B13
  8
240
 10
303.3799999999999955
 20
-47.3350000000000009
 30
0.0
 70
    32
  0
VERTEX
  5
2B14
  8
240
 10
303.4069999999999823
 20
-47.3233000000000033
 30
0.0
 70
    32
  0
VERTEX
  5
2B15
  8
240
 10
303.4340000000000259
 20
-47.3115999999999985
 30
0.0
 70
    32
  0
VERTEX
  5
2B16
  8
240
 10
303.4610000000000127
 20
-47.2997999999999976
 30
0.0
 70
    32
  0
VERTEX
  5
2B17
  8
240
 10
303.4889999999999759
 20
-47.2881
 30
0.0
 70
    32
  0
VERTEX
  5
2B18
  8
240
 10
303.5160000000000196
 20
-47.2762999999999991
 30
0.0
 70
    32
  0
VERTEX
  5
2B19
  8
240
 10
303.5430000000000064
 20
-47.2644999999999911
 30
0.0
 70
    32
  0
VERTEX
  5
2B1A
  8
240
 10
303.5699999999999932
 20
-47.2526999999999973
 30
0.0
 70
    32
  0
VERTEX
  5
2B1B
  8
240
 10
303.59699999999998
 20
-47.2409000000000034
 30
0.0
 70
    32
  0
VERTEX
  5
2B1C
  8
240
 10
303.625
 20
-47.2289999999999992
 30
0.0
 70
    32
  0
VERTEX
  5
2B1D
  8
240
 10
303.6519999999999868
 20
-47.2171000000000021
 30
0.0
 70
    32
  0
VERTEX
  5
2B1E
  8
240
 10
303.6789999999999736
 20
-47.2051999999999907
 30
0.0
 70
    32
  0
VERTEX
  5
2B1F
  8
240
 10
303.7060000000000173
 20
-47.1933000000000007
 30
0.0
 70
    32
  0
VERTEX
  5
2B20
  8
240
 10
303.7330000000000041
 20
-47.1813999999999965
 30
0.0
 70
    32
  0
VERTEX
  5
2B21
  8
240
 10
303.7599999999999909
 20
-47.1694999999999922
 30
0.0
 70
    32
  0
VERTEX
  5
2B22
  8
240
 10
303.7880000000000109
 20
-47.1574999999999918
 30
0.0
 70
    32
  0
VERTEX
  5
2B23
  8
240
 10
303.8149999999999977
 20
-47.1454999999999984
 30
0.0
 70
    32
  0
VERTEX
  5
2B24
  8
240
 10
303.8419999999999845
 20
-47.133499999999998
 30
0.0
 70
    32
  0
VERTEX
  5
2B25
  8
240
 10
303.8690000000000282
 20
-47.1214999999999975
 30
0.0
 70
    32
  0
VERTEX
  5
2B26
  8
240
 10
303.8959999999999013
 20
-47.1093999999999866
 30
0.0
 70
    32
  0
VERTEX
  5
2B27
  8
240
 10
303.9230000000000018
 20
-47.0974000000000004
 30
0.0
 70
    32
  0
VERTEX
  5
2B28
  8
240
 10
303.9510000000000218
 20
-47.0852999999999895
 30
0.0
 70
    32
  0
VERTEX
  5
2B29
  8
240
 10
303.9780000000000086
 20
-47.0731999999999999
 30
0.0
 70
    32
  0
VERTEX
  5
2B2A
  8
240
 10
304.0049999999999955
 20
-47.0611000000000033
 30
0.0
 70
    32
  0
VERTEX
  5
2B2B
  8
240
 10
304.0319999999999823
 20
-47.0489000000000033
 30
0.0
 70
    32
  0
VERTEX
  5
2B2C
  8
240
 10
304.0590000000000259
 20
-47.0367999999999995
 30
0.0
 70
    32
  0
VERTEX
  5
2B2D
  8
240
 10
304.0860000000000127
 20
-47.0245999999999995
 30
0.0
 70
    32
  0
VERTEX
  5
2B2E
  8
240
 10
304.1129999999999995
 20
-47.0123999999999995
 30
0.0
 70
    32
  0
VERTEX
  5
2B2F
  8
240
 10
304.1399999999999864
 20
-47.0001999999999995
 30
0.0
 70
    32
  0
VERTEX
  5
2B30
  8
240
 10
304.1680000000000064
 20
-46.9879999999999995
 30
0.0
 70
    32
  0
VERTEX
  5
2B31
  8
240
 10
304.1949999999999932
 20
-46.9757000000000033
 30
0.0
 70
    32
  0
VERTEX
  5
2B32
  8
240
 10
304.22199999999998
 20
-46.9635000000000034
 30
0.0
 70
    32
  0
VERTEX
  5
2B33
  8
240
 10
304.2490000000000236
 20
-46.9512
 30
0.0
 70
    32
  0
VERTEX
  5
2B34
  8
240
 10
304.2760000000000105
 20
-46.9388999999999896
 30
0.0
 70
    32
  0
VERTEX
  5
2B35
  8
240
 10
304.3029999999999973
 20
-46.9266000000000005
 30
0.0
 70
    32
  0
VERTEX
  5
2B36
  8
240
 10
304.3299999999999841
 20
-46.9141999999999868
 30
0.0
 70
    32
  0
VERTEX
  5
2B37
  8
240
 10
304.3570000000000277
 20
-46.9018999999999977
 30
0.0
 70
    32
  0
VERTEX
  5
2B38
  8
240
 10
304.3840000000000146
 20
-46.8894999999999982
 30
0.0
 70
    32
  0
VERTEX
  5
2B39
  8
240
 10
304.4110000000000014
 20
-46.8770999999999987
 30
0.0
 70
    32
  0
VERTEX
  5
2B3A
  8
240
 10
304.4379999999999882
 20
-46.864699999999992
 30
0.0
 70
    32
  0
VERTEX
  5
2B3B
  8
240
 10
304.464999999999975
 20
-46.8522999999999925
 30
0.0
 70
    32
  0
VERTEX
  5
2B3C
  8
240
 10
304.4920000000000186
 20
-46.8397999999999968
 30
0.0
 70
    32
  0
VERTEX
  5
2B3D
  8
240
 10
304.5190000000000055
 20
-46.8273999999999901
 30
0.0
 70
    32
  0
VERTEX
  5
2B3E
  8
240
 10
304.5459999999999923
 20
-46.8149000000000015
 30
0.0
 70
    32
  0
VERTEX
  5
2B3F
  8
240
 10
304.5729999999999791
 20
-46.8023999999999987
 30
0.0
 70
    32
  0
VERTEX
  5
2B40
  8
240
 10
304.6000000000000227
 20
-46.7899000000000029
 30
0.0
 70
    32
  0
VERTEX
  5
2B41
  8
240
 10
304.6270000000000095
 20
-46.7774000000000001
 30
0.0
 70
    32
  0
VERTEX
  5
2B42
  8
240
 10
304.6539999999999964
 20
-46.7648999999999972
 30
0.0
 70
    32
  0
VERTEX
  5
2B43
  8
240
 10
304.6809999999999832
 20
-46.7522999999999911
 30
0.0
 70
    32
  0
VERTEX
  5
2B44
  8
240
 10
304.7080000000000268
 20
-46.739699999999992
 30
0.0
 70
    32
  0
VERTEX
  5
2B45
  8
240
 10
304.7350000000000136
 20
-46.7271000000000001
 30
0.0
 70
    32
  0
VERTEX
  5
2B46
  8
240
 10
304.7620000000000005
 20
-46.714500000000001
 30
0.0
 70
    32
  0
VERTEX
  5
2B47
  8
240
 10
304.7889999999999873
 20
-46.701900000000002
 30
0.0
 70
    32
  0
VERTEX
  5
2B48
  8
240
 10
304.8159999999999741
 20
-46.6893000000000029
 30
0.0
 70
    32
  0
VERTEX
  5
2B49
  8
240
 10
304.8430000000000177
 20
-46.6766000000000005
 30
0.0
 70
    32
  0
VERTEX
  5
2B4A
  8
240
 10
304.8700000000000045
 20
-46.6638999999999911
 30
0.0
 70
    32
  0
VERTEX
  5
2B4B
  8
240
 10
304.896000000000015
 20
-46.6512000000000029
 30
0.0
 70
    32
  0
VERTEX
  5
2B4C
  8
240
 10
304.9230000000000018
 20
-46.6385000000000005
 30
0.0
 70
    32
  0
VERTEX
  5
2B4D
  8
240
 10
304.9499999999999886
 20
-46.6257999999999981
 30
0.0
 70
    32
  0
VERTEX
  5
2B4E
  8
240
 10
304.9769999999999754
 20
-46.6131000000000029
 30
0.0
 70
    32
  0
VERTEX
  5
2B4F
  8
240
 10
305.0040000000000191
 20
-46.6002999999999901
 30
0.0
 70
    32
  0
VERTEX
  5
2B50
  8
240
 10
305.0310000000000059
 20
-46.5876000000000019
 30
0.0
 70
    32
  0
VERTEX
  5
2B51
  8
240
 10
305.0570000000000164
 20
-46.5748000000000033
 30
0.0
 70
    32
  0
VERTEX
  5
2B52
  8
240
 10
305.0840000000000032
 20
-46.5619999999999976
 30
0.0
 70
    32
  0
VERTEX
  5
2B53
  8
240
 10
305.11099999999999
 20
-46.5491999999999919
 30
0.0
 70
    32
  0
VERTEX
  5
2B54
  8
240
 10
305.1379999999999768
 20
-46.53629999999999
 30
0.0
 70
    32
  0
VERTEX
  5
2B55
  8
240
 10
305.1639999999999873
 20
-46.5234999999999985
 30
0.0
 70
    32
  0
VERTEX
  5
2B56
  8
240
 10
305.1909999999999741
 20
-46.5105999999999966
 30
0.0
 70
    32
  0
VERTEX
  5
2B57
  8
240
 10
305.2180000000000177
 20
-46.4977999999999909
 30
0.0
 70
    32
  0
VERTEX
  5
2B58
  8
240
 10
305.2440000000000282
 20
-46.4849000000000032
 30
0.0
 70
    32
  0
VERTEX
  5
2B59
  8
240
 10
305.271000000000015
 20
-46.4720000000000013
 30
0.0
 70
    32
  0
VERTEX
  5
2B5A
  8
240
 10
305.2980000000000018
 20
-46.4590999999999923
 30
0.0
 70
    32
  0
VERTEX
  5
2B5B
  8
240
 10
305.3240000000000123
 20
-46.4461000000000013
 30
0.0
 70
    32
  0
VERTEX
  5
2B5C
  8
240
 10
305.3509999999999991
 20
-46.4331999999999994
 30
0.0
 70
    32
  0
VERTEX
  5
2B5D
  8
240
 10
305.3779999999999859
 20
-46.4202000000000012
 30
0.0
 70
    32
  0
VERTEX
  5
2B5E
  8
240
 10
305.4039999999999964
 20
-46.4072000000000031
 30
0.0
 70
    32
  0
VERTEX
  5
2B5F
  8
240
 10
305.4309999999999832
 20
-46.3941999999999979
 30
0.0
 70
    32
  0
VERTEX
  5
2B60
  8
240
 10
305.4569999999999936
 20
-46.3811999999999927
 30
0.0
 70
    32
  0
VERTEX
  5
2B61
  8
240
 10
305.4839999999999804
 20
-46.3682000000000016
 30
0.0
 70
    32
  0
VERTEX
  5
2B62
  8
240
 10
305.5099999999999909
 20
-46.3552000000000035
 30
0.0
 70
    32
  0
VERTEX
  5
2B63
  8
240
 10
305.5369999999999777
 20
-46.3421000000000021
 30
0.0
 70
    32
  0
VERTEX
  5
2B64
  8
240
 10
305.5629999999999882
 20
-46.3290999999999897
 30
0.0
 70
    32
  0
VERTEX
  5
2B65
  8
240
 10
305.589999999999975
 20
-46.3160000000000025
 30
0.0
 70
    32
  0
VERTEX
  5
2B66
  8
240
 10
305.6159999999999854
 20
-46.3029000000000011
 30
0.0
 70
    32
  0
VERTEX
  5
2B67
  8
240
 10
305.6429999999999723
 20
-46.2897999999999996
 30
0.0
 70
    32
  0
VERTEX
  5
2B68
  8
240
 10
305.6690000000000964
 20
-46.2766999999999982
 30
0.0
 70
    32
  0
VERTEX
  5
2B69
  8
240
 10
305.6960000000000264
 20
-46.2635000000000005
 30
0.0
 70
    32
  0
VERTEX
  5
2B6A
  8
240
 10
305.72199999999998
 20
-46.2503999999999991
 30
0.0
 70
    32
  0
VERTEX
  5
2B6B
  8
240
 10
305.7479999999999905
 20
-46.2372000000000014
 30
0.0
 70
    32
  0
VERTEX
  5
2B6C
  8
240
 10
305.7749999999999773
 20
-46.2241
 30
0.0
 70
    32
  0
VERTEX
  5
2B6D
  8
240
 10
305.8009999999999877
 20
-46.2109000000000023
 30
0.0
 70
    32
  0
VERTEX
  5
2B6E
  8
240
 10
305.8269999999999982
 20
-46.1976999999999904
 30
0.0
 70
    32
  0
VERTEX
  5
2B6F
  8
240
 10
305.8540000000000987
 20
-46.1844999999999999
 30
0.0
 70
    32
  0
VERTEX
  5
2B70
  8
240
 10
305.8799999999999955
 20
-46.1713000000000022
 30
0.0
 70
    32
  0
VERTEX
  5
2B71
  8
240
 10
305.9060000000000059
 20
-46.1580000000000013
 30
0.0
 70
    32
  0
VERTEX
  5
2B72
  8
240
 10
305.9320000000000164
 20
-46.1447999999999894
 30
0.0
 70
    32
  0
VERTEX
  5
2B73
  8
240
 10
305.9590000000000032
 20
-46.1315000000000026
 30
0.0
 70
    32
  0
VERTEX
  5
2B74
  8
240
 10
305.9850000000000136
 20
-46.1182999999999979
 30
0.0
 70
    32
  0
VERTEX
  5
2B75
  8
240
 10
306.0110000000000241
 20
-46.1049999999999969
 30
0.0
 70
    32
  0
VERTEX
  5
2B76
  8
240
 10
306.0369999999999777
 20
-46.091700000000003
 30
0.0
 70
    32
  0
VERTEX
  5
2B77
  8
240
 10
306.0629999999999882
 20
-46.078400000000002
 30
0.0
 70
    32
  0
VERTEX
  5
2B78
  8
240
 10
306.0889999999999986
 20
-46.065100000000001
 30
0.0
 70
    32
  0
VERTEX
  5
2B79
  8
240
 10
306.1150000000000091
 20
-46.0516999999999967
 30
0.0
 70
    32
  0
VERTEX
  5
2B7A
  8
240
 10
306.1409999999999059
 20
-46.0384000000000029
 30
0.0
 70
    32
  0
VERTEX
  5
2B7B
  8
240
 10
306.1669999999999732
 20
-46.0249999999999986
 30
0.0
 70
    32
  0
VERTEX
  5
2B7C
  8
240
 10
306.1929999999999836
 20
-46.0116999999999905
 30
0.0
 70
    32
  0
VERTEX
  5
2B7D
  8
240
 10
306.2189999999999941
 20
-45.9982999999999933
 30
0.0
 70
    32
  0
VERTEX
  5
2B7E
  8
240
 10
306.2450000000000045
 20
-45.9849000000000032
 30
0.0
 70
    32
  0
VERTEX
  5
2B7F
  8
240
 10
306.271000000000015
 20
-45.9714999999999989
 30
0.0
 70
    32
  0
VERTEX
  5
2B80
  8
240
 10
306.2970000000000255
 20
-45.9581000000000017
 30
0.0
 70
    32
  0
VERTEX
  5
2B81
  8
240
 10
306.3229999999999791
 20
-45.9446999999999974
 30
0.0
 70
    32
  0
VERTEX
  5
2B82
  8
240
 10
306.3489999999999895
 20
-45.9313000000000002
 30
0.0
 70
    32
  0
VERTEX
  5
2B83
  8
240
 10
306.375
 20
-45.9177999999999926
 30
0.0
 70
    32
  0
VERTEX
  5
2B84
  8
240
 10
306.4010000000000105
 20
-45.9044000000000025
 30
0.0
 70
    32
  0
VERTEX
  5
2B85
  8
240
 10
306.4270000000000209
 20
-45.890900000000002
 30
0.0
 70
    32
  0
VERTEX
  5
2B86
  8
240
 10
306.4519999999999982
 20
-45.8774999999999906
 30
0.0
 70
    32
  0
VERTEX
  5
2B87
  8
240
 10
306.4780000000000086
 20
-45.8639999999999972
 30
0.0
 70
    32
  0
VERTEX
  5
2B88
  8
240
 10
306.5040000000000191
 20
-45.8504999999999896
 30
0.0
 70
    32
  0
VERTEX
  5
2B89
  8
240
 10
306.5299999999999727
 20
-45.8370000000000033
 30
0.0
 70
    32
  0
VERTEX
  5
2B8A
  8
240
 10
306.5550000000000068
 20
-45.8235000000000028
 30
0.0
 70
    32
  0
VERTEX
  5
2B8B
  8
240
 10
306.5809999999999036
 20
-45.8100000000000023
 30
0.0
 70
    32
  0
VERTEX
  5
2B8C
  8
240
 10
306.6070000000000277
 20
-45.7963999999999984
 30
0.0
 70
    32
  0
VERTEX
  5
2B8D
  8
240
 10
306.632000000000005
 20
-45.7828999999999908
 30
0.0
 70
    32
  0
VERTEX
  5
2B8E
  8
240
 10
306.6580000000000155
 20
-45.769299999999987
 30
0.0
 70
    32
  0
VERTEX
  5
2B8F
  8
240
 10
306.6829999999999927
 20
-45.7558000000000007
 30
0.0
 70
    32
  0
VERTEX
  5
2B90
  8
240
 10
306.7090000000000032
 20
-45.7421999999999898
 30
0.0
 70
    32
  0
VERTEX
  5
2B91
  8
240
 10
306.7340000000000941
 20
-45.7287000000000035
 30
0.0
 70
    32
  0
VERTEX
  5
2B92
  8
240
 10
306.7599999999999909
 20
-45.7150999999999925
 30
0.0
 70
    32
  0
VERTEX
  5
2B93
  8
240
 10
306.785000000000025
 20
-45.7015000000000029
 30
0.0
 70
    32
  0
VERTEX
  5
2B94
  8
240
 10
306.8109999999999786
 20
-45.687899999999992
 30
0.0
 70
    32
  0
VERTEX
  5
2B95
  8
240
 10
306.8360000000000127
 20
-45.6743000000000023
 30
0.0
 70
    32
  0
VERTEX
  5
2B96
  8
240
 10
306.86099999999999
 20
-45.6606000000000023
 30
0.0
 70
    32
  0
VERTEX
  5
2B97
  8
240
 10
306.8870000000000005
 20
-45.6469999999999985
 30
0.0
 70
    32
  0
VERTEX
  5
2B98
  8
240
 10
306.9119999999999777
 20
-45.6334000000000017
 30
0.0
 70
    32
  0
VERTEX
  5
2B99
  8
240
 10
306.9370000000000118
 20
-45.6197000000000017
 30
0.0
 70
    32
  0
VERTEX
  5
2B9A
  8
240
 10
306.9630000000000223
 20
-45.6060999999999908
 30
0.0
 70
    32
  0
VERTEX
  5
2B9B
  8
240
 10
306.9879999999999995
 20
-45.5923999999999907
 30
0.0
 70
    32
  0
VERTEX
  5
2B9C
  8
240
 10
307.0129999999999768
 20
-45.5787999999999869
 30
0.0
 70
    32
  0
VERTEX
  5
2B9D
  8
240
 10
307.0380000000000109
 20
-45.565100000000001
 30
0.0
 70
    32
  0
VERTEX
  5
2B9E
  8
240
 10
307.0629999999999882
 20
-45.551400000000001
 30
0.0
 70
    32
  0
VERTEX
  5
2B9F
  8
240
 10
307.0889999999999986
 20
-45.537700000000001
 30
0.0
 70
    32
  0
VERTEX
  5
2BA0
  8
240
 10
307.1139999999999759
 20
-45.5240000000000009
 30
0.0
 70
    32
  0
VERTEX
  5
2BA1
  8
240
 10
307.13900000000001
 20
-45.5102999999999867
 30
0.0
 70
    32
  0
VERTEX
  5
2BA2
  8
240
 10
307.1639999999999873
 20
-45.4966000000000008
 30
0.0
 70
    32
  0
VERTEX
  5
2BA3
  8
240
 10
307.1890000000000214
 20
-45.4829000000000008
 30
0.0
 70
    32
  0
VERTEX
  5
2BA4
  8
240
 10
307.2139999999999986
 20
-45.4692000000000007
 30
0.0
 70
    32
  0
VERTEX
  5
2BA5
  8
240
 10
307.2389999999999759
 20
-45.4553999999999903
 30
0.0
 70
    32
  0
VERTEX
  5
2BA6
  8
240
 10
307.26400000000001
 20
-45.4416999999999973
 30
0.0
 70
    32
  0
VERTEX
  5
2BA7
  8
240
 10
307.2880000000000109
 20
-45.4279000000000011
 30
0.0
 70
    32
  0
VERTEX
  5
2BA8
  8
240
 10
307.3129999999999882
 20
-45.414200000000001
 30
0.0
 70
    32
  0
VERTEX
  5
2BA9
  8
240
 10
307.3380000000000223
 20
-45.4003999999999976
 30
0.0
 70
    32
  0
VERTEX
  5
2BAA
  8
240
 10
307.3629999999999995
 20
-45.3866999999999905
 30
0.0
 70
    32
  0
VERTEX
  5
2BAB
  8
240
 10
307.3879999999999768
 20
-45.3729000000000013
 30
0.0
 70
    32
  0
VERTEX
  5
2BAC
  8
240
 10
307.4120000000000914
 20
-45.359099999999998
 30
0.0
 70
    32
  0
VERTEX
  5
2BAD
  8
240
 10
307.4370000000000118
 20
-45.3453000000000017
 30
0.0
 70
    32
  0
VERTEX
  5
2BAE
  8
240
 10
307.4619999999999891
 20
-45.3316000000000017
 30
0.0
 70
    32
  0
VERTEX
  5
2BAF
  8
240
 10
307.48599999999999
 20
-45.3177999999999983
 30
0.0
 70
    32
  0
VERTEX
  5
2BB0
  8
240
 10
307.5110000000000241
 20
-45.304000000000002
 30
0.0
 70
    32
  0
VERTEX
  5
2BB1
  8
240
 10
307.5360000000000014
 20
-45.2901999999999987
 30
0.0
 70
    32
  0
VERTEX
  5
2BB2
  8
240
 10
307.5600000000000023
 20
-45.2764000000000024
 30
0.0
 70
    32
  0
VERTEX
  5
2BB3
  8
240
 10
307.5849999999999795
 20
-45.2625000000000028
 30
0.0
 70
    32
  0
VERTEX
  5
2BB4
  8
240
 10
307.6090000000000941
 20
-45.2486999999999924
 30
0.0
 70
    32
  0
VERTEX
  5
2BB5
  8
240
 10
307.6329999999999814
 20
-45.2349000000000032
 30
0.0
 70
    32
  0
VERTEX
  5
2BB6
  8
240
 10
307.6580000000000155
 20
-45.2210999999999999
 30
0.0
 70
    32
  0
VERTEX
  5
2BB7
  8
240
 10
307.6820000000000164
 20
-45.2071999999999932
 30
0.0
 70
    32
  0
VERTEX
  5
2BB8
  8
240
 10
307.7069999999999936
 20
-45.1933999999999898
 30
0.0
 70
    32
  0
VERTEX
  5
2BB9
  8
240
 10
307.7309999999999945
 20
-45.1796000000000006
 30
0.0
 70
    32
  0
VERTEX
  5
2BBA
  8
240
 10
307.7549999999999955
 20
-45.1657000000000011
 30
0.0
 70
    32
  0
VERTEX
  5
2BBB
  8
240
 10
307.7789999999999964
 20
-45.1518999999999906
 30
0.0
 70
    32
  0
VERTEX
  5
2BBC
  8
240
 10
307.8039999999999736
 20
-45.137999999999991
 30
0.0
 70
    32
  0
VERTEX
  5
2BBD
  8
240
 10
307.8279999999999745
 20
-45.1242000000000019
 30
0.0
 70
    32
  0
VERTEX
  5
2BBE
  8
240
 10
307.8520000000000891
 20
-45.1103000000000023
 30
0.0
 70
    32
  0
VERTEX
  5
2BBF
  8
240
 10
307.8759999999999764
 20
-45.0964000000000027
 30
0.0
 70
    32
  0
VERTEX
  5
2BC0
  8
240
 10
307.8999999999999773
 20
-45.0825999999999922
 30
0.0
 70
    32
  0
VERTEX
  5
2BC1
  8
240
 10
307.9239999999999782
 20
-45.0686999999999998
 30
0.0
 70
    32
  0
VERTEX
  5
2BC2
  8
240
 10
307.9479999999999791
 20
-45.0548000000000002
 30
0.0
 70
    32
  0
VERTEX
  5
2BC3
  8
240
 10
307.97199999999998
 20
-45.0409999999999968
 30
0.0
 70
    32
  0
VERTEX
  5
2BC4
  8
240
 10
307.9959999999999809
 20
-45.0270999999999901
 30
0.0
 70
    32
  0
VERTEX
  5
2BC5
  8
240
 10
308.0199999999999818
 20
-45.0131999999999906
 30
0.0
 70
    32
  0
VERTEX
  5
2BC6
  8
240
 10
308.0439999999999827
 20
-44.999299999999991
 30
0.0
 70
    32
  0
VERTEX
  5
2BC7
  8
240
 10
308.0679999999999836
 20
-44.9853999999999985
 30
0.0
 70
    32
  0
VERTEX
  5
2BC8
  8
240
 10
308.0910000000000082
 20
-44.9716000000000022
 30
0.0
 70
    32
  0
VERTEX
  5
2BC9
  8
240
 10
308.1150000000000091
 20
-44.9577000000000027
 30
0.0
 70
    32
  0
VERTEX
  5
2BCA
  8
240
 10
308.13900000000001
 20
-44.9438000000000031
 30
0.0
 70
    32
  0
VERTEX
  5
2BCB
  8
240
 10
308.1619999999999777
 20
-44.9299000000000035
 30
0.0
 70
    32
  0
VERTEX
  5
2BCC
  8
240
 10
308.1859999999999786
 20
-44.9159999999999968
 30
0.0
 70
    32
  0
VERTEX
  5
2BCD
  8
240
 10
308.2099999999999795
 20
-44.9020999999999972
 30
0.0
 70
    32
  0
VERTEX
  5
2BCE
  8
240
 10
308.2330000000000041
 20
-44.8881999999999906
 30
0.0
 70
    32
  0
VERTEX
  5
2BCF
  8
240
 10
308.257000000000005
 20
-44.874299999999991
 30
0.0
 70
    32
  0
VERTEX
  5
2BD0
  8
240
 10
308.2799999999999727
 20
-44.8603999999999985
 30
0.0
 70
    32
  0
VERTEX
  5
2BD1
  8
240
 10
308.3039999999999736
 20
-44.8464999999999989
 30
0.0
 70
    32
  0
VERTEX
  5
2BD2
  8
240
 10
308.3269999999999982
 20
-44.8325999999999993
 30
0.0
 70
    32
  0
VERTEX
  5
2BD3
  8
240
 10
308.3509999999999991
 20
-44.8186999999999927
 30
0.0
 70
    32
  0
VERTEX
  5
2BD4
  8
240
 10
308.3740000000000236
 20
-44.8048000000000002
 30
0.0
 70
    32
  0
VERTEX
  5
2BD5
  8
240
 10
308.3969999999999914
 20
-44.7909999999999897
 30
0.0
 70
    32
  0
VERTEX
  5
2BD6
  8
240
 10
308.4200000000000159
 20
-44.7770999999999972
 30
0.0
 70
    32
  0
VERTEX
  5
2BD7
  8
240
 10
308.4440000000000168
 20
-44.7631999999999977
 30
0.0
 70
    32
  0
VERTEX
  5
2BD8
  8
240
 10
308.4669999999999845
 20
-44.749299999999991
 30
0.0
 70
    32
  0
VERTEX
  5
2BD9
  8
240
 10
308.4900000000000091
 20
-44.7353999999999914
 30
0.0
 70
    32
  0
VERTEX
  5
2BDA
  8
240
 10
308.5129999999999768
 20
-44.7214999999999989
 30
0.0
 70
    32
  0
VERTEX
  5
2BDB
  8
240
 10
308.5360000000000014
 20
-44.7075999999999993
 30
0.0
 70
    32
  0
VERTEX
  5
2BDC
  8
240
 10
308.5590000000000259
 20
-44.6936999999999998
 30
0.0
 70
    32
  0
VERTEX
  5
2BDD
  8
240
 10
308.5819999999999936
 20
-44.6797999999999931
 30
0.0
 70
    32
  0
VERTEX
  5
2BDE
  8
240
 10
308.6050000000000182
 20
-44.6659000000000006
 30
0.0
 70
    32
  0
VERTEX
  5
2BDF
  8
240
 10
308.6279999999999859
 20
-44.652000000000001
 30
0.0
 70
    32
  0
VERTEX
  5
2BE0
  8
240
 10
308.6510000000000105
 20
-44.6381000000000014
 30
0.0
 70
    32
  0
VERTEX
  5
2BE1
  8
240
 10
308.6739999999999782
 20
-44.6242000000000019
 30
0.0
 70
    32
  0
VERTEX
  5
2BE2
  8
240
 10
308.6970000000000027
 20
-44.6103000000000023
 30
0.0
 70
    32
  0
VERTEX
  5
2BE3
  8
240
 10
308.7189999999999941
 20
-44.5964999999999918
 30
0.0
 70
    32
  0
VERTEX
  5
2BE4
  8
240
 10
308.7420000000000186
 20
-44.5825999999999993
 30
0.0
 70
    32
  0
VERTEX
  5
2BE5
  8
240
 10
308.7649999999999864
 20
-44.5686999999999998
 30
0.0
 70
    32
  0
VERTEX
  5
2BE6
  8
240
 10
308.7870000000000914
 20
-44.5548000000000002
 30
0.0
 70
    32
  0
VERTEX
  5
2BE7
  8
240
 10
308.8100000000000023
 20
-44.5408999999999935
 30
0.0
 70
    32
  0
VERTEX
  5
2BE8
  8
240
 10
308.8319999999999936
 20
-44.5270999999999901
 30
0.0
 70
    32
  0
VERTEX
  5
2BE9
  8
240
 10
308.8550000000000182
 20
-44.5131999999999906
 30
0.0
 70
    32
  0
VERTEX
  5
2BEA
  8
240
 10
308.8770000000000095
 20
-44.4992999999999981
 30
0.0
 70
    32
  0
VERTEX
  5
2BEB
  8
240
 10
308.8999999999999773
 20
-44.4855000000000018
 30
0.0
 70
    32
  0
VERTEX
  5
2BEC
  8
240
 10
308.9220000000000255
 20
-44.4716000000000022
 30
0.0
 70
    32
  0
VERTEX
  5
2BED
  8
240
 10
308.9449999999999932
 20
-44.4577999999999989
 30
0.0
 70
    32
  0
VERTEX
  5
2BEE
  8
240
 10
308.9669999999999845
 20
-44.4438999999999993
 30
0.0
 70
    32
  0
VERTEX
  5
2BEF
  8
240
 10
308.9889999999999759
 20
-44.430100000000003
 30
0.0
 70
    32
  0
VERTEX
  5
2BF0
  8
240
 10
309.0110000000000241
 20
-44.4162000000000035
 30
0.0
 70
    32
  0
VERTEX
  5
2BF1
  8
240
 10
309.0339999999999918
 20
-44.4024000000000001
 30
0.0
 70
    32
  0
VERTEX
  5
2BF2
  8
240
 10
309.0559999999999832
 20
-44.3885000000000005
 30
0.0
 70
    32
  0
VERTEX
  5
2BF3
  8
240
 10
309.0779999999999745
 20
-44.3746999999999971
 30
0.0
 70
    32
  0
VERTEX
  5
2BF4
  8
240
 10
309.1000000000000227
 20
-44.3609000000000009
 30
0.0
 70
    32
  0
VERTEX
  5
2BF5
  8
240
 10
309.1220000000000141
 20
-44.3470000000000013
 30
0.0
 70
    32
  0
VERTEX
  5
2BF6
  8
240
 10
309.1440000000000055
 20
-44.3331000000000017
 30
0.0
 70
    32
  0
VERTEX
  5
2BF7
  8
240
 10
309.1659999999999968
 20
-44.3192000000000021
 30
0.0
 70
    32
  0
VERTEX
  5
2BF8
  8
240
 10
309.1879999999999882
 20
-44.3053000000000026
 30
0.0
 70
    32
  0
VERTEX
  5
2BF9
  8
240
 10
309.2099999999999795
 20
-44.2912999999999926
 30
0.0
 70
    32
  0
VERTEX
  5
2BFA
  8
240
 10
309.2320000000000277
 20
-44.2772999999999897
 30
0.0
 70
    32
  0
VERTEX
  5
2BFB
  8
240
 10
309.2540000000000191
 20
-44.263300000000001
 30
0.0
 70
    32
  0
VERTEX
  5
2BFC
  8
240
 10
309.2760000000000105
 20
-44.249299999999991
 30
0.0
 70
    32
  0
VERTEX
  5
2BFD
  8
240
 10
309.2989999999999782
 20
-44.2351999999999919
 30
0.0
 70
    32
  0
VERTEX
  5
2BFE
  8
240
 10
309.3210000000000264
 20
-44.2210999999999927
 30
0.0
 70
    32
  0
VERTEX
  5
2BFF
  8
240
 10
309.3430000000000177
 20
-44.2070000000000007
 30
0.0
 70
    32
  0
VERTEX
  5
2C00
  8
240
 10
309.3650000000000091
 20
-44.1929000000000016
 30
0.0
 70
    32
  0
VERTEX
  5
2C01
  8
240
 10
309.3870000000000005
 20
-44.1788000000000025
 30
0.0
 70
    32
  0
VERTEX
  5
2C02
  8
240
 10
309.4089999999999918
 20
-44.164599999999993
 30
0.0
 70
    32
  0
VERTEX
  5
2C03
  8
240
 10
309.4309999999999832
 20
-44.1503999999999976
 30
0.0
 70
    32
  0
VERTEX
  5
2C04
  8
240
 10
309.4529999999999745
 20
-44.136099999999999
 30
0.0
 70
    32
  0
VERTEX
  5
2C05
  8
240
 10
309.4750000000000227
 20
-44.1218999999999895
 30
0.0
 70
    32
  0
VERTEX
  5
2C06
  8
240
 10
309.4970000000000141
 20
-44.1075999999999908
 30
0.0
 70
    32
  0
VERTEX
  5
2C07
  8
240
 10
309.5190000000000055
 20
-44.0932999999999922
 30
0.0
 70
    32
  0
VERTEX
  5
2C08
  8
240
 10
309.5419999999999732
 20
-44.0790000000000006
 30
0.0
 70
    32
  0
VERTEX
  5
2C09
  8
240
 10
309.5640000000000214
 20
-44.0645999999999987
 30
0.0
 70
    32
  0
VERTEX
  5
2C0A
  8
240
 10
309.5860000000000127
 20
-44.0503
 30
0.0
 70
    32
  0
VERTEX
  5
2C0B
  8
240
 10
309.6080000000000041
 20
-44.035899999999998
 30
0.0
 70
    32
  0
VERTEX
  5
2C0C
  8
240
 10
309.6299999999999955
 20
-44.0215000000000032
 30
0.0
 70
    32
  0
VERTEX
  5
2C0D
  8
240
 10
309.6519999999999868
 20
-44.0069999999999908
 30
0.0
 70
    32
  0
VERTEX
  5
2C0E
  8
240
 10
309.6739999999999782
 20
-43.9924999999999997
 30
0.0
 70
    32
  0
VERTEX
  5
2C0F
  8
240
 10
309.6960000000000264
 20
-43.9780000000000015
 30
0.0
 70
    32
  0
VERTEX
  5
2C10
  8
240
 10
309.7180000000000177
 20
-43.9635000000000034
 30
0.0
 70
    32
  0
VERTEX
  5
2C11
  8
240
 10
309.7400000000000091
 20
-43.948999999999991
 30
0.0
 70
    32
  0
VERTEX
  5
2C12
  8
240
 10
309.7629999999999768
 20
-43.9343999999999966
 30
0.0
 70
    32
  0
VERTEX
  5
2C13
  8
240
 10
309.785000000000025
 20
-43.9198000000000022
 30
0.0
 70
    32
  0
VERTEX
  5
2C14
  8
240
 10
309.8070000000000164
 20
-43.9052000000000007
 30
0.0
 70
    32
  0
VERTEX
  5
2C15
  8
240
 10
309.8290000000000077
 20
-43.8905999999999921
 30
0.0
 70
    32
  0
VERTEX
  5
2C16
  8
240
 10
309.8509999999999991
 20
-43.8759000000000015
 30
0.0
 70
    32
  0
VERTEX
  5
2C17
  8
240
 10
309.8729999999999905
 20
-43.8613
 30
0.0
 70
    32
  0
VERTEX
  5
2C18
  8
240
 10
309.8949999999999818
 20
-43.8466000000000022
 30
0.0
 70
    32
  0
VERTEX
  5
2C19
  8
240
 10
309.9169999999999732
 20
-43.8318000000000012
 30
0.0
 70
    32
  0
VERTEX
  5
2C1A
  8
240
 10
309.9390000000000214
 20
-43.8171000000000035
 30
0.0
 70
    32
  0
VERTEX
  5
2C1B
  8
240
 10
309.9610000000000127
 20
-43.8023000000000025
 30
0.0
 70
    32
  0
VERTEX
  5
2C1C
  8
240
 10
309.9830000000000041
 20
-43.7875000000000014
 30
0.0
 70
    32
  0
VERTEX
  5
2C1D
  8
240
 10
310.0049999999999955
 20
-43.7727000000000004
 30
0.0
 70
    32
  0
VERTEX
  5
2C1E
  8
240
 10
310.02800000000002
 20
-43.7578000000000031
 30
0.0
 70
    32
  0
VERTEX
  5
2C1F
  8
240
 10
310.0500000000000114
 20
-43.7430000000000021
 30
0.0
 70
    32
  0
VERTEX
  5
2C20
  8
240
 10
310.0720000000000027
 20
-43.7280999999999977
 30
0.0
 70
    32
  0
VERTEX
  5
2C21
  8
240
 10
310.0939999999999941
 20
-43.7131999999999934
 30
0.0
 70
    32
  0
VERTEX
  5
2C22
  8
240
 10
310.1159999999999854
 20
-43.6981999999999928
 30
0.0
 70
    32
  0
VERTEX
  5
2C23
  8
240
 10
310.1379999999999768
 20
-43.6833000000000027
 30
0.0
 70
    32
  0
VERTEX
  5
2C24
  8
240
 10
310.160000000000025
 20
-43.6683000000000021
 30
0.0
 70
    32
  0
VERTEX
  5
2C25
  8
240
 10
310.1820000000000164
 20
-43.6533000000000015
 30
0.0
 70
    32
  0
VERTEX
  5
2C26
  8
240
 10
310.2040000000000077
 20
-43.638300000000001
 30
0.0
 70
    32
  0
VERTEX
  5
2C27
  8
240
 10
310.2259999999999991
 20
-43.62319999999999
 30
0.0
 70
    32
  0
VERTEX
  5
2C28
  8
240
 10
310.2479999999999905
 20
-43.6080999999999932
 30
0.0
 70
    32
  0
VERTEX
  5
2C29
  8
240
 10
310.2699999999999818
 20
-43.5930999999999926
 30
0.0
 70
    32
  0
VERTEX
  5
2C2A
  8
240
 10
310.2920000000000869
 20
-43.5778999999999996
 30
0.0
 70
    32
  0
VERTEX
  5
2C2B
  8
240
 10
310.3140000000000214
 20
-43.5628000000000029
 30
0.0
 70
    32
  0
VERTEX
  5
2C2C
  8
240
 10
310.3360000000000127
 20
-43.5476000000000028
 30
0.0
 70
    32
  0
VERTEX
  5
2C2D
  8
240
 10
310.3580000000000041
 20
-43.5324000000000026
 30
0.0
 70
    32
  0
VERTEX
  5
2C2E
  8
240
 10
310.3799999999999955
 20
-43.5172000000000025
 30
0.0
 70
    32
  0
VERTEX
  5
2C2F
  8
240
 10
310.4019999999999868
 20
-43.5020000000000024
 30
0.0
 70
    32
  0
VERTEX
  5
2C30
  8
240
 10
310.4239999999999782
 20
-43.4868000000000023
 30
0.0
 70
    32
  0
VERTEX
  5
2C31
  8
240
 10
310.4459999999999127
 20
-43.4714999999999989
 30
0.0
 70
    32
  0
VERTEX
  5
2C32
  8
240
 10
310.4680000000000177
 20
-43.4562000000000026
 30
0.0
 70
    32
  0
VERTEX
  5
2C33
  8
240
 10
310.4900000000000091
 20
-43.4408999999999992
 30
0.0
 70
    32
  0
VERTEX
  5
2C34
  8
240
 10
310.5120000000000005
 20
-43.4254999999999995
 30
0.0
 70
    32
  0
VERTEX
  5
2C35
  8
240
 10
310.5339999999999918
 20
-43.4102000000000032
 30
0.0
 70
    32
  0
VERTEX
  5
2C36
  8
240
 10
310.5559999999999832
 20
-43.3947999999999965
 30
0.0
 70
    32
  0
VERTEX
  5
2C37
  8
240
 10
310.5779999999999745
 20
-43.3793999999999897
 30
0.0
 70
    32
  0
VERTEX
  5
2C38
  8
240
 10
310.6000000000000227
 20
-43.363900000000001
 30
0.0
 70
    32
  0
VERTEX
  5
2C39
  8
240
 10
310.6220000000000141
 20
-43.3485000000000014
 30
0.0
 70
    32
  0
VERTEX
  5
2C3A
  8
240
 10
310.6440000000000055
 20
-43.3329999999999984
 30
0.0
 70
    32
  0
VERTEX
  5
2C3B
  8
240
 10
310.6659999999999968
 20
-43.3175000000000026
 30
0.0
 70
    32
  0
VERTEX
  5
2C3C
  8
240
 10
310.6879999999999882
 20
-43.3019999999999996
 30
0.0
 70
    32
  0
VERTEX
  5
2C3D
  8
240
 10
310.7099999999999795
 20
-43.2864999999999895
 30
0.0
 70
    32
  0
VERTEX
  5
2C3E
  8
240
 10
310.7320000000000277
 20
-43.2708999999999975
 30
0.0
 70
    32
  0
VERTEX
  5
2C3F
  8
240
 10
310.7529999999999859
 20
-43.2552999999999912
 30
0.0
 70
    32
  0
VERTEX
  5
2C40
  8
240
 10
310.7749999999999773
 20
-43.2396999999999991
 30
0.0
 70
    32
  0
VERTEX
  5
2C41
  8
240
 10
310.7970000000000255
 20
-43.2241
 30
0.0
 70
    32
  0
VERTEX
  5
2C42
  8
240
 10
310.8190000000000168
 20
-43.2083999999999904
 30
0.0
 70
    32
  0
VERTEX
  5
2C43
  8
240
 10
310.8410000000000082
 20
-43.1927999999999983
 30
0.0
 70
    32
  0
VERTEX
  5
2C44
  8
240
 10
310.8629999999999995
 20
-43.1771000000000029
 30
0.0
 70
    32
  0
VERTEX
  5
2C45
  8
240
 10
310.8849999999999909
 20
-43.1613999999999933
 30
0.0
 70
    32
  0
VERTEX
  5
2C46
  8
240
 10
310.9060000000000059
 20
-43.1456000000000017
 30
0.0
 70
    32
  0
VERTEX
  5
2C47
  8
240
 10
310.9279999999999973
 20
-43.1298999999999992
 30
0.0
 70
    32
  0
VERTEX
  5
2C48
  8
240
 10
310.9499999999999886
 20
-43.1141000000000005
 30
0.0
 70
    32
  0
VERTEX
  5
2C49
  8
240
 10
310.97199999999998
 20
-43.0983000000000018
 30
0.0
 70
    32
  0
VERTEX
  5
2C4A
  8
240
 10
310.9940000000000282
 20
-43.0825000000000031
 30
0.0
 70
    32
  0
VERTEX
  5
2C4B
  8
240
 10
311.0160000000000196
 20
-43.0666999999999902
 30
0.0
 70
    32
  0
VERTEX
  5
2C4C
  8
240
 10
311.0369999999999777
 20
-43.0508000000000024
 30
0.0
 70
    32
  0
VERTEX
  5
2C4D
  8
240
 10
311.0590000000000259
 20
-43.0349000000000004
 30
0.0
 70
    32
  0
VERTEX
  5
2C4E
  8
240
 10
311.0810000000000173
 20
-43.0189999999999912
 30
0.0
 70
    32
  0
VERTEX
  5
2C4F
  8
240
 10
311.1030000000000086
 20
-43.0031000000000034
 30
0.0
 70
    32
  0
VERTEX
  5
2C50
  8
240
 10
311.1240000000000236
 20
-42.987099999999991
 30
0.0
 70
    32
  0
VERTEX
  5
2C51
  8
240
 10
311.146000000000015
 20
-42.9712000000000032
 30
0.0
 70
    32
  0
VERTEX
  5
2C52
  8
240
 10
311.1680000000000064
 20
-42.9551999999999907
 30
0.0
 70
    32
  0
VERTEX
  5
2C53
  8
240
 10
311.1890000000000214
 20
-42.9391999999999925
 30
0.0
 70
    32
  0
VERTEX
  5
2C54
  8
240
 10
311.2110000000000127
 20
-42.9230999999999909
 30
0.0
 70
    32
  0
VERTEX
  5
2C55
  8
240
 10
311.2330000000000041
 20
-42.9070999999999927
 30
0.0
 70
    32
  0
VERTEX
  5
2C56
  8
240
 10
311.2549999999999955
 20
-42.8909999999999982
 30
0.0
 70
    32
  0
VERTEX
  5
2C57
  8
240
 10
311.2760000000000105
 20
-42.8748999999999967
 30
0.0
 70
    32
  0
VERTEX
  5
2C58
  8
240
 10
311.2980000000000018
 20
-42.8588000000000022
 30
0.0
 70
    32
  0
VERTEX
  5
2C59
  8
240
 10
311.3190000000000168
 20
-42.8427000000000007
 30
0.0
 70
    32
  0
VERTEX
  5
2C5A
  8
240
 10
311.3410000000000082
 20
-42.8265000000000029
 30
0.0
 70
    32
  0
VERTEX
  5
2C5B
  8
240
 10
311.3629999999999995
 20
-42.8103999999999871
 30
0.0
 70
    32
  0
VERTEX
  5
2C5C
  8
240
 10
311.3840000000000146
 20
-42.7941999999999965
 30
0.0
 70
    32
  0
VERTEX
  5
2C5D
  8
240
 10
311.4060000000000059
 20
-42.7779999999999987
 30
0.0
 70
    32
  0
VERTEX
  5
2C5E
  8
240
 10
311.4270000000000209
 20
-42.7616999999999905
 30
0.0
 70
    32
  0
VERTEX
  5
2C5F
  8
240
 10
311.4490000000000123
 20
-42.7454999999999998
 30
0.0
 70
    32
  0
VERTEX
  5
2C60
  8
240
 10
311.4710000000000036
 20
-42.7291999999999987
 30
0.0
 70
    32
  0
VERTEX
  5
2C61
  8
240
 10
311.4920000000000186
 20
-42.7128999999999905
 30
0.0
 70
    32
  0
VERTEX
  5
2C62
  8
240
 10
311.51400000000001
 20
-42.6965999999999966
 30
0.0
 70
    32
  0
VERTEX
  5
2C63
  8
240
 10
311.535000000000025
 20
-42.6803000000000026
 30
0.0
 70
    32
  0
VERTEX
  5
2C64
  8
240
 10
311.5570000000000164
 20
-42.6638999999999982
 30
0.0
 70
    32
  0
VERTEX
  5
2C65
  8
240
 10
311.5779999999999745
 20
-42.6475000000000009
 30
0.0
 70
    32
  0
VERTEX
  5
2C66
  8
240
 10
311.6000000000000227
 20
-42.6311000000000035
 30
0.0
 70
    32
  0
VERTEX
  5
2C67
  8
240
 10
311.6209999999999809
 20
-42.6146999999999991
 30
0.0
 70
    32
  0
VERTEX
  5
2C68
  8
240
 10
311.6419999999999959
 20
-42.5983000000000018
 30
0.0
 70
    32
  0
VERTEX
  5
2C69
  8
240
 10
311.6639999999999873
 20
-42.5818000000000012
 30
0.0
 70
    32
  0
VERTEX
  5
2C6A
  8
240
 10
311.6850000000000023
 20
-42.5653999999999968
 30
0.0
 70
    32
  0
VERTEX
  5
2C6B
  8
240
 10
311.7069999999999936
 20
-42.5489000000000033
 30
0.0
 70
    32
  0
VERTEX
  5
2C6C
  8
240
 10
311.7280000000000086
 20
-42.5322999999999993
 30
0.0
 70
    32
  0
VERTEX
  5
2C6D
  8
240
 10
311.7490000000000236
 20
-42.5157999999999916
 30
0.0
 70
    32
  0
VERTEX
  5
2C6E
  8
240
 10
311.771000000000015
 20
-42.499299999999991
 30
0.0
 70
    32
  0
VERTEX
  5
2C6F
  8
240
 10
311.7919999999999732
 20
-42.4827000000000012
 30
0.0
 70
    32
  0
VERTEX
  5
2C70
  8
240
 10
311.8129999999999882
 20
-42.4660999999999902
 30
0.0
 70
    32
  0
VERTEX
  5
2C71
  8
240
 10
311.8349999999999795
 20
-42.4495000000000005
 30
0.0
 70
    32
  0
VERTEX
  5
2C72
  8
240
 10
311.8559999999999945
 20
-42.4328999999999965
 30
0.0
 70
    32
  0
VERTEX
  5
2C73
  8
240
 10
311.8770000000000095
 20
-42.4162000000000035
 30
0.0
 70
    32
  0
VERTEX
  5
2C74
  8
240
 10
311.8990000000000009
 20
-42.3995999999999924
 30
0.0
 70
    32
  0
VERTEX
  5
2C75
  8
240
 10
311.9200000000000159
 20
-42.3828999999999994
 30
0.0
 70
    32
  0
VERTEX
  5
2C76
  8
240
 10
311.9409999999999741
 20
-42.3661999999999992
 30
0.0
 70
    32
  0
VERTEX
  5
2C77
  8
240
 10
311.9619999999999891
 20
-42.3494000000000028
 30
0.0
 70
    32
  0
VERTEX
  5
2C78
  8
240
 10
311.9830000000000041
 20
-42.3327000000000027
 30
0.0
 70
    32
  0
VERTEX
  5
2C79
  8
240
 10
312.0049999999999955
 20
-42.3158999999999921
 30
0.0
 70
    32
  0
VERTEX
  5
2C7A
  8
240
 10
312.0260000000000105
 20
-42.2991999999999919
 30
0.0
 70
    32
  0
VERTEX
  5
2C7B
  8
240
 10
312.0470000000000255
 20
-42.2824000000000026
 30
0.0
 70
    32
  0
VERTEX
  5
2C7C
  8
240
 10
312.0679999999999836
 20
-42.2655999999999992
 30
0.0
 70
    32
  0
VERTEX
  5
2C7D
  8
240
 10
312.0889999999999986
 20
-42.2486999999999995
 30
0.0
 70
    32
  0
VERTEX
  5
2C7E
  8
240
 10
312.1100000000000136
 20
-42.2319000000000031
 30
0.0
 70
    32
  0
VERTEX
  5
2C7F
  8
240
 10
312.1309999999999718
 20
-42.2150000000000034
 30
0.0
 70
    32
  0
VERTEX
  5
2C80
  8
240
 10
312.1519999999999868
 20
-42.1980999999999895
 30
0.0
 70
    32
  0
VERTEX
  5
2C81
  8
240
 10
312.1739999999999782
 20
-42.1811999999999898
 30
0.0
 70
    32
  0
VERTEX
  5
2C82
  8
240
 10
312.1949999999999932
 20
-42.1642999999999901
 30
0.0
 70
    32
  0
VERTEX
  5
2C83
  8
240
 10
312.2160000000000082
 20
-42.1473000000000013
 30
0.0
 70
    32
  0
VERTEX
  5
2C84
  8
240
 10
312.2370000000000232
 20
-42.1304000000000016
 30
0.0
 70
    32
  0
VERTEX
  5
2C85
  8
240
 10
312.2579999999999814
 20
-42.1133999999999915
 30
0.0
 70
    32
  0
VERTEX
  5
2C86
  8
240
 10
312.27800000000002
 20
-42.0964000000000027
 30
0.0
 70
    32
  0
VERTEX
  5
2C87
  8
240
 10
312.2990000000000919
 20
-42.0793999999999926
 30
0.0
 70
    32
  0
VERTEX
  5
2C88
  8
240
 10
312.3199999999999932
 20
-42.0623000000000005
 30
0.0
 70
    32
  0
VERTEX
  5
2C89
  8
240
 10
312.3410000000000082
 20
-42.0452999999999975
 30
0.0
 70
    32
  0
VERTEX
  5
2C8A
  8
240
 10
312.3620000000000232
 20
-42.0281999999999982
 30
0.0
 70
    32
  0
VERTEX
  5
2C8B
  8
240
 10
312.3829999999999814
 20
-42.0110999999999919
 30
0.0
 70
    32
  0
VERTEX
  5
2C8C
  8
240
 10
312.4039999999999964
 20
-41.9939999999999927
 30
0.0
 70
    32
  0
VERTEX
  5
2C8D
  8
240
 10
312.4250000000000114
 20
-41.9769000000000005
 30
0.0
 70
    32
  0
VERTEX
  5
2C8E
  8
240
 10
312.4449999999999932
 20
-41.9598000000000013
 30
0.0
 70
    32
  0
VERTEX
  5
2C8F
  8
240
 10
312.4660000000000082
 20
-41.9425999999999917
 30
0.0
 70
    32
  0
VERTEX
  5
2C90
  8
240
 10
312.4870000000000232
 20
-41.9254000000000033
 30
0.0
 70
    32
  0
VERTEX
  5
2C91
  8
240
 10
312.5079999999999814
 20
-41.908299999999997
 30
0.0
 70
    32
  0
VERTEX
  5
2C92
  8
240
 10
312.5289999999999964
 20
-41.8911000000000016
 30
0.0
 70
    32
  0
VERTEX
  5
2C93
  8
240
 10
312.5489999999999782
 20
-41.8738000000000028
 30
0.0
 70
    32
  0
VERTEX
  5
2C94
  8
240
 10
312.5699999999999932
 20
-41.8566000000000003
 30
0.0
 70
    32
  0
VERTEX
  5
2C95
  8
240
 10
312.5910000000000082
 20
-41.8393000000000015
 30
0.0
 70
    32
  0
VERTEX
  5
2C96
  8
240
 10
312.61099999999999
 20
-41.8220999999999989
 30
0.0
 70
    32
  0
VERTEX
  5
2C97
  8
240
 10
312.632000000000005
 20
-41.8048000000000002
 30
0.0
 70
    32
  0
VERTEX
  5
2C98
  8
240
 10
312.65300000000002
 20
-41.7874999999999872
 30
0.0
 70
    32
  0
VERTEX
  5
2C99
  8
240
 10
312.6730000000000018
 20
-41.7700999999999993
 30
0.0
 70
    32
  0
VERTEX
  5
2C9A
  8
240
 10
312.6940000000000168
 20
-41.7527999999999935
 30
0.0
 70
    32
  0
VERTEX
  5
2C9B
  8
240
 10
312.7139999999999986
 20
-41.7353999999999985
 30
0.0
 70
    32
  0
VERTEX
  5
2C9C
  8
240
 10
312.7350000000000136
 20
-41.7180000000000035
 30
0.0
 70
    32
  0
VERTEX
  5
2C9D
  8
240
 10
312.7549999999999955
 20
-41.7006999999999906
 30
0.0
 70
    32
  0
VERTEX
  5
2C9E
  8
240
 10
312.7760000000000105
 20
-41.6831999999999994
 30
0.0
 70
    32
  0
VERTEX
  5
2C9F
  8
240
 10
312.7959999999999923
 20
-41.6657999999999902
 30
0.0
 70
    32
  0
VERTEX
  5
2CA0
  8
240
 10
312.8170000000000073
 20
-41.6484000000000023
 30
0.0
 70
    32
  0
VERTEX
  5
2CA1
  8
240
 10
312.8369999999999891
 20
-41.6308999999999898
 30
0.0
 70
    32
  0
VERTEX
  5
2CA2
  8
240
 10
312.8580000000000041
 20
-41.6135000000000019
 30
0.0
 70
    32
  0
VERTEX
  5
2CA3
  8
240
 10
312.8779999999999859
 20
-41.5959999999999965
 30
0.0
 70
    32
  0
VERTEX
  5
2CA4
  8
240
 10
312.8980000000000246
 20
-41.5784999999999911
 30
0.0
 70
    32
  0
VERTEX
  5
2CA5
  8
240
 10
312.9189999999999827
 20
-41.5608999999999895
 30
0.0
 70
    32
  0
VERTEX
  5
2CA6
  8
240
 10
312.9390000000000214
 20
-41.5433999999999983
 30
0.0
 70
    32
  0
VERTEX
  5
2CA7
  8
240
 10
312.9590000000000032
 20
-41.5257999999999896
 30
0.0
 70
    32
  0
VERTEX
  5
2CA8
  8
240
 10
312.978999999999985
 20
-41.5082999999999984
 30
0.0
 70
    32
  0
VERTEX
  5
2CA9
  8
240
 10
313.0
 20
-41.4906999999999968
 30
0.0
 70
    32
  0
VERTEX
  5
2CAA
  8
240
 10
313.0199999999999818
 20
-41.4731000000000023
 30
0.0
 70
    32
  0
SEQEND
  5
2CAB
  8
240
  0
LINE
  5
16D1
  8
246
  6
PHANTOM2
 10
301.9054146576252151
 20
-8.0000000000016414
 30
0.0
 11
307.6210147331319718
 21
-8.0000000000016378
 31
0.0
  0
LINE
  5
16D2
  8
246
  6
PHANTOM2
 10
301.9054146576252151
 20
8.000000000000238
 30
0.0
 11
307.6210147331324833
 21
8.0000000000002398
 31
0.0
  0
LINE
  5
16D3
  8
246
  6
PHANTOM2
 10
254.2954146576255994
 20
8.0000000000002274
 30
0.0
 11
246.1698145821183914
 21
8.0000000000002274
 31
0.0
  0
LINE
  5
16D4
  8
246
  6
PHANTOM2
 10
301.9054146576252151
 20
-8.000000000001636
 30
0.0
 11
301.9054146576252151
 21
8.0000000000002434
 31
0.0
  0
LINE
  5
16D5
  8
246
  6
PHANTOM2
 10
254.2954146576255994
 20
-8.000000000001652
 30
0.0
 11
254.2954146576255994
 21
8.0000000000002274
 31
0.0
  0
ARC
  5
16D6
  8
246
  6
PHANTOM2
 10
276.8954146576255084
 20
0.0000000000002309
 30
0.0
 40
31.7500000000000107
 50
14.5940287352488998
 51
165.4059712647508036
  0
LINE
  5
16D7
  8
246
  6
PHANTOM2
 10
246.1698145821183914
 20
-7.9999999999996643
 30
0.0
 11
254.2954146576255994
 21
-7.9999999999996598
 31
0.0
  0
ARC
  5
16D8
  8
246
  6
PHANTOM2
 10
276.8954146576255084
 20
0.0000000000002309
 30
0.0
 40
31.7500000000000107
 50
194.5940287352491112
 51
345.4059712647508036
  0
LINE
  5
171D
  8
246
  6
PHANTOM2
 10
55.99999999999784
 20
55.0000000000000711
 30
0.0
 11
126.3431457511414067
 21
54.9999999999999929
 31
0.0
  0
LINE
  5
171E
  8
246
  6
PHANTOM2
 10
65.5269119345809941
 20
-55.0000000000000995
 30
0.0
 11
126.3431457511414067
 21
-55.0000000000000995
 31
0.0
  0
TEXT
  5
172A
  8
241
  6
CONTINUOUS
 10
-70.0
 20
84.0
 30
0.0
 40
5.0
  1
BCV40Y-45-BH1.000L-4.75
  7
YOKO
  0
CIRCLE
  5
1762
  8
241
  6
CONTINUOUS
 10
102.8977092678770049
 20
13.5753788025416195
 30
0.0
 40
5.9999999999999991
  0
LINE
  5
1763
  8
245
  6
CENTER2
 10
107.8474567378770956
 20
8.6256313325416087
 30
0.0
 11
97.9479617978770847
 21
18.5251262625416118
 31
0.0
  0
CIRCLE
  5
1764
  8
242
  6
CONTINUOUS
 10
102.8977092478770032
 20
13.5753787925416098
 30
0.0
 40
5.125
  0
POLYLINE
  5
1765
  8
241
  6
CONTINUOUS
 66
     1
 10
0.0
 20
0.0
 30
0.0
 70
     1
  0
VERTEX
  5
2EDD
  8
241
  6
CONTINUOUS
 10
99.5516440378770966
 20
12.6788033325415999
 30
0.0
  0
VERTEX
  5
2EDE
  8
241
  6
CONTINUOUS
 10
100.448219507876999
 20
16.0248685525416192
 30
0.0
  0
VERTEX
  5
2EDF
  8
241
  6
CONTINUOUS
 10
103.7942847178771046
 20
16.9214440225415998
 30
0.0
  0
VERTEX
  5
2EE0
  8
241
  6
CONTINUOUS
 10
106.2437744678770031
 20
14.4719542825415992
 30
0.0
  0
VERTEX
  5
2EE1
  8
241
  6
CONTINUOUS
 10
105.3471989878769932
 20
11.1258890625415994
 30
0.0
  0
VERTEX
  5
2EE2
  8
241
  6
CONTINUOUS
 10
102.0011337778771008
 20
10.2293135925416099
 30
0.0
  0
SEQEND
  5
2EE3
  8
241
  6
CONTINUOUS
  0
CIRCLE
  5
1771
  8
241
  6
CONTINUOUS
 10
82.3916126134672169
 20
-6.9307178518682253
 30
0.0
 40
5.9999999999999991
  0
LINE
  5
1772
  8
245
  6
CENTER2
 10
87.3413600834671939
 20
-11.8804653218682397
 30
0.0
 11
77.441865143467254
 21
-1.9809703918682251
 31
0.0
  0
CIRCLE
  5
1773
  8
242
  6
CONTINUOUS
 10
82.3916125934672152
 20
-6.9307178618682359
 30
0.0
 40
5.125
  0
POLYLINE
  5
1774
  8
241
  6
CONTINUOUS
 66
     1
 10
0.0
 20
0.0
 30
0.0
 70
     1
  0
VERTEX
  5
2EE4
  8
241
  6
CONTINUOUS
 10
79.0455473834672517
 20
-7.8272933218682494
 30
0.0
  0
VERTEX
  5
2EE5
  8
241
  6
CONTINUOUS
 10
79.942122853467211
 20
-4.4812281018682247
 30
0.0
  0
VERTEX
  5
2EE6
  8
241
  6
CONTINUOUS
 10
83.2881880634672171
 20
-3.584652631868245
 30
0.0
  0
VERTEX
  5
2EE7
  8
241
  6
CONTINUOUS
 10
85.7376778134672151
 20
-6.0341423718682359
 30
0.0
  0
VERTEX
  5
2EE8
  8
241
  6
CONTINUOUS
 10
84.8411023334672336
 20
-9.3802075918682473
 30
0.0
  0
VERTEX
  5
2EE9
  8
241
  6
CONTINUOUS
 10
81.4950371234672417
 20
-10.2767830618682297
 30
0.0
  0
SEQEND
  5
2EEA
  8
241
  6
CONTINUOUS
  0
CIRCLE
  5
1780
  8
241
  6
CONTINUOUS
 10
61.8855159590572512
 20
-27.4368145062781785
 30
0.0
 40
5.9999999999999991
  0
LINE
  5
1781
  8
245
  6
CENTER2
 10
66.8352634290572638
 20
-32.3865619762781876
 30
0.0
 11
56.9357684890572813
 21
-22.487067046278181
 31
0.0
  0
CIRCLE
  5
1782
  8
242
  6
CONTINUOUS
 10
61.8855159390572496
 20
-27.43681451627819
 30
0.0
 40
5.125
  0
POLYLINE
  5
1783
  8
241
  6
CONTINUOUS
 66
     1
 10
0.0
 20
0.0
 30
0.0
 70
     1
  0
VERTEX
  5
2EEB
  8
241
  6
CONTINUOUS
 10
58.5394507290572932
 20
-28.3333899762782018
 30
0.0
  0
VERTEX
  5
2EEC
  8
241
  6
CONTINUOUS
 10
59.4360261990572525
 20
-24.9873247562781806
 30
0.0
  0
VERTEX
  5
2EED
  8
241
  6
CONTINUOUS
 10
62.7820914090572586
 20
-24.0907492862782
 30
0.0
  0
VERTEX
  5
2EEE
  8
241
  6
CONTINUOUS
 10
65.2315811590572707
 20
-26.54023902627819
 30
0.0
  0
VERTEX
  5
2EEF
  8
241
  6
CONTINUOUS
 10
64.3350056790572751
 20
-29.8863042462782005
 30
0.0
  0
VERTEX
  5
2EF0
  8
241
  6
CONTINUOUS
 10
60.9889404690572832
 20
-30.7828797162781918
 30
0.0
  0
SEQEND
  5
2EF1
  8
241
  6
CONTINUOUS
  0
LINE
  5
1B9F
  8
250
  6
CONTINUOUS
 10
0.0
 20
22.7250000000000014
 30
0.0
 11
0.000000000000003
 21
71.0000000000000284
 31
0.0
  0
LINE
  5
1BA0
  8
250
  6
CONTINUOUS
 10
126.3431457511414067
 20
21.5000000006342908
 30
0.0
 11
126.3431457511414067
 21
71.0000000000000284
 31
0.0
  0
LINE
  5
1BA1
  8
250
  6
CONTINUOUS
 10
2.2300000000000031
 20
70.0000000000000284
 30
0.0
 11
124.1131457511414027
 21
70.0000000000000284
 31
0.0
  0
LINE
  5
1BA5
  8
250
  6
CONTINUOUS
 10
124.1131457511414027
 20
70.3716666666666981
 30
0.0
 11
126.3431457511414067
 21
70.0000000000000284
 31
0.0
  0
LINE
  5
1BA6
  8
250
  6
CONTINUOUS
 10
124.1131457511414027
 20
69.6283333333333445
 30
0.0
 11
126.3431457511414067
 21
70.0000000000000284
 31
0.0
  0
LINE
  5
1BA7
  8
250
  6
CONTINUOUS
 10
126.3431457511414067
 20
70.0000000000000284
 30
0.0
 11
124.1131457511414027
 21
70.0000000000000284
 31
0.0
  0
TEXT
  5
1BC9
  8
250
  6
CONTINUOUS
 10
56.6382395422373719
 20
72.2000000000000313
 30
0.0
 40
2.799999999999998
  1
(4.75)
  0
LINE
  5
1BCA
  8
250
  6
CONTINUOUS
 10
2.2300000000000031
 20
69.6283333333333445
 30
0.0
 11
0.0000000000000029
 21
70.0000000000000284
 31
0.0
  0
LINE
  5
1BCB
  8
250
  6
CONTINUOUS
 10
2.2300000000000031
 20
70.3716666666666981
 30
0.0
 11
0.0000000000000029
 21
70.0000000000000284
 31
0.0
  0
LINE
  5
1BCC
  8
250
  6
CONTINUOUS
 10
0.0000000000000029
 20
70.0000000000000284
 30
0.0
 11
2.2300000000000031
 21
70.0000000000000284
 31
0.0
  0
LINE
  5
1BDA
  8
250
  6
CONTINUOUS
 10
314.4529529880941254
 20
37.068911699090549
 30
0.0
 11
239.3378763271450111
 21
-37.06891169908954
 31
0.0
  0
TEXT
  5
1BDE
  8
250
  6
CONTINUOUS
 10
258.0183527358826154
 20
-15.5403726511414408
 30
0.0
 40
2.799999999999998
  1
(\U+22054.33)
 50
44.6248536054591227
  0
LINE
  5
1BDF
  8
250
  6
CONTINUOUS
 10
239.5989579805116989
 20
-37.3334348197924513
 30
0.0
 11
237.7507376029275008
 21
-38.6354016192898371
 31
0.0
  0
LINE
  5
1BE0
  8
250
  6
CONTINUOUS
 10
239.076794673778295
 20
-36.8043885783866003
 30
0.0
 11
237.7507376029275008
 21
-38.6354016192898371
 31
0.0
  0
LINE
  5
1BE1
  8
250
  6
CONTINUOUS
 10
237.7507376029275008
 20
-38.6354016192898371
 30
0.0
 11
239.3378763271450111
 21
-37.0689116990895329
 31
0.0
  0
LINE
  5
1BE2
  8
250
  6
CONTINUOUS
 10
314.1918713347272956
 20
37.3334348197934602
 30
0.0
 11
316.0400917123116074
 21
38.6354016192908674
 31
0.0
  0
LINE
  5
1BE3
  8
250
  6
CONTINUOUS
 10
314.7140346414607279
 20
36.8043885783876235
 30
0.0
 11
316.0400917123116074
 21
38.6354016192908674
 31
0.0
  0
LINE
  5
1BE4
  8
250
  6
CONTINUOUS
 10
316.0400917123116074
 20
38.6354016192908674
 30
0.0
 11
314.4529529880940117
 21
37.068911699090549
 31
0.0
  0
LINE
  5
1DD1
  8
250
  6
CONTINUOUS
 10
276.895414657619483
 20
-59.9546628152484118
 30
0.0
 11
276.895414657619483
 21
-71.0
 31
0.0
  0
LINE
  5
1DD2
  8
250
  6
CONTINUOUS
 10
302.2954146576194034
 20
-48.2856228245625019
 30
0.0
 11
302.2954146576194034
 21
-71.0
 31
0.0
  0
LINE
  5
1DD3
  8
250
  6
CONTINUOUS
 10
279.1254146576195012
 20
-70.0
 30
0.0
 11
300.0654146576193284
 21
-70.0
 31
0.0
  0
LINE
  5
1DD7
  8
250
  6
CONTINUOUS
 10
300.0654146576193284
 20
-69.6283333333333303
 30
0.0
 11
302.2954146576194034
 21
-70.0
 31
0.0
  0
LINE
  5
1DD8
  8
250
  6
CONTINUOUS
 10
300.0654146576193284
 20
-70.3716666666666555
 30
0.0
 11
302.2954146576194034
 21
-70.0
 31
0.0
  0
LINE
  5
1DD9
  8
250
  6
CONTINUOUS
 10
302.2954146576194034
 20
-70.0
 30
0.0
 11
300.0654146576193284
 21
-70.0
 31
0.0
  0
LINE
  5
1DDA
  8
250
  6
CONTINUOUS
 10
279.1254146576195012
 20
-70.3716666666666555
 30
0.0
 11
276.895414657619483
 21
-70.0
 31
0.0
  0
LINE
  5
1DDB
  8
250
  6
CONTINUOUS
 10
279.1254146576195012
 20
-69.6283333333333303
 30
0.0
 11
276.895414657619483
 21
-70.0
 31
0.0
  0
LINE
  5
1DDC
  8
250
  6
CONTINUOUS
 10
276.895414657619483
 20
-70.0
 30
0.0
 11
279.1254146576195012
 21
-70.0
 31
0.0
  0
TEXT
  5
1DDD
  8
250
  6
CONTINUOUS
 10
281.9287479909526724
 20
-68.9999999999999858
 30
0.0
 40
2.799999999999998
  1
üá1.000
  0
LINE
  5
2D96
  8
241
 10
302.2954146576191761
 20
20.9999999980977385
 30
0.0
 11
327.7440628939626777
 21
20.9999999980977385
 31
0.0
  0
LINE
  5
2D99
  8
241
 10
245.3954146576193125
 20
13.9289321881342598
 30
0.0
 11
276.8954146576194262
 21
13.9289321881342598
 31
0.0
  0
VIEWPORT
  5
22
 67
     1
  8
0
 10
261.517699115044195
 20
148.5
 30
0.0
 40
523.0353982300885036
 41
297.0
 68
     1
 69
     1
1001
ACAD
1000
MVIEW
1002
{
1070
    16
1010
0.0
1020
0.0
1030
0.0
1010
0.0
1020
0.0
1030
1.0
1040
0.0
1040
297.0
1040
261.517699115044195
1040
148.5
1040
50.0
1040
0.0
1040
0.0
1070
     0
1070
   100
1070
     1
1070
     1
1070
     0
1070
     0
1070
     0
1070
     0
1040
0.0
1040
0.0
1040
0.0
1040
1.0
1040
1.0
1040
10.0
1040
10.0
1070
     0
1002
{
1002
}
1002
}
1001
GENIUS_GENODEF_13
1002
{
1000
HIER
1070
     0
1002
}
1002
{
1000
MANEDIT
1070
     0
1002
}
1002
{
1000
NOSEL
1070
     0
1002
}
1002
{
1000
BEHIND
1070
     0
1002
}
1002
{
1000
OTHER
1070
     0
1002
}
1002
{
1000
REACTOR
1002
}
1001
GENIUS_GENOBJ-N-SDF_13
1002
{
1000
OWNER
1000
GEN
1002
}
1001
GENIUS_GENSCREG_15
1000
PF
1040
1.0
1000
DF
1040
1.0
1000
MIN
1011
0.0
1021
0.0
1031
0.0
1021
0.0
1031
0.0
1000
MAX
1011
523.0353982300885036
1021
0.0
1031
0.0
1021
297.0
1031
0.0
1000
FLAGS
1070
     4
  0
ENDSEC
  0
EOF
