  0
SECTION
  2
HEADER
  9
$ACADVER
  1
AC1009
  9
$INSBASE
 10
0.0
 20
0.0
 30
0.0
  9
$EXTMIN
 10
-69.25
 20
-64.0
 30
0.0
  9
$EXTMAX
 10
331.9309569011712142
 20
82.0
 30
0.0
  9
$LIMMIN
 10
0.0
 20
0.0
  9
$LIMMAX
 10
297.0
 20
210.0
  9
$ORTHOMODE
 70
     0
  9
$REGENMODE
 70
     1
  9
$FILLMODE
 70
     1
  9
$QTEXTMODE
 70
     0
  9
$MIRRTEXT
 70
     1
  9
$DRAGMODE
 70
     2
  9
$LTSCALE
 40
10.0
  9
$OSMODE
 70
   807
  9
$ATTMODE
 70
     1
  9
$TEXTSIZE
 40
3.0
  9
$TRACEWID
 40
1.0
  9
$TEXTSTYLE
  7
YOKO
  9
$CLAYER
  8
240
  9
$CELTYPE
  6
BYLAYER
  9
$CECOLOR
 62
   256
  9
$DIMSCALE
 40
1.0
  9
$DIMASZ
 40
2.0
  9
$DIMEXO
 40
2.0
  9
$DIMDLI
 40
7.0
  9
$DIMRND
 40
0.0
  9
$DIMDLE
 40
0.0
  9
$DIMEXE
 40
2.0
  9
$DIMTP
 40
0.0
  9
$DIMTM
 40
0.01
  9
$DIMTXT
 40
4.0
  9
$DIMCEN
 40
0.0
  9
$DIMTSZ
 40
0.0
  9
$DIMTOL
 70
     0
  9
$DIMLIM
 70
     0
  9
$DIMTIH
 70
     0
  9
$DIMTOH
 70
     0
  9
$DIMSE1
 70
     0
  9
$DIMSE2
 70
     0
  9
$DIMTAD
 70
     3
  9
$DIMZIN
 70
     8
  9
$DIMBLK
  1
OPEN
  9
$DIMASO
 70
     1
  9
$DIMSHO
 70
     1
  9
$DIMPOST
  1

  9
$DIMAPOST
  1

  9
$DIMALT
 70
     0
  9
$DIMALTD
 70
     2
  9
$DIMALTF
 40
25.3999999999999986
  9
$DIMLFAC
 40
1.0
  9
$DIMTOFL
 70
     1
  9
$DIMTVP
 40
0.0
  9
$DIMTIX
 70
     1
  9
$DIMSOXD
 70
     0
  9
$DIMSAH
 70
     0
  9
$DIMBLK1
  1

  9
$DIMBLK2
  1

  9
$DIMSTYLE
  2
BIGT
  9
$DIMCLRD
 70
   256
  9
$DIMCLRE
 70
   256
  9
$DIMCLRT
 70
   256
  9
$DIMTFAC
 40
1.0
  9
$DIMGAP
 40
1.0
  9
$LUNITS
 70
     2
  9
$LUPREC
 70
     3
  9
$SKETCHINC
 40
1.0
  9
$FILLETRAD
 40
0.0
  9
$AUNITS
 70
     0
  9
$AUPREC
 70
     3
  9
$MENU
  1
.
  9
$ELEVATION
 40
0.0
  9
$PELEVATION
 40
0.0
  9
$THICKNESS
 40
0.0
  9
$LIMCHECK
 70
     0
  9
$BLIPMODE
 70
     0
  9
$CHAMFERA
 40
0.25
  9
$CHAMFERB
 40
0.25
  9
$SKPOLY
 70
     0
  9
$TDCREATE
 40
2458180.4855555561371148
  9
$TDUPDATE
 40
2458186.5746180559508502
  9
$TDINDWG
 40
0.0804462037
  9
$TDUSRTIMER
 40
0.0804461458
  9
$USRTIMER
 70
     1
  9
$ANGBASE
 50
0.0
  9
$ANGDIR
 70
     0
  9
$PDMODE
 70
     0
  9
$PDSIZE
 40
-5.0
  9
$PLINEWID
 40
0.0
  9
$COORDS
 70
     1
  9
$SPLFRAME
 70
     0
  9
$SPLINETYPE
 70
     6
  9
$SPLINESEGS
 70
     4
  9
$ATTDIA
 70
     1
  9
$ATTREQ
 70
     1
  9
$HANDLING
 70
     1
  9
$HANDSEED
  5
3905
  9
$SURFTAB1
 70
     6
  9
$SURFTAB2
 70
     6
  9
$SURFTYPE
 70
     6
  9
$SURFU
 70
     6
  9
$SURFV
 70
     6
  9
$UCSNAME
  2

  9
$UCSORG
 10
0.0
 20
0.0
 30
0.0
  9
$UCSXDIR
 10
1.0
 20
0.0
 30
0.0
  9
$UCSYDIR
 10
0.0
 20
1.0
 30
0.0
  9
$PUCSNAME
  2

  9
$PUCSORG
 10
0.0
 20
0.0
 30
0.0
  9
$PUCSXDIR
 10
1.0
 20
0.0
 30
0.0
  9
$PUCSYDIR
 10
0.0
 20
1.0
 30
0.0
  9
$USERI1
 70
     1
  9
$USERI2
 70
     0
  9
$USERI3
 70
     0
  9
$USERI4
 70
     0
  9
$USERI5
 70
     0
  9
$USERR1
 40
0.0
  9
$USERR2
 40
0.0
  9
$USERR3
 40
0.0
  9
$USERR4
 40
0.0
  9
$USERR5
 40
0.0
  9
$WORLDVIEW
 70
     1
  9
$SHADEDGE
 70
     3
  9
$SHADEDIF
 70
    70
  9
$TILEMODE
 70
     1
  9
$MAXACTVP
 70
    16
  9
$PLIMCHECK
 70
     0
  9
$PEXTMIN
 10
1.0000000000000000E+20
 20
1.0000000000000000E+20
 30
1.0000000000000000E+20
  9
$PEXTMAX
 10
-1.0000000000000000E+20
 20
-1.0000000000000000E+20
 30
-1.0000000000000000E+20
  9
$PLIMMIN
 10
0.0
 20
0.0
  9
$PLIMMAX
 10
420.0
 20
297.0
  9
$UNITMODE
 70
     0
  9
$VISRETAIN
 70
     1
  9
$PLINEGEN
 70
     0
  9
$PSLTSCALE
 70
     1
  0
ENDSEC
  0
SECTION
  2
TABLES
  0
TABLE
  2
VPORT
 70
     1
  0
VPORT
  2
*ACTIVE
 70
     0
 10
0.0
 20
0.0
 11
1.0
 21
1.0
 12
134.1285067265453108
 22
-9.8644453236402398
 13
0.0
 23
0.0
 14
7.0
 24
7.0
 15
7.0
 25
7.0
 16
0.0
 26
0.0
 36
1.0
 17
0.0
 27
0.0
 37
0.0
 40
246.2044899143843111
 41
1.8592342342342341
 42
50.0
 43
0.0
 44
0.0
 50
0.0
 51
0.0
 71
     0
 72
  2000
 73
     1
 74
     0
 75
     0
 76
     0
 77
     0
 78
     0
  0
ENDTAB
  0
TABLE
  2
LTYPE
 70
    16
  0
LTYPE
  2
CONTINUOUS
 70
     0
  3
Solid line
 72
    65
 73
     0
 40
0.0
  0
LTYPE
  2
CENTER2
 70
     0
  3
___ _ ___ _ ___ _ ___ _ ___ _ ___ _ ___ _ ___ _
 72
    65
 73
     4
 40
1.125
 49
0.75
 49
-0.125
 49
0.125
 49
-0.125
  0
LTYPE
  2
HIDDEN2
 70
     0
  3
_ _ _ _ _ _ _ _ _ _ _ _ _ _ _ _ _ _ _ _ _ _ _ _
 72
    65
 73
     2
 40
0.1875
 49
0.125
 49
-0.0625
  0
LTYPE
  2
PHANTOM2
 70
     0
  3
___ _ _ ___ _ _ ___ _ _ ___ _ _ ___ _ _ ___ _ _
 72
    65
 73
     6
 40
1.25
 49
0.625
 49
-0.125
 49
0.125
 49
-0.125
 49
0.125
 49
-0.125
  0
LTYPE
  2
HIDDEN
 70
     0
  3
Hidden __ __ __ __ __ __ __ __ __ __ __ __ __ _
 72
    65
 73
     2
 40
0.375
 49
0.25
 49
-0.125
  0
LTYPE
  2
CENTER
 70
     0
  3
Center ____ _ ____ _ ____ _ ____ _ ____ _ ____
 72
    65
 73
     4
 40
2.0
 49
1.25
 49
-0.25
 49
0.25
 49
-0.25
  0
LTYPE
  2
AMCONSTR
 70
     0
  3
_______________________
 72
    65
 73
     2
 40
9999.0
 49
9999.0
 49
0.0
  0
LTYPE
  2
AMZIGZAG2
 70
     0
  3
/\/-/\/-/\/-/\/-/\/-/\/
 72
    65
 73
     2
 40
0.4401
 49
0.0001
 49
-0.4400000000000001
  0
LTYPE
  2
ACANSTGB
 70
     0
  3
__ . . __ . .
 72
    65
 73
     6
 40
0.35433070866
 49
0.15748031496
 49
-0.03937007874
 49
0.03937007874
 49
-0.03937007874
 49
0.03937007874
 49
-0.03937007874
  0
LTYPE
  2
ACANSTGL
 70
     0
  3
_ _ _ _ _
 72
    65
 73
     2
 40
0.11811023622
 49
0.07874015748
 49
-0.03937007874
  0
ENDTAB
  0
TABLE
  2
LAYER
 70
     9
  0
LAYER
  2
0
 70
     0
 62
     7
  6
CONTINUOUS
  0
LAYER
  2
240
 70
     0
 62
     4
  6
CONTINUOUS
  0
LAYER
  2
245
 70
     0
 62
     2
  6
CENTER2
  0
LAYER
  2
241
 70
     0
 62
   211
  6
CONTINUOUS
  0
LAYER
  2
242
 70
     0
 62
     3
  6
CONTINUOUS
  0
LAYER
  2
243
 70
     0
 62
   211
  6
HIDDEN2
  0
LAYER
  2
246
 70
     0
 62
     3
  6
PHANTOM2
  0
LAYER
  2
247
 70
     0
 62
    60
  6
CONTINUOUS
  0
LAYER
  2
250
 70
     0
 62
     3
  6
CONTINUOUS
  0
ENDTAB
  0
TABLE
  2
STYLE
 70
     5
  0
STYLE
  2
STANDARD
 70
     0
 40
0.0
 41
1.0
 50
0.0
 71
     0
 42
3.0
  3
romans.shx
  4
extfont.shx
  0
STYLE
  2
YOKO
 70
     0
 40
0.0
 41
1.0
 50
0.0
 71
     0
 42
3.0
  3
romans.shx
  4
extfont.shx
  0
STYLE
  2

 70
     1
 40
0.0
 41
1.0
 50
0.0
 71
     0
 42
3.0
  3
genltshp.shx
  4

  0
STYLE
  2
ACANSGDT
 70
     0
 40
0.0
 41
1.0
 50
0.0
 71
     0
 42
3.0
  3
amgdt.shx
  4

  0
ENDTAB
  0
TABLE
  2
VIEW
 70
     0
  0
ENDTAB
  0
TABLE
  2
UCS
 70
     0
  0
ENDTAB
  0
TABLE
  2
APPID
 70
    42
  0
APPID
  2
ACAD
 70
     0
  0
APPID
  2
ACADANNOTATIVE
 70
     0
  0
APPID
  2
GLOBAL
 70
     0
  0
APPID
  2
DETAIL
 70
     0
  0
APPID
  2
GRPNAME
 70
     0
  0
APPID
  2
GPARA
 70
     0
  0
APPID
  2
MCAD_NO_VIS
 70
     0
  0
APPID
  2
ACAD_TEMP_GRAPHIC
 70
     0
  0
APPID
  2
ACATTRIBSERVICES
 70
     0
  0
APPID
  2
GENIUS_GENSCREG_15
 70
     0
  0
APPID
  2
GENIUS_GENODEF_13
 70
     0
  0
APPID
  2
GENIUS_GENOBJ-N-SDF_13
 70
     0
  0
APPID
  2
GENIUS_GENREC_14
 70
     0
  0
APPID
  2
GENIUS_GENOBJ-N-REC_13
 70
     0
  0
APPID
  2
GENIUS_GENDIMSH_14
 70
     0
  0
APPID
  2
GENIUS_GENOBJ-N-DIM_13
 70
     0
  0
APPID
  2
GENIUS_GENDIM_13
 70
     0
  0
APPID
  2
GENIUS_GENDTOL_13
 70
     0
  0
APPID
  2
GENIUS_GENOLIS_13
 70
     0
  0
APPID
  2
GENIUS_GENOENT_13
 70
     0
  0
APPID
  2
GENIUS_GENOBJ-F-FEM_13
 70
     0
  0
APPID
  2
GENIUS_GENOREF_13
 70
     0
  0
APPID
  2
GENIUS_GEFFEM_13
 70
     0
  0
APPID
  2
GENIUS_GEFFEMP_13
 70
     0
  0
APPID
  2
AD_DRAW
 70
     0
  0
APPID
  2
DESIGNERASSEMBLIES
 70
     0
  0
APPID
  2
ACADM_DIM_EDIT
 70
     0
  0
APPID
  2
AMDT_DM_ADJ
 70
     0
  0
APPID
  2
ACAD_NAV_VCDISPLAY
 70
     0
  0
APPID
  2
ITEMNAME
 70
     0
  0
APPID
  2
GENIUS_GENOBJ-N-FIL_13
 70
     0
  0
APPID
  2
ACAECLAYERSTANDARD
 70
     0
  0
APPID
  2
GRADE_0
 70
     0
  0
APPID
  2
ACAD_DSTYLE_DIMJAG
 70
     0
  0
APPID
  2
ACAD_DSTYLE_DIMTALN
 70
     0
  0
APPID
  2
ACAD_DSTYLE_DIMBREAK
 70
     0
  0
APPID
  2
ACAD_PSEXT
 70
     0
  0
APPID
  2
ACAD_DSTYLE_DIMINSPECT
 70
     0
  0
APPID
  2
ACADANNOMONITORALERTICONDI
 70
     0
  0
APPID
  2
ACAD_EXEMPT_FROM_CAD_STANDARDS
 70
     0
  0
APPID
  2
ACAD_DSTYLE_DIMRADIAL_EXTENSION
 70
     0
  0
APPID
  2
ACAD_MLEADERVER
 70
     0
  0
ENDTAB
  0
TABLE
  2
DIMSTYLE
 70
     7
  0
DIMSTYLE
  2
BIGT
 70
     0
  3

  4

  5

  6

  7

 40
1.0
 41
2.2299999999999991
 42
0.5
 43
7.0
 44
1.0
 45
0.0
 46
0.0
 47
0.0
 48
0.01
140
2.799999999999998
141
0.0
142
0.0
143
25.3999999999999986
144
1.0
145
0.0
146
1.0
147
1.0
 71
     0
 72
     0
 73
     0
 74
     0
 75
     0
 76
     0
 77
     3
 78
     9
170
     0
171
     2
172
     1
173
     0
174
     1
175
     0
176
   256
177
   256
178
    40
  0
DIMSTYLE
  2
AM_ANSI
 70
     0
  3

  4
mm
  5

  6

  7

 40
1.0
 41
0.12
 42
0.05
 43
0.5
 44
0.1
 45
0.0
 46
0.0
 47
0.1
 48
0.1
140
0.12
141
0.0
142
0.0
143
25.3999999999999986
144
1.0
145
0.0
146
0.71
147
0.06
 71
     0
 72
     0
 73
     1
 74
     1
 75
     0
 76
     0
 77
     0
 78
     7
170
     0
171
     2
172
     0
173
     0
174
     0
175
     0
176
   256
177
   256
178
     2
  0
DIMSTYLE
  2
AM_ANSI$3
 70
     0
  3

  4
mm
  5

  6

  7

 40
1.0
 41
0.12
 42
0.05
 43
0.5
 44
0.1
 45
0.0
 46
0.0
 47
0.1
 48
0.1
140
0.12
141
0.0
142
0.0
143
25.3999999999999986
144
1.0
145
0.0
146
0.71
147
0.06
 71
     0
 72
     0
 73
     1
 74
     1
 75
     0
 76
     0
 77
     0
 78
     7
170
     0
171
     2
172
     0
173
     0
174
     0
175
     0
176
   256
177
   256
178
     2
  0
DIMSTYLE
  2
AM_ANSI$4
 70
     0
  3

  4
mm
  5

  6

  7

 40
1.0
 41
0.12
 42
0.05
 43
0.5
 44
0.1
 45
0.0
 46
0.0
 47
0.1
 48
0.1
140
0.12
141
0.0
142
0.0
143
25.3999999999999986
144
1.0
145
0.0
146
0.71
147
0.06
 71
     0
 72
     0
 73
     1
 74
     1
 75
     0
 76
     0
 77
     0
 78
     7
170
     0
171
     2
172
     0
173
     0
174
     0
175
     0
176
   256
177
   256
178
     2
  0
DIMSTYLE
  2
AM_ANSI$7
 70
     0
  3

  4
mm
  5

  6

  7

 40
1.0
 41
0.12
 42
0.05
 43
0.5
 44
0.1
 45
0.0
 46
0.0
 47
0.1
 48
0.1
140
0.12
141
0.0
142
0.0
143
25.3999999999999986
144
1.0
145
0.0
146
0.71
147
0.06
 71
     0
 72
     0
 73
     1
 74
     1
 75
     0
 76
     0
 77
     0
 78
     7
170
     0
171
     2
172
     0
173
     0
174
     0
175
     0
176
   256
177
   256
178
     2
  0
DIMSTYLE
  2
AM_ANSI$SF
 70
     0
  3

  4
mm
  5

  6

  7

 40
1.0
 41
0.12
 42
0.05
 43
0.5
 44
0.1
 45
0.0
 46
0.0
 47
0.1
 48
0.1
140
0.12
141
0.0
142
0.0
143
25.3999999999999986
144
1.0
145
0.0
146
0.71
147
0.06
 71
     0
 72
     0
 73
     1
 74
     1
 75
     1
 76
     1
 77
     0
 78
     7
170
     0
171
     2
172
     0
173
     0
174
     0
175
     0
176
   256
177
   256
178
     2
  0
DIMSTYLE
  2
AM_ANSI$SH
 70
     0
  3

  4
mm
  5

  6
GENAXEH
  7

 40
1.0
 41
0.12
 42
0.05
 43
0.5
 44
0.1
 45
0.0
 46
0.0
 47
0.1
 48
0.1
140
0.12
141
0.0
142
0.0
143
25.3999999999999986
144
1.0
145
0.0
146
0.71
147
0.06
 71
     0
 72
     0
 73
     1
 74
     1
 75
     1
 76
     1
 77
     0
 78
     7
170
     0
171
     2
172
     0
173
     1
174
     0
175
     0
176
   256
177
   256
178
     2
  0
ENDTAB
  0
ENDSEC
  0
SECTION
  2
BLOCKS
  0
BLOCK
  8
0
  2
$MODEL_SPACE
 70
     0
 10
0.0
 20
0.0
 30
0.0
  3
$MODEL_SPACE
  1

  0
ENDBLK
  5
374F
  8
0
  0
BLOCK
 67
     1
  8
0
  2
$PAPER_SPACE
 70
     0
 10
0.0
 20
0.0
 30
0.0
  3
$PAPER_SPACE
  1

  0
ENDBLK
  5
374B
 67
     1
  8
0
  0
BLOCK
  8
0
  2
_OPEN
 70
     0
 10
0.0
 20
0.0
 30
0.0
  3
_OPEN
  1

  0
LINE
  5
595
  8
0
  6
BYBLOCK
 62
     0
 10
-1.0
 20
0.1666666666666666
 30
0.0
 11
0.0
 21
0.0
 31
0.0
  0
LINE
  5
596
  8
0
  6
BYBLOCK
 62
     0
 10
-1.0
 20
-0.1666666666666666
 30
0.0
 11
0.0
 21
0.0
 31
0.0
  0
LINE
  5
597
  8
0
  6
BYBLOCK
 62
     0
 10
0.0
 20
0.0
 30
0.0
 11
-1.0
 21
0.0
 31
0.0
  0
ENDBLK
  5
599
  8
0
  0
BLOCK
  8
0
  2
GENAXEH
 70
     0
 10
0.0
 20
0.0
 30
0.0
  3
GENAXEH
  1

  0
LINE
  5
3888
  8
0
 10
-1.0
 20
0.0
 30
0.0
 11
1.0
 21
0.0
 31
0.0
  0
ENDBLK
  5
388A
  8
0
  0
BLOCK
  8
0
  2
_ACMFILLEDHALF
 70
     0
 10
0.0
 20
0.0
 30
0.0
  3
_ACMFILLEDHALF
  1

  0
TRACE
  5
3898
  8
240
 62
     0
 10
-0.8
 20
0.0
 30
0.0
 11
-1.0
 21
0.166666666
 31
0.0
 12
0.0
 22
0.0
 32
0.0
 13
0.0
 23
0.0
 33
0.0
  0
LINE
  5
3899
  8
240
 62
     0
 10
-1.0
 20
0.0
 30
0.0
 11
-0.8
 21
0.0
 31
0.0
  0
ENDBLK
  5
3897
  8
0
  0
ENDSEC
  0
SECTION
  2
ENTITIES
  0
LINE
  5
1407
  8
245
  6
CENTER2
 10
-69.25
 20
0.0
 30
0.0
 11
127.7539409082554016
 21
0.0
 31
0.0
  0
LINE
  5
1408
  8
240
  6
CONTINUOUS
 10
19.0500000000000007
 20
28.5000000000000284
 30
0.0
 11
19.0500000000000007
 21
31.75
 31
0.0
  0
LINE
  5
1409
  8
240
  6
CONTINUOUS
 10
13.0399999999999903
 20
28.9559131899999898
 30
0.0
 11
14.6531667700000003
 21
31.75
 31
0.0
  0
LINE
  5
140A
  8
241
  6
CONTINUOUS
 10
14.6461667700000007
 20
31.75
 30
0.0
 11
14.6461667700000007
 21
8.0000000000000693
 31
0.0
  0
LINE
  5
140B
  8
240
  6
CONTINUOUS
 10
9.2000000000000028
 20
28.980161909999989
 30
0.0
 11
7.6008332300000063
 21
31.75
 31
0.0
  0
LINE
  5
140C
  8
240
  6
CONTINUOUS
 10
1.0
 20
22.2250000000000085
 30
0.0
 11
1.0
 21
31.75
 31
0.0
  0
LINE
  5
140D
  8
241
  6
CONTINUOUS
 10
7.5938332300000013
 20
31.75
 30
0.0
 11
7.5938332300000013
 21
8.0000000000000409
 31
0.0
  0
LINE
  5
140E
  8
240
  6
CONTINUOUS
 10
0.0
 20
22.2250000000000085
 30
0.0
 11
-68.25
 21
12.2718750014768698
 31
0.0
  0
LINE
  5
140F
  8
240
  6
CONTINUOUS
 10
0.0
 20
-22.2250000000000085
 30
0.0
 11
-68.25
 21
-12.2718750014768698
 31
0.0
  0
LINE
  5
1410
  8
240
  6
CONTINUOUS
 10
-68.25
 20
-12.2718750014768094
 30
0.0
 11
-68.25
 21
12.2718750014768698
 31
0.0
  0
LINE
  5
1411
  8
241
  6
CONTINUOUS
 10
1.0
 20
-22.2250000000000085
 30
0.0
 11
1.0
 21
22.2250000000000085
 31
0.0
  0
LINE
  5
1412
  8
241
  6
CONTINUOUS
 10
0.0
 20
-22.2250000000000085
 30
0.0
 11
0.0
 21
22.2250000000000085
 31
0.0
  0
LINE
  5
1413
  8
241
  6
CONTINUOUS
 10
14.6461667700000007
 20
-31.75
 30
0.0
 11
14.6461667700000007
 21
-7.9999999999818519
 31
0.0
  0
LINE
  5
1414
  8
241
  6
CONTINUOUS
 10
7.5938332300000013
 20
-31.75
 30
0.0
 11
7.5938332300000013
 21
-7.999999999993487
 31
0.0
  0
LINE
  5
1415
  8
241
  6
CONTINUOUS
 10
9.2000000000000028
 20
-7.9999999999908384
 30
0.0
 11
9.2000000000000028
 21
-28.1800000000000104
 31
0.0
  0
LINE
  5
1416
  8
241
  6
CONTINUOUS
 10
13.0399999999999903
 20
-7.9999999999845022
 30
0.0
 11
13.0399999999999903
 21
-28.1800000000000104
 31
0.0
  0
LINE
  5
1417
  8
240
  6
CONTINUOUS
 10
1.0
 20
-31.75
 30
0.0
 11
7.5938332300000013
 21
-31.75
 31
0.0
  0
LINE
  5
1418
  8
240
  6
CONTINUOUS
 10
1.0
 20
-22.2250000000000085
 30
0.0
 11
1.0
 21
-31.75
 31
0.0
  0
LINE
  5
1419
  8
240
  6
CONTINUOUS
 10
0.0
 20
-22.2250000000000085
 30
0.0
 11
1.0
 21
-22.2250000000000085
 31
0.0
  0
LINE
  5
141A
  8
240
  6
CONTINUOUS
 10
9.2000000000000028
 20
-28.1800000000000104
 30
0.0
 11
13.0399999999999903
 21
-28.1800000000000104
 31
0.0
  0
LINE
  5
141B
  8
240
  6
CONTINUOUS
 10
7.5938332300000013
 20
-31.75
 30
0.0
 11
9.2000000000000028
 21
-28.9680375499999982
 31
0.0
  0
LINE
  5
141C
  8
240
  6
CONTINUOUS
 10
9.2000000000000028
 20
-28.9680375499999982
 30
0.0
 11
9.2000000000000028
 21
-28.1800000000000104
 31
0.0
  0
LINE
  5
141D
  8
240
  6
CONTINUOUS
 10
19.0500000000000007
 20
-28.4999999999999609
 30
0.0
 11
19.0500000000000007
 21
-31.75
 31
0.0
  0
LINE
  5
141E
  8
240
  6
CONTINUOUS
 10
14.6461667700000007
 20
-31.75
 30
0.0
 11
19.0500000000000007
 21
-31.75
 31
0.0
  0
LINE
  5
141F
  8
240
  6
CONTINUOUS
 10
13.0399999999999903
 20
-28.9680375499999982
 30
0.0
 11
13.0399999999999903
 21
-28.1800000000000104
 31
0.0
  0
LINE
  5
1420
  8
240
  6
CONTINUOUS
 10
14.6461667700000007
 20
-31.75
 30
0.0
 11
13.0399999999999903
 21
-28.9680375499999982
 31
0.0
  0
LINE
  5
1421
  8
240
  6
CONTINUOUS
 10
0.0
 20
22.2250000000000085
 30
0.0
 11
1.0
 21
22.2250000000000085
 31
0.0
  0
LINE
  5
1422
  8
241
  6
CONTINUOUS
 10
13.0399999999999903
 20
8.0000000000000622
 30
0.0
 11
13.0399999999999903
 21
28.1800000000000104
 31
0.0
  0
LINE
  5
1423
  8
241
  6
CONTINUOUS
 10
9.2000000000000028
 20
8.0000000000000462
 30
0.0
 11
9.2000000000000028
 21
28.1800000000000104
 31
0.0
  0
LINE
  5
1424
  8
240
  6
CONTINUOUS
 10
9.2000000000000028
 20
28.1800000000000104
 30
0.0
 11
13.0399999999999903
 21
28.1800000000000104
 31
0.0
  0
LINE
  5
1425
  8
240
  6
CONTINUOUS
 10
9.2000000000000028
 20
28.9680375499999982
 30
0.0
 11
9.2000000000000028
 21
28.1800000000000104
 31
0.0
  0
LINE
  5
1426
  8
240
  6
CONTINUOUS
 10
13.0399999999999903
 20
28.9680375499999982
 30
0.0
 11
13.0399999999999903
 21
28.1800000000000104
 31
0.0
  0
LINE
  5
1427
  8
240
  6
CONTINUOUS
 10
1.0
 20
31.75
 30
0.0
 11
7.6008332300000063
 21
31.75
 31
0.0
  0
LINE
  5
1428
  8
240
  6
CONTINUOUS
 10
14.6531667700000003
 20
31.75
 30
0.0
 11
19.0500000000000007
 21
31.75
 31
0.0
  0
LINE
  5
1429
  8
247
  6
CONTINUOUS
 10
5.4999999999999432
 20
-18.75
 30
0.0
 11
5.5
 21
-14.1153846156700506
 31
0.0
  0
LINE
  5
142A
  8
247
  6
CONTINUOUS
 10
3.0
 20
-17.9548934999879712
 30
0.0
 11
5.0999999999160082
 21
-18.5570588100573417
 31
0.0
  0
LINE
  5
142B
  8
247
  6
CONTINUOUS
 10
3.996153846113998
 20
-17.3251514035190404
 30
0.0
 11
3.996153846113998
 21
-18.2405360188670116
 31
0.0
  0
ARC
  5
142C
  8
247
  6
CONTINUOUS
 10
3.3847190672940992
 20
-17.0872634019468101
 30
0.0
 40
0.3876715809326743
 50
72.9978896752922282
 51
172.9241662185135908
  0
ARC
  5
142D
  8
247
  6
CONTINUOUS
 10
3.305223131028014
 20
-17.3824775568041296
 30
0.0
 40
0.6933047965358772
 50
4.7429368522022122
 51
73.8492262732667513
1001
GENIUS_GENOBJ-N-FIL_13
1002
{
1000
OWNER
1000
GEN
1002
}
1001
GENIUS_GENODEF_13
1002
{
1000
HIER
1070
     0
1002
}
1002
{
1000
MANEDIT
1070
     0
1002
}
1002
{
1000
NOSEL
1070
     0
1002
}
1002
{
1000
BEHIND
1070
     0
1002
}
1002
{
1000
OTHER
1070
     0
1002
}
1002
{
1000
REACTOR
1002
}
  0
LINE
  5
142E
  8
247
  6
CONTINUOUS
 10
5.0999999999160082
 20
-17.6416741947093598
 30
0.0
 11
5.0999999999160082
 21
-18.5570588100573417
 31
0.0
  0
LINE
  5
142F
  8
247
  6
CONTINUOUS
 10
3.0
 20
-17.9548934999879712
 30
0.0
 11
3.0
 21
-17.0395088846399787
 31
0.0
  0
ARC
  5
1430
  8
247
  6
CONTINUOUS
 10
4.3874169627678707
 20
-17.3783064762668609
 30
0.0
 40
0.394857301075386
 50
65.990941652528889
 51
172.2634434590690944
  0
ARC
  5
1431
  8
247
  6
CONTINUOUS
 10
4.391200327332565
 20
-17.7124466104269196
 30
0.0
 40
0.7123241612361686
 50
5.701985164259785
 51
77.2773384368220064
1001
GENIUS_GENOBJ-N-FIL_13
1002
{
1000
OWNER
1000
GEN
1002
}
1001
GENIUS_GENODEF_13
1002
{
1000
HIER
1070
     0
1002
}
1002
{
1000
MANEDIT
1070
     0
1002
}
1002
{
1000
NOSEL
1070
     0
1002
}
1002
{
1000
BEHIND
1070
     0
1002
}
1002
{
1000
OTHER
1070
     0
1002
}
1002
{
1000
REACTOR
1002
}
  0
LINE
  5
1432
  8
247
  6
CONTINUOUS
 10
5.0999999999160082
 20
-16.6839818870633785
 30
0.0
 11
3.0
 21
-16.0818165769940116
 31
0.0
  0
LINE
  5
1433
  8
247
  6
CONTINUOUS
 10
3.0
 20
-14.5856627309079805
 30
0.0
 11
3.0
 21
-14.9816783643035993
 31
0.0
  0
LINE
  5
1434
  8
247
  6
CONTINUOUS
 10
5.0999999999160082
 20
-15.6087396539439798
 30
0.0
 11
5.0999999999160082
 21
-15.1779704231919901
 31
0.0
  0
ARC
  5
1435
  8
247
  6
CONTINUOUS
 10
4.4582995950833562
 20
-14.3818165770699693
 30
0.0
 40
1.576855057639547
 50
202.3594881415291127
 51
254.9932485428464872
  0
ARC
  5
1436
  8
247
  6
CONTINUOUS
 10
3.5658188585381341
 20
-14.8475113661332294
 30
0.0
 40
0.6234706797009447
 50
94.9945893190753168
 51
155.1663289573039037
1001
GENIUS_GENOBJ-N-FIL_13
1002
{
1000
OWNER
1000
GEN
1002
}
1001
GENIUS_GENODEF_13
1002
{
1000
HIER
1070
     0
1002
}
1002
{
1000
MANEDIT
1070
     0
1002
}
1002
{
1000
NOSEL
1070
     0
1002
}
1002
{
1000
BEHIND
1070
     0
1002
}
1002
{
1000
OTHER
1070
     0
1002
}
1002
{
1000
REACTOR
1002
}
  0
ARC
  5
1437
  8
247
  6
CONTINUOUS
 10
4.1621021219694381
 20
-15.4441839510328105
 30
0.0
 40
0.9749472149106978
 50
15.8460965557808002
 51
82.325137004169278
  0
ARC
  5
1438
  8
247
  6
CONTINUOUS
 10
4.3714704019710631
 20
-15.0352116387722408
 30
0.0
 40
0.9271945638692008
 50
249.7136016704968995
 51
321.7887456564109243
1001
GENIUS_GENOBJ-N-FIL_13
1002
{
1000
OWNER
1000
GEN
1002
}
1001
GENIUS_GENODEF_13
1002
{
1000
HIER
1070
     0
1002
}
1002
{
1000
MANEDIT
1070
     0
1002
}
1002
{
1000
NOSEL
1070
     0
1002
}
1002
{
1000
BEHIND
1070
     0
1002
}
1002
{
1000
OTHER
1070
     0
1002
}
1002
{
1000
REACTOR
1002
}
  0
LINE
  5
1439
  8
247
  6
CONTINUOUS
 10
4.2923076922559744
 20
-14.9625858078159606
 30
0.0
 11
4.2923076922559744
 21
-14.4779704232199702
 31
0.0
  0
ARC
  5
143A
  8
247
  6
CONTINUOUS
 10
4.25
 20
-18.75
 30
0.0
 40
1.25
 50
180.0
 51
0.0
  0
LINE
  5
143B
  8
247
  6
CONTINUOUS
 10
3.0
 20
-18.75
 30
0.0
 11
3.0
 21
-18.3038461539140407
 31
0.0
  0
ARC
  5
143C
  8
247
  6
CONTINUOUS
 10
4.25
 20
-14.1153846156700506
 30
0.0
 40
1.25
 50
0.0
 51
180.0
  0
LINE
  5
143D
  8
241
  6
CONTINUOUS
 10
19.0500000000000007
 20
-7.9999999999745874
 30
0.0
 11
3.699999999999815
 21
-7.9999999999999121
 31
0.0
  0
LINE
  5
143E
  8
241
  6
CONTINUOUS
 10
3.699999999999815
 20
-7.9999999999999121
 30
0.0
 11
0.9999999999997726
 21
-10.6999999999998998
 31
0.0
  0
LINE
  5
143F
  8
241
  6
CONTINUOUS
 10
3.699999999999815
 20
8.0000000000000284
 30
0.0
 11
19.0500000000000007
 21
8.0000000000000853
 31
0.0
  0
LINE
  5
1440
  8
241
  6
CONTINUOUS
 10
0.9999999999997726
 20
10.7000000000000703
 30
0.0
 11
3.699999999999815
 21
8.0000000000000284
 31
0.0
  0
LINE
  5
1441
  8
241
  6
CONTINUOUS
 10
19.0500000000000007
 20
-28.4999999999999609
 30
0.0
 11
19.0500000000000007
 21
-7.9999999999745874
 31
0.0
  0
LINE
  5
1442
  8
250
  6
CONTINUOUS
 10
-35.4139049745202925
 20
-18.8136323989028291
 30
0.0
 11
-34.1249999989337169
 21
-17.2484374988922191
 31
0.0
  0
LINE
  5
1443
  8
250
  6
CONTINUOUS
 10
-34.8366036569175535
 20
-19.1470505044978907
 30
0.0
 11
-34.1249999989337169
 21
-17.2484374988922191
 31
0.0
  0
LINE
  5
1444
  8
250
  6
CONTINUOUS
 10
-34.1249999989337169
 20
-17.2484374988922191
 30
0.0
 11
-35.1252543157189194
 21
-18.9803414517003901
 31
0.0
  0
TEXT
  5
1445
  8
250
  6
CONTINUOUS
 10
-57.0361743287984382
 20
-27.0700727109799608
 30
0.0
 40
2.799999999999998
  1
BCV40Y
  7
YOKO
1001
ITEMNAME
1000
LNSP3
  0
LINE
  5
1446
  8
250
  6
CONTINUOUS
 10
-40.3862186589337213
 20
-28.0895097788922214
 30
0.0
 11
-58.3862186589337071
 21
-28.0895097788922214
 31
0.0
1001
ITEMNAME
1000
LNSP2
  0
LINE
  5
1447
  8
250
  6
CONTINUOUS
 10
-35.4139049745202925
 20
-18.8136323989028291
 30
0.0
 11
-34.1249999989337169
 21
-17.2484374988922085
 31
0.0
  0
LINE
  5
1448
  8
250
  6
CONTINUOUS
 10
-34.8366036569175535
 20
-19.1470505044978907
 30
0.0
 11
-34.1249999989337169
 21
-17.2484374988922085
 31
0.0
  0
LINE
  5
1449
  8
250
  6
CONTINUOUS
 10
-34.1249999989337169
 20
-17.2484374988922085
 30
0.0
 11
-35.1252543157189194
 21
-18.9803414517003688
 31
0.0
  0
LINE
  5
144A
  8
250
  6
CONTINUOUS
 10
-35.1252543157189194
 20
-18.9803414517003688
 30
0.0
 11
-40.3862186589337213
 21
-28.0895097788922214
 31
0.0
1001
ACAD
1000
DSTYLE
1002
{
1070
     6
1000
OPEN
1070
    41
1040
2.0
1070
    42
1040
2.0
1070
    44
1040
2.0
1070
   140
1040
4.0
1070
   343
1005
0
1002
}
  0
LINE
  5
1573
  8
240
  6
CONTINUOUS
 10
34.9999999999982805
 20
32.9993043394097185
 30
0.0
 11
34.9999999999986429
 21
29.200000000000049
 31
0.0
  0
LINE
  5
1576
  8
240
  6
CONTINUOUS
 10
127.0000000000000995
 20
32.9993043394097185
 30
0.0
 11
127.0000000000000995
 21
4.1423218109812847
 31
0.0
  0
LINE
  5
157A
  8
245
  6
CENTER2
 10
124.0439999999986043
 20
20.4993043394097185
 30
0.0
 11
46.5874984363700833
 21
20.499304339410461
 31
0.0
  0
LINE
  5
157B
  8
240
  6
CONTINUOUS
 10
34.8471358441385206
 20
-28.7633738806971415
 30
0.0
 11
95.2495867624257926
 21
-23.4788441761639888
 31
0.0
  0
ARC
  5
1583
  8
241
  6
CONTINUOUS
 10
19.0999848011986089
 20
-0.0000000000187583
 30
0.0
 40
8.0000000000332516
 50
270.0002520929047023
 51
89.9998911466040283
  0
LINE
  5
1584
  8
241
  6
CONTINUOUS
 10
34.9999999999986429
 20
0.0
 30
0.0
 11
34.9999999999982876
 21
-28.7499999999999503
 31
0.0
  0
LINE
  5
1585
  8
240
  6
CONTINUOUS
 10
19.0500000000000007
 20
-28.5000000000000107
 30
0.0
 11
34.2999999999986969
 21
-28.4999999999998899
 31
0.0
  0
ARC
  5
1586
  8
240
  6
CONTINUOUS
 10
34.2999999999986969
 20
-29.1999999999999886
 30
0.0
 40
0.7
 50
38.5906166898535332
 51
90.0
  0
LINE
  5
1587
  8
241
  6
CONTINUOUS
 10
34.9999999999988631
 20
0.0
 30
0.0
 11
34.9999999999987423
 21
29.200000000000049
 31
0.0
  0
LINE
  5
1588
  8
240
  6
CONTINUOUS
 10
19.0500000000000007
 20
28.5
 30
0.0
 11
34.2999999999985903
 21
28.5
 31
0.0
  0
ARC
  5
1589
  8
240
  6
CONTINUOUS
 10
34.2999999999985903
 20
29.200000000000049
 30
0.0
 40
0.7
 50
270.0
 51
0.0
  0
ARC
  5
159E
  8
240
  6
CONTINUOUS
 10
116.9995505042121948
 20
4.14232181098191
 30
0.0
 40
10.0004494975195097
 50
314.9999823999031037
 51
359.9999823999041837
  0
ARC
  5
15A5
  8
240
  6
CONTINUOUS
 10
93.0706432387253102
 20
1.4261084474763941
 30
0.0
 40
25.00008920113304
 50
275.0000744075844068
 51
314.9999255924138879
  0
LINE
  5
15AB
  8
240
  6
CONTINUOUS
 10
110.748352885782694
 20
-16.2516471142158707
 30
0.0
 11
124.070936157596293
 21
-2.9290638424021722
 31
0.0
  0
LINE
  5
15C3
  8
240
  6
CONTINUOUS
 10
127.0000000000000995
 20
32.9993043394097185
 30
0.0
 11
34.9999999999982805
 21
32.9993043394097185
 31
0.0
  0
LINE
  5
16C0
  8
241
  6
CONTINUOUS
 10
19.0500000000000007
 20
8.0000000000000853
 30
0.0
 11
19.0500000000000007
 21
28.5000000000000284
 31
0.0
  0
LINE
  5
17AA
  8
245
  6
CENTER2
 10
331.9309569011712142
 20
-0.0000000000003411
 30
0.0
 11
227.465208051669606
 21
0.0000000000001137
 31
0.0
  0
CIRCLE
  5
17AB
  8
246
  6
PHANTOM2
 10
279.6980824764203817
 20
0.0000000000000568
 30
0.0
 40
47.5
  0
ARC
  5
17AD
  8
240
  6
CONTINUOUS
 10
279.6980824764203817
 20
0.0000000000000568
 30
0.0
 40
47.4999999999999929
 50
341.44699546497651
 51
33.6312774479312395
  0
LINE
  5
17AE
  8
245
  6
CENTER2
 10
279.6980824764206091
 20
-51.0178722350702714
 30
0.0
 11
279.6980824764200975
 21
51.0178722350700369
 31
0.0
  0
LINE
  5
17AF
  8
241
  6
CONTINUOUS
 10
305.0980824764204158
 20
32.9999999999992681
 30
0.0
 11
305.0980824764204158
 21
7.6000000000001933
 31
0.0
  0
ARC
  5
17B3
  8
240
  6
CONTINUOUS
 10
305.768899494688128
 20
-8.7499999999999432
 30
0.0
 40
20.0
 50
270.0
 51
341.44699546497651
  0
LINE
  5
17B6
  8
240
  6
CONTINUOUS
 10
305.768899494688128
 20
-28.7500000000000604
 30
0.0
 11
293.1702760617222907
 21
-28.7500000000000604
 31
0.0
  0
LINE
  5
17B7
  8
240
  6
CONTINUOUS
 10
293.1702760617271792
 20
-28.7500000000002807
 30
0.0
 11
279.6980824764203817
 21
-28.7499999999999503
 31
0.0
  0
LINE
  5
17C8
  8
241
  6
CONTINUOUS
 10
305.0980824764204158
 20
7.6000000000001897
 30
0.0
 11
279.6980824764207796
 21
7.600000000000418
 31
0.0
  0
ARC
  5
17D5
  8
240
  6
CONTINUOUS
 10
279.6980824764203817
 20
0.0000000000000568
 30
0.0
 40
28.7500000000000107
 50
180.0
 51
270.0000000000002842
  0
POLYLINE
  5
17DA
  8
241
  6
CONTINUOUS
 66
     1
 10
0.0
 20
0.0
 30
0.0
 70
     8
  0
VERTEX
  5
2F95
  8
241
 10
270.3319999999999936
 20
12.0
 30
0.0
 70
    32
  0
VERTEX
  5
2F96
  8
241
 10
270.3020000000000209
 20
12.1072000000000006
 30
0.0
 70
    32
  0
VERTEX
  5
2F97
  8
241
 10
270.271000000000015
 20
12.2139000000000006
 30
0.0
 70
    32
  0
VERTEX
  5
2F98
  8
241
 10
270.2389999999999759
 20
12.3202999999999996
 30
0.0
 70
    32
  0
VERTEX
  5
2F99
  8
241
 10
270.2059999999999036
 20
12.4260999999999999
 30
0.0
 70
    32
  0
VERTEX
  5
2F9A
  8
241
 10
270.1720000000000255
 20
12.5314999999999994
 30
0.0
 70
    32
  0
VERTEX
  5
2F9B
  8
241
 10
270.1370000000000005
 20
12.6364000000000001
 30
0.0
 70
    32
  0
VERTEX
  5
2F9C
  8
241
 10
270.1000000000000227
 20
12.7408000000000001
 30
0.0
 70
    32
  0
VERTEX
  5
2F9D
  8
241
 10
270.0629999999999882
 20
12.8446999999999996
 30
0.0
 70
    32
  0
VERTEX
  5
2F9E
  8
241
 10
270.0240000000000009
 20
12.9480000000000004
 30
0.0
 70
    32
  0
VERTEX
  5
2F9F
  8
241
 10
269.9850000000000136
 20
13.0508000000000006
 30
0.0
 70
    32
  0
VERTEX
  5
2FA0
  8
241
 10
269.9440000000000168
 20
13.1530000000000005
 30
0.0
 70
    32
  0
VERTEX
  5
2FA1
  8
241
 10
269.9019999999999868
 20
13.2546999999999997
 30
0.0
 70
    32
  0
VERTEX
  5
2FA2
  8
241
 10
269.8589999999999804
 20
13.3557000000000006
 30
0.0
 70
    32
  0
VERTEX
  5
2FA3
  8
241
 10
269.8149999999999977
 20
13.4560999999999993
 30
0.0
 70
    32
  0
VERTEX
  5
2FA4
  8
241
 10
269.7699999999999818
 20
13.5559999999999992
 30
0.0
 70
    32
  0
VERTEX
  5
2FA5
  8
241
 10
269.7239999999999895
 20
13.6550999999999991
 30
0.0
 70
    32
  0
VERTEX
  5
2FA6
  8
241
 10
269.6770000000000209
 20
13.7536000000000005
 30
0.0
 70
    32
  0
VERTEX
  5
2FA7
  8
241
 10
269.6290000000000191
 20
13.8514999999999997
 30
0.0
 70
    32
  0
VERTEX
  5
2FA8
  8
241
 10
269.5799999999999841
 20
13.9486000000000008
 30
0.0
 70
    32
  0
VERTEX
  5
2FA9
  8
241
 10
269.5289999999999964
 20
14.0450999999999997
 30
0.0
 70
    32
  0
VERTEX
  5
2FAA
  8
241
 10
269.4780000000000086
 20
14.1408000000000005
 30
0.0
 70
    32
  0
VERTEX
  5
2FAB
  8
241
 10
269.4259999999999877
 20
14.2357999999999993
 30
0.0
 70
    32
  0
VERTEX
  5
2FAC
  8
241
 10
269.3729999999999905
 20
14.3300999999999998
 30
0.0
 70
    32
  0
VERTEX
  5
2FAD
  8
241
 10
269.3179999999999836
 20
14.4236000000000004
 30
0.0
 70
    32
  0
VERTEX
  5
2FAE
  8
241
 10
269.2629999999999768
 20
14.5164000000000009
 30
0.0
 70
    32
  0
VERTEX
  5
2FAF
  8
241
 10
269.2069999999999936
 20
14.6082999999999998
 30
0.0
 70
    32
  0
VERTEX
  5
2FB0
  8
241
 10
269.1499999999999773
 20
14.6995000000000005
 30
0.0
 70
    32
  0
VERTEX
  5
2FB1
  8
241
 10
269.0919999999999845
 20
14.7898999999999994
 30
0.0
 70
    32
  0
VERTEX
  5
2FB2
  8
241
 10
269.0330000000000155
 20
14.8794000000000004
 30
0.0
 70
    32
  0
VERTEX
  5
2FB3
  8
241
 10
268.9730000000000132
 20
14.9680999999999997
 30
0.0
 70
    32
  0
VERTEX
  5
2FB4
  8
241
 10
268.9119999999999777
 20
15.0558999999999994
 30
0.0
 70
    32
  0
VERTEX
  5
2FB5
  8
241
 10
268.8500000000000227
 20
15.1428999999999991
 30
0.0
 70
    32
  0
VERTEX
  5
2FB6
  8
241
 10
268.7869999999999777
 20
15.2289999999999992
 30
0.0
 70
    32
  0
VERTEX
  5
2FB7
  8
241
 10
268.7239999999999895
 20
15.3141999999999996
 30
0.0
 70
    32
  0
VERTEX
  5
2FB8
  8
241
 10
268.6589999999999918
 20
15.3985000000000003
 30
0.0
 70
    32
  0
VERTEX
  5
2FB9
  8
241
 10
268.5939999999999941
 20
15.4818999999999996
 30
0.0
 70
    32
  0
VERTEX
  5
2FBA
  8
241
 10
268.5269999999999868
 20
15.5643999999999991
 30
0.0
 70
    32
  0
VERTEX
  5
2FBB
  8
241
 10
268.4599999999999795
 20
15.6458999999999993
 30
0.0
 70
    32
  0
VERTEX
  5
2FBC
  8
241
 10
268.3919999999999959
 20
15.7264999999999997
 30
0.0
 70
    32
  0
VERTEX
  5
2FBD
  8
241
 10
268.3229999999999791
 20
15.8061000000000007
 30
0.0
 70
    32
  0
VERTEX
  5
2FBE
  8
241
 10
268.2529999999999859
 20
15.8848000000000003
 30
0.0
 70
    32
  0
VERTEX
  5
2FBF
  8
241
 10
268.1829999999999927
 20
15.9624000000000006
 30
0.0
 70
    32
  0
VERTEX
  5
2FC0
  8
241
 10
268.11099999999999
 20
16.0391000000000012
 30
0.0
 70
    32
  0
VERTEX
  5
2FC1
  8
241
 10
268.0389999999999873
 20
16.1146999999999991
 30
0.0
 70
    32
  0
VERTEX
  5
2FC2
  8
241
 10
267.9660000000000082
 20
16.1893999999999991
 30
0.0
 70
    32
  0
VERTEX
  5
2FC3
  8
241
 10
267.8929999999999723
 20
16.2630000000000017
 30
0.0
 70
    32
  0
VERTEX
  5
2FC4
  8
241
 10
267.8179999999999836
 20
16.3354999999999997
 30
0.0
 70
    32
  0
VERTEX
  5
2FC5
  8
241
 10
267.742999999999995
 20
16.407
 30
0.0
 70
    32
  0
VERTEX
  5
2FC6
  8
241
 10
267.6669999999999732
 20
16.4774999999999991
 30
0.0
 70
    32
  0
VERTEX
  5
2FC7
  8
241
 10
267.589999999999975
 20
16.5468000000000011
 30
0.0
 70
    32
  0
VERTEX
  5
2FC8
  8
241
 10
267.5129999999999768
 20
16.6151000000000018
 30
0.0
 70
    32
  0
VERTEX
  5
2FC9
  8
241
 10
267.4340000000000259
 20
16.6823000000000015
 30
0.0
 70
    32
  0
VERTEX
  5
2FCA
  8
241
 10
267.3550000000000182
 20
16.7483000000000004
 30
0.0
 70
    32
  0
VERTEX
  5
2FCB
  8
241
 10
267.2760000000000105
 20
16.8133000000000017
 30
0.0
 70
    32
  0
VERTEX
  5
2FCC
  8
241
 10
267.1960000000000264
 20
16.8770999999999987
 30
0.0
 70
    32
  0
VERTEX
  5
2FCD
  8
241
 10
267.1150000000000091
 20
16.9399000000000015
 30
0.0
 70
    32
  0
VERTEX
  5
2FCE
  8
241
 10
267.0330000000000155
 20
17.0014000000000003
 30
0.0
 70
    32
  0
VERTEX
  5
2FCF
  8
241
 10
266.9510000000000218
 20
17.0618000000000016
 30
0.0
 70
    32
  0
VERTEX
  5
2FD0
  8
241
 10
266.867999999999995
 20
17.1210999999999984
 30
0.0
 70
    32
  0
VERTEX
  5
2FD1
  8
241
 10
266.785000000000025
 20
17.1790999999999983
 30
0.0
 70
    32
  0
VERTEX
  5
2FD2
  8
241
 10
266.6999999999999886
 20
17.2360000000000007
 30
0.0
 70
    32
  0
VERTEX
  5
2FD3
  8
241
 10
266.6159999999999854
 20
17.2916999999999987
 30
0.0
 70
    32
  0
VERTEX
  5
2FD4
  8
241
 10
266.5299999999999727
 20
17.3462999999999994
 30
0.0
 70
    32
  0
VERTEX
  5
2FD5
  8
241
 10
266.4449999999999932
 20
17.3995999999999995
 30
0.0
 70
    32
  0
VERTEX
  5
2FD6
  8
241
 10
266.3580000000000041
 20
17.4516999999999989
 30
0.0
 70
    32
  0
VERTEX
  5
2FD7
  8
241
 10
266.271000000000015
 20
17.5025000000000013
 30
0.0
 70
    32
  0
VERTEX
  5
2FD8
  8
241
 10
266.1840000000000259
 20
17.5521999999999991
 30
0.0
 70
    32
  0
VERTEX
  5
2FD9
  8
241
 10
266.0960000000000036
 20
17.6006
 30
0.0
 70
    32
  0
VERTEX
  5
2FDA
  8
241
 10
266.007000000000005
 20
17.6478000000000002
 30
0.0
 70
    32
  0
VERTEX
  5
2FDB
  8
241
 10
265.9180000000000064
 20
17.6936999999999998
 30
0.0
 70
    32
  0
VERTEX
  5
2FDC
  8
241
 10
265.8290000000000077
 20
17.7383999999999986
 30
0.0
 70
    32
  0
VERTEX
  5
2FDD
  8
241
 10
265.7389999999999759
 20
17.7818000000000005
 30
0.0
 70
    32
  0
VERTEX
  5
2FDE
  8
241
 10
265.6490000000000009
 20
17.8240000000000016
 30
0.0
 70
    32
  0
VERTEX
  5
2FDF
  8
241
 10
265.5579999999999927
 20
17.8647999999999989
 30
0.0
 70
    32
  0
VERTEX
  5
2FE0
  8
241
 10
265.4669999999999845
 20
17.904399999999999
 30
0.0
 70
    32
  0
VERTEX
  5
2FE1
  8
241
 10
265.375
 20
17.9426999999999985
 30
0.0
 70
    32
  0
VERTEX
  5
2FE2
  8
241
 10
265.2830000000000155
 20
17.9797000000000011
 30
0.0
 70
    32
  0
VERTEX
  5
2FE3
  8
241
 10
265.1899999999999977
 20
18.0153999999999996
 30
0.0
 70
    32
  0
VERTEX
  5
2FE4
  8
241
 10
265.0980000000000132
 20
18.0499000000000009
 30
0.0
 70
    32
  0
VERTEX
  5
2FE5
  8
241
 10
265.0049999999999955
 20
18.0829999999999984
 30
0.0
 70
    32
  0
VERTEX
  5
2FE6
  8
241
 10
264.9110000000000014
 20
18.1147999999999989
 30
0.0
 70
    32
  0
VERTEX
  5
2FE7
  8
241
 10
264.8170000000000073
 20
18.1451999999999991
 30
0.0
 70
    32
  0
VERTEX
  5
2FE8
  8
241
 10
264.7230000000000132
 20
18.1743999999999986
 30
0.0
 70
    32
  0
VERTEX
  5
2FE9
  8
241
 10
264.6290000000000191
 20
18.2022000000000013
 30
0.0
 70
    32
  0
VERTEX
  5
2FEA
  8
241
 10
264.5339999999999918
 20
18.2286999999999999
 30
0.0
 70
    32
  0
VERTEX
  5
2FEB
  8
241
 10
264.4390000000000214
 20
18.2537999999999982
 30
0.0
 70
    32
  0
VERTEX
  5
2FEC
  8
241
 10
264.3439999999999941
 20
18.2776999999999994
 30
0.0
 70
    32
  0
VERTEX
  5
2FED
  8
241
 10
264.2479999999999905
 20
18.3001000000000005
 30
0.0
 70
    32
  0
VERTEX
  5
2FEE
  8
241
 10
264.1519999999999868
 20
18.3213000000000008
 30
0.0
 70
    32
  0
VERTEX
  5
2FEF
  8
241
 10
264.0559999999999832
 20
18.3411000000000008
 30
0.0
 70
    32
  0
VERTEX
  5
2FF0
  8
241
 10
263.9599999999999795
 20
18.3595000000000006
 30
0.0
 70
    32
  0
VERTEX
  5
2FF1
  8
241
 10
263.8639999999999759
 20
18.3765999999999998
 30
0.0
 70
    32
  0
VERTEX
  5
2FF2
  8
241
 10
263.7669999999999959
 20
18.3922999999999988
 30
0.0
 70
    32
  0
VERTEX
  5
2FF3
  8
241
 10
263.6709999999999923
 20
18.4067000000000007
 30
0.0
 70
    32
  0
VERTEX
  5
2FF4
  8
241
 10
263.5740000000000123
 20
18.4196999999999989
 30
0.0
 70
    32
  0
VERTEX
  5
2FF5
  8
241
 10
263.4769999999999754
 20
18.4313000000000002
 30
0.0
 70
    32
  0
VERTEX
  5
2FF6
  8
241
 10
263.3799999999999955
 20
18.4416000000000011
 30
0.0
 70
    32
  0
VERTEX
  5
2FF7
  8
241
 10
263.2830000000000155
 20
18.4505000000000017
 30
0.0
 70
    32
  0
VERTEX
  5
2FF8
  8
241
 10
263.1859999999999786
 20
18.4579999999999984
 30
0.0
 70
    32
  0
VERTEX
  5
2FF9
  8
241
 10
263.0880000000000223
 20
18.4642000000000017
 30
0.0
 70
    32
  0
VERTEX
  5
2FFA
  8
241
 10
262.9909999999999854
 20
18.4690000000000012
 30
0.0
 70
    32
  0
VERTEX
  5
2FFB
  8
241
 10
262.8929999999999723
 20
18.4725000000000001
 30
0.0
 70
    32
  0
VERTEX
  5
2FFC
  8
241
 10
262.7959999999999923
 20
18.474499999999999
 30
0.0
 70
    32
  0
VERTEX
  5
2FFD
  8
241
 10
262.6990000000000123
 20
18.475200000000001
 30
0.0
 70
    32
  0
VERTEX
  5
2FFE
  8
241
 10
262.6009999999999991
 20
18.474499999999999
 30
0.0
 70
    32
  0
VERTEX
  5
2FFF
  8
241
 10
262.5040000000000191
 20
18.4725000000000001
 30
0.0
 70
    32
  0
VERTEX
  5
3000
  8
241
 10
262.4060000000000059
 20
18.469100000000001
 30
0.0
 70
    32
  0
VERTEX
  5
3001
  8
241
 10
262.3090000000000259
 20
18.4643000000000015
 30
0.0
 70
    32
  0
VERTEX
  5
3002
  8
241
 10
262.2119999999999891
 20
18.4581000000000017
 30
0.0
 70
    32
  0
VERTEX
  5
3003
  8
241
 10
262.1139999999999759
 20
18.4506000000000014
 30
0.0
 70
    32
  0
VERTEX
  5
3004
  8
241
 10
262.0169999999999959
 20
18.4417000000000009
 30
0.0
 70
    32
  0
VERTEX
  5
3005
  8
241
 10
261.9200000000000159
 20
18.4314
 30
0.0
 70
    32
  0
VERTEX
  5
3006
  8
241
 10
261.8229999999999791
 20
18.4197999999999986
 30
0.0
 70
    32
  0
VERTEX
  5
3007
  8
241
 10
261.7259999999999991
 20
18.4068000000000005
 30
0.0
 70
    32
  0
VERTEX
  5
3008
  8
241
 10
261.6299999999999955
 20
18.3924999999999983
 30
0.0
 70
    32
  0
VERTEX
  5
3009
  8
241
 10
261.5330000000000155
 20
18.3766999999999996
 30
0.0
 70
    32
  0
VERTEX
  5
300A
  8
241
 10
261.4370000000000118
 20
18.3597000000000001
 30
0.0
 70
    32
  0
VERTEX
  5
300B
  8
241
 10
261.3410000000000082
 20
18.3413000000000004
 30
0.0
 70
    32
  0
VERTEX
  5
300C
  8
241
 10
261.2450000000000045
 20
18.3215000000000003
 30
0.0
 70
    32
  0
VERTEX
  5
300D
  8
241
 10
261.1490000000000009
 20
18.3003999999999998
 30
0.0
 70
    32
  0
VERTEX
  5
300E
  8
241
 10
261.0529999999999973
 20
18.2778999999999989
 30
0.0
 70
    32
  0
VERTEX
  5
300F
  8
241
 10
260.9580000000000268
 20
18.2541000000000011
 30
0.0
 70
    32
  0
VERTEX
  5
3010
  8
241
 10
260.8629999999999995
 20
18.2289999999999992
 30
0.0
 70
    32
  0
VERTEX
  5
3011
  8
241
 10
260.7679999999999723
 20
18.2025000000000006
 30
0.0
 70
    32
  0
VERTEX
  5
3012
  8
241
 10
260.6739999999999782
 20
18.1747000000000014
 30
0.0
 70
    32
  0
VERTEX
  5
3013
  8
241
 10
260.5799999999999841
 20
18.1454999999999984
 30
0.0
 70
    32
  0
VERTEX
  5
3014
  8
241
 10
260.48599999999999
 20
18.1151000000000018
 30
0.0
 70
    32
  0
VERTEX
  5
3015
  8
241
 10
260.3929999999999723
 20
18.0833000000000013
 30
0.0
 70
    32
  0
SEQEND
  5
3016
  8
241
  0
POLYLINE
  5
17DB
  8
241
  6
CONTINUOUS
 66
     1
 10
0.0
 20
0.0
 30
0.0
 70
     8
  0
VERTEX
  5
3017
  8
241
 10
268.6979999999999791
 20
7.282449999999999
 30
0.0
 70
    32
  0
VERTEX
  5
3018
  8
241
 10
268.6909999999999741
 20
7.53742
 30
0.0
 70
    32
  0
VERTEX
  5
3019
  8
241
 10
268.6689999999999827
 20
7.79176
 30
0.0
 70
    32
  0
VERTEX
  5
301A
  8
241
 10
268.6329999999999814
 20
8.0448899999999988
 30
0.0
 70
    32
  0
VERTEX
  5
301B
  8
241
 10
268.5830000000000268
 20
8.29617
 30
0.0
 70
    32
  0
VERTEX
  5
301C
  8
241
 10
268.5179999999999723
 20
8.5450100000000013
 30
0.0
 70
    32
  0
VERTEX
  5
301D
  8
241
 10
268.4399999999999977
 20
8.7908200000000001
 30
0.0
 70
    32
  0
VERTEX
  5
301E
  8
241
 10
268.34699999999998
 20
9.0329800000000002
 30
0.0
 70
    32
  0
VERTEX
  5
301F
  8
241
 10
268.2409999999999854
 20
9.2709299999999981
 30
0.0
 70
    32
  0
VERTEX
  5
3020
  8
241
 10
268.1220000000000141
 20
9.5040899999999997
 30
0.0
 70
    32
  0
VERTEX
  5
3021
  8
241
 10
267.9900000000000091
 20
9.7318999999999996
 30
0.0
 70
    32
  0
VERTEX
  5
3022
  8
241
 10
267.8439999999999941
 20
9.9538100000000007
 30
0.0
 70
    32
  0
VERTEX
  5
3023
  8
241
 10
267.6870000000000118
 20
10.1692999999999998
 30
0.0
 70
    32
  0
VERTEX
  5
3024
  8
241
 10
267.5169999999999959
 20
10.3778000000000006
 30
0.0
 70
    32
  0
VERTEX
  5
3025
  8
241
 10
267.3360000000000127
 20
10.5789000000000009
 30
0.0
 70
    32
  0
VERTEX
  5
3026
  8
241
 10
267.1440000000000055
 20
10.7720000000000002
 30
0.0
 70
    32
  0
VERTEX
  5
3027
  8
241
 10
266.9409999999999741
 20
10.9566999999999997
 30
0.0
 70
    32
  0
VERTEX
  5
3028
  8
241
 10
266.7269999999999754
 20
11.1325000000000003
 30
0.0
 70
    32
  0
VERTEX
  5
3029
  8
241
 10
266.5040000000000191
 20
11.2990999999999993
 30
0.0
 70
    32
  0
VERTEX
  5
302A
  8
241
 10
266.2719999999999914
 20
11.4559999999999995
 30
0.0
 70
    32
  0
VERTEX
  5
302B
  8
241
 10
266.0319999999999823
 20
11.6029
 30
0.0
 70
    32
  0
VERTEX
  5
302C
  8
241
 10
265.7830000000000155
 20
11.7393000000000001
 30
0.0
 70
    32
  0
VERTEX
  5
302D
  8
241
 10
265.5260000000000105
 20
11.8650000000000002
 30
0.0
 70
    32
  0
VERTEX
  5
302E
  8
241
 10
265.2629999999999768
 20
11.9796999999999993
 30
0.0
 70
    32
  0
VERTEX
  5
302F
  8
241
 10
264.9940000000000282
 20
12.0831
 30
0.0
 70
    32
  0
VERTEX
  5
3030
  8
241
 10
264.7189999999999941
 20
12.1748999999999992
 30
0.0
 70
    32
  0
VERTEX
  5
3031
  8
241
 10
264.4399999999999977
 20
12.2548999999999992
 30
0.0
 70
    32
  0
VERTEX
  5
3032
  8
241
 10
264.1560000000000059
 20
12.3229000000000006
 30
0.0
 70
    32
  0
VERTEX
  5
3033
  8
241
 10
263.8690000000000282
 20
12.3788
 30
0.0
 70
    32
  0
VERTEX
  5
3034
  8
241
 10
263.5779999999999745
 20
12.4223999999999997
 30
0.0
 70
    32
  0
VERTEX
  5
3035
  8
241
 10
263.2860000000000014
 20
12.4535999999999998
 30
0.0
 70
    32
  0
VERTEX
  5
3036
  8
241
 10
262.9920000000000186
 20
12.4723000000000006
 30
0.0
 70
    32
  0
VERTEX
  5
3037
  8
241
 10
262.6979999999999791
 20
12.4786000000000001
 30
0.0
 70
    32
  0
VERTEX
  5
3038
  8
241
 10
262.4039999999999964
 20
12.4723000000000006
 30
0.0
 70
    32
  0
VERTEX
  5
3039
  8
241
 10
262.1100000000000136
 20
12.4535999999999998
 30
0.0
 70
    32
  0
VERTEX
  5
303A
  8
241
 10
261.8179999999999836
 20
12.4223999999999997
 30
0.0
 70
    32
  0
VERTEX
  5
303B
  8
241
 10
261.52800000000002
 20
12.3788
 30
0.0
 70
    32
  0
VERTEX
  5
303C
  8
241
 10
261.2400000000000091
 20
12.3229000000000006
 30
0.0
 70
    32
  0
VERTEX
  5
303D
  8
241
 10
260.9560000000000173
 20
12.2548999999999992
 30
0.0
 70
    32
  0
VERTEX
  5
303E
  8
241
 10
260.6770000000000209
 20
12.1748999999999992
 30
0.0
 70
    32
  0
VERTEX
  5
303F
  8
241
 10
260.4019999999999868
 20
12.0831
 30
0.0
 70
    32
  0
VERTEX
  5
3040
  8
241
 10
260.1329999999999814
 20
11.9796999999999993
 30
0.0
 70
    32
  0
VERTEX
  5
3041
  8
241
 10
259.8700000000000045
 20
11.8650000000000002
 30
0.0
 70
    32
  0
VERTEX
  5
3042
  8
241
 10
259.6129999999999995
 20
11.7393000000000001
 30
0.0
 70
    32
  0
VERTEX
  5
3043
  8
241
 10
259.3650000000000091
 20
11.6029
 30
0.0
 70
    32
  0
VERTEX
  5
3044
  8
241
 10
259.1240000000000236
 20
11.4559999999999995
 30
0.0
 70
    32
  0
VERTEX
  5
3045
  8
241
 10
258.8919999999999959
 20
11.2990999999999993
 30
0.0
 70
    32
  0
VERTEX
  5
3046
  8
241
 10
258.6689999999999827
 20
11.1325000000000003
 30
0.0
 70
    32
  0
VERTEX
  5
3047
  8
241
 10
258.4549999999999841
 20
10.9566999999999997
 30
0.0
 70
    32
  0
VERTEX
  5
3048
  8
241
 10
258.2520000000000095
 20
10.7720000000000002
 30
0.0
 70
    32
  0
VERTEX
  5
3049
  8
241
 10
258.0600000000000023
 20
10.5789000000000009
 30
0.0
 70
    32
  0
VERTEX
  5
304A
  8
241
 10
257.8790000000000191
 20
10.3778000000000006
 30
0.0
 70
    32
  0
VERTEX
  5
304B
  8
241
 10
257.7090000000000032
 20
10.1692999999999998
 30
0.0
 70
    32
  0
VERTEX
  5
304C
  8
241
 10
257.5520000000000209
 20
9.9538100000000007
 30
0.0
 70
    32
  0
VERTEX
  5
304D
  8
241
 10
257.4069999999999823
 20
9.7318999999999996
 30
0.0
 70
    32
  0
VERTEX
  5
304E
  8
241
 10
257.2740000000000009
 20
9.5040899999999997
 30
0.0
 70
    32
  0
VERTEX
  5
304F
  8
241
 10
257.1549999999999727
 20
9.2709299999999981
 30
0.0
 70
    32
  0
VERTEX
  5
3050
  8
241
 10
257.0489999999999782
 20
9.0329800000000002
 30
0.0
 70
    32
  0
VERTEX
  5
3051
  8
241
 10
256.9560000000000173
 20
8.7908200000000001
 30
0.0
 70
    32
  0
VERTEX
  5
3052
  8
241
 10
256.8779999999999859
 20
8.5450100000000013
 30
0.0
 70
    32
  0
VERTEX
  5
3053
  8
241
 10
256.8129999999999882
 20
8.29617
 30
0.0
 70
    32
  0
VERTEX
  5
3054
  8
241
 10
256.7629999999999768
 20
8.0448899999999988
 30
0.0
 70
    32
  0
VERTEX
  5
3055
  8
241
 10
256.7269999999999754
 20
7.79176
 30
0.0
 70
    32
  0
VERTEX
  5
3056
  8
241
 10
256.7049999999999841
 20
7.53742
 30
0.0
 70
    32
  0
VERTEX
  5
3057
  8
241
 10
256.6979999999999791
 20
7.282449999999999
 30
0.0
 70
    32
  0
VERTEX
  5
3058
  8
241
 10
256.7049999999999841
 20
7.0274899999999993
 30
0.0
 70
    32
  0
VERTEX
  5
3059
  8
241
 10
256.7269999999999754
 20
6.7731399999999988
 30
0.0
 70
    32
  0
VERTEX
  5
305A
  8
241
 10
256.7629999999999768
 20
6.5200199999999988
 30
0.0
 70
    32
  0
VERTEX
  5
305B
  8
241
 10
256.8129999999999882
 20
6.2687299999999997
 30
0.0
 70
    32
  0
VERTEX
  5
305C
  8
241
 10
256.8779999999999859
 20
6.0198900000000002
 30
0.0
 70
    32
  0
VERTEX
  5
305D
  8
241
 10
256.9560000000000173
 20
5.7740900000000002
 30
0.0
 70
    32
  0
VERTEX
  5
305E
  8
241
 10
257.0489999999999782
 20
5.5319199999999986
 30
0.0
 70
    32
  0
VERTEX
  5
305F
  8
241
 10
257.1549999999999727
 20
5.293969999999999
 30
0.0
 70
    32
  0
VERTEX
  5
3060
  8
241
 10
257.2740000000000009
 20
5.06081
 30
0.0
 70
    32
  0
VERTEX
  5
3061
  8
241
 10
257.4069999999999823
 20
4.8330000000000002
 30
0.0
 70
    32
  0
VERTEX
  5
3062
  8
241
 10
257.5520000000000209
 20
4.6111000000000004
 30
0.0
 70
    32
  0
VERTEX
  5
3063
  8
241
 10
257.7090000000000032
 20
4.3956200000000001
 30
0.0
 70
    32
  0
VERTEX
  5
3064
  8
241
 10
257.8790000000000191
 20
4.1871099999999988
 30
0.0
 70
    32
  0
VERTEX
  5
3065
  8
241
 10
258.0600000000000023
 20
3.9860500000000001
 30
0.0
 70
    32
  0
VERTEX
  5
3066
  8
241
 10
258.2520000000000095
 20
3.7929300000000001
 30
0.0
 70
    32
  0
VERTEX
  5
3067
  8
241
 10
258.4549999999999841
 20
3.6082199999999989
 30
0.0
 70
    32
  0
VERTEX
  5
3068
  8
241
 10
258.6689999999999827
 20
3.4323599999999992
 30
0.0
 70
    32
  0
VERTEX
  5
3069
  8
241
 10
258.8919999999999959
 20
3.2657699999999998
 30
0.0
 70
    32
  0
VERTEX
  5
306A
  8
241
 10
259.1240000000000236
 20
3.1088599999999991
 30
0.0
 70
    32
  0
VERTEX
  5
306B
  8
241
 10
259.3650000000000091
 20
2.9620099999999989
 30
0.0
 70
    32
  0
VERTEX
  5
306C
  8
241
 10
259.6129999999999995
 20
2.825559999999999
 30
0.0
 70
    32
  0
VERTEX
  5
306D
  8
241
 10
259.8700000000000045
 20
2.6998500000000001
 30
0.0
 70
    32
  0
VERTEX
  5
306E
  8
241
 10
260.1329999999999814
 20
2.5851899999999999
 30
0.0
 70
    32
  0
VERTEX
  5
306F
  8
241
 10
260.4019999999999868
 20
2.4818299999999991
 30
0.0
 70
    32
  0
VERTEX
  5
3070
  8
241
 10
260.6770000000000209
 20
2.39005
 30
0.0
 70
    32
  0
VERTEX
  5
3071
  8
241
 10
260.9560000000000173
 20
2.3100399999999999
 30
0.0
 70
    32
  0
VERTEX
  5
3072
  8
241
 10
261.2400000000000091
 20
2.2420200000000001
 30
0.0
 70
    32
  0
VERTEX
  5
3073
  8
241
 10
261.52800000000002
 20
2.1861399999999991
 30
0.0
 70
    32
  0
VERTEX
  5
3074
  8
241
 10
261.8179999999999836
 20
2.1425399999999999
 30
0.0
 70
    32
  0
VERTEX
  5
3075
  8
241
 10
262.1100000000000136
 20
2.1113200000000001
 30
0.0
 70
    32
  0
VERTEX
  5
3076
  8
241
 10
262.4039999999999964
 20
2.0925599999999989
 30
0.0
 70
    32
  0
VERTEX
  5
3077
  8
241
 10
262.6979999999999791
 20
2.0863
 30
0.0
 70
    32
  0
VERTEX
  5
3078
  8
241
 10
262.9920000000000186
 20
2.0925599999999989
 30
0.0
 70
    32
  0
VERTEX
  5
3079
  8
241
 10
263.2860000000000014
 20
2.1113200000000001
 30
0.0
 70
    32
  0
VERTEX
  5
307A
  8
241
 10
263.5779999999999745
 20
2.1425399999999999
 30
0.0
 70
    32
  0
VERTEX
  5
307B
  8
241
 10
263.8690000000000282
 20
2.1861399999999991
 30
0.0
 70
    32
  0
VERTEX
  5
307C
  8
241
 10
264.1560000000000059
 20
2.2420200000000001
 30
0.0
 70
    32
  0
VERTEX
  5
307D
  8
241
 10
264.4399999999999977
 20
2.3100399999999999
 30
0.0
 70
    32
  0
VERTEX
  5
307E
  8
241
 10
264.7189999999999941
 20
2.39005
 30
0.0
 70
    32
  0
VERTEX
  5
307F
  8
241
 10
264.9940000000000282
 20
2.4818299999999991
 30
0.0
 70
    32
  0
VERTEX
  5
3080
  8
241
 10
265.2629999999999768
 20
2.5851899999999999
 30
0.0
 70
    32
  0
VERTEX
  5
3081
  8
241
 10
265.5260000000000105
 20
2.6998500000000001
 30
0.0
 70
    32
  0
VERTEX
  5
3082
  8
241
 10
265.7830000000000155
 20
2.825559999999999
 30
0.0
 70
    32
  0
VERTEX
  5
3083
  8
241
 10
266.0319999999999823
 20
2.9620099999999989
 30
0.0
 70
    32
  0
VERTEX
  5
3084
  8
241
 10
266.2719999999999914
 20
3.1088599999999991
 30
0.0
 70
    32
  0
VERTEX
  5
3085
  8
241
 10
266.5040000000000191
 20
3.2657699999999998
 30
0.0
 70
    32
  0
VERTEX
  5
3086
  8
241
 10
266.7269999999999754
 20
3.4323599999999992
 30
0.0
 70
    32
  0
VERTEX
  5
3087
  8
241
 10
266.9409999999999741
 20
3.6082199999999989
 30
0.0
 70
    32
  0
VERTEX
  5
3088
  8
241
 10
267.1440000000000055
 20
3.7929300000000001
 30
0.0
 70
    32
  0
VERTEX
  5
3089
  8
241
 10
267.3360000000000127
 20
3.9860500000000001
 30
0.0
 70
    32
  0
VERTEX
  5
308A
  8
241
 10
267.5169999999999959
 20
4.1871099999999988
 30
0.0
 70
    32
  0
VERTEX
  5
308B
  8
241
 10
267.6870000000000118
 20
4.3956200000000001
 30
0.0
 70
    32
  0
VERTEX
  5
308C
  8
241
 10
267.8439999999999941
 20
4.6111000000000004
 30
0.0
 70
    32
  0
VERTEX
  5
308D
  8
241
 10
267.9900000000000091
 20
4.8330000000000002
 30
0.0
 70
    32
  0
VERTEX
  5
308E
  8
241
 10
268.1220000000000141
 20
5.06081
 30
0.0
 70
    32
  0
VERTEX
  5
308F
  8
241
 10
268.2409999999999854
 20
5.293969999999999
 30
0.0
 70
    32
  0
VERTEX
  5
3090
  8
241
 10
268.34699999999998
 20
5.5319199999999986
 30
0.0
 70
    32
  0
VERTEX
  5
3091
  8
241
 10
268.4399999999999977
 20
5.7740900000000002
 30
0.0
 70
    32
  0
VERTEX
  5
3092
  8
241
 10
268.5179999999999723
 20
6.0198900000000002
 30
0.0
 70
    32
  0
VERTEX
  5
3093
  8
241
 10
268.5830000000000268
 20
6.2687299999999997
 30
0.0
 70
    32
  0
VERTEX
  5
3094
  8
241
 10
268.6329999999999814
 20
6.5200199999999988
 30
0.0
 70
    32
  0
VERTEX
  5
3095
  8
241
 10
268.6689999999999827
 20
6.7731399999999988
 30
0.0
 70
    32
  0
VERTEX
  5
3096
  8
241
 10
268.6909999999999741
 20
7.0274899999999993
 30
0.0
 70
    32
  0
VERTEX
  5
3097
  8
241
 10
268.6979999999999791
 20
7.282449999999999
 30
0.0
 70
    32
  0
SEQEND
  5
3098
  8
241
  0
POLYLINE
  5
3099
  8
241
 66
     1
 10
0.0
 20
0.0
 30
0.0
 70
     8
  0
VERTEX
  5
309A
  8
241
 10
268.0919999999999845
 20
4.1421400000000004
 30
0.0
 70
    32
  0
VERTEX
  5
309B
  8
241
 10
268.0769999999999982
 20
4.1289400000000001
 30
0.0
 70
    32
  0
VERTEX
  5
309C
  8
241
 10
268.0629999999999882
 20
4.1157799999999991
 30
0.0
 70
    32
  0
VERTEX
  5
309D
  8
241
 10
268.0489999999999782
 20
4.1026499999999988
 30
0.0
 70
    32
  0
VERTEX
  5
309E
  8
241
 10
268.035000000000025
 20
4.0895599999999988
 30
0.0
 70
    32
  0
VERTEX
  5
309F
  8
241
 10
268.0199999999999818
 20
4.0765000000000002
 30
0.0
 70
    32
  0
VERTEX
  5
30A0
  8
241
 10
268.0059999999999718
 20
4.0634800000000002
 30
0.0
 70
    32
  0
VERTEX
  5
30A1
  8
241
 10
267.9920000000000186
 20
4.050489999999999
 30
0.0
 70
    32
  0
VERTEX
  5
30A2
  8
241
 10
267.9769999999999754
 20
4.037539999999999
 30
0.0
 70
    32
  0
VERTEX
  5
30A3
  8
241
 10
267.9629999999999086
 20
4.0246199999999988
 30
0.0
 70
    32
  0
VERTEX
  5
30A4
  8
241
 10
267.9479999999999791
 20
4.0117399999999996
 30
0.0
 70
    32
  0
VERTEX
  5
30A5
  8
241
 10
267.9340000000000259
 20
3.9988899999999998
 30
0.0
 70
    32
  0
VERTEX
  5
30A6
  8
241
 10
267.9190000000000964
 20
3.9860799999999998
 30
0.0
 70
    32
  0
VERTEX
  5
30A7
  8
241
 10
267.9039999999999964
 20
3.9733099999999988
 30
0.0
 70
    32
  0
VERTEX
  5
30A8
  8
241
 10
267.8899999999999864
 20
3.9605699999999988
 30
0.0
 70
    32
  0
VERTEX
  5
30A9
  8
241
 10
267.875
 20
3.9478599999999999
 30
0.0
 70
    32
  0
VERTEX
  5
30AA
  8
241
 10
267.8600000000000136
 20
3.9352
 30
0.0
 70
    32
  0
VERTEX
  5
30AB
  8
241
 10
267.8450000000000273
 20
3.922569999999999
 30
0.0
 70
    32
  0
VERTEX
  5
30AC
  8
241
 10
267.8310000000000173
 20
3.9099699999999991
 30
0.0
 70
    32
  0
VERTEX
  5
30AD
  8
241
 10
267.8159999999999741
 20
3.8974099999999989
 30
0.0
 70
    32
  0
VERTEX
  5
30AE
  8
241
 10
267.8009999999999877
 20
3.88489
 30
0.0
 70
    32
  0
VERTEX
  5
30AF
  8
241
 10
267.7860000000000014
 20
3.872399999999999
 30
0.0
 70
    32
  0
VERTEX
  5
30B0
  8
241
 10
267.771000000000015
 20
3.8599499999999991
 30
0.0
 70
    32
  0
VERTEX
  5
30B1
  8
241
 10
267.7559999999999718
 20
3.84754
 30
0.0
 70
    32
  0
VERTEX
  5
30B2
  8
241
 10
267.7409999999999854
 20
3.8351599999999988
 30
0.0
 70
    32
  0
VERTEX
  5
30B3
  8
241
 10
267.7259999999999991
 20
3.8228199999999992
 30
0.0
 70
    32
  0
VERTEX
  5
30B4
  8
241
 10
267.7110000000000127
 20
3.810519999999999
 30
0.0
 70
    32
  0
VERTEX
  5
30B5
  8
241
 10
267.6960000000000264
 20
3.798249999999999
 30
0.0
 70
    32
  0
VERTEX
  5
30B6
  8
241
 10
267.6809999999999832
 20
3.7860199999999988
 30
0.0
 70
    32
  0
VERTEX
  5
30B7
  8
241
 10
267.6650000000000205
 20
3.7738299999999998
 30
0.0
 70
    32
  0
VERTEX
  5
30B8
  8
241
 10
267.6499999999999773
 20
3.7616699999999992
 30
0.0
 70
    32
  0
VERTEX
  5
30B9
  8
241
 10
267.6349999999999909
 20
3.7495500000000002
 30
0.0
 70
    32
  0
VERTEX
  5
30BA
  8
241
 10
267.6200000000000045
 20
3.7374699999999992
 30
0.0
 70
    32
  0
VERTEX
  5
30BB
  8
241
 10
267.603999999999985
 20
3.7254299999999998
 30
0.0
 70
    32
  0
VERTEX
  5
30BC
  8
241
 10
267.5889999999999986
 20
3.7134199999999988
 30
0.0
 70
    32
  0
VERTEX
  5
30BD
  8
241
 10
267.5740000000000123
 20
3.701449999999999
 30
0.0
 70
    32
  0
VERTEX
  5
30BE
  8
241
 10
267.5579999999999927
 20
3.689519999999999
 30
0.0
 70
    32
  0
VERTEX
  5
30BF
  8
241
 10
267.5430000000000064
 20
3.6776300000000002
 30
0.0
 70
    32
  0
VERTEX
  5
30C0
  8
241
 10
267.5269999999999868
 20
3.6657699999999989
 30
0.0
 70
    32
  0
VERTEX
  5
30C1
  8
241
 10
267.5120000000000005
 20
3.6539599999999992
 30
0.0
 70
    32
  0
VERTEX
  5
30C2
  8
241
 10
267.4959999999999809
 20
3.6421800000000002
 30
0.0
 70
    32
  0
VERTEX
  5
30C3
  8
241
 10
267.4809999999999945
 20
3.6304400000000001
 30
0.0
 70
    32
  0
VERTEX
  5
30C4
  8
241
 10
267.464999999999975
 20
3.6187299999999998
 30
0.0
 70
    32
  0
VERTEX
  5
30C5
  8
241
 10
267.4490000000000123
 20
3.6070699999999989
 30
0.0
 70
    32
  0
VERTEX
  5
30C6
  8
241
 10
267.4340000000000259
 20
3.5954399999999991
 30
0.0
 70
    32
  0
VERTEX
  5
30C7
  8
241
 10
267.4180000000000064
 20
3.5838499999999991
 30
0.0
 70
    32
  0
VERTEX
  5
30C8
  8
241
 10
267.4019999999999868
 20
3.5722999999999989
 30
0.0
 70
    32
  0
VERTEX
  5
30C9
  8
241
 10
267.3870000000000005
 20
3.5607899999999999
 30
0.0
 70
    32
  0
VERTEX
  5
30CA
  8
241
 10
267.3709999999999809
 20
3.5493199999999989
 30
0.0
 70
    32
  0
VERTEX
  5
30CB
  8
241
 10
267.3550000000000182
 20
3.5378899999999991
 30
0.0
 70
    32
  0
VERTEX
  5
30CC
  8
241
 10
267.3389999999999986
 20
3.5264999999999991
 30
0.0
 70
    32
  0
VERTEX
  5
30CD
  8
241
 10
267.3229999999999791
 20
3.5151400000000002
 30
0.0
 70
    32
  0
VERTEX
  5
30CE
  8
241
 10
267.3070000000000164
 20
3.5038199999999988
 30
0.0
 70
    32
  0
VERTEX
  5
30CF
  8
241
 10
267.2909999999999968
 20
3.49255
 30
0.0
 70
    32
  0
VERTEX
  5
30D0
  8
241
 10
267.2749999999999773
 20
3.4813099999999988
 30
0.0
 70
    32
  0
VERTEX
  5
30D1
  8
241
 10
267.2590000000000146
 20
3.47011
 30
0.0
 70
    32
  0
VERTEX
  5
30D2
  8
241
 10
267.242999999999995
 20
3.4589500000000002
 30
0.0
 70
    32
  0
VERTEX
  5
30D3
  8
241
 10
267.2270000000000891
 20
3.4478300000000002
 30
0.0
 70
    32
  0
VERTEX
  5
30D4
  8
241
 10
267.2110000000000127
 20
3.4367499999999991
 30
0.0
 70
    32
  0
VERTEX
  5
30D5
  8
241
 10
267.1949999999999932
 20
3.4257199999999992
 30
0.0
 70
    32
  0
VERTEX
  5
30D6
  8
241
 10
267.1789999999999736
 20
3.4147199999999991
 30
0.0
 70
    32
  0
VERTEX
  5
30D7
  8
241
 10
267.1630000000000109
 20
3.4037599999999988
 30
0.0
 70
    32
  0
VERTEX
  5
30D8
  8
241
 10
267.146000000000015
 20
3.3928400000000001
 30
0.0
 70
    32
  0
VERTEX
  5
30D9
  8
241
 10
267.1299999999999955
 20
3.381959999999999
 30
0.0
 70
    32
  0
VERTEX
  5
30DA
  8
241
 10
267.1139999999999759
 20
3.371119999999999
 30
0.0
 70
    32
  0
VERTEX
  5
30DB
  8
241
 10
267.0980000000000132
 20
3.3603199999999989
 30
0.0
 70
    32
  0
VERTEX
  5
30DC
  8
241
 10
267.0809999999999036
 20
3.349559999999999
 30
0.0
 70
    32
  0
VERTEX
  5
30DD
  8
241
 10
267.0649999999999977
 20
3.3388399999999998
 30
0.0
 70
    32
  0
VERTEX
  5
30DE
  8
241
 10
267.0489999999999782
 20
3.32816
 30
0.0
 70
    32
  0
VERTEX
  5
30DF
  8
241
 10
267.0319999999999823
 20
3.3175199999999991
 30
0.0
 70
    32
  0
VERTEX
  5
30E0
  8
241
 10
267.0160000000000196
 20
3.3069299999999999
 30
0.0
 70
    32
  0
VERTEX
  5
30E1
  8
241
 10
266.9990000000000236
 20
3.2963699999999991
 30
0.0
 70
    32
  0
VERTEX
  5
30E2
  8
241
 10
266.9830000000000041
 20
3.285849999999999
 30
0.0
 70
    32
  0
VERTEX
  5
30E3
  8
241
 10
266.9660000000000082
 20
3.2753799999999988
 30
0.0
 70
    32
  0
VERTEX
  5
30E4
  8
241
 10
266.9499999999999886
 20
3.2649499999999989
 30
0.0
 70
    32
  0
VERTEX
  5
30E5
  8
241
 10
266.9329999999999927
 20
3.2545500000000001
 30
0.0
 70
    32
  0
VERTEX
  5
30E6
  8
241
 10
266.9159999999999968
 20
3.2442000000000002
 30
0.0
 70
    32
  0
VERTEX
  5
30E7
  8
241
 10
266.8999999999999773
 20
3.2338900000000002
 30
0.0
 70
    32
  0
VERTEX
  5
30E8
  8
241
 10
266.8829999999999814
 20
3.2236299999999991
 30
0.0
 70
    32
  0
VERTEX
  5
30E9
  8
241
 10
266.8659999999999854
 20
3.2134
 30
0.0
 70
    32
  0
VERTEX
  5
30EA
  8
241
 10
266.8500000000000227
 20
3.203209999999999
 30
0.0
 70
    32
  0
VERTEX
  5
30EB
  8
241
 10
266.8330000000000268
 20
3.1930700000000001
 30
0.0
 70
    32
  0
VERTEX
  5
30EC
  8
241
 10
266.8159999999999741
 20
3.1829700000000001
 30
0.0
 70
    32
  0
VERTEX
  5
30ED
  8
241
 10
266.7989999999999782
 20
3.172909999999999
 30
0.0
 70
    32
  0
VERTEX
  5
30EE
  8
241
 10
266.7819999999999823
 20
3.1628899999999991
 30
0.0
 70
    32
  0
VERTEX
  5
30EF
  8
241
 10
266.7660000000000196
 20
3.1529199999999991
 30
0.0
 70
    32
  0
VERTEX
  5
30F0
  8
241
 10
266.7490000000000236
 20
3.1429800000000001
 30
0.0
 70
    32
  0
VERTEX
  5
30F1
  8
241
 10
266.7320000000000277
 20
3.1330900000000002
 30
0.0
 70
    32
  0
VERTEX
  5
30F2
  8
241
 10
266.714999999999975
 20
3.12324
 30
0.0
 70
    32
  0
VERTEX
  5
30F3
  8
241
 10
266.6979999999999791
 20
3.1134400000000002
 30
0.0
 70
    32
  0
VERTEX
  5
30F4
  8
241
 10
266.6809999999999832
 20
3.1036700000000002
 30
0.0
 70
    32
  0
VERTEX
  5
30F5
  8
241
 10
266.6639999999999873
 20
3.0939499999999991
 30
0.0
 70
    32
  0
VERTEX
  5
30F6
  8
241
 10
266.6469999999999914
 20
3.0842700000000001
 30
0.0
 70
    32
  0
VERTEX
  5
30F7
  8
241
 10
266.6299999999999955
 20
3.07464
 30
0.0
 70
    32
  0
VERTEX
  5
30F8
  8
241
 10
266.6129999999999995
 20
3.0650400000000002
 30
0.0
 70
    32
  0
VERTEX
  5
30F9
  8
241
 10
266.5950000000000273
 20
3.0554899999999998
 30
0.0
 70
    32
  0
VERTEX
  5
30FA
  8
241
 10
266.5779999999999745
 20
3.0459800000000001
 30
0.0
 70
    32
  0
VERTEX
  5
30FB
  8
241
 10
266.5609999999999786
 20
3.036519999999999
 30
0.0
 70
    32
  0
VERTEX
  5
30FC
  8
241
 10
266.5439999999999827
 20
3.027099999999999
 30
0.0
 70
    32
  0
VERTEX
  5
30FD
  8
241
 10
266.5269999999999868
 20
3.0177200000000002
 30
0.0
 70
    32
  0
VERTEX
  5
30FE
  8
241
 10
266.5099999999999909
 20
3.0083899999999999
 30
0.0
 70
    32
  0
VERTEX
  5
30FF
  8
241
 10
266.4920000000000186
 20
2.9990899999999998
 30
0.0
 70
    32
  0
VERTEX
  5
3100
  8
241
 10
266.4750000000000227
 20
2.9898500000000001
 30
0.0
 70
    32
  0
VERTEX
  5
3101
  8
241
 10
266.4580000000000268
 20
2.9806400000000002
 30
0.0
 70
    32
  0
VERTEX
  5
3102
  8
241
 10
266.4399999999999977
 20
2.9714800000000001
 30
0.0
 70
    32
  0
VERTEX
  5
3103
  8
241
 10
266.4230000000000018
 20
2.9623699999999991
 30
0.0
 70
    32
  0
VERTEX
  5
3104
  8
241
 10
266.4060000000000059
 20
2.9532899999999991
 30
0.0
 70
    32
  0
VERTEX
  5
3105
  8
241
 10
266.3879999999999768
 20
2.944259999999999
 30
0.0
 70
    32
  0
VERTEX
  5
3106
  8
241
 10
266.3709999999999809
 20
2.93527
 30
0.0
 70
    32
  0
VERTEX
  5
3107
  8
241
 10
266.3530000000000086
 20
2.9263300000000001
 30
0.0
 70
    32
  0
VERTEX
  5
3108
  8
241
 10
266.3360000000000127
 20
2.9174299999999991
 30
0.0
 70
    32
  0
VERTEX
  5
3109
  8
241
 10
266.3179999999999836
 20
2.9085700000000001
 30
0.0
 70
    32
  0
VERTEX
  5
310A
  8
241
 10
266.3009999999999877
 20
2.8997599999999988
 30
0.0
 70
    32
  0
VERTEX
  5
310B
  8
241
 10
266.2830000000000155
 20
2.8909899999999999
 30
0.0
 70
    32
  0
VERTEX
  5
310C
  8
241
 10
266.2660000000000196
 20
2.8822700000000001
 30
0.0
 70
    32
  0
VERTEX
  5
310D
  8
241
 10
266.2479999999999905
 20
2.8735900000000001
 30
0.0
 70
    32
  0
VERTEX
  5
310E
  8
241
 10
266.2300000000000182
 20
2.864949999999999
 30
0.0
 70
    32
  0
VERTEX
  5
310F
  8
241
 10
266.2130000000000223
 20
2.85636
 30
0.0
 70
    32
  0
VERTEX
  5
3110
  8
241
 10
266.1949999999999932
 20
2.8478099999999991
 30
0.0
 70
    32
  0
VERTEX
  5
3111
  8
241
 10
266.1770000000000209
 20
2.8393000000000002
 30
0.0
 70
    32
  0
VERTEX
  5
3112
  8
241
 10
266.160000000000025
 20
2.8308399999999998
 30
0.0
 70
    32
  0
VERTEX
  5
3113
  8
241
 10
266.1419999999999959
 20
2.8224200000000002
 30
0.0
 70
    32
  0
VERTEX
  5
3114
  8
241
 10
266.1240000000000236
 20
2.8140499999999991
 30
0.0
 70
    32
  0
VERTEX
  5
3115
  8
241
 10
266.1059999999999945
 20
2.8057199999999991
 30
0.0
 70
    32
  0
VERTEX
  5
3116
  8
241
 10
266.0880000000000223
 20
2.797439999999999
 30
0.0
 70
    32
  0
VERTEX
  5
3117
  8
241
 10
266.0710000000000264
 20
2.7892000000000001
 30
0.0
 70
    32
  0
VERTEX
  5
3118
  8
241
 10
266.0529999999999973
 20
2.7810000000000001
 30
0.0
 70
    32
  0
VERTEX
  5
3119
  8
241
 10
266.035000000000025
 20
2.77285
 30
0.0
 70
    32
  0
VERTEX
  5
311A
  8
241
 10
266.0169999999999959
 20
2.7647400000000002
 30
0.0
 70
    32
  0
VERTEX
  5
311B
  8
241
 10
265.9990000000000236
 20
2.7566799999999989
 30
0.0
 70
    32
  0
VERTEX
  5
311C
  8
241
 10
265.9809999999999945
 20
2.7486599999999992
 30
0.0
 70
    32
  0
VERTEX
  5
311D
  8
241
 10
265.9629999999999086
 20
2.7406799999999989
 30
0.0
 70
    32
  0
VERTEX
  5
311E
  8
241
 10
265.9449999999999932
 20
2.7327499999999989
 30
0.0
 70
    32
  0
VERTEX
  5
311F
  8
241
 10
265.9270000000000209
 20
2.7248700000000001
 30
0.0
 70
    32
  0
VERTEX
  5
3120
  8
241
 10
265.9089999999999918
 20
2.7170200000000002
 30
0.0
 70
    32
  0
VERTEX
  5
3121
  8
241
 10
265.8910000000000196
 20
2.7092299999999989
 30
0.0
 70
    32
  0
VERTEX
  5
3122
  8
241
 10
265.8729999999999905
 20
2.7014800000000001
 30
0.0
 70
    32
  0
VERTEX
  5
3123
  8
241
 10
265.8550000000000182
 20
2.6937700000000002
 30
0.0
 70
    32
  0
VERTEX
  5
3124
  8
241
 10
265.8369999999999891
 20
2.6861099999999989
 30
0.0
 70
    32
  0
VERTEX
  5
3125
  8
241
 10
265.8190000000000168
 20
2.67849
 30
0.0
 70
    32
  0
VERTEX
  5
3126
  8
241
 10
265.8009999999999877
 20
2.6709200000000002
 30
0.0
 70
    32
  0
VERTEX
  5
3127
  8
241
 10
265.7830000000000155
 20
2.6633900000000001
 30
0.0
 70
    32
  0
VERTEX
  5
3128
  8
241
 10
265.76400000000001
 20
2.6559099999999991
 30
0.0
 70
    32
  0
VERTEX
  5
3129
  8
241
 10
265.7459999999999809
 20
2.6484700000000001
 30
0.0
 70
    32
  0
VERTEX
  5
312A
  8
241
 10
265.7280000000000086
 20
2.64107
 30
0.0
 70
    32
  0
VERTEX
  5
312B
  8
241
 10
265.7099999999999795
 20
2.633729999999999
 30
0.0
 70
    32
  0
VERTEX
  5
312C
  8
241
 10
265.6920000000000073
 20
2.6264199999999991
 30
0.0
 70
    32
  0
VERTEX
  5
312D
  8
241
 10
265.6730000000000018
 20
2.6191699999999991
 30
0.0
 70
    32
  0
VERTEX
  5
312E
  8
241
 10
265.6549999999999727
 20
2.6119500000000002
 30
0.0
 70
    32
  0
VERTEX
  5
312F
  8
241
 10
265.6370000000000005
 20
2.6047899999999991
 30
0.0
 70
    32
  0
VERTEX
  5
3130
  8
241
 10
265.617999999999995
 20
2.597659999999999
 30
0.0
 70
    32
  0
VERTEX
  5
3131
  8
241
 10
265.6000000000000227
 20
2.5905900000000002
 30
0.0
 70
    32
  0
VERTEX
  5
3132
  8
241
 10
265.5819999999999936
 20
2.5835499999999989
 30
0.0
 70
    32
  0
VERTEX
  5
3133
  8
241
 10
265.5629999999999882
 20
2.5765699999999998
 30
0.0
 70
    32
  0
VERTEX
  5
3134
  8
241
 10
265.5450000000000159
 20
2.5696300000000001
 30
0.0
 70
    32
  0
VERTEX
  5
3135
  8
241
 10
265.5269999999999868
 20
2.5627299999999988
 30
0.0
 70
    32
  0
VERTEX
  5
3136
  8
241
 10
265.5079999999999814
 20
2.5558799999999988
 30
0.0
 70
    32
  0
VERTEX
  5
3137
  8
241
 10
265.4900000000000091
 20
2.54908
 30
0.0
 70
    32
  0
VERTEX
  5
3138
  8
241
 10
265.4710000000000036
 20
2.5423200000000001
 30
0.0
 70
    32
  0
VERTEX
  5
3139
  8
241
 10
265.4529999999999745
 20
2.5356000000000001
 30
0.0
 70
    32
  0
VERTEX
  5
313A
  8
241
 10
265.4340000000000259
 20
2.5289399999999991
 30
0.0
 70
    32
  0
VERTEX
  5
313B
  8
241
 10
265.4159999999999968
 20
2.5223100000000001
 30
0.0
 70
    32
  0
VERTEX
  5
313C
  8
241
 10
265.3969999999999914
 20
2.5157400000000001
 30
0.0
 70
    32
  0
VERTEX
  5
313D
  8
241
 10
265.3790000000000191
 20
2.5092099999999991
 30
0.0
 70
    32
  0
VERTEX
  5
313E
  8
241
 10
265.3600000000000136
 20
2.5027200000000001
 30
0.0
 70
    32
  0
VERTEX
  5
313F
  8
241
 10
265.3419999999999845
 20
2.4962800000000001
 30
0.0
 70
    32
  0
VERTEX
  5
3140
  8
241
 10
265.3229999999999791
 20
2.489889999999999
 30
0.0
 70
    32
  0
VERTEX
  5
3141
  8
241
 10
265.3039999999999736
 20
2.4835400000000001
 30
0.0
 70
    32
  0
VERTEX
  5
3142
  8
241
 10
265.2860000000000014
 20
2.4772400000000001
 30
0.0
 70
    32
  0
VERTEX
  5
3143
  8
241
 10
265.2669999999999959
 20
2.4709799999999991
 30
0.0
 70
    32
  0
VERTEX
  5
3144
  8
241
 10
265.2490000000000236
 20
2.4647799999999989
 30
0.0
 70
    32
  0
VERTEX
  5
3145
  8
241
 10
265.2300000000000182
 20
2.4586099999999989
 30
0.0
 70
    32
  0
VERTEX
  5
3146
  8
241
 10
265.2110000000000127
 20
2.4524900000000001
 30
0.0
 70
    32
  0
VERTEX
  5
3147
  8
241
 10
265.1929999999999836
 20
2.4464199999999998
 30
0.0
 70
    32
  0
VERTEX
  5
3148
  8
241
 10
265.1739999999999782
 20
2.440399999999999
 30
0.0
 70
    32
  0
VERTEX
  5
3149
  8
241
 10
265.1549999999999727
 20
2.4344199999999998
 30
0.0
 70
    32
  0
VERTEX
  5
314A
  8
241
 10
265.1370000000000005
 20
2.42849
 30
0.0
 70
    32
  0
VERTEX
  5
314B
  8
241
 10
265.117999999999995
 20
2.4226000000000001
 30
0.0
 70
    32
  0
VERTEX
  5
314C
  8
241
 10
265.0989999999999895
 20
2.41676
 30
0.0
 70
    32
  0
VERTEX
  5
314D
  8
241
 10
265.0799999999999841
 20
2.4109699999999998
 30
0.0
 70
    32
  0
VERTEX
  5
314E
  8
241
 10
265.0620000000000118
 20
2.405219999999999
 30
0.0
 70
    32
  0
VERTEX
  5
314F
  8
241
 10
265.0430000000000064
 20
2.399519999999999
 30
0.0
 70
    32
  0
VERTEX
  5
3150
  8
241
 10
265.0240000000000009
 20
2.3938700000000002
 30
0.0
 70
    32
  0
VERTEX
  5
3151
  8
241
 10
265.0049999999999955
 20
2.3882599999999989
 30
0.0
 70
    32
  0
VERTEX
  5
3152
  8
241
 10
264.98599999999999
 20
2.3826999999999989
 30
0.0
 70
    32
  0
VERTEX
  5
3153
  8
241
 10
264.9669999999999845
 20
2.3771900000000001
 30
0.0
 70
    32
  0
VERTEX
  5
3154
  8
241
 10
264.9490000000000123
 20
2.3717199999999998
 30
0.0
 70
    32
  0
VERTEX
  5
3155
  8
241
 10
264.9300000000000068
 20
2.366299999999999
 30
0.0
 70
    32
  0
VERTEX
  5
3156
  8
241
 10
264.9110000000000014
 20
2.3609200000000001
 30
0.0
 70
    32
  0
VERTEX
  5
3157
  8
241
 10
264.8919999999999959
 20
2.355599999999999
 30
0.0
 70
    32
  0
VERTEX
  5
3158
  8
241
 10
264.8729999999999905
 20
2.3503199999999991
 30
0.0
 70
    32
  0
VERTEX
  5
3159
  8
241
 10
264.8540000000000987
 20
2.3450799999999989
 30
0.0
 70
    32
  0
VERTEX
  5
315A
  8
241
 10
264.8349999999999795
 20
2.3399000000000001
 30
0.0
 70
    32
  0
VERTEX
  5
315B
  8
241
 10
264.8159999999999741
 20
2.3347599999999988
 30
0.0
 70
    32
  0
VERTEX
  5
315C
  8
241
 10
264.7970000000000255
 20
2.3296600000000001
 30
0.0
 70
    32
  0
VERTEX
  5
315D
  8
241
 10
264.7789999999999964
 20
2.324619999999999
 30
0.0
 70
    32
  0
VERTEX
  5
315E
  8
241
 10
264.7599999999999909
 20
2.31962
 30
0.0
 70
    32
  0
VERTEX
  5
315F
  8
241
 10
264.7409999999999854
 20
2.31467
 30
0.0
 70
    32
  0
VERTEX
  5
3160
  8
241
 10
264.72199999999998
 20
2.3097599999999989
 30
0.0
 70
    32
  0
VERTEX
  5
3161
  8
241
 10
264.7029999999999745
 20
2.30491
 30
0.0
 70
    32
  0
VERTEX
  5
3162
  8
241
 10
264.6840000000000259
 20
2.3001
 30
0.0
 70
    32
  0
VERTEX
  5
3163
  8
241
 10
264.6650000000000205
 20
2.295329999999999
 30
0.0
 70
    32
  0
VERTEX
  5
3164
  8
241
 10
264.646000000000015
 20
2.2906200000000001
 30
0.0
 70
    32
  0
VERTEX
  5
3165
  8
241
 10
264.6270000000000095
 20
2.2859500000000001
 30
0.0
 70
    32
  0
VERTEX
  5
3166
  8
241
 10
264.6080000000000041
 20
2.2813300000000001
 30
0.0
 70
    32
  0
VERTEX
  5
3167
  8
241
 10
264.5889999999999986
 20
2.276759999999999
 30
0.0
 70
    32
  0
VERTEX
  5
3168
  8
241
 10
264.5699999999999932
 20
2.2722299999999991
 30
0.0
 70
    32
  0
VERTEX
  5
3169
  8
241
 10
264.5500000000000114
 20
2.267749999999999
 30
0.0
 70
    32
  0
VERTEX
  5
316A
  8
241
 10
264.5310000000000059
 20
2.2633200000000002
 30
0.0
 70
    32
  0
VERTEX
  5
316B
  8
241
 10
264.5120000000000005
 20
2.2589399999999991
 30
0.0
 70
    32
  0
VERTEX
  5
316C
  8
241
 10
264.492999999999995
 20
2.254599999999999
 30
0.0
 70
    32
  0
VERTEX
  5
316D
  8
241
 10
264.4739999999999895
 20
2.2503099999999989
 30
0.0
 70
    32
  0
VERTEX
  5
316E
  8
241
 10
264.4549999999999841
 20
2.24607
 30
0.0
 70
    32
  0
VERTEX
  5
316F
  8
241
 10
264.4359999999999786
 20
2.2418800000000001
 30
0.0
 70
    32
  0
VERTEX
  5
3170
  8
241
 10
264.4169999999999732
 20
2.2377299999999991
 30
0.0
 70
    32
  0
VERTEX
  5
3171
  8
241
 10
264.3979999999999109
 20
2.2336299999999989
 30
0.0
 70
    32
  0
VERTEX
  5
3172
  8
241
 10
264.3790000000000191
 20
2.229579999999999
 30
0.0
 70
    32
  0
VERTEX
  5
3173
  8
241
 10
264.3589999999999804
 20
2.2255699999999998
 30
0.0
 70
    32
  0
VERTEX
  5
3174
  8
241
 10
264.339999999999975
 20
2.2216099999999992
 30
0.0
 70
    32
  0
VERTEX
  5
3175
  8
241
 10
264.3210000000000264
 20
2.2176999999999989
 30
0.0
 70
    32
  0
VERTEX
  5
3176
  8
241
 10
264.3020000000000209
 20
2.2138299999999989
 30
0.0
 70
    32
  0
VERTEX
  5
3177
  8
241
 10
264.2830000000000155
 20
2.2100200000000001
 30
0.0
 70
    32
  0
VERTEX
  5
3178
  8
241
 10
264.26400000000001
 20
2.2062400000000002
 30
0.0
 70
    32
  0
VERTEX
  5
3179
  8
241
 10
264.2440000000000282
 20
2.2025199999999998
 30
0.0
 70
    32
  0
VERTEX
  5
317A
  8
241
 10
264.2250000000000227
 20
2.1988400000000001
 30
0.0
 70
    32
  0
VERTEX
  5
317B
  8
241
 10
264.2060000000000173
 20
2.195209999999999
 30
0.0
 70
    32
  0
VERTEX
  5
317C
  8
241
 10
264.1870000000000118
 20
2.1916299999999991
 30
0.0
 70
    32
  0
VERTEX
  5
317D
  8
241
 10
264.1680000000000064
 20
2.1880899999999999
 30
0.0
 70
    32
  0
VERTEX
  5
317E
  8
241
 10
264.1490000000000009
 20
2.1846000000000001
 30
0.0
 70
    32
  0
VERTEX
  5
317F
  8
241
 10
264.1290000000000191
 20
2.1811599999999989
 30
0.0
 70
    32
  0
VERTEX
  5
3180
  8
241
 10
264.1100000000000136
 20
2.1777599999999988
 30
0.0
 70
    32
  0
VERTEX
  5
3181
  8
241
 10
264.0910000000000082
 20
2.1744099999999991
 30
0.0
 70
    32
  0
VERTEX
  5
3182
  8
241
 10
264.0720000000000027
 20
2.1711099999999992
 30
0.0
 70
    32
  0
VERTEX
  5
3183
  8
241
 10
264.0520000000000209
 20
2.1678599999999988
 30
0.0
 70
    32
  0
VERTEX
  5
3184
  8
241
 10
264.0330000000000155
 20
2.1646499999999991
 30
0.0
 70
    32
  0
VERTEX
  5
3185
  8
241
 10
264.01400000000001
 20
2.1614800000000001
 30
0.0
 70
    32
  0
VERTEX
  5
3186
  8
241
 10
263.9950000000000045
 20
2.1583700000000001
 30
0.0
 70
    32
  0
VERTEX
  5
3187
  8
241
 10
263.9759999999999991
 20
2.1552999999999991
 30
0.0
 70
    32
  0
VERTEX
  5
3188
  8
241
 10
263.9559999999999036
 20
2.1522799999999989
 30
0.0
 70
    32
  0
VERTEX
  5
3189
  8
241
 10
263.9370000000000118
 20
2.1493000000000002
 30
0.0
 70
    32
  0
VERTEX
  5
318A
  8
241
 10
263.9180000000000064
 20
2.1463700000000001
 30
0.0
 70
    32
  0
VERTEX
  5
318B
  8
241
 10
263.8990000000000009
 20
2.1434899999999999
 30
0.0
 70
    32
  0
VERTEX
  5
318C
  8
241
 10
263.8790000000000191
 20
2.1406499999999991
 30
0.0
 70
    32
  0
VERTEX
  5
318D
  8
241
 10
263.8600000000000136
 20
2.137859999999999
 30
0.0
 70
    32
  0
VERTEX
  5
318E
  8
241
 10
263.8410000000000082
 20
2.1351200000000001
 30
0.0
 70
    32
  0
VERTEX
  5
318F
  8
241
 10
263.8220000000000027
 20
2.1324200000000002
 30
0.0
 70
    32
  0
VERTEX
  5
3190
  8
241
 10
263.8020000000000209
 20
2.1297700000000002
 30
0.0
 70
    32
  0
VERTEX
  5
3191
  8
241
 10
263.7830000000000155
 20
2.1271599999999991
 30
0.0
 70
    32
  0
VERTEX
  5
3192
  8
241
 10
263.76400000000001
 20
2.1246099999999992
 30
0.0
 70
    32
  0
VERTEX
  5
3193
  8
241
 10
263.7450000000000045
 20
2.12209
 30
0.0
 70
    32
  0
VERTEX
  5
3194
  8
241
 10
263.7250000000000227
 20
2.119629999999999
 30
0.0
 70
    32
  0
VERTEX
  5
3195
  8
241
 10
263.7059999999999036
 20
2.11721
 30
0.0
 70
    32
  0
VERTEX
  5
3196
  8
241
 10
263.6870000000000118
 20
2.1148400000000001
 30
0.0
 70
    32
  0
VERTEX
  5
3197
  8
241
 10
263.6680000000000064
 20
2.112509999999999
 30
0.0
 70
    32
  0
VERTEX
  5
3198
  8
241
 10
263.6480000000000246
 20
2.1102300000000001
 30
0.0
 70
    32
  0
VERTEX
  5
3199
  8
241
 10
263.6290000000000191
 20
2.1080000000000001
 30
0.0
 70
    32
  0
VERTEX
  5
319A
  8
241
 10
263.6100000000000136
 20
2.1058099999999991
 30
0.0
 70
    32
  0
VERTEX
  5
319B
  8
241
 10
263.589999999999975
 20
2.1036700000000002
 30
0.0
 70
    32
  0
VERTEX
  5
319C
  8
241
 10
263.5709999999999127
 20
2.1015700000000002
 30
0.0
 70
    32
  0
VERTEX
  5
319D
  8
241
 10
263.5520000000000209
 20
2.0995200000000001
 30
0.0
 70
    32
  0
VERTEX
  5
319E
  8
241
 10
263.5330000000000155
 20
2.0975199999999998
 30
0.0
 70
    32
  0
VERTEX
  5
319F
  8
241
 10
263.5129999999999768
 20
2.095559999999999
 30
0.0
 70
    32
  0
VERTEX
  5
31A0
  8
241
 10
263.4940000000000282
 20
2.0936499999999989
 30
0.0
 70
    32
  0
VERTEX
  5
31A1
  8
241
 10
263.4750000000000227
 20
2.0917799999999991
 30
0.0
 70
    32
  0
VERTEX
  5
31A2
  8
241
 10
263.4560000000000173
 20
2.08996
 30
0.0
 70
    32
  0
VERTEX
  5
31A3
  8
241
 10
263.4359999999999786
 20
2.0881899999999991
 30
0.0
 70
    32
  0
VERTEX
  5
31A4
  8
241
 10
263.4170000000000869
 20
2.0864599999999989
 30
0.0
 70
    32
  0
VERTEX
  5
31A5
  8
241
 10
263.3980000000000246
 20
2.084779999999999
 30
0.0
 70
    32
  0
VERTEX
  5
31A6
  8
241
 10
263.3790000000000191
 20
2.0831400000000002
 30
0.0
 70
    32
  0
VERTEX
  5
31A7
  8
241
 10
263.3589999999999804
 20
2.08155
 30
0.0
 70
    32
  0
VERTEX
  5
31A8
  8
241
 10
263.339999999999975
 20
2.0800099999999988
 30
0.0
 70
    32
  0
VERTEX
  5
31A9
  8
241
 10
263.3210000000000264
 20
2.0785099999999992
 30
0.0
 70
    32
  0
VERTEX
  5
31AA
  8
241
 10
263.3020000000000209
 20
2.077059999999999
 30
0.0
 70
    32
  0
VERTEX
  5
31AB
  8
241
 10
263.2819999999999823
 20
2.0756499999999991
 30
0.0
 70
    32
  0
VERTEX
  5
31AC
  8
241
 10
263.2629999999999768
 20
2.0742899999999991
 30
0.0
 70
    32
  0
VERTEX
  5
31AD
  8
241
 10
263.2440000000000282
 20
2.0729700000000002
 30
0.0
 70
    32
  0
VERTEX
  5
31AE
  8
241
 10
263.2250000000000227
 20
2.071699999999999
 30
0.0
 70
    32
  0
VERTEX
  5
31AF
  8
241
 10
263.2060000000000173
 20
2.070479999999999
 30
0.0
 70
    32
  0
VERTEX
  5
31B0
  8
241
 10
263.1859999999999786
 20
2.0693000000000001
 30
0.0
 70
    32
  0
VERTEX
  5
31B1
  8
241
 10
263.1669999999999732
 20
2.0681699999999998
 30
0.0
 70
    32
  0
VERTEX
  5
31B2
  8
241
 10
263.1480000000000246
 20
2.0670799999999989
 30
0.0
 70
    32
  0
VERTEX
  5
31B3
  8
241
 10
263.1290000000000191
 20
2.0660400000000001
 30
0.0
 70
    32
  0
VERTEX
  5
31B4
  8
241
 10
263.1089999999999804
 20
2.0650400000000002
 30
0.0
 70
    32
  0
VERTEX
  5
31B5
  8
241
 10
263.089999999999975
 20
2.0640900000000002
 30
0.0
 70
    32
  0
VERTEX
  5
31B6
  8
241
 10
263.0710000000000264
 20
2.0631900000000001
 30
0.0
 70
    32
  0
VERTEX
  5
31B7
  8
241
 10
263.0520000000000209
 20
2.0623299999999989
 30
0.0
 70
    32
  0
VERTEX
  5
31B8
  8
241
 10
263.0330000000000155
 20
2.0615099999999988
 30
0.0
 70
    32
  0
VERTEX
  5
31B9
  8
241
 10
263.01400000000001
 20
2.0607500000000001
 30
0.0
 70
    32
  0
VERTEX
  5
31BA
  8
241
 10
262.9940000000000282
 20
2.0600200000000002
 30
0.0
 70
    32
  0
VERTEX
  5
31BB
  8
241
 10
262.9750000000000227
 20
2.0593499999999989
 30
0.0
 70
    32
  0
VERTEX
  5
31BC
  8
241
 10
262.9560000000000173
 20
2.05871
 30
0.0
 70
    32
  0
VERTEX
  5
31BD
  8
241
 10
262.9370000000000118
 20
2.0581299999999989
 30
0.0
 70
    32
  0
VERTEX
  5
31BE
  8
241
 10
262.9180000000000064
 20
2.0575799999999989
 30
0.0
 70
    32
  0
VERTEX
  5
31BF
  8
241
 10
262.8990000000000009
 20
2.0570900000000001
 30
0.0
 70
    32
  0
VERTEX
  5
31C0
  8
241
 10
262.8790000000000191
 20
2.0566399999999998
 30
0.0
 70
    32
  0
VERTEX
  5
31C1
  8
241
 10
262.8600000000000136
 20
2.0562299999999989
 30
0.0
 70
    32
  0
VERTEX
  5
31C2
  8
241
 10
262.8410000000000082
 20
2.0558700000000001
 30
0.0
 70
    32
  0
VERTEX
  5
31C3
  8
241
 10
262.8220000000000027
 20
2.0555500000000002
 30
0.0
 70
    32
  0
VERTEX
  5
31C4
  8
241
 10
262.8029999999999973
 20
2.0552799999999989
 30
0.0
 70
    32
  0
VERTEX
  5
31C5
  8
241
 10
262.7839999999999918
 20
2.0550599999999992
 30
0.0
 70
    32
  0
VERTEX
  5
31C6
  8
241
 10
262.7649999999999864
 20
2.0548799999999989
 30
0.0
 70
    32
  0
VERTEX
  5
31C7
  8
241
 10
262.7459999999999809
 20
2.0547399999999998
 30
0.0
 70
    32
  0
VERTEX
  5
31C8
  8
241
 10
262.7269999999999754
 20
2.0546500000000001
 30
0.0
 70
    32
  0
VERTEX
  5
31C9
  8
241
 10
262.7080000000000268
 20
2.0546099999999989
 30
0.0
 70
    32
  0
VERTEX
  5
31CA
  8
241
 10
262.6890000000000214
 20
2.0546099999999989
 30
0.0
 70
    32
  0
VERTEX
  5
31CB
  8
241
 10
262.6689999999999827
 20
2.0546500000000001
 30
0.0
 70
    32
  0
VERTEX
  5
31CC
  8
241
 10
262.6499999999999773
 20
2.0547399999999998
 30
0.0
 70
    32
  0
VERTEX
  5
31CD
  8
241
 10
262.6309999999999718
 20
2.0548799999999989
 30
0.0
 70
    32
  0
VERTEX
  5
31CE
  8
241
 10
262.6120000000000232
 20
2.0550599999999992
 30
0.0
 70
    32
  0
VERTEX
  5
31CF
  8
241
 10
262.5930000000000177
 20
2.0552799999999989
 30
0.0
 70
    32
  0
VERTEX
  5
31D0
  8
241
 10
262.5740000000000123
 20
2.0555500000000002
 30
0.0
 70
    32
  0
VERTEX
  5
31D1
  8
241
 10
262.5550000000000068
 20
2.0558700000000001
 30
0.0
 70
    32
  0
VERTEX
  5
31D2
  8
241
 10
262.5360000000000014
 20
2.0562299999999989
 30
0.0
 70
    32
  0
VERTEX
  5
31D3
  8
241
 10
262.5169999999999959
 20
2.0566399999999998
 30
0.0
 70
    32
  0
VERTEX
  5
31D4
  8
241
 10
262.4979999999999905
 20
2.0570900000000001
 30
0.0
 70
    32
  0
VERTEX
  5
31D5
  8
241
 10
262.4780000000000086
 20
2.0575799999999989
 30
0.0
 70
    32
  0
VERTEX
  5
31D6
  8
241
 10
262.4590000000000032
 20
2.0581299999999989
 30
0.0
 70
    32
  0
VERTEX
  5
31D7
  8
241
 10
262.4399999999999977
 20
2.05871
 30
0.0
 70
    32
  0
VERTEX
  5
31D8
  8
241
 10
262.4209999999999923
 20
2.0593499999999989
 30
0.0
 70
    32
  0
VERTEX
  5
31D9
  8
241
 10
262.4019999999999868
 20
2.0600200000000002
 30
0.0
 70
    32
  0
VERTEX
  5
31DA
  8
241
 10
262.3829999999999814
 20
2.0607500000000001
 30
0.0
 70
    32
  0
VERTEX
  5
31DB
  8
241
 10
262.3629999999999995
 20
2.0615099999999988
 30
0.0
 70
    32
  0
VERTEX
  5
31DC
  8
241
 10
262.3439999999999941
 20
2.0623299999999989
 30
0.0
 70
    32
  0
VERTEX
  5
31DD
  8
241
 10
262.3249999999999886
 20
2.0631900000000001
 30
0.0
 70
    32
  0
VERTEX
  5
31DE
  8
241
 10
262.3059999999999832
 20
2.0640900000000002
 30
0.0
 70
    32
  0
VERTEX
  5
31DF
  8
241
 10
262.2869999999999777
 20
2.0650400000000002
 30
0.0
 70
    32
  0
VERTEX
  5
31E0
  8
241
 10
262.2669999999999959
 20
2.0660400000000001
 30
0.0
 70
    32
  0
VERTEX
  5
31E1
  8
241
 10
262.2479999999999905
 20
2.0670799999999989
 30
0.0
 70
    32
  0
VERTEX
  5
31E2
  8
241
 10
262.228999999999985
 20
2.0681699999999998
 30
0.0
 70
    32
  0
VERTEX
  5
31E3
  8
241
 10
262.2099999999999795
 20
2.0693000000000001
 30
0.0
 70
    32
  0
VERTEX
  5
31E4
  8
241
 10
262.1909999999999741
 20
2.070479999999999
 30
0.0
 70
    32
  0
VERTEX
  5
31E5
  8
241
 10
262.1709999999999923
 20
2.071699999999999
 30
0.0
 70
    32
  0
VERTEX
  5
31E6
  8
241
 10
262.1519999999999868
 20
2.0729700000000002
 30
0.0
 70
    32
  0
VERTEX
  5
31E7
  8
241
 10
262.1329999999999814
 20
2.0742899999999991
 30
0.0
 70
    32
  0
VERTEX
  5
31E8
  8
241
 10
262.1139999999999759
 20
2.0756499999999991
 30
0.0
 70
    32
  0
VERTEX
  5
31E9
  8
241
 10
262.0939999999999941
 20
2.077059999999999
 30
0.0
 70
    32
  0
VERTEX
  5
31EA
  8
241
 10
262.0749999999999886
 20
2.0785099999999992
 30
0.0
 70
    32
  0
VERTEX
  5
31EB
  8
241
 10
262.0559999999999832
 20
2.0800099999999988
 30
0.0
 70
    32
  0
VERTEX
  5
31EC
  8
241
 10
262.0369999999999777
 20
2.08155
 30
0.0
 70
    32
  0
VERTEX
  5
31ED
  8
241
 10
262.0179999999999723
 20
2.0831400000000002
 30
0.0
 70
    32
  0
VERTEX
  5
31EE
  8
241
 10
261.9979999999999905
 20
2.084779999999999
 30
0.0
 70
    32
  0
VERTEX
  5
31EF
  8
241
 10
261.978999999999985
 20
2.0864599999999989
 30
0.0
 70
    32
  0
VERTEX
  5
31F0
  8
241
 10
261.9599999999999795
 20
2.0881899999999991
 30
0.0
 70
    32
  0
VERTEX
  5
31F1
  8
241
 10
261.9409999999999741
 20
2.08996
 30
0.0
 70
    32
  0
VERTEX
  5
31F2
  8
241
 10
261.9209999999999923
 20
2.0917799999999991
 30
0.0
 70
    32
  0
VERTEX
  5
31F3
  8
241
 10
261.9019999999999868
 20
2.0936499999999989
 30
0.0
 70
    32
  0
VERTEX
  5
31F4
  8
241
 10
261.8829999999999814
 20
2.095559999999999
 30
0.0
 70
    32
  0
VERTEX
  5
31F5
  8
241
 10
261.8629999999999995
 20
2.0975199999999998
 30
0.0
 70
    32
  0
VERTEX
  5
31F6
  8
241
 10
261.8439999999999941
 20
2.0995200000000001
 30
0.0
 70
    32
  0
VERTEX
  5
31F7
  8
241
 10
261.8249999999999886
 20
2.1015700000000002
 30
0.0
 70
    32
  0
VERTEX
  5
31F8
  8
241
 10
261.8059999999999832
 20
2.1036700000000002
 30
0.0
 70
    32
  0
VERTEX
  5
31F9
  8
241
 10
261.7860000000000014
 20
2.1058099999999991
 30
0.0
 70
    32
  0
VERTEX
  5
31FA
  8
241
 10
261.7669999999999959
 20
2.1080000000000001
 30
0.0
 70
    32
  0
VERTEX
  5
31FB
  8
241
 10
261.7479999999999905
 20
2.1102300000000001
 30
0.0
 70
    32
  0
VERTEX
  5
31FC
  8
241
 10
261.7290000000000987
 20
2.112509999999999
 30
0.0
 70
    32
  0
VERTEX
  5
31FD
  8
241
 10
261.7090000000000032
 20
2.1148400000000001
 30
0.0
 70
    32
  0
VERTEX
  5
31FE
  8
241
 10
261.6899999999999977
 20
2.11721
 30
0.0
 70
    32
  0
VERTEX
  5
31FF
  8
241
 10
261.6709999999999923
 20
2.119629999999999
 30
0.0
 70
    32
  0
VERTEX
  5
3200
  8
241
 10
261.6519999999999868
 20
2.12209
 30
0.0
 70
    32
  0
VERTEX
  5
3201
  8
241
 10
261.632000000000005
 20
2.1246099999999992
 30
0.0
 70
    32
  0
VERTEX
  5
3202
  8
241
 10
261.6129999999999995
 20
2.1271599999999991
 30
0.0
 70
    32
  0
VERTEX
  5
3203
  8
241
 10
261.5939999999999941
 20
2.1297700000000002
 30
0.0
 70
    32
  0
VERTEX
  5
3204
  8
241
 10
261.5749999999999886
 20
2.1324200000000002
 30
0.0
 70
    32
  0
VERTEX
  5
3205
  8
241
 10
261.5550000000000068
 20
2.1351200000000001
 30
0.0
 70
    32
  0
VERTEX
  5
3206
  8
241
 10
261.5360000000000014
 20
2.137859999999999
 30
0.0
 70
    32
  0
VERTEX
  5
3207
  8
241
 10
261.5169999999999959
 20
2.1406499999999991
 30
0.0
 70
    32
  0
VERTEX
  5
3208
  8
241
 10
261.4979999999999905
 20
2.1434899999999999
 30
0.0
 70
    32
  0
VERTEX
  5
3209
  8
241
 10
261.4780000000000086
 20
2.1463700000000001
 30
0.0
 70
    32
  0
VERTEX
  5
320A
  8
241
 10
261.4590000000000032
 20
2.1493000000000002
 30
0.0
 70
    32
  0
VERTEX
  5
320B
  8
241
 10
261.4399999999999977
 20
2.1522799999999989
 30
0.0
 70
    32
  0
VERTEX
  5
320C
  8
241
 10
261.4209999999999923
 20
2.1552999999999991
 30
0.0
 70
    32
  0
VERTEX
  5
320D
  8
241
 10
261.4010000000000105
 20
2.1583700000000001
 30
0.0
 70
    32
  0
VERTEX
  5
320E
  8
241
 10
261.382000000000005
 20
2.1614800000000001
 30
0.0
 70
    32
  0
VERTEX
  5
320F
  8
241
 10
261.3629999999999995
 20
2.1646499999999991
 30
0.0
 70
    32
  0
VERTEX
  5
3210
  8
241
 10
261.3439999999999941
 20
2.1678599999999988
 30
0.0
 70
    32
  0
VERTEX
  5
3211
  8
241
 10
261.3240000000000123
 20
2.1711099999999992
 30
0.0
 70
    32
  0
VERTEX
  5
3212
  8
241
 10
261.3050000000000068
 20
2.1744099999999991
 30
0.0
 70
    32
  0
VERTEX
  5
3213
  8
241
 10
261.2860000000000014
 20
2.1777599999999988
 30
0.0
 70
    32
  0
VERTEX
  5
3214
  8
241
 10
261.2669999999999959
 20
2.1811599999999989
 30
0.0
 70
    32
  0
VERTEX
  5
3215
  8
241
 10
261.2479999999999905
 20
2.1846000000000001
 30
0.0
 70
    32
  0
VERTEX
  5
3216
  8
241
 10
261.2280000000000086
 20
2.1880899999999999
 30
0.0
 70
    32
  0
VERTEX
  5
3217
  8
241
 10
261.2090000000000032
 20
2.1916299999999991
 30
0.0
 70
    32
  0
VERTEX
  5
3218
  8
241
 10
261.1899999999999977
 20
2.195209999999999
 30
0.0
 70
    32
  0
VERTEX
  5
3219
  8
241
 10
261.1709999999999923
 20
2.1988400000000001
 30
0.0
 70
    32
  0
VERTEX
  5
321A
  8
241
 10
261.1519999999999868
 20
2.2025199999999998
 30
0.0
 70
    32
  0
VERTEX
  5
321B
  8
241
 10
261.1329999999999814
 20
2.2062400000000002
 30
0.0
 70
    32
  0
VERTEX
  5
321C
  8
241
 10
261.1129999999999995
 20
2.2100200000000001
 30
0.0
 70
    32
  0
VERTEX
  5
321D
  8
241
 10
261.0939999999999941
 20
2.2138299999999989
 30
0.0
 70
    32
  0
VERTEX
  5
321E
  8
241
 10
261.0749999999999886
 20
2.2176999999999989
 30
0.0
 70
    32
  0
VERTEX
  5
321F
  8
241
 10
261.0559999999999832
 20
2.2216099999999992
 30
0.0
 70
    32
  0
VERTEX
  5
3220
  8
241
 10
261.0369999999999777
 20
2.2255699999999998
 30
0.0
 70
    32
  0
VERTEX
  5
3221
  8
241
 10
261.0179999999999723
 20
2.229579999999999
 30
0.0
 70
    32
  0
VERTEX
  5
3222
  8
241
 10
260.9979999999999905
 20
2.2336299999999989
 30
0.0
 70
    32
  0
VERTEX
  5
3223
  8
241
 10
260.978999999999985
 20
2.2377299999999991
 30
0.0
 70
    32
  0
VERTEX
  5
3224
  8
241
 10
260.9599999999999795
 20
2.2418800000000001
 30
0.0
 70
    32
  0
VERTEX
  5
3225
  8
241
 10
260.9409999999999741
 20
2.24607
 30
0.0
 70
    32
  0
VERTEX
  5
3226
  8
241
 10
260.9220000000000255
 20
2.2503099999999989
 30
0.0
 70
    32
  0
VERTEX
  5
3227
  8
241
 10
260.90300000000002
 20
2.254599999999999
 30
0.0
 70
    32
  0
VERTEX
  5
3228
  8
241
 10
260.8840000000000146
 20
2.2589399999999991
 30
0.0
 70
    32
  0
VERTEX
  5
3229
  8
241
 10
260.8650000000000091
 20
2.2633200000000002
 30
0.0
 70
    32
  0
VERTEX
  5
322A
  8
241
 10
260.8460000000000036
 20
2.267749999999999
 30
0.0
 70
    32
  0
VERTEX
  5
322B
  8
241
 10
260.8269999999999982
 20
2.2722299999999991
 30
0.0
 70
    32
  0
VERTEX
  5
322C
  8
241
 10
260.8079999999999927
 20
2.276759999999999
 30
0.0
 70
    32
  0
VERTEX
  5
322D
  8
241
 10
260.7889999999999873
 20
2.2813300000000001
 30
0.0
 70
    32
  0
VERTEX
  5
322E
  8
241
 10
260.7699999999999818
 20
2.2859500000000001
 30
0.0
 70
    32
  0
VERTEX
  5
322F
  8
241
 10
260.7509999999999764
 20
2.2906200000000001
 30
0.0
 70
    32
  0
VERTEX
  5
3230
  8
241
 10
260.7320000000000277
 20
2.295329999999999
 30
0.0
 70
    32
  0
VERTEX
  5
3231
  8
241
 10
260.7119999999999891
 20
2.3001
 30
0.0
 70
    32
  0
VERTEX
  5
3232
  8
241
 10
260.6940000000000168
 20
2.30491
 30
0.0
 70
    32
  0
VERTEX
  5
3233
  8
241
 10
260.6750000000000114
 20
2.3097599999999989
 30
0.0
 70
    32
  0
VERTEX
  5
3234
  8
241
 10
260.6560000000000059
 20
2.31467
 30
0.0
 70
    32
  0
VERTEX
  5
3235
  8
241
 10
260.6370000000000005
 20
2.31962
 30
0.0
 70
    32
  0
VERTEX
  5
3236
  8
241
 10
260.617999999999995
 20
2.324619999999999
 30
0.0
 70
    32
  0
VERTEX
  5
3237
  8
241
 10
260.5989999999999895
 20
2.3296600000000001
 30
0.0
 70
    32
  0
VERTEX
  5
3238
  8
241
 10
260.5799999999999841
 20
2.3347599999999988
 30
0.0
 70
    32
  0
VERTEX
  5
3239
  8
241
 10
260.5609999999999786
 20
2.3399000000000001
 30
0.0
 70
    32
  0
VERTEX
  5
323A
  8
241
 10
260.5419999999999732
 20
2.3450799999999989
 30
0.0
 70
    32
  0
VERTEX
  5
323B
  8
241
 10
260.5230000000000246
 20
2.3503199999999991
 30
0.0
 70
    32
  0
VERTEX
  5
323C
  8
241
 10
260.5040000000000191
 20
2.355599999999999
 30
0.0
 70
    32
  0
VERTEX
  5
323D
  8
241
 10
260.4850000000000136
 20
2.3609200000000001
 30
0.0
 70
    32
  0
VERTEX
  5
323E
  8
241
 10
260.4660000000000082
 20
2.366299999999999
 30
0.0
 70
    32
  0
VERTEX
  5
323F
  8
241
 10
260.4479999999999791
 20
2.3717199999999998
 30
0.0
 70
    32
  0
VERTEX
  5
3240
  8
241
 10
260.4289999999999736
 20
2.3771900000000001
 30
0.0
 70
    32
  0
VERTEX
  5
3241
  8
241
 10
260.410000000000025
 20
2.3826999999999989
 30
0.0
 70
    32
  0
VERTEX
  5
3242
  8
241
 10
260.3909999999999059
 20
2.3882599999999989
 30
0.0
 70
    32
  0
VERTEX
  5
3243
  8
241
 10
260.3720000000000141
 20
2.3938700000000002
 30
0.0
 70
    32
  0
VERTEX
  5
3244
  8
241
 10
260.3530000000000086
 20
2.399519999999999
 30
0.0
 70
    32
  0
VERTEX
  5
3245
  8
241
 10
260.3349999999999795
 20
2.405219999999999
 30
0.0
 70
    32
  0
VERTEX
  5
3246
  8
241
 10
260.3159999999999741
 20
2.4109699999999998
 30
0.0
 70
    32
  0
VERTEX
  5
3247
  8
241
 10
260.2970000000000255
 20
2.41676
 30
0.0
 70
    32
  0
VERTEX
  5
3248
  8
241
 10
260.27800000000002
 20
2.4226000000000001
 30
0.0
 70
    32
  0
VERTEX
  5
3249
  8
241
 10
260.2599999999999909
 20
2.42849
 30
0.0
 70
    32
  0
VERTEX
  5
324A
  8
241
 10
260.2409999999999854
 20
2.4344199999999998
 30
0.0
 70
    32
  0
VERTEX
  5
324B
  8
241
 10
260.22199999999998
 20
2.440399999999999
 30
0.0
 70
    32
  0
VERTEX
  5
324C
  8
241
 10
260.2040000000000077
 20
2.4464199999999998
 30
0.0
 70
    32
  0
VERTEX
  5
324D
  8
241
 10
260.1850000000000023
 20
2.4524900000000001
 30
0.0
 70
    32
  0
VERTEX
  5
324E
  8
241
 10
260.1659999999999968
 20
2.4586099999999989
 30
0.0
 70
    32
  0
VERTEX
  5
324F
  8
241
 10
260.1480000000000246
 20
2.4647799999999989
 30
0.0
 70
    32
  0
VERTEX
  5
3250
  8
241
 10
260.1290000000000191
 20
2.4709799999999991
 30
0.0
 70
    32
  0
VERTEX
  5
3251
  8
241
 10
260.1100000000000136
 20
2.4772400000000001
 30
0.0
 70
    32
  0
VERTEX
  5
3252
  8
241
 10
260.0919999999999845
 20
2.4835400000000001
 30
0.0
 70
    32
  0
VERTEX
  5
3253
  8
241
 10
260.0729999999999791
 20
2.489889999999999
 30
0.0
 70
    32
  0
VERTEX
  5
3254
  8
241
 10
260.0550000000000068
 20
2.4962800000000001
 30
0.0
 70
    32
  0
VERTEX
  5
3255
  8
241
 10
260.0360000000000014
 20
2.5027200000000001
 30
0.0
 70
    32
  0
VERTEX
  5
3256
  8
241
 10
260.0169999999999959
 20
2.5092099999999991
 30
0.0
 70
    32
  0
VERTEX
  5
3257
  8
241
 10
259.9990000000000236
 20
2.5157400000000001
 30
0.0
 70
    32
  0
VERTEX
  5
3258
  8
241
 10
259.9800000000000182
 20
2.5223100000000001
 30
0.0
 70
    32
  0
VERTEX
  5
3259
  8
241
 10
259.9619999999999891
 20
2.5289399999999991
 30
0.0
 70
    32
  0
VERTEX
  5
325A
  8
241
 10
259.9429999999999836
 20
2.5356000000000001
 30
0.0
 70
    32
  0
VERTEX
  5
325B
  8
241
 10
259.9250000000000114
 20
2.5423200000000001
 30
0.0
 70
    32
  0
VERTEX
  5
325C
  8
241
 10
259.9060000000000059
 20
2.54908
 30
0.0
 70
    32
  0
VERTEX
  5
325D
  8
241
 10
259.8879999999999768
 20
2.5558799999999988
 30
0.0
 70
    32
  0
VERTEX
  5
325E
  8
241
 10
259.8700000000000045
 20
2.5627299999999988
 30
0.0
 70
    32
  0
VERTEX
  5
325F
  8
241
 10
259.8509999999999991
 20
2.5696300000000001
 30
0.0
 70
    32
  0
VERTEX
  5
3260
  8
241
 10
259.8330000000000268
 20
2.5765699999999998
 30
0.0
 70
    32
  0
VERTEX
  5
3261
  8
241
 10
259.8140000000000214
 20
2.5835499999999989
 30
0.0
 70
    32
  0
VERTEX
  5
3262
  8
241
 10
259.7959999999999923
 20
2.5905900000000002
 30
0.0
 70
    32
  0
VERTEX
  5
3263
  8
241
 10
259.77800000000002
 20
2.597659999999999
 30
0.0
 70
    32
  0
VERTEX
  5
3264
  8
241
 10
259.7590000000000146
 20
2.6047899999999991
 30
0.0
 70
    32
  0
VERTEX
  5
3265
  8
241
 10
259.7409999999999854
 20
2.6119500000000002
 30
0.0
 70
    32
  0
VERTEX
  5
3266
  8
241
 10
259.7230000000000132
 20
2.6191699999999991
 30
0.0
 70
    32
  0
VERTEX
  5
3267
  8
241
 10
259.7049999999999841
 20
2.6264199999999991
 30
0.0
 70
    32
  0
VERTEX
  5
3268
  8
241
 10
259.6859999999999786
 20
2.633729999999999
 30
0.0
 70
    32
  0
VERTEX
  5
3269
  8
241
 10
259.6680000000000064
 20
2.64107
 30
0.0
 70
    32
  0
VERTEX
  5
326A
  8
241
 10
259.6499999999999773
 20
2.6484700000000001
 30
0.0
 70
    32
  0
VERTEX
  5
326B
  8
241
 10
259.632000000000005
 20
2.6559099999999991
 30
0.0
 70
    32
  0
VERTEX
  5
326C
  8
241
 10
259.6140000000000896
 20
2.6633900000000001
 30
0.0
 70
    32
  0
VERTEX
  5
326D
  8
241
 10
259.5950000000000273
 20
2.6709200000000002
 30
0.0
 70
    32
  0
VERTEX
  5
326E
  8
241
 10
259.5769999999999982
 20
2.67849
 30
0.0
 70
    32
  0
VERTEX
  5
326F
  8
241
 10
259.5590000000000259
 20
2.6861099999999989
 30
0.0
 70
    32
  0
VERTEX
  5
3270
  8
241
 10
259.5409999999999968
 20
2.6937700000000002
 30
0.0
 70
    32
  0
VERTEX
  5
3271
  8
241
 10
259.5230000000000246
 20
2.7014800000000001
 30
0.0
 70
    32
  0
VERTEX
  5
3272
  8
241
 10
259.5049999999999955
 20
2.7092299999999989
 30
0.0
 70
    32
  0
VERTEX
  5
3273
  8
241
 10
259.4870000000000232
 20
2.7170200000000002
 30
0.0
 70
    32
  0
VERTEX
  5
3274
  8
241
 10
259.4689999999999941
 20
2.7248700000000001
 30
0.0
 70
    32
  0
VERTEX
  5
3275
  8
241
 10
259.4510000000000218
 20
2.7327499999999989
 30
0.0
 70
    32
  0
VERTEX
  5
3276
  8
241
 10
259.4329999999999927
 20
2.7406799999999989
 30
0.0
 70
    32
  0
VERTEX
  5
3277
  8
241
 10
259.4150000000000205
 20
2.7486599999999992
 30
0.0
 70
    32
  0
VERTEX
  5
3278
  8
241
 10
259.3969999999999914
 20
2.7566799999999989
 30
0.0
 70
    32
  0
VERTEX
  5
3279
  8
241
 10
259.3790000000000191
 20
2.7647400000000002
 30
0.0
 70
    32
  0
VERTEX
  5
327A
  8
241
 10
259.36099999999999
 20
2.77285
 30
0.0
 70
    32
  0
VERTEX
  5
327B
  8
241
 10
259.3430000000000177
 20
2.7810000000000001
 30
0.0
 70
    32
  0
VERTEX
  5
327C
  8
241
 10
259.3260000000000218
 20
2.7892000000000001
 30
0.0
 70
    32
  0
VERTEX
  5
327D
  8
241
 10
259.3079999999999927
 20
2.797439999999999
 30
0.0
 70
    32
  0
VERTEX
  5
327E
  8
241
 10
259.2900000000000205
 20
2.8057199999999991
 30
0.0
 70
    32
  0
VERTEX
  5
327F
  8
241
 10
259.2719999999999914
 20
2.8140499999999991
 30
0.0
 70
    32
  0
VERTEX
  5
3280
  8
241
 10
259.2540000000000191
 20
2.8224200000000002
 30
0.0
 70
    32
  0
VERTEX
  5
3281
  8
241
 10
259.2370000000000232
 20
2.8308399999999998
 30
0.0
 70
    32
  0
VERTEX
  5
3282
  8
241
 10
259.2189999999999941
 20
2.8393000000000002
 30
0.0
 70
    32
  0
VERTEX
  5
3283
  8
241
 10
259.2010000000000218
 20
2.8478099999999991
 30
0.0
 70
    32
  0
VERTEX
  5
3284
  8
241
 10
259.1840000000000259
 20
2.85636
 30
0.0
 70
    32
  0
VERTEX
  5
3285
  8
241
 10
259.1659999999999968
 20
2.864949999999999
 30
0.0
 70
    32
  0
VERTEX
  5
3286
  8
241
 10
259.1480000000000246
 20
2.8735900000000001
 30
0.0
 70
    32
  0
VERTEX
  5
3287
  8
241
 10
259.1309999999999718
 20
2.8822700000000001
 30
0.0
 70
    32
  0
VERTEX
  5
3288
  8
241
 10
259.1129999999999995
 20
2.8909899999999999
 30
0.0
 70
    32
  0
VERTEX
  5
3289
  8
241
 10
259.0960000000000036
 20
2.8997599999999988
 30
0.0
 70
    32
  0
VERTEX
  5
328A
  8
241
 10
259.0779999999999745
 20
2.9085700000000001
 30
0.0
 70
    32
  0
VERTEX
  5
328B
  8
241
 10
259.0600000000000023
 20
2.9174299999999991
 30
0.0
 70
    32
  0
VERTEX
  5
328C
  8
241
 10
259.0430000000000064
 20
2.9263300000000001
 30
0.0
 70
    32
  0
VERTEX
  5
328D
  8
241
 10
259.0260000000000105
 20
2.93527
 30
0.0
 70
    32
  0
VERTEX
  5
328E
  8
241
 10
259.0079999999999814
 20
2.944259999999999
 30
0.0
 70
    32
  0
VERTEX
  5
328F
  8
241
 10
258.9909999999999854
 20
2.9532899999999991
 30
0.0
 70
    32
  0
VERTEX
  5
3290
  8
241
 10
258.9730000000000132
 20
2.9623699999999991
 30
0.0
 70
    32
  0
VERTEX
  5
3291
  8
241
 10
258.9560000000000173
 20
2.9714800000000001
 30
0.0
 70
    32
  0
VERTEX
  5
3292
  8
241
 10
258.9390000000000214
 20
2.9806400000000002
 30
0.0
 70
    32
  0
VERTEX
  5
3293
  8
241
 10
258.9209999999999923
 20
2.9898500000000001
 30
0.0
 70
    32
  0
VERTEX
  5
3294
  8
241
 10
258.9039999999999964
 20
2.9990899999999998
 30
0.0
 70
    32
  0
VERTEX
  5
3295
  8
241
 10
258.8870000000000005
 20
3.0083899999999999
 30
0.0
 70
    32
  0
VERTEX
  5
3296
  8
241
 10
258.8690000000000282
 20
3.0177200000000002
 30
0.0
 70
    32
  0
VERTEX
  5
3297
  8
241
 10
258.8519999999999754
 20
3.027099999999999
 30
0.0
 70
    32
  0
VERTEX
  5
3298
  8
241
 10
258.8349999999999795
 20
3.036519999999999
 30
0.0
 70
    32
  0
VERTEX
  5
3299
  8
241
 10
258.8179999999999836
 20
3.0459800000000001
 30
0.0
 70
    32
  0
VERTEX
  5
329A
  8
241
 10
258.8009999999999877
 20
3.0554899999999998
 30
0.0
 70
    32
  0
VERTEX
  5
329B
  8
241
 10
258.7839999999999918
 20
3.0650400000000002
 30
0.0
 70
    32
  0
VERTEX
  5
329C
  8
241
 10
258.7660000000000196
 20
3.07464
 30
0.0
 70
    32
  0
VERTEX
  5
329D
  8
241
 10
258.7490000000000236
 20
3.0842700000000001
 30
0.0
 70
    32
  0
VERTEX
  5
329E
  8
241
 10
258.7320000000000277
 20
3.0939499999999991
 30
0.0
 70
    32
  0
VERTEX
  5
329F
  8
241
 10
258.714999999999975
 20
3.1036700000000002
 30
0.0
 70
    32
  0
VERTEX
  5
32A0
  8
241
 10
258.6979999999999791
 20
3.1134400000000002
 30
0.0
 70
    32
  0
VERTEX
  5
32A1
  8
241
 10
258.6809999999999832
 20
3.12324
 30
0.0
 70
    32
  0
VERTEX
  5
32A2
  8
241
 10
258.6639999999999873
 20
3.1330900000000002
 30
0.0
 70
    32
  0
VERTEX
  5
32A3
  8
241
 10
258.6480000000000246
 20
3.1429800000000001
 30
0.0
 70
    32
  0
VERTEX
  5
32A4
  8
241
 10
258.6309999999999718
 20
3.1529199999999991
 30
0.0
 70
    32
  0
VERTEX
  5
32A5
  8
241
 10
258.6139999999999759
 20
3.1628899999999991
 30
0.0
 70
    32
  0
VERTEX
  5
32A6
  8
241
 10
258.59699999999998
 20
3.172909999999999
 30
0.0
 70
    32
  0
VERTEX
  5
32A7
  8
241
 10
258.5799999999999841
 20
3.1829700000000001
 30
0.0
 70
    32
  0
VERTEX
  5
32A8
  8
241
 10
258.5629999999999882
 20
3.1930700000000001
 30
0.0
 70
    32
  0
VERTEX
  5
32A9
  8
241
 10
258.5470000000000255
 20
3.203209999999999
 30
0.0
 70
    32
  0
VERTEX
  5
32AA
  8
241
 10
258.5299999999999727
 20
3.2134
 30
0.0
 70
    32
  0
VERTEX
  5
32AB
  8
241
 10
258.5129999999999768
 20
3.2236299999999991
 30
0.0
 70
    32
  0
VERTEX
  5
32AC
  8
241
 10
258.4959999999999809
 20
3.2338900000000002
 30
0.0
 70
    32
  0
VERTEX
  5
32AD
  8
241
 10
258.4800000000000182
 20
3.2442000000000002
 30
0.0
 70
    32
  0
VERTEX
  5
32AE
  8
241
 10
258.4630000000000223
 20
3.2545500000000001
 30
0.0
 70
    32
  0
VERTEX
  5
32AF
  8
241
 10
258.4470000000000027
 20
3.2649499999999989
 30
0.0
 70
    32
  0
VERTEX
  5
32B0
  8
241
 10
258.4300000000000068
 20
3.2753799999999988
 30
0.0
 70
    32
  0
VERTEX
  5
32B1
  8
241
 10
258.4139999999999873
 20
3.285849999999999
 30
0.0
 70
    32
  0
VERTEX
  5
32B2
  8
241
 10
258.3969999999999914
 20
3.2963699999999991
 30
0.0
 70
    32
  0
VERTEX
  5
32B3
  8
241
 10
258.3809999999999718
 20
3.3069299999999999
 30
0.0
 70
    32
  0
VERTEX
  5
32B4
  8
241
 10
258.3639999999999759
 20
3.3175199999999991
 30
0.0
 70
    32
  0
VERTEX
  5
32B5
  8
241
 10
258.3480000000000132
 20
3.32816
 30
0.0
 70
    32
  0
VERTEX
  5
32B6
  8
241
 10
258.3309999999999036
 20
3.3388399999999998
 30
0.0
 70
    32
  0
VERTEX
  5
32B7
  8
241
 10
258.3149999999999977
 20
3.349559999999999
 30
0.0
 70
    32
  0
VERTEX
  5
32B8
  8
241
 10
258.2990000000000919
 20
3.3603199999999989
 30
0.0
 70
    32
  0
VERTEX
  5
32B9
  8
241
 10
258.2819999999999823
 20
3.371119999999999
 30
0.0
 70
    32
  0
VERTEX
  5
32BA
  8
241
 10
258.2660000000000196
 20
3.381959999999999
 30
0.0
 70
    32
  0
VERTEX
  5
32BB
  8
241
 10
258.25
 20
3.3928400000000001
 30
0.0
 70
    32
  0
VERTEX
  5
32BC
  8
241
 10
258.2339999999999804
 20
3.4037599999999988
 30
0.0
 70
    32
  0
VERTEX
  5
32BD
  8
241
 10
258.2169999999999845
 20
3.4147199999999991
 30
0.0
 70
    32
  0
VERTEX
  5
32BE
  8
241
 10
258.2010000000000218
 20
3.4257199999999992
 30
0.0
 70
    32
  0
VERTEX
  5
32BF
  8
241
 10
258.1850000000000023
 20
3.4367499999999991
 30
0.0
 70
    32
  0
VERTEX
  5
32C0
  8
241
 10
258.1689999999999827
 20
3.4478300000000002
 30
0.0
 70
    32
  0
VERTEX
  5
32C1
  8
241
 10
258.15300000000002
 20
3.4589500000000002
 30
0.0
 70
    32
  0
VERTEX
  5
32C2
  8
241
 10
258.1370000000000005
 20
3.47011
 30
0.0
 70
    32
  0
VERTEX
  5
32C3
  8
241
 10
258.1209999999999809
 20
3.4813099999999988
 30
0.0
 70
    32
  0
VERTEX
  5
32C4
  8
241
 10
258.1050000000000182
 20
3.49255
 30
0.0
 70
    32
  0
VERTEX
  5
32C5
  8
241
 10
258.0889999999999986
 20
3.5038199999999988
 30
0.0
 70
    32
  0
VERTEX
  5
32C6
  8
241
 10
258.0729999999999791
 20
3.5151400000000002
 30
0.0
 70
    32
  0
VERTEX
  5
32C7
  8
241
 10
258.0570000000000164
 20
3.5264999999999991
 30
0.0
 70
    32
  0
VERTEX
  5
32C8
  8
241
 10
258.0409999999999968
 20
3.5378899999999991
 30
0.0
 70
    32
  0
VERTEX
  5
32C9
  8
241
 10
258.0249999999999773
 20
3.5493199999999989
 30
0.0
 70
    32
  0
VERTEX
  5
32CA
  8
241
 10
258.0099999999999909
 20
3.5607899999999999
 30
0.0
 70
    32
  0
VERTEX
  5
32CB
  8
241
 10
257.9940000000000282
 20
3.5722999999999989
 30
0.0
 70
    32
  0
VERTEX
  5
32CC
  8
241
 10
257.9780000000000086
 20
3.5838499999999991
 30
0.0
 70
    32
  0
VERTEX
  5
32CD
  8
241
 10
257.9619999999999891
 20
3.5954399999999991
 30
0.0
 70
    32
  0
VERTEX
  5
32CE
  8
241
 10
257.9470000000000027
 20
3.6070699999999989
 30
0.0
 70
    32
  0
VERTEX
  5
32CF
  8
241
 10
257.9309999999999832
 20
3.6187299999999998
 30
0.0
 70
    32
  0
VERTEX
  5
32D0
  8
241
 10
257.9150000000000205
 20
3.6304400000000001
 30
0.0
 70
    32
  0
VERTEX
  5
32D1
  8
241
 10
257.8999999999999773
 20
3.6421800000000002
 30
0.0
 70
    32
  0
VERTEX
  5
32D2
  8
241
 10
257.8840000000000146
 20
3.6539599999999992
 30
0.0
 70
    32
  0
VERTEX
  5
32D3
  8
241
 10
257.8690000000000282
 20
3.6657699999999989
 30
0.0
 70
    32
  0
VERTEX
  5
32D4
  8
241
 10
257.8530000000000086
 20
3.6776300000000002
 30
0.0
 70
    32
  0
VERTEX
  5
32D5
  8
241
 10
257.8380000000000223
 20
3.689519999999999
 30
0.0
 70
    32
  0
VERTEX
  5
32D6
  8
241
 10
257.8220000000000027
 20
3.701449999999999
 30
0.0
 70
    32
  0
VERTEX
  5
32D7
  8
241
 10
257.8070000000000164
 20
3.7134199999999988
 30
0.0
 70
    32
  0
VERTEX
  5
32D8
  8
241
 10
257.7919999999999732
 20
3.7254299999999998
 30
0.0
 70
    32
  0
VERTEX
  5
32D9
  8
241
 10
257.7760000000000105
 20
3.7374699999999992
 30
0.0
 70
    32
  0
VERTEX
  5
32DA
  8
241
 10
257.7609999999999104
 20
3.7495500000000002
 30
0.0
 70
    32
  0
VERTEX
  5
32DB
  8
241
 10
257.7459999999999809
 20
3.7616699999999992
 30
0.0
 70
    32
  0
VERTEX
  5
32DC
  8
241
 10
257.7309999999999945
 20
3.7738299999999998
 30
0.0
 70
    32
  0
VERTEX
  5
32DD
  8
241
 10
257.7160000000000082
 20
3.7860199999999988
 30
0.0
 70
    32
  0
VERTEX
  5
32DE
  8
241
 10
257.6999999999999886
 20
3.798249999999999
 30
0.0
 70
    32
  0
VERTEX
  5
32DF
  8
241
 10
257.6850000000000023
 20
3.810519999999999
 30
0.0
 70
    32
  0
VERTEX
  5
32E0
  8
241
 10
257.6700000000000159
 20
3.8228199999999992
 30
0.0
 70
    32
  0
VERTEX
  5
32E1
  8
241
 10
257.6549999999999727
 20
3.8351599999999988
 30
0.0
 70
    32
  0
VERTEX
  5
32E2
  8
241
 10
257.6399999999999864
 20
3.84754
 30
0.0
 70
    32
  0
VERTEX
  5
32E3
  8
241
 10
257.625
 20
3.8599499999999991
 30
0.0
 70
    32
  0
VERTEX
  5
32E4
  8
241
 10
257.6100000000000136
 20
3.872399999999999
 30
0.0
 70
    32
  0
VERTEX
  5
32E5
  8
241
 10
257.5950000000000273
 20
3.88489
 30
0.0
 70
    32
  0
VERTEX
  5
32E6
  8
241
 10
257.5799999999999841
 20
3.8974099999999989
 30
0.0
 70
    32
  0
VERTEX
  5
32E7
  8
241
 10
257.5659999999999741
 20
3.9099699999999991
 30
0.0
 70
    32
  0
VERTEX
  5
32E8
  8
241
 10
257.5509999999999877
 20
3.922569999999999
 30
0.0
 70
    32
  0
VERTEX
  5
32E9
  8
241
 10
257.5360000000000014
 20
3.9352
 30
0.0
 70
    32
  0
VERTEX
  5
32EA
  8
241
 10
257.521000000000015
 20
3.9478599999999999
 30
0.0
 70
    32
  0
VERTEX
  5
32EB
  8
241
 10
257.507000000000005
 20
3.9605699999999988
 30
0.0
 70
    32
  0
VERTEX
  5
32EC
  8
241
 10
257.4920000000000186
 20
3.9733099999999988
 30
0.0
 70
    32
  0
VERTEX
  5
32ED
  8
241
 10
257.4769999999999754
 20
3.9860799999999998
 30
0.0
 70
    32
  0
VERTEX
  5
32EE
  8
241
 10
257.4629999999999086
 20
3.9988899999999998
 30
0.0
 70
    32
  0
VERTEX
  5
32EF
  8
241
 10
257.4479999999999791
 20
4.0117399999999996
 30
0.0
 70
    32
  0
VERTEX
  5
32F0
  8
241
 10
257.4340000000000259
 20
4.0246199999999988
 30
0.0
 70
    32
  0
VERTEX
  5
32F1
  8
241
 10
257.4190000000000964
 20
4.037539999999999
 30
0.0
 70
    32
  0
VERTEX
  5
32F2
  8
241
 10
257.4049999999999727
 20
4.050489999999999
 30
0.0
 70
    32
  0
VERTEX
  5
32F3
  8
241
 10
257.3899999999999864
 20
4.0634800000000002
 30
0.0
 70
    32
  0
VERTEX
  5
32F4
  8
241
 10
257.3759999999999764
 20
4.0765000000000002
 30
0.0
 70
    32
  0
VERTEX
  5
32F5
  8
241
 10
257.3620000000000232
 20
4.0895599999999988
 30
0.0
 70
    32
  0
VERTEX
  5
32F6
  8
241
 10
257.34699999999998
 20
4.1026499999999988
 30
0.0
 70
    32
  0
VERTEX
  5
32F7
  8
241
 10
257.3330000000000268
 20
4.1157799999999991
 30
0.0
 70
    32
  0
VERTEX
  5
32F8
  8
241
 10
257.3190000000000168
 20
4.1289400000000001
 30
0.0
 70
    32
  0
VERTEX
  5
32F9
  8
241
 10
257.3050000000000068
 20
4.1421400000000004
 30
0.0
 70
    32
  0
SEQEND
  5
32FA
  8
241
  0
ARC
  5
17DE
  8
241
  6
CONTINUOUS
 10
262.6980824764204954
 20
9.9282032302755283
 30
0.0
 40
7.9100707570572943
 50
312.9892922869728977
 51
15.1839514315536306
  0
POLYLINE
  5
32FB
  8
241
 66
     1
 10
0.0
 20
0.0
 30
0.0
 70
     8
  0
VERTEX
  5
32FC
  8
241
 10
255.9939999999999998
 20
5.7296899999999988
 30
0.0
 70
    32
  0
VERTEX
  5
32FD
  8
241
 10
255.9890000000000043
 20
5.7382699999999991
 30
0.0
 70
    32
  0
VERTEX
  5
32FE
  8
241
 10
255.9840000000000089
 20
5.7468500000000002
 30
0.0
 70
    32
  0
VERTEX
  5
32FF
  8
241
 10
255.9780000000000086
 20
5.7554299999999996
 30
0.0
 70
    32
  0
VERTEX
  5
3300
  8
241
 10
255.9730000000000132
 20
5.7640199999999986
 30
0.0
 70
    32
  0
VERTEX
  5
3301
  8
241
 10
255.9679999999999893
 20
5.7726100000000002
 30
0.0
 70
    32
  0
VERTEX
  5
3302
  8
241
 10
255.9619999999999891
 20
5.7812000000000001
 30
0.0
 70
    32
  0
VERTEX
  5
3303
  8
241
 10
255.9569999999999936
 20
5.7897999999999987
 30
0.0
 70
    32
  0
VERTEX
  5
3304
  8
241
 10
255.9519999999999982
 20
5.7983999999999991
 30
0.0
 70
    32
  0
VERTEX
  5
3305
  8
241
 10
255.945999999999998
 20
5.8070000000000004
 30
0.0
 70
    32
  0
VERTEX
  5
3306
  8
241
 10
255.9410000000000025
 20
5.8156099999999986
 30
0.0
 70
    32
  0
VERTEX
  5
3307
  8
241
 10
255.936000000000007
 20
5.824209999999999
 30
0.0
 70
    32
  0
VERTEX
  5
3308
  8
241
 10
255.9310000000000116
 20
5.832819999999999
 30
0.0
 70
    32
  0
VERTEX
  5
3309
  8
241
 10
255.9259999999999877
 20
5.841429999999999
 30
0.0
 70
    32
  0
VERTEX
  5
330A
  8
241
 10
255.9199999999999875
 20
5.8500500000000004
 30
0.0
 70
    32
  0
VERTEX
  5
330B
  8
241
 10
255.914999999999992
 20
5.8586599999999986
 30
0.0
 70
    32
  0
VERTEX
  5
330C
  8
241
 10
255.9099999999999966
 20
5.8672800000000001
 30
0.0
 70
    32
  0
VERTEX
  5
330D
  8
241
 10
255.9050000000000011
 20
5.8758999999999988
 30
0.0
 70
    32
  0
VERTEX
  5
330E
  8
241
 10
255.9000000000000057
 20
5.8845099999999988
 30
0.0
 70
    32
  0
VERTEX
  5
330F
  8
241
 10
255.8950000000000102
 20
5.8931399999999989
 30
0.0
 70
    32
  0
VERTEX
  5
3310
  8
241
 10
255.8899999999999864
 20
5.9017599999999986
 30
0.0
 70
    32
  0
VERTEX
  5
3311
  8
241
 10
255.8849999999999909
 20
5.9103799999999991
 30
0.0
 70
    32
  0
VERTEX
  5
3312
  8
241
 10
255.8799999999999955
 20
5.9189999999999987
 30
0.0
 70
    32
  0
VERTEX
  5
3313
  8
241
 10
255.875
 20
5.9276299999999997
 30
0.0
 70
    32
  0
VERTEX
  5
3314
  8
241
 10
255.8700000000000045
 20
5.9362500000000002
 30
0.0
 70
    32
  0
VERTEX
  5
3315
  8
241
 10
255.8650000000000091
 20
5.9448800000000004
 30
0.0
 70
    32
  0
VERTEX
  5
3316
  8
241
 10
255.8600000000000136
 20
5.9535
 30
0.0
 70
    32
  0
VERTEX
  5
3317
  8
241
 10
255.8549999999999898
 20
5.9621300000000002
 30
0.0
 70
    32
  0
VERTEX
  5
3318
  8
241
 10
255.8499999999999943
 20
5.9707600000000003
 30
0.0
 70
    32
  0
VERTEX
  5
3319
  8
241
 10
255.8449999999999989
 20
5.979379999999999
 30
0.0
 70
    32
  0
VERTEX
  5
331A
  8
241
 10
255.8400000000000034
 20
5.9880100000000001
 30
0.0
 70
    32
  0
VERTEX
  5
331B
  8
241
 10
255.835000000000008
 20
5.9966299999999997
 30
0.0
 70
    32
  0
VERTEX
  5
331C
  8
241
 10
255.8300000000000125
 20
6.0052599999999989
 30
0.0
 70
    32
  0
VERTEX
  5
331D
  8
241
 10
255.8249999999999886
 20
6.0138800000000003
 30
0.0
 70
    32
  0
VERTEX
  5
331E
  8
241
 10
255.8199999999999932
 20
6.0224999999999991
 30
0.0
 70
    32
  0
VERTEX
  5
331F
  8
241
 10
255.8149999999999977
 20
6.0311300000000001
 30
0.0
 70
    32
  0
VERTEX
  5
3320
  8
241
 10
255.811000000000007
 20
6.0397499999999988
 30
0.0
 70
    32
  0
VERTEX
  5
3321
  8
241
 10
255.8060000000000116
 20
6.0483699999999994
 30
0.0
 70
    32
  0
VERTEX
  5
3322
  8
241
 10
255.8009999999999877
 20
6.0569800000000003
 30
0.0
 70
    32
  0
VERTEX
  5
3323
  8
241
 10
255.7959999999999923
 20
6.065599999999999
 30
0.0
 70
    32
  0
VERTEX
  5
3324
  8
241
 10
255.7909999999999968
 20
6.0742199999999986
 30
0.0
 70
    32
  0
VERTEX
  5
3325
  8
241
 10
255.7870000000000061
 20
6.0828300000000004
 30
0.0
 70
    32
  0
VERTEX
  5
3326
  8
241
 10
255.7820000000000107
 20
6.0914400000000004
 30
0.0
 70
    32
  0
VERTEX
  5
3327
  8
241
 10
255.7769999999999868
 20
6.1000500000000004
 30
0.0
 70
    32
  0
VERTEX
  5
3328
  8
241
 10
255.7719999999999914
 20
6.1086599999999986
 30
0.0
 70
    32
  0
VERTEX
  5
3329
  8
241
 10
255.7680000000000007
 20
6.117259999999999
 30
0.0
 70
    32
  0
VERTEX
  5
332A
  8
241
 10
255.7630000000000052
 20
6.1258599999999994
 30
0.0
 70
    32
  0
VERTEX
  5
332B
  8
241
 10
255.7580000000000098
 20
6.1344599999999989
 30
0.0
 70
    32
  0
VERTEX
  5
332C
  8
241
 10
255.7539999999999907
 20
6.1430600000000002
 30
0.0
 70
    32
  0
VERTEX
  5
332D
  8
241
 10
255.7489999999999952
 20
6.1516500000000001
 30
0.0
 70
    32
  0
VERTEX
  5
332E
  8
241
 10
255.7450000000000045
 20
6.160239999999999
 30
0.0
 70
    32
  0
VERTEX
  5
332F
  8
241
 10
255.7400000000000091
 20
6.1688299999999998
 30
0.0
 70
    32
  0
VERTEX
  5
3330
  8
241
 10
255.7350000000000136
 20
6.1774100000000001
 30
0.0
 70
    32
  0
VERTEX
  5
3331
  8
241
 10
255.7309999999999945
 20
6.1859900000000003
 30
0.0
 70
    32
  0
VERTEX
  5
3332
  8
241
 10
255.7259999999999991
 20
6.1945699999999988
 30
0.0
 70
    32
  0
VERTEX
  5
3333
  8
241
 10
255.7220000000000084
 20
6.2031400000000003
 30
0.0
 70
    32
  0
VERTEX
  5
3334
  8
241
 10
255.717000000000013
 20
6.2117100000000001
 30
0.0
 70
    32
  0
VERTEX
  5
3335
  8
241
 10
255.7129999999999939
 20
6.2202799999999998
 30
0.0
 70
    32
  0
VERTEX
  5
3336
  8
241
 10
255.7079999999999984
 20
6.228839999999999
 30
0.0
 70
    32
  0
VERTEX
  5
3337
  8
241
 10
255.7040000000000077
 20
6.2373900000000004
 30
0.0
 70
    32
  0
VERTEX
  5
3338
  8
241
 10
255.6990000000000123
 20
6.24594
 30
0.0
 70
    32
  0
VERTEX
  5
3339
  8
241
 10
255.6949999999999932
 20
6.2544899999999997
 30
0.0
 70
    32
  0
VERTEX
  5
333A
  8
241
 10
255.6899999999999977
 20
6.2630299999999997
 30
0.0
 70
    32
  0
VERTEX
  5
333B
  8
241
 10
255.686000000000007
 20
6.2715699999999988
 30
0.0
 70
    32
  0
VERTEX
  5
333C
  8
241
 10
255.6819999999999879
 20
6.2801
 30
0.0
 70
    32
  0
VERTEX
  5
333D
  8
241
 10
255.6769999999999925
 20
6.2886300000000004
 30
0.0
 70
    32
  0
VERTEX
  5
333E
  8
241
 10
255.6730000000000018
 20
6.2971500000000002
 30
0.0
 70
    32
  0
VERTEX
  5
333F
  8
241
 10
255.6690000000000111
 20
6.3056700000000001
 30
0.0
 70
    32
  0
VERTEX
  5
3340
  8
241
 10
255.6639999999999873
 20
6.3141800000000003
 30
0.0
 70
    32
  0
VERTEX
  5
3341
  8
241
 10
255.6599999999999966
 20
6.3226800000000001
 30
0.0
 70
    32
  0
VERTEX
  5
3342
  8
241
 10
255.6560000000000059
 20
6.3311799999999998
 30
0.0
 70
    32
  0
VERTEX
  5
3343
  8
241
 10
255.6510000000000105
 20
6.3396800000000004
 30
0.0
 70
    32
  0
VERTEX
  5
3344
  8
241
 10
255.6469999999999914
 20
6.34816
 30
0.0
 70
    32
  0
VERTEX
  5
3345
  8
241
 10
255.6430000000000007
 20
6.3566399999999996
 30
0.0
 70
    32
  0
VERTEX
  5
3346
  8
241
 10
255.63900000000001
 20
6.3651200000000001
 30
0.0
 70
    32
  0
VERTEX
  5
3347
  8
241
 10
255.6349999999999909
 20
6.3735900000000001
 30
0.0
 70
    32
  0
VERTEX
  5
3348
  8
241
 10
255.6299999999999955
 20
6.3820499999999987
 30
0.0
 70
    32
  0
VERTEX
  5
3349
  8
241
 10
255.6260000000000048
 20
6.3905000000000003
 30
0.0
 70
    32
  0
VERTEX
  5
334A
  8
241
 10
255.6220000000000141
 20
6.3989500000000001
 30
0.0
 70
    32
  0
VERTEX
  5
334B
  8
241
 10
255.617999999999995
 20
6.4073900000000004
 30
0.0
 70
    32
  0
VERTEX
  5
334C
  8
241
 10
255.6140000000000043
 20
6.4158200000000001
 30
0.0
 70
    32
  0
VERTEX
  5
334D
  8
241
 10
255.6100000000000136
 20
6.4242400000000002
 30
0.0
 70
    32
  0
VERTEX
  5
334E
  8
241
 10
255.6059999999999945
 20
6.432669999999999
 30
0.0
 70
    32
  0
VERTEX
  5
334F
  8
241
 10
255.6020000000000039
 20
6.4411199999999988
 30
0.0
 70
    32
  0
VERTEX
  5
3350
  8
241
 10
255.5970000000000084
 20
6.4495899999999988
 30
0.0
 70
    32
  0
VERTEX
  5
3351
  8
241
 10
255.5929999999999893
 20
6.4580799999999998
 30
0.0
 70
    32
  0
VERTEX
  5
3352
  8
241
 10
255.5889999999999986
 20
6.4665999999999988
 30
0.0
 70
    32
  0
VERTEX
  5
3353
  8
241
 10
255.585000000000008
 20
6.4751399999999997
 30
0.0
 70
    32
  0
VERTEX
  5
3354
  8
241
 10
255.5809999999999889
 20
6.4836999999999989
 30
0.0
 70
    32
  0
VERTEX
  5
3355
  8
241
 10
255.5769999999999982
 20
6.4922800000000001
 30
0.0
 70
    32
  0
VERTEX
  5
3356
  8
241
 10
255.5730000000000075
 20
6.5008800000000004
 30
0.0
 70
    32
  0
VERTEX
  5
3357
  8
241
 10
255.5689999999999884
 20
6.5095099999999988
 30
0.0
 70
    32
  0
VERTEX
  5
3358
  8
241
 10
255.5649999999999977
 20
6.5181500000000003
 30
0.0
 70
    32
  0
VERTEX
  5
3359
  8
241
 10
255.561000000000007
 20
6.526819999999999
 30
0.0
 70
    32
  0
VERTEX
  5
335A
  8
241
 10
255.5569999999999879
 20
6.5355099999999986
 30
0.0
 70
    32
  0
VERTEX
  5
335B
  8
241
 10
255.5529999999999973
 20
6.5442200000000001
 30
0.0
 70
    32
  0
VERTEX
  5
335C
  8
241
 10
255.5490000000000066
 20
6.5529400000000004
 30
0.0
 70
    32
  0
VERTEX
  5
335D
  8
241
 10
255.5449999999999875
 20
6.5616899999999987
 30
0.0
 70
    32
  0
VERTEX
  5
335E
  8
241
 10
255.5409999999999968
 20
6.5704599999999997
 30
0.0
 70
    32
  0
VERTEX
  5
335F
  8
241
 10
255.5370000000000061
 20
6.57925
 30
0.0
 70
    32
  0
VERTEX
  5
3360
  8
241
 10
255.532999999999987
 20
6.5880599999999996
 30
0.0
 70
    32
  0
VERTEX
  5
3361
  8
241
 10
255.5289999999999964
 20
6.5968799999999996
 30
0.0
 70
    32
  0
VERTEX
  5
3362
  8
241
 10
255.5250000000000057
 20
6.6057300000000003
 30
0.0
 70
    32
  0
VERTEX
  5
3363
  8
241
 10
255.5209999999999866
 20
6.6145899999999989
 30
0.0
 70
    32
  0
VERTEX
  5
3364
  8
241
 10
255.5169999999999959
 20
6.6234799999999998
 30
0.0
 70
    32
  0
VERTEX
  5
3365
  8
241
 10
255.5130000000000052
 20
6.6323800000000004
 30
0.0
 70
    32
  0
VERTEX
  5
3366
  8
241
 10
255.5089999999999861
 20
6.6413000000000002
 30
0.0
 70
    32
  0
VERTEX
  5
3367
  8
241
 10
255.5049999999999955
 20
6.6502399999999993
 30
0.0
 70
    32
  0
VERTEX
  5
3368
  8
241
 10
255.5010000000000048
 20
6.6591899999999988
 30
0.0
 70
    32
  0
VERTEX
  5
3369
  8
241
 10
255.4970000000000141
 20
6.668169999999999
 30
0.0
 70
    32
  0
VERTEX
  5
336A
  8
241
 10
255.492999999999995
 20
6.6771599999999998
 30
0.0
 70
    32
  0
VERTEX
  5
336B
  8
241
 10
255.4890000000000043
 20
6.6861699999999988
 30
0.0
 70
    32
  0
VERTEX
  5
336C
  8
241
 10
255.4850000000000136
 20
6.6951899999999993
 30
0.0
 70
    32
  0
VERTEX
  5
336D
  8
241
 10
255.4809999999999945
 20
6.704229999999999
 30
0.0
 70
    32
  0
VERTEX
  5
336E
  8
241
 10
255.4770000000000039
 20
6.7132899999999989
 30
0.0
 70
    32
  0
VERTEX
  5
336F
  8
241
 10
255.4730000000000132
 20
6.7223699999999988
 30
0.0
 70
    32
  0
VERTEX
  5
3370
  8
241
 10
255.4689999999999941
 20
6.7314600000000002
 30
0.0
 70
    32
  0
VERTEX
  5
3371
  8
241
 10
255.4650000000000034
 20
6.7405699999999991
 30
0.0
 70
    32
  0
VERTEX
  5
3372
  8
241
 10
255.4610000000000127
 20
6.7496899999999993
 30
0.0
 70
    32
  0
VERTEX
  5
3373
  8
241
 10
255.4569999999999936
 20
6.7588299999999997
 30
0.0
 70
    32
  0
VERTEX
  5
3374
  8
241
 10
255.4540000000000077
 20
6.7679799999999997
 30
0.0
 70
    32
  0
VERTEX
  5
3375
  8
241
 10
255.4499999999999886
 20
6.7771499999999989
 30
0.0
 70
    32
  0
VERTEX
  5
3376
  8
241
 10
255.445999999999998
 20
6.7863399999999992
 30
0.0
 70
    32
  0
VERTEX
  5
3377
  8
241
 10
255.4420000000000073
 20
6.795539999999999
 30
0.0
 70
    32
  0
VERTEX
  5
3378
  8
241
 10
255.4379999999999882
 20
6.8047500000000003
 30
0.0
 70
    32
  0
VERTEX
  5
3379
  8
241
 10
255.4339999999999975
 20
6.813979999999999
 30
0.0
 70
    32
  0
VERTEX
  5
337A
  8
241
 10
255.4300000000000068
 20
6.8232200000000001
 30
0.0
 70
    32
  0
VERTEX
  5
337B
  8
241
 10
255.4259999999999877
 20
6.8324800000000003
 30
0.0
 70
    32
  0
VERTEX
  5
337C
  8
241
 10
255.4230000000000018
 20
6.8417500000000002
 30
0.0
 70
    32
  0
VERTEX
  5
337D
  8
241
 10
255.4190000000000111
 20
6.8510299999999997
 30
0.0
 70
    32
  0
VERTEX
  5
337E
  8
241
 10
255.414999999999992
 20
6.8603300000000003
 30
0.0
 70
    32
  0
VERTEX
  5
337F
  8
241
 10
255.4110000000000014
 20
6.8696399999999986
 30
0.0
 70
    32
  0
VERTEX
  5
3380
  8
241
 10
255.4070000000000107
 20
6.8789699999999989
 30
0.0
 70
    32
  0
VERTEX
  5
3381
  8
241
 10
255.4039999999999964
 20
6.8883000000000001
 30
0.0
 70
    32
  0
VERTEX
  5
3382
  8
241
 10
255.4000000000000057
 20
6.8976499999999987
 30
0.0
 70
    32
  0
VERTEX
  5
3383
  8
241
 10
255.3959999999999866
 20
6.9070099999999996
 30
0.0
 70
    32
  0
VERTEX
  5
3384
  8
241
 10
255.3919999999999959
 20
6.9163899999999989
 30
0.0
 70
    32
  0
VERTEX
  5
3385
  8
241
 10
255.38900000000001
 20
6.9257699999999991
 30
0.0
 70
    32
  0
VERTEX
  5
3386
  8
241
 10
255.3849999999999909
 20
6.9351699999999994
 30
0.0
 70
    32
  0
VERTEX
  5
3387
  8
241
 10
255.3810000000000002
 20
6.9445800000000002
 30
0.0
 70
    32
  0
VERTEX
  5
3388
  8
241
 10
255.3770000000000095
 20
6.9539999999999988
 30
0.0
 70
    32
  0
VERTEX
  5
3389
  8
241
 10
255.3739999999999952
 20
6.9634299999999998
 30
0.0
 70
    32
  0
VERTEX
  5
338A
  8
241
 10
255.3700000000000045
 20
6.9728699999999986
 30
0.0
 70
    32
  0
VERTEX
  5
338B
  8
241
 10
255.3660000000000139
 20
6.9823300000000001
 30
0.0
 70
    32
  0
VERTEX
  5
338C
  8
241
 10
255.3629999999999995
 20
6.9917899999999991
 30
0.0
 70
    32
  0
VERTEX
  5
338D
  8
241
 10
255.3590000000000089
 20
7.001269999999999
 30
0.0
 70
    32
  0
VERTEX
  5
338E
  8
241
 10
255.3549999999999898
 20
7.0107499999999989
 30
0.0
 70
    32
  0
VERTEX
  5
338F
  8
241
 10
255.3520000000000039
 20
7.020249999999999
 30
0.0
 70
    32
  0
VERTEX
  5
3390
  8
241
 10
255.3480000000000132
 20
7.0297499999999991
 30
0.0
 70
    32
  0
VERTEX
  5
3391
  8
241
 10
255.3439999999999941
 20
7.0392599999999996
 30
0.0
 70
    32
  0
VERTEX
  5
3392
  8
241
 10
255.3410000000000082
 20
7.0487899999999986
 30
0.0
 70
    32
  0
VERTEX
  5
3393
  8
241
 10
255.3369999999999891
 20
7.0583200000000001
 30
0.0
 70
    32
  0
VERTEX
  5
3394
  8
241
 10
255.3340000000000032
 20
7.0678599999999996
 30
0.0
 70
    32
  0
VERTEX
  5
3395
  8
241
 10
255.3300000000000125
 20
7.0774100000000004
 30
0.0
 70
    32
  0
VERTEX
  5
3396
  8
241
 10
255.3259999999999934
 20
7.0869699999999991
 30
0.0
 70
    32
  0
VERTEX
  5
3397
  8
241
 10
255.3230000000000075
 20
7.0965299999999996
 30
0.0
 70
    32
  0
VERTEX
  5
3398
  8
241
 10
255.3189999999999884
 20
7.1061100000000001
 30
0.0
 70
    32
  0
VERTEX
  5
3399
  8
241
 10
255.3160000000000025
 20
7.115689999999999
 30
0.0
 70
    32
  0
VERTEX
  5
339A
  8
241
 10
255.3120000000000118
 20
7.1252800000000001
 30
0.0
 70
    32
  0
VERTEX
  5
339B
  8
241
 10
255.3089999999999975
 20
7.134879999999999
 30
0.0
 70
    32
  0
VERTEX
  5
339C
  8
241
 10
255.3050000000000068
 20
7.1444899999999993
 30
0.0
 70
    32
  0
VERTEX
  5
339D
  8
241
 10
255.3019999999999925
 20
7.1540999999999988
 30
0.0
 70
    32
  0
VERTEX
  5
339E
  8
241
 10
255.2980000000000018
 20
7.1637199999999988
 30
0.0
 70
    32
  0
VERTEX
  5
339F
  8
241
 10
255.2949999999999875
 20
7.1733500000000001
 30
0.0
 70
    32
  0
VERTEX
  5
33A0
  8
241
 10
255.2909999999999968
 20
7.1829799999999997
 30
0.0
 70
    32
  0
VERTEX
  5
33A1
  8
241
 10
255.2880000000000109
 20
7.1926199999999989
 30
0.0
 70
    32
  0
VERTEX
  5
33A2
  8
241
 10
255.2839999999999918
 20
7.2022599999999999
 30
0.0
 70
    32
  0
VERTEX
  5
33A3
  8
241
 10
255.2810000000000059
 20
7.2119099999999996
 30
0.0
 70
    32
  0
VERTEX
  5
33A4
  8
241
 10
255.2779999999999916
 20
7.2215699999999989
 30
0.0
 70
    32
  0
VERTEX
  5
33A5
  8
241
 10
255.2740000000000009
 20
7.23123
 30
0.0
 70
    32
  0
VERTEX
  5
33A6
  8
241
 10
255.2709999999999866
 20
7.240899999999999
 30
0.0
 70
    32
  0
VERTEX
  5
33A7
  8
241
 10
255.2669999999999959
 20
7.2505699999999988
 30
0.0
 70
    32
  0
VERTEX
  5
33A8
  8
241
 10
255.26400000000001
 20
7.2602500000000001
 30
0.0
 70
    32
  0
VERTEX
  5
33A9
  8
241
 10
255.2609999999999957
 20
7.2699299999999996
 30
0.0
 70
    32
  0
VERTEX
  5
33AA
  8
241
 10
255.257000000000005
 20
7.2796199999999986
 30
0.0
 70
    32
  0
VERTEX
  5
33AB
  8
241
 10
255.2539999999999907
 20
7.2893100000000004
 30
0.0
 70
    32
  0
VERTEX
  5
33AC
  8
241
 10
255.2510000000000048
 20
7.29901
 30
0.0
 70
    32
  0
VERTEX
  5
33AD
  8
241
 10
255.2479999999999905
 20
7.3086999999999991
 30
0.0
 70
    32
  0
VERTEX
  5
33AE
  8
241
 10
255.2439999999999998
 20
7.3184100000000001
 30
0.0
 70
    32
  0
VERTEX
  5
33AF
  8
241
 10
255.2410000000000139
 20
7.3281099999999997
 30
0.0
 70
    32
  0
VERTEX
  5
33B0
  8
241
 10
255.2379999999999995
 20
7.3378199999999989
 30
0.0
 70
    32
  0
VERTEX
  5
33B1
  8
241
 10
255.2350000000000136
 20
7.347529999999999
 30
0.0
 70
    32
  0
VERTEX
  5
33B2
  8
241
 10
255.2309999999999945
 20
7.3572499999999987
 30
0.0
 70
    32
  0
VERTEX
  5
33B3
  8
241
 10
255.2280000000000086
 20
7.3669599999999997
 30
0.0
 70
    32
  0
VERTEX
  5
33B4
  8
241
 10
255.2249999999999943
 20
7.3766800000000003
 30
0.0
 70
    32
  0
VERTEX
  5
33B5
  8
241
 10
255.2220000000000084
 20
7.3864000000000001
 30
0.0
 70
    32
  0
VERTEX
  5
33B6
  8
241
 10
255.2189999999999941
 20
7.3961199999999989
 30
0.0
 70
    32
  0
VERTEX
  5
33B7
  8
241
 10
255.2160000000000082
 20
7.40585
 30
0.0
 70
    32
  0
VERTEX
  5
33B8
  8
241
 10
255.2119999999999891
 20
7.4155699999999989
 30
0.0
 70
    32
  0
VERTEX
  5
33B9
  8
241
 10
255.2090000000000032
 20
7.4253
 30
0.0
 70
    32
  0
VERTEX
  5
33BA
  8
241
 10
255.2059999999999889
 20
7.4350199999999989
 30
0.0
 70
    32
  0
VERTEX
  5
33BB
  8
241
 10
255.203000000000003
 20
7.4447499999999991
 30
0.0
 70
    32
  0
VERTEX
  5
33BC
  8
241
 10
255.1999999999999886
 20
7.4544800000000002
 30
0.0
 70
    32
  0
VERTEX
  5
33BD
  8
241
 10
255.1970000000000027
 20
7.4642099999999996
 30
0.0
 70
    32
  0
VERTEX
  5
33BE
  8
241
 10
255.1939999999999884
 20
7.4739300000000002
 30
0.0
 70
    32
  0
VERTEX
  5
33BF
  8
241
 10
255.1910000000000025
 20
7.4836600000000004
 30
0.0
 70
    32
  0
VERTEX
  5
33C0
  8
241
 10
255.1879999999999882
 20
7.4933899999999989
 30
0.0
 70
    32
  0
VERTEX
  5
33C1
  8
241
 10
255.1850000000000023
 20
7.5031100000000004
 30
0.0
 70
    32
  0
VERTEX
  5
33C2
  8
241
 10
255.1819999999999879
 20
7.5128300000000001
 30
0.0
 70
    32
  0
VERTEX
  5
33C3
  8
241
 10
255.179000000000002
 20
7.5225600000000004
 30
0.0
 70
    32
  0
VERTEX
  5
33C4
  8
241
 10
255.1759999999999877
 20
7.5322800000000001
 30
0.0
 70
    32
  0
VERTEX
  5
33C5
  8
241
 10
255.1730000000000018
 20
7.5419999999999989
 30
0.0
 70
    32
  0
VERTEX
  5
33C6
  8
241
 10
255.1699999999999875
 20
7.5517099999999999
 30
0.0
 70
    32
  0
VERTEX
  5
33C7
  8
241
 10
255.1670000000000016
 20
7.5614299999999997
 30
0.0
 70
    32
  0
VERTEX
  5
33C8
  8
241
 10
255.1639999999999873
 20
7.5711399999999989
 30
0.0
 70
    32
  0
VERTEX
  5
33C9
  8
241
 10
255.1620000000000061
 20
7.580849999999999
 30
0.0
 70
    32
  0
VERTEX
  5
33CA
  8
241
 10
255.1589999999999918
 20
7.5905500000000004
 30
0.0
 70
    32
  0
VERTEX
  5
33CB
  8
241
 10
255.1560000000000059
 20
7.6002599999999996
 30
0.0
 70
    32
  0
VERTEX
  5
33CC
  8
241
 10
255.1529999999999916
 20
7.6099600000000001
 30
0.0
 70
    32
  0
VERTEX
  5
33CD
  8
241
 10
255.1500000000000057
 20
7.61965
 30
0.0
 70
    32
  0
VERTEX
  5
33CE
  8
241
 10
255.1469999999999914
 20
7.6293399999999991
 30
0.0
 70
    32
  0
VERTEX
  5
33CF
  8
241
 10
255.1450000000000102
 20
7.6390299999999991
 30
0.0
 70
    32
  0
VERTEX
  5
33D0
  8
241
 10
255.1419999999999959
 20
7.6487100000000003
 30
0.0
 70
    32
  0
VERTEX
  5
33D1
  8
241
 10
255.13900000000001
 20
7.6583899999999989
 30
0.0
 70
    32
  0
VERTEX
  5
33D2
  8
241
 10
255.1359999999999957
 20
7.6680599999999997
 30
0.0
 70
    32
  0
VERTEX
  5
33D3
  8
241
 10
255.1339999999999861
 20
7.6777300000000004
 30
0.0
 70
    32
  0
VERTEX
  5
33D4
  8
241
 10
255.1310000000000002
 20
7.6873899999999988
 30
0.0
 70
    32
  0
VERTEX
  5
33D5
  8
241
 10
255.1279999999999859
 20
7.6970499999999991
 30
0.0
 70
    32
  0
VERTEX
  5
33D6
  8
241
 10
255.1260000000000048
 20
7.7066999999999988
 30
0.0
 70
    32
  0
VERTEX
  5
33D7
  8
241
 10
255.1229999999999905
 20
7.7163500000000003
 30
0.0
 70
    32
  0
VERTEX
  5
33D8
  8
241
 10
255.1200000000000045
 20
7.725979999999999
 30
0.0
 70
    32
  0
VERTEX
  5
33D9
  8
241
 10
255.117999999999995
 20
7.7356199999999991
 30
0.0
 70
    32
  0
VERTEX
  5
33DA
  8
241
 10
255.1150000000000091
 20
7.745239999999999
 30
0.0
 70
    32
  0
VERTEX
  5
33DB
  8
241
 10
255.1119999999999948
 20
7.7548599999999999
 30
0.0
 70
    32
  0
VERTEX
  5
33DC
  8
241
 10
255.1100000000000136
 20
7.7644699999999993
 30
0.0
 70
    32
  0
VERTEX
  5
33DD
  8
241
 10
255.1069999999999993
 20
7.77407
 30
0.0
 70
    32
  0
VERTEX
  5
33DE
  8
241
 10
255.1049999999999898
 20
7.783669999999999
 30
0.0
 70
    32
  0
VERTEX
  5
33DF
  8
241
 10
255.1020000000000039
 20
7.7932600000000001
 30
0.0
 70
    32
  0
VERTEX
  5
33E0
  8
241
 10
255.0989999999999895
 20
7.8028399999999989
 30
0.0
 70
    32
  0
VERTEX
  5
33E1
  8
241
 10
255.0970000000000084
 20
7.8124099999999999
 30
0.0
 70
    32
  0
VERTEX
  5
33E2
  8
241
 10
255.0939999999999941
 20
7.8219699999999994
 30
0.0
 70
    32
  0
VERTEX
  5
33E3
  8
241
 10
255.092000000000013
 20
7.8315199999999994
 30
0.0
 70
    32
  0
VERTEX
  5
33E4
  8
241
 10
255.0889999999999986
 20
7.8410699999999993
 30
0.0
 70
    32
  0
VERTEX
  5
33E5
  8
241
 10
255.0869999999999891
 20
7.8506
 30
0.0
 70
    32
  0
VERTEX
  5
33E6
  8
241
 10
255.085000000000008
 20
7.8601299999999998
 30
0.0
 70
    32
  0
VERTEX
  5
33E7
  8
241
 10
255.0819999999999936
 20
7.8696399999999986
 30
0.0
 70
    32
  0
VERTEX
  5
33E8
  8
241
 10
255.0800000000000125
 20
7.8791500000000001
 30
0.0
 70
    32
  0
VERTEX
  5
33E9
  8
241
 10
255.0769999999999982
 20
7.8886399999999988
 30
0.0
 70
    32
  0
VERTEX
  5
33EA
  8
241
 10
255.0749999999999886
 20
7.8981199999999987
 30
0.0
 70
    32
  0
VERTEX
  5
33EB
  8
241
 10
255.0730000000000075
 20
7.9076000000000004
 30
0.0
 70
    32
  0
VERTEX
  5
33EC
  8
241
 10
255.0699999999999932
 20
7.9170600000000002
 30
0.0
 70
    32
  0
VERTEX
  5
33ED
  8
241
 10
255.0680000000000121
 20
7.9265100000000004
 30
0.0
 70
    32
  0
VERTEX
  5
33EE
  8
241
 10
255.0660000000000025
 20
7.9359500000000001
 30
0.0
 70
    32
  0
VERTEX
  5
33EF
  8
241
 10
255.0629999999999882
 20
7.9453800000000001
 30
0.0
 70
    32
  0
VERTEX
  5
33F0
  8
241
 10
255.061000000000007
 20
7.9547899999999991
 30
0.0
 70
    32
  0
VERTEX
  5
33F1
  8
241
 10
255.0589999999999975
 20
7.9641999999999991
 30
0.0
 70
    32
  0
VERTEX
  5
33F2
  8
241
 10
255.0560000000000116
 20
7.9735899999999988
 30
0.0
 70
    32
  0
VERTEX
  5
33F3
  8
241
 10
255.054000000000002
 20
7.982969999999999
 30
0.0
 70
    32
  0
VERTEX
  5
33F4
  8
241
 10
255.0519999999999925
 20
7.992329999999999
 30
0.0
 70
    32
  0
VERTEX
  5
33F5
  8
241
 10
255.0500000000000114
 20
8.0016800000000003
 30
0.0
 70
    32
  0
VERTEX
  5
33F6
  8
241
 10
255.0480000000000018
 20
8.0110200000000003
 30
0.0
 70
    32
  0
VERTEX
  5
33F7
  8
241
 10
255.0449999999999875
 20
8.0203500000000005
 30
0.0
 70
    32
  0
VERTEX
  5
33F8
  8
241
 10
255.0430000000000064
 20
8.0296599999999998
 30
0.0
 70
    32
  0
VERTEX
  5
33F9
  8
241
 10
255.0409999999999968
 20
8.0389499999999998
 30
0.0
 70
    32
  0
VERTEX
  5
33FA
  8
241
 10
255.0389999999999873
 20
8.0482399999999998
 30
0.0
 70
    32
  0
VERTEX
  5
33FB
  8
241
 10
255.0370000000000061
 20
8.0575100000000006
 30
0.0
 70
    32
  0
VERTEX
  5
33FC
  8
241
 10
255.0349999999999966
 20
8.0667600000000004
 30
0.0
 70
    32
  0
VERTEX
  5
33FD
  8
241
 10
255.032999999999987
 20
8.0760000000000005
 30
0.0
 70
    32
  0
VERTEX
  5
33FE
  8
241
 10
255.0300000000000011
 20
8.0852199999999996
 30
0.0
 70
    32
  0
VERTEX
  5
33FF
  8
241
 10
255.0279999999999916
 20
8.0944299999999991
 30
0.0
 70
    32
  0
VERTEX
  5
3400
  8
241
 10
255.0260000000000105
 20
8.1036199999999994
 30
0.0
 70
    32
  0
VERTEX
  5
3401
  8
241
 10
255.0240000000000009
 20
8.1128
 30
0.0
 70
    32
  0
VERTEX
  5
3402
  8
241
 10
255.0219999999999914
 20
8.1219600000000014
 30
0.0
 70
    32
  0
VERTEX
  5
3403
  8
241
 10
255.0200000000000102
 20
8.1310999999999982
 30
0.0
 70
    32
  0
VERTEX
  5
3404
  8
241
 10
255.0180000000000007
 20
8.1402199999999993
 30
0.0
 70
    32
  0
VERTEX
  5
3405
  8
241
 10
255.0159999999999911
 20
8.1493599999999997
 30
0.0
 70
    32
  0
VERTEX
  5
3406
  8
241
 10
255.01400000000001
 20
8.1585199999999993
 30
0.0
 70
    32
  0
VERTEX
  5
3407
  8
241
 10
255.0120000000000005
 20
8.1677100000000014
 30
0.0
 70
    32
  0
VERTEX
  5
3408
  8
241
 10
255.0109999999999957
 20
8.1769400000000001
 30
0.0
 70
    32
  0
VERTEX
  5
3409
  8
241
 10
255.0089999999999861
 20
8.1861899999999999
 30
0.0
 70
    32
  0
VERTEX
  5
340A
  8
241
 10
255.007000000000005
 20
8.1954700000000003
 30
0.0
 70
    32
  0
VERTEX
  5
340B
  8
241
 10
255.0049999999999955
 20
8.2047699999999981
 30
0.0
 70
    32
  0
VERTEX
  5
340C
  8
241
 10
255.0029999999999859
 20
8.2141099999999998
 30
0.0
 70
    32
  0
VERTEX
  5
340D
  8
241
 10
255.0010000000000048
 20
8.2234699999999972
 30
0.0
 70
    32
  0
VERTEX
  5
340E
  8
241
 10
254.9989999999999952
 20
8.2328499999999991
 30
0.0
 70
    32
  0
VERTEX
  5
340F
  8
241
 10
254.9970000000000141
 20
8.2422699999999995
 30
0.0
 70
    32
  0
VERTEX
  5
3410
  8
241
 10
254.9950000000000045
 20
8.2517099999999992
 30
0.0
 70
    32
  0
VERTEX
  5
3411
  8
241
 10
254.992999999999995
 20
8.2611699999999981
 30
0.0
 70
    32
  0
VERTEX
  5
3412
  8
241
 10
254.9910000000000139
 20
8.2706600000000012
 30
0.0
 70
    32
  0
VERTEX
  5
3413
  8
241
 10
254.9890000000000043
 20
8.28017
 30
0.0
 70
    32
  0
VERTEX
  5
3414
  8
241
 10
254.9879999999999995
 20
8.2897100000000012
 30
0.0
 70
    32
  0
VERTEX
  5
3415
  8
241
 10
254.98599999999999
 20
8.2992699999999981
 30
0.0
 70
    32
  0
VERTEX
  5
3416
  8
241
 10
254.9840000000000089
 20
8.3088499999999996
 30
0.0
 70
    32
  0
VERTEX
  5
3417
  8
241
 10
254.9819999999999993
 20
8.3184599999999982
 30
0.0
 70
    32
  0
VERTEX
  5
3418
  8
241
 10
254.9799999999999898
 20
8.3280799999999982
 30
0.0
 70
    32
  0
VERTEX
  5
3419
  8
241
 10
254.9780000000000086
 20
8.3377300000000005
 30
0.0
 70
    32
  0
VERTEX
  5
341A
  8
241
 10
254.9770000000000039
 20
8.3474000000000004
 30
0.0
 70
    32
  0
VERTEX
  5
341B
  8
241
 10
254.9749999999999943
 20
8.3570899999999995
 30
0.0
 70
    32
  0
VERTEX
  5
341C
  8
241
 10
254.9730000000000132
 20
8.3667999999999996
 30
0.0
 70
    32
  0
VERTEX
  5
341D
  8
241
 10
254.9710000000000036
 20
8.3765300000000007
 30
0.0
 70
    32
  0
VERTEX
  5
341E
  8
241
 10
254.9689999999999941
 20
8.3862800000000011
 30
0.0
 70
    32
  0
VERTEX
  5
341F
  8
241
 10
254.9679999999999893
 20
8.3960500000000007
 30
0.0
 70
    32
  0
VERTEX
  5
3420
  8
241
 10
254.9660000000000082
 20
8.4058399999999995
 30
0.0
 70
    32
  0
VERTEX
  5
3421
  8
241
 10
254.9639999999999986
 20
8.4156399999999998
 30
0.0
 70
    32
  0
VERTEX
  5
3422
  8
241
 10
254.9619999999999891
 20
8.4254699999999971
 30
0.0
 70
    32
  0
VERTEX
  5
3423
  8
241
 10
254.9610000000000127
 20
8.4353100000000012
 30
0.0
 70
    32
  0
VERTEX
  5
3424
  8
241
 10
254.9590000000000032
 20
8.4451600000000013
 30
0.0
 70
    32
  0
VERTEX
  5
3425
  8
241
 10
254.9569999999999936
 20
8.4550399999999986
 30
0.0
 70
    32
  0
VERTEX
  5
3426
  8
241
 10
254.9550000000000125
 20
8.4649300000000007
 30
0.0
 70
    32
  0
VERTEX
  5
3427
  8
241
 10
254.9540000000000077
 20
8.4748300000000008
 30
0.0
 70
    32
  0
VERTEX
  5
3428
  8
241
 10
254.9519999999999982
 20
8.48475
 30
0.0
 70
    32
  0
VERTEX
  5
3429
  8
241
 10
254.9499999999999886
 20
8.4946800000000007
 30
0.0
 70
    32
  0
VERTEX
  5
342A
  8
241
 10
254.9490000000000123
 20
8.5046300000000006
 30
0.0
 70
    32
  0
VERTEX
  5
342B
  8
241
 10
254.9470000000000027
 20
8.5145900000000001
 30
0.0
 70
    32
  0
VERTEX
  5
342C
  8
241
 10
254.9449999999999932
 20
8.524560000000001
 30
0.0
 70
    32
  0
VERTEX
  5
342D
  8
241
 10
254.9439999999999884
 20
8.5345499999999994
 30
0.0
 70
    32
  0
VERTEX
  5
342E
  8
241
 10
254.9420000000000073
 20
8.5445499999999992
 30
0.0
 70
    32
  0
VERTEX
  5
342F
  8
241
 10
254.9410000000000025
 20
8.5545600000000004
 30
0.0
 70
    32
  0
VERTEX
  5
3430
  8
241
 10
254.938999999999993
 20
8.5645799999999994
 30
0.0
 70
    32
  0
VERTEX
  5
3431
  8
241
 10
254.9370000000000118
 20
8.5746199999999995
 30
0.0
 70
    32
  0
VERTEX
  5
3432
  8
241
 10
254.936000000000007
 20
8.5846600000000013
 30
0.0
 70
    32
  0
VERTEX
  5
3433
  8
241
 10
254.9339999999999975
 20
8.5947099999999992
 30
0.0
 70
    32
  0
VERTEX
  5
3434
  8
241
 10
254.9329999999999927
 20
8.6047799999999999
 30
0.0
 70
    32
  0
VERTEX
  5
3435
  8
241
 10
254.9310000000000116
 20
8.6148500000000006
 30
0.0
 70
    32
  0
VERTEX
  5
3436
  8
241
 10
254.9300000000000068
 20
8.6249300000000009
 30
0.0
 70
    32
  0
VERTEX
  5
3437
  8
241
 10
254.9279999999999973
 20
8.635019999999999
 30
0.0
 70
    32
  0
VERTEX
  5
3438
  8
241
 10
254.9269999999999925
 20
8.6451100000000007
 30
0.0
 70
    32
  0
VERTEX
  5
3439
  8
241
 10
254.9250000000000114
 20
8.6552199999999981
 30
0.0
 70
    32
  0
VERTEX
  5
343A
  8
241
 10
254.9240000000000066
 20
8.6653300000000009
 30
0.0
 70
    32
  0
VERTEX
  5
343B
  8
241
 10
254.921999999999997
 20
8.6754499999999997
 30
0.0
 70
    32
  0
VERTEX
  5
343C
  8
241
 10
254.9209999999999923
 20
8.6855700000000002
 30
0.0
 70
    32
  0
VERTEX
  5
343D
  8
241
 10
254.9190000000000111
 20
8.6957000000000004
 30
0.0
 70
    32
  0
VERTEX
  5
343E
  8
241
 10
254.9180000000000064
 20
8.7058400000000002
 30
0.0
 70
    32
  0
VERTEX
  5
343F
  8
241
 10
254.9159999999999968
 20
8.7159700000000004
 30
0.0
 70
    32
  0
VERTEX
  5
3440
  8
241
 10
254.914999999999992
 20
8.7261199999999999
 30
0.0
 70
    32
  0
VERTEX
  5
3441
  8
241
 10
254.9139999999999873
 20
8.7362699999999993
 30
0.0
 70
    32
  0
VERTEX
  5
3442
  8
241
 10
254.9120000000000061
 20
8.7464200000000005
 30
0.0
 70
    32
  0
VERTEX
  5
3443
  8
241
 10
254.9110000000000014
 20
8.7565699999999982
 30
0.0
 70
    32
  0
VERTEX
  5
3444
  8
241
 10
254.9089999999999918
 20
8.7667300000000008
 30
0.0
 70
    32
  0
VERTEX
  5
3445
  8
241
 10
254.907999999999987
 20
8.7768800000000002
 30
0.0
 70
    32
  0
VERTEX
  5
3446
  8
241
 10
254.9070000000000107
 20
8.7870399999999993
 30
0.0
 70
    32
  0
VERTEX
  5
3447
  8
241
 10
254.9050000000000011
 20
8.7972099999999998
 30
0.0
 70
    32
  0
VERTEX
  5
3448
  8
241
 10
254.9039999999999964
 20
8.8073700000000006
 30
0.0
 70
    32
  0
VERTEX
  5
3449
  8
241
 10
254.9029999999999916
 20
8.8175299999999996
 30
0.0
 70
    32
  0
VERTEX
  5
344A
  8
241
 10
254.9019999999999868
 20
8.8276899999999987
 30
0.0
 70
    32
  0
VERTEX
  5
344B
  8
241
 10
254.9000000000000057
 20
8.8378499999999995
 30
0.0
 70
    32
  0
VERTEX
  5
344C
  8
241
 10
254.8990000000000009
 20
8.8480100000000004
 30
0.0
 70
    32
  0
VERTEX
  5
344D
  8
241
 10
254.8979999999999961
 20
8.8581699999999994
 30
0.0
 70
    32
  0
VERTEX
  5
344E
  8
241
 10
254.8969999999999914
 20
8.8683199999999989
 30
0.0
 70
    32
  0
VERTEX
  5
344F
  8
241
 10
254.8959999999999866
 20
8.8784799999999997
 30
0.0
 70
    32
  0
VERTEX
  5
3450
  8
241
 10
254.8940000000000055
 20
8.8886299999999991
 30
0.0
 70
    32
  0
VERTEX
  5
3451
  8
241
 10
254.8930000000000007
 20
8.8987800000000004
 30
0.0
 70
    32
  0
VERTEX
  5
3452
  8
241
 10
254.8919999999999959
 20
8.9089200000000002
 30
0.0
 70
    32
  0
VERTEX
  5
3453
  8
241
 10
254.8909999999999911
 20
8.9190599999999982
 30
0.0
 70
    32
  0
VERTEX
  5
3454
  8
241
 10
254.8899999999999864
 20
8.9291900000000002
 30
0.0
 70
    32
  0
VERTEX
  5
3455
  8
241
 10
254.88900000000001
 20
8.9393200000000004
 30
0.0
 70
    32
  0
VERTEX
  5
3456
  8
241
 10
254.8880000000000052
 20
8.9494399999999992
 30
0.0
 70
    32
  0
VERTEX
  5
3457
  8
241
 10
254.8859999999999957
 20
8.9595599999999997
 30
0.0
 70
    32
  0
VERTEX
  5
3458
  8
241
 10
254.8849999999999909
 20
8.9696699999999971
 30
0.0
 70
    32
  0
VERTEX
  5
3459
  8
241
 10
254.8839999999999861
 20
8.9797700000000003
 30
0.0
 70
    32
  0
VERTEX
  5
345A
  8
241
 10
254.8830000000000098
 20
8.9898600000000002
 30
0.0
 70
    32
  0
VERTEX
  5
345B
  8
241
 10
254.882000000000005
 20
8.9999500000000001
 30
0.0
 70
    32
  0
VERTEX
  5
345C
  8
241
 10
254.8810000000000002
 20
9.0100300000000004
 30
0.0
 70
    32
  0
VERTEX
  5
345D
  8
241
 10
254.8799999999999955
 20
9.0200999999999993
 30
0.0
 70
    32
  0
VERTEX
  5
345E
  8
241
 10
254.8789999999999907
 20
9.0301600000000004
 30
0.0
 70
    32
  0
VERTEX
  5
345F
  8
241
 10
254.8779999999999859
 20
9.0402100000000001
 30
0.0
 70
    32
  0
VERTEX
  5
3460
  8
241
 10
254.8770000000000095
 20
9.0502399999999987
 30
0.0
 70
    32
  0
VERTEX
  5
3461
  8
241
 10
254.8760000000000048
 20
9.0602699999999992
 30
0.0
 70
    32
  0
VERTEX
  5
3462
  8
241
 10
254.875
 20
9.0702899999999982
 30
0.0
 70
    32
  0
VERTEX
  5
3463
  8
241
 10
254.8739999999999952
 20
9.0802899999999998
 30
0.0
 70
    32
  0
VERTEX
  5
3464
  8
241
 10
254.8739999999999952
 20
9.0902899999999995
 30
0.0
 70
    32
  0
VERTEX
  5
3465
  8
241
 10
254.8729999999999905
 20
9.1002700000000001
 30
0.0
 70
    32
  0
VERTEX
  5
3466
  8
241
 10
254.8720000000000141
 20
9.1102299999999996
 30
0.0
 70
    32
  0
VERTEX
  5
3467
  8
241
 10
254.8710000000000093
 20
9.1201899999999991
 30
0.0
 70
    32
  0
VERTEX
  5
3468
  8
241
 10
254.8700000000000045
 20
9.1301199999999998
 30
0.0
 70
    32
  0
VERTEX
  5
3469
  8
241
 10
254.8689999999999998
 20
9.1400500000000005
 30
0.0
 70
    32
  0
VERTEX
  5
346A
  8
241
 10
254.867999999999995
 20
9.1499600000000001
 30
0.0
 70
    32
  0
VERTEX
  5
346B
  8
241
 10
254.867999999999995
 20
9.1598500000000005
 30
0.0
 70
    32
  0
VERTEX
  5
346C
  8
241
 10
254.8669999999999902
 20
9.1697299999999995
 30
0.0
 70
    32
  0
VERTEX
  5
346D
  8
241
 10
254.8660000000000139
 20
9.1795899999999993
 30
0.0
 70
    32
  0
VERTEX
  5
346E
  8
241
 10
254.8650000000000091
 20
9.1894299999999998
 30
0.0
 70
    32
  0
VERTEX
  5
346F
  8
241
 10
254.8640000000000043
 20
9.1992600000000007
 30
0.0
 70
    32
  0
VERTEX
  5
3470
  8
241
 10
254.8640000000000043
 20
9.2090700000000005
 30
0.0
 70
    32
  0
VERTEX
  5
3471
  8
241
 10
254.8629999999999995
 20
9.2188600000000012
 30
0.0
 70
    32
  0
VERTEX
  5
3472
  8
241
 10
254.8619999999999948
 20
9.2286300000000008
 30
0.0
 70
    32
  0
VERTEX
  5
3473
  8
241
 10
254.8619999999999948
 20
9.2383899999999972
 30
0.0
 70
    32
  0
VERTEX
  5
3474
  8
241
 10
254.86099999999999
 20
9.2481200000000001
 30
0.0
 70
    32
  0
VERTEX
  5
3475
  8
241
 10
254.8600000000000136
 20
9.2578300000000002
 30
0.0
 70
    32
  0
VERTEX
  5
3476
  8
241
 10
254.8600000000000136
 20
9.2675199999999993
 30
0.0
 70
    32
  0
VERTEX
  5
3477
  8
241
 10
254.8590000000000089
 20
9.2771899999999992
 30
0.0
 70
    32
  0
VERTEX
  5
3478
  8
241
 10
254.8580000000000041
 20
9.2868399999999998
 30
0.0
 70
    32
  0
VERTEX
  5
3479
  8
241
 10
254.8580000000000041
 20
9.2964699999999993
 30
0.0
 70
    32
  0
VERTEX
  5
347A
  8
241
 10
254.8569999999999993
 20
9.3060799999999997
 30
0.0
 70
    32
  0
VERTEX
  5
347B
  8
241
 10
254.8559999999999945
 20
9.3156600000000012
 30
0.0
 70
    32
  0
VERTEX
  5
347C
  8
241
 10
254.8559999999999945
 20
9.3252199999999998
 30
0.0
 70
    32
  0
VERTEX
  5
347D
  8
241
 10
254.8549999999999898
 20
9.3347499999999997
 30
0.0
 70
    32
  0
VERTEX
  5
347E
  8
241
 10
254.8549999999999898
 20
9.3442600000000002
 30
0.0
 70
    32
  0
VERTEX
  5
347F
  8
241
 10
254.8540000000000134
 20
9.3537499999999998
 30
0.0
 70
    32
  0
VERTEX
  5
3480
  8
241
 10
254.8540000000000134
 20
9.3632100000000005
 30
0.0
 70
    32
  0
VERTEX
  5
3481
  8
241
 10
254.8530000000000086
 20
9.3726399999999988
 30
0.0
 70
    32
  0
VERTEX
  5
3482
  8
241
 10
254.8530000000000086
 20
9.3820499999999996
 30
0.0
 70
    32
  0
VERTEX
  5
3483
  8
241
 10
254.8520000000000039
 20
9.3914399999999993
 30
0.0
 70
    32
  0
VERTEX
  5
3484
  8
241
 10
254.8520000000000039
 20
9.4007899999999989
 30
0.0
 70
    32
  0
VERTEX
  5
3485
  8
241
 10
254.8509999999999991
 20
9.4101199999999992
 30
0.0
 70
    32
  0
VERTEX
  5
3486
  8
241
 10
254.8509999999999991
 20
9.4194499999999994
 30
0.0
 70
    32
  0
VERTEX
  5
3487
  8
241
 10
254.8499999999999943
 20
9.4287899999999993
 30
0.0
 70
    32
  0
VERTEX
  5
3488
  8
241
 10
254.8499999999999943
 20
9.4381500000000003
 30
0.0
 70
    32
  0
VERTEX
  5
3489
  8
241
 10
254.8489999999999895
 20
9.4475100000000012
 30
0.0
 70
    32
  0
VERTEX
  5
348A
  8
241
 10
254.8489999999999895
 20
9.4568899999999996
 30
0.0
 70
    32
  0
VERTEX
  5
348B
  8
241
 10
254.8480000000000132
 20
9.4662800000000011
 30
0.0
 70
    32
  0
VERTEX
  5
348C
  8
241
 10
254.8480000000000132
 20
9.4756800000000005
 30
0.0
 70
    32
  0
VERTEX
  5
348D
  8
241
 10
254.8480000000000132
 20
9.4850899999999996
 30
0.0
 70
    32
  0
VERTEX
  5
348E
  8
241
 10
254.8470000000000084
 20
9.4945199999999996
 30
0.0
 70
    32
  0
VERTEX
  5
348F
  8
241
 10
254.8470000000000084
 20
9.5039499999999997
 30
0.0
 70
    32
  0
VERTEX
  5
3490
  8
241
 10
254.8470000000000084
 20
9.5134000000000007
 30
0.0
 70
    32
  0
VERTEX
  5
3491
  8
241
 10
254.8460000000000036
 20
9.52285
 30
0.0
 70
    32
  0
VERTEX
  5
3492
  8
241
 10
254.8460000000000036
 20
9.5323200000000003
 30
0.0
 70
    32
  0
VERTEX
  5
3493
  8
241
 10
254.8460000000000036
 20
9.5418000000000003
 30
0.0
 70
    32
  0
VERTEX
  5
3494
  8
241
 10
254.8449999999999989
 20
9.5512899999999998
 30
0.0
 70
    32
  0
VERTEX
  5
3495
  8
241
 10
254.8449999999999989
 20
9.5607800000000012
 30
0.0
 70
    32
  0
VERTEX
  5
3496
  8
241
 10
254.8449999999999989
 20
9.5702899999999982
 30
0.0
 70
    32
  0
VERTEX
  5
3497
  8
241
 10
254.8439999999999941
 20
9.5798100000000002
 30
0.0
 70
    32
  0
VERTEX
  5
3498
  8
241
 10
254.8439999999999941
 20
9.5893399999999982
 30
0.0
 70
    32
  0
VERTEX
  5
3499
  8
241
 10
254.8439999999999941
 20
9.5988799999999994
 30
0.0
 70
    32
  0
VERTEX
  5
349A
  8
241
 10
254.8439999999999941
 20
9.6084399999999999
 30
0.0
 70
    32
  0
VERTEX
  5
349B
  8
241
 10
254.8429999999999893
 20
9.6180000000000003
 30
0.0
 70
    32
  0
VERTEX
  5
349C
  8
241
 10
254.8429999999999893
 20
9.6275700000000004
 30
0.0
 70
    32
  0
VERTEX
  5
349D
  8
241
 10
254.8429999999999893
 20
9.6371500000000001
 30
0.0
 70
    32
  0
VERTEX
  5
349E
  8
241
 10
254.8429999999999893
 20
9.6467399999999994
 30
0.0
 70
    32
  0
VERTEX
  5
349F
  8
241
 10
254.8429999999999893
 20
9.6563400000000001
 30
0.0
 70
    32
  0
VERTEX
  5
34A0
  8
241
 10
254.842000000000013
 20
9.6659500000000005
 30
0.0
 70
    32
  0
VERTEX
  5
34A1
  8
241
 10
254.842000000000013
 20
9.6755700000000004
 30
0.0
 70
    32
  0
VERTEX
  5
34A2
  8
241
 10
254.842000000000013
 20
9.6851899999999986
 30
0.0
 70
    32
  0
VERTEX
  5
34A3
  8
241
 10
254.842000000000013
 20
9.6948299999999996
 30
0.0
 70
    32
  0
VERTEX
  5
34A4
  8
241
 10
254.842000000000013
 20
9.7044800000000002
 30
0.0
 70
    32
  0
VERTEX
  5
34A5
  8
241
 10
254.842000000000013
 20
9.7141399999999987
 30
0.0
 70
    32
  0
VERTEX
  5
34A6
  8
241
 10
254.842000000000013
 20
9.7238000000000007
 30
0.0
 70
    32
  0
VERTEX
  5
34A7
  8
241
 10
254.842000000000013
 20
9.7334800000000001
 30
0.0
 70
    32
  0
VERTEX
  5
34A8
  8
241
 10
254.8410000000000082
 20
9.7431600000000014
 30
0.0
 70
    32
  0
VERTEX
  5
34A9
  8
241
 10
254.8410000000000082
 20
9.7528500000000005
 30
0.0
 70
    32
  0
VERTEX
  5
34AA
  8
241
 10
254.8410000000000082
 20
9.7625499999999992
 30
0.0
 70
    32
  0
VERTEX
  5
34AB
  8
241
 10
254.8410000000000082
 20
9.7722600000000011
 30
0.0
 70
    32
  0
VERTEX
  5
34AC
  8
241
 10
254.8410000000000082
 20
9.7819800000000008
 30
0.0
 70
    32
  0
VERTEX
  5
34AD
  8
241
 10
254.8410000000000082
 20
9.7917100000000001
 30
0.0
 70
    32
  0
VERTEX
  5
34AE
  8
241
 10
254.8410000000000082
 20
9.8014399999999995
 30
0.0
 70
    32
  0
VERTEX
  5
34AF
  8
241
 10
254.8410000000000082
 20
9.8111800000000002
 30
0.0
 70
    32
  0
VERTEX
  5
34B0
  8
241
 10
254.8410000000000082
 20
9.8209300000000006
 30
0.0
 70
    32
  0
VERTEX
  5
34B1
  8
241
 10
254.8410000000000082
 20
9.8306899999999988
 30
0.0
 70
    32
  0
VERTEX
  5
34B2
  8
241
 10
254.8410000000000082
 20
9.8404600000000002
 30
0.0
 70
    32
  0
VERTEX
  5
34B3
  8
241
 10
254.8410000000000082
 20
9.8502399999999994
 30
0.0
 70
    32
  0
VERTEX
  5
34B4
  8
241
 10
254.8410000000000082
 20
9.8600200000000005
 30
0.0
 70
    32
  0
VERTEX
  5
34B5
  8
241
 10
254.8410000000000082
 20
9.8698100000000011
 30
0.0
 70
    32
  0
VERTEX
  5
34B6
  8
241
 10
254.842000000000013
 20
9.8796100000000013
 30
0.0
 70
    32
  0
VERTEX
  5
34B7
  8
241
 10
254.842000000000013
 20
9.8894099999999998
 30
0.0
 70
    32
  0
VERTEX
  5
34B8
  8
241
 10
254.842000000000013
 20
9.8992300000000011
 30
0.0
 70
    32
  0
VERTEX
  5
34B9
  8
241
 10
254.842000000000013
 20
9.9090500000000006
 30
0.0
 70
    32
  0
VERTEX
  5
34BA
  8
241
 10
254.842000000000013
 20
9.9188799999999997
 30
0.0
 70
    32
  0
VERTEX
  5
34BB
  8
241
 10
254.842000000000013
 20
9.9287100000000006
 30
0.0
 70
    32
  0
VERTEX
  5
34BC
  8
241
 10
254.842000000000013
 20
9.9385499999999993
 30
0.0
 70
    32
  0
VERTEX
  5
34BD
  8
241
 10
254.842000000000013
 20
9.9483999999999995
 30
0.0
 70
    32
  0
VERTEX
  5
34BE
  8
241
 10
254.8429999999999893
 20
9.9582599999999992
 30
0.0
 70
    32
  0
VERTEX
  5
34BF
  8
241
 10
254.8429999999999893
 20
9.9681199999999972
 30
0.0
 70
    32
  0
VERTEX
  5
34C0
  8
241
 10
254.8429999999999893
 20
9.9779900000000001
 30
0.0
 70
    32
  0
VERTEX
  5
34C1
  8
241
 10
254.8429999999999893
 20
9.9878699999999991
 30
0.0
 70
    32
  0
VERTEX
  5
34C2
  8
241
 10
254.8429999999999893
 20
9.9977499999999981
 30
0.0
 70
    32
  0
VERTEX
  5
34C3
  8
241
 10
254.8439999999999941
 20
10.0076000000000001
 30
0.0
 70
    32
  0
VERTEX
  5
34C4
  8
241
 10
254.8439999999999941
 20
10.0175000000000001
 30
0.0
 70
    32
  0
VERTEX
  5
34C5
  8
241
 10
254.8439999999999941
 20
10.0274000000000001
 30
0.0
 70
    32
  0
VERTEX
  5
34C6
  8
241
 10
254.8439999999999941
 20
10.0373999999999999
 30
0.0
 70
    32
  0
VERTEX
  5
34C7
  8
241
 10
254.8449999999999989
 20
10.0472999999999999
 30
0.0
 70
    32
  0
VERTEX
  5
34C8
  8
241
 10
254.8449999999999989
 20
10.0571999999999999
 30
0.0
 70
    32
  0
VERTEX
  5
34C9
  8
241
 10
254.8449999999999989
 20
10.0670999999999999
 30
0.0
 70
    32
  0
VERTEX
  5
34CA
  8
241
 10
254.8460000000000036
 20
10.077
 30
0.0
 70
    32
  0
VERTEX
  5
34CB
  8
241
 10
254.8460000000000036
 20
10.0869999999999997
 30
0.0
 70
    32
  0
VERTEX
  5
34CC
  8
241
 10
254.8460000000000036
 20
10.0968999999999998
 30
0.0
 70
    32
  0
VERTEX
  5
34CD
  8
241
 10
254.8470000000000084
 20
10.1068999999999996
 30
0.0
 70
    32
  0
VERTEX
  5
34CE
  8
241
 10
254.8470000000000084
 20
10.1167999999999996
 30
0.0
 70
    32
  0
VERTEX
  5
34CF
  8
241
 10
254.8470000000000084
 20
10.1267999999999994
 30
0.0
 70
    32
  0
VERTEX
  5
34D0
  8
241
 10
254.8480000000000132
 20
10.1367999999999991
 30
0.0
 70
    32
  0
VERTEX
  5
34D1
  8
241
 10
254.8480000000000132
 20
10.1466999999999992
 30
0.0
 70
    32
  0
VERTEX
  5
34D2
  8
241
 10
254.8489999999999895
 20
10.1567000000000007
 30
0.0
 70
    32
  0
VERTEX
  5
34D3
  8
241
 10
254.8489999999999895
 20
10.1667000000000005
 30
0.0
 70
    32
  0
VERTEX
  5
34D4
  8
241
 10
254.8499999999999943
 20
10.1767000000000003
 30
0.0
 70
    32
  0
VERTEX
  5
34D5
  8
241
 10
254.8499999999999943
 20
10.1867000000000001
 30
0.0
 70
    32
  0
VERTEX
  5
34D6
  8
241
 10
254.8509999999999991
 20
10.1966999999999999
 30
0.0
 70
    32
  0
VERTEX
  5
34D7
  8
241
 10
254.8509999999999991
 20
10.2066999999999997
 30
0.0
 70
    32
  0
VERTEX
  5
34D8
  8
241
 10
254.8520000000000039
 20
10.2166999999999994
 30
0.0
 70
    32
  0
VERTEX
  5
34D9
  8
241
 10
254.8520000000000039
 20
10.2266999999999992
 30
0.0
 70
    32
  0
VERTEX
  5
34DA
  8
241
 10
254.8530000000000086
 20
10.2367000000000008
 30
0.0
 70
    32
  0
VERTEX
  5
34DB
  8
241
 10
254.8530000000000086
 20
10.2467000000000006
 30
0.0
 70
    32
  0
VERTEX
  5
34DC
  8
241
 10
254.8540000000000134
 20
10.2567000000000004
 30
0.0
 70
    32
  0
VERTEX
  5
34DD
  8
241
 10
254.8540000000000134
 20
10.2667999999999999
 30
0.0
 70
    32
  0
VERTEX
  5
34DE
  8
241
 10
254.8549999999999898
 20
10.2767999999999997
 30
0.0
 70
    32
  0
VERTEX
  5
34DF
  8
241
 10
254.8549999999999898
 20
10.2867999999999995
 30
0.0
 70
    32
  0
VERTEX
  5
34E0
  8
241
 10
254.8559999999999945
 20
10.2969000000000008
 30
0.0
 70
    32
  0
VERTEX
  5
34E1
  8
241
 10
254.8569999999999993
 20
10.3069000000000006
 30
0.0
 70
    32
  0
VERTEX
  5
34E2
  8
241
 10
254.8569999999999993
 20
10.3170000000000002
 30
0.0
 70
    32
  0
VERTEX
  5
34E3
  8
241
 10
254.8580000000000041
 20
10.327
 30
0.0
 70
    32
  0
VERTEX
  5
34E4
  8
241
 10
254.8590000000000089
 20
10.3370999999999995
 30
0.0
 70
    32
  0
VERTEX
  5
34E5
  8
241
 10
254.8590000000000089
 20
10.3470999999999993
 30
0.0
 70
    32
  0
VERTEX
  5
34E6
  8
241
 10
254.8600000000000136
 20
10.3572000000000006
 30
0.0
 70
    32
  0
VERTEX
  5
34E7
  8
241
 10
254.86099999999999
 20
10.3672000000000004
 30
0.0
 70
    32
  0
VERTEX
  5
34E8
  8
241
 10
254.86099999999999
 20
10.3773
 30
0.0
 70
    32
  0
VERTEX
  5
34E9
  8
241
 10
254.8619999999999948
 20
10.3873999999999995
 30
0.0
 70
    32
  0
VERTEX
  5
34EA
  8
241
 10
254.8629999999999995
 20
10.3975000000000009
 30
0.0
 70
    32
  0
VERTEX
  5
34EB
  8
241
 10
254.8629999999999995
 20
10.4075000000000006
 30
0.0
 70
    32
  0
VERTEX
  5
34EC
  8
241
 10
254.8640000000000043
 20
10.4176000000000002
 30
0.0
 70
    32
  0
VERTEX
  5
34ED
  8
241
 10
254.8650000000000091
 20
10.4276999999999997
 30
0.0
 70
    32
  0
VERTEX
  5
34EE
  8
241
 10
254.8660000000000139
 20
10.4377999999999993
 30
0.0
 70
    32
  0
VERTEX
  5
34EF
  8
241
 10
254.8669999999999902
 20
10.4479000000000006
 30
0.0
 70
    32
  0
VERTEX
  5
34F0
  8
241
 10
254.8669999999999902
 20
10.4580000000000002
 30
0.0
 70
    32
  0
VERTEX
  5
34F1
  8
241
 10
254.867999999999995
 20
10.4680999999999997
 30
0.0
 70
    32
  0
VERTEX
  5
34F2
  8
241
 10
254.8689999999999998
 20
10.4780999999999995
 30
0.0
 70
    32
  0
VERTEX
  5
34F3
  8
241
 10
254.8700000000000045
 20
10.4882000000000009
 30
0.0
 70
    32
  0
VERTEX
  5
34F4
  8
241
 10
254.8710000000000093
 20
10.4983000000000004
 30
0.0
 70
    32
  0
VERTEX
  5
34F5
  8
241
 10
254.8720000000000141
 20
10.5084
 30
0.0
 70
    32
  0
VERTEX
  5
34F6
  8
241
 10
254.8729999999999905
 20
10.5185999999999993
 30
0.0
 70
    32
  0
VERTEX
  5
34F7
  8
241
 10
254.8729999999999905
 20
10.5287000000000006
 30
0.0
 70
    32
  0
VERTEX
  5
34F8
  8
241
 10
254.8739999999999952
 20
10.5388000000000002
 30
0.0
 70
    32
  0
VERTEX
  5
34F9
  8
241
 10
254.875
 20
10.5488999999999997
 30
0.0
 70
    32
  0
VERTEX
  5
34FA
  8
241
 10
254.8760000000000048
 20
10.5589999999999993
 30
0.0
 70
    32
  0
VERTEX
  5
34FB
  8
241
 10
254.8770000000000095
 20
10.5691000000000006
 30
0.0
 70
    32
  0
VERTEX
  5
34FC
  8
241
 10
254.8779999999999859
 20
10.5792000000000002
 30
0.0
 70
    32
  0
VERTEX
  5
34FD
  8
241
 10
254.8789999999999907
 20
10.5892999999999997
 30
0.0
 70
    32
  0
VERTEX
  5
34FE
  8
241
 10
254.8799999999999955
 20
10.5993999999999993
 30
0.0
 70
    32
  0
VERTEX
  5
34FF
  8
241
 10
254.8810000000000002
 20
10.6096000000000004
 30
0.0
 70
    32
  0
VERTEX
  5
3500
  8
241
 10
254.882000000000005
 20
10.6196999999999999
 30
0.0
 70
    32
  0
VERTEX
  5
3501
  8
241
 10
254.8830000000000098
 20
10.6297999999999995
 30
0.0
 70
    32
  0
VERTEX
  5
3502
  8
241
 10
254.8839999999999861
 20
10.6399000000000008
 30
0.0
 70
    32
  0
VERTEX
  5
3503
  8
241
 10
254.8849999999999909
 20
10.6500000000000004
 30
0.0
 70
    32
  0
VERTEX
  5
3504
  8
241
 10
254.8859999999999957
 20
10.6601999999999997
 30
0.0
 70
    32
  0
VERTEX
  5
3505
  8
241
 10
254.8870000000000005
 20
10.6702999999999992
 30
0.0
 70
    32
  0
VERTEX
  5
3506
  8
241
 10
254.8880000000000052
 20
10.6804000000000006
 30
0.0
 70
    32
  0
VERTEX
  5
3507
  8
241
 10
254.88900000000001
 20
10.6905000000000001
 30
0.0
 70
    32
  0
VERTEX
  5
3508
  8
241
 10
254.8909999999999911
 20
10.7005999999999997
 30
0.0
 70
    32
  0
VERTEX
  5
3509
  8
241
 10
254.8919999999999959
 20
10.7108000000000008
 30
0.0
 70
    32
  0
VERTEX
  5
350A
  8
241
 10
254.8930000000000007
 20
10.7209000000000003
 30
0.0
 70
    32
  0
VERTEX
  5
350B
  8
241
 10
254.8940000000000055
 20
10.7309999999999999
 30
0.0
 70
    32
  0
VERTEX
  5
350C
  8
241
 10
254.8950000000000102
 20
10.7410999999999994
 30
0.0
 70
    32
  0
VERTEX
  5
350D
  8
241
 10
254.8959999999999866
 20
10.7513000000000005
 30
0.0
 70
    32
  0
VERTEX
  5
350E
  8
241
 10
254.8979999999999961
 20
10.7614000000000001
 30
0.0
 70
    32
  0
VERTEX
  5
350F
  8
241
 10
254.8990000000000009
 20
10.7714999999999996
 30
0.0
 70
    32
  0
VERTEX
  5
3510
  8
241
 10
254.9000000000000057
 20
10.7815999999999992
 30
0.0
 70
    32
  0
VERTEX
  5
3511
  8
241
 10
254.9010000000000105
 20
10.7918000000000003
 30
0.0
 70
    32
  0
VERTEX
  5
3512
  8
241
 10
254.9019999999999868
 20
10.8018999999999998
 30
0.0
 70
    32
  0
VERTEX
  5
3513
  8
241
 10
254.9039999999999964
 20
10.8119999999999994
 30
0.0
 70
    32
  0
VERTEX
  5
3514
  8
241
 10
254.9050000000000011
 20
10.8221000000000007
 30
0.0
 70
    32
  0
VERTEX
  5
3515
  8
241
 10
254.9060000000000059
 20
10.8323
 30
0.0
 70
    32
  0
VERTEX
  5
3516
  8
241
 10
254.907999999999987
 20
10.8423999999999996
 30
0.0
 70
    32
  0
VERTEX
  5
3517
  8
241
 10
254.9089999999999918
 20
10.8524999999999991
 30
0.0
 70
    32
  0
VERTEX
  5
3518
  8
241
 10
254.9099999999999966
 20
10.8626000000000005
 30
0.0
 70
    32
  0
VERTEX
  5
3519
  8
241
 10
254.9110000000000014
 20
10.8727
 30
0.0
 70
    32
  0
VERTEX
  5
351A
  8
241
 10
254.9130000000000109
 20
10.8827999999999996
 30
0.0
 70
    32
  0
VERTEX
  5
351B
  8
241
 10
254.9139999999999873
 20
10.8930000000000007
 30
0.0
 70
    32
  0
VERTEX
  5
351C
  8
241
 10
254.9159999999999968
 20
10.9031000000000002
 30
0.0
 70
    32
  0
VERTEX
  5
351D
  8
241
 10
254.9170000000000016
 20
10.9131999999999998
 30
0.0
 70
    32
  0
VERTEX
  5
351E
  8
241
 10
254.9180000000000064
 20
10.9232999999999993
 30
0.0
 70
    32
  0
VERTEX
  5
351F
  8
241
 10
254.9199999999999875
 20
10.9334000000000007
 30
0.0
 70
    32
  0
VERTEX
  5
3520
  8
241
 10
254.9209999999999923
 20
10.9435000000000002
 30
0.0
 70
    32
  0
VERTEX
  5
3521
  8
241
 10
254.9230000000000018
 20
10.9535999999999998
 30
0.0
 70
    32
  0
VERTEX
  5
3522
  8
241
 10
254.9240000000000066
 20
10.9636999999999993
 30
0.0
 70
    32
  0
VERTEX
  5
3523
  8
241
 10
254.9250000000000114
 20
10.9738000000000007
 30
0.0
 70
    32
  0
VERTEX
  5
3524
  8
241
 10
254.9269999999999925
 20
10.9839000000000002
 30
0.0
 70
    32
  0
VERTEX
  5
3525
  8
241
 10
254.9279999999999973
 20
10.9939999999999998
 30
0.0
 70
    32
  0
VERTEX
  5
3526
  8
241
 10
254.9300000000000068
 20
11.0040999999999993
 30
0.0
 70
    32
  0
VERTEX
  5
3527
  8
241
 10
254.9310000000000116
 20
11.0142000000000007
 30
0.0
 70
    32
  0
VERTEX
  5
3528
  8
241
 10
254.9329999999999927
 20
11.0243000000000002
 30
0.0
 70
    32
  0
VERTEX
  5
3529
  8
241
 10
254.9339999999999975
 20
11.0343999999999998
 30
0.0
 70
    32
  0
VERTEX
  5
352A
  8
241
 10
254.936000000000007
 20
11.0444999999999993
 30
0.0
 70
    32
  0
VERTEX
  5
352B
  8
241
 10
254.9379999999999882
 20
11.0546000000000006
 30
0.0
 70
    32
  0
VERTEX
  5
352C
  8
241
 10
254.938999999999993
 20
11.0646000000000004
 30
0.0
 70
    32
  0
VERTEX
  5
352D
  8
241
 10
254.9410000000000025
 20
11.0747
 30
0.0
 70
    32
  0
VERTEX
  5
352E
  8
241
 10
254.9420000000000073
 20
11.0847999999999995
 30
0.0
 70
    32
  0
VERTEX
  5
352F
  8
241
 10
254.9439999999999884
 20
11.0949000000000009
 30
0.0
 70
    32
  0
VERTEX
  5
3530
  8
241
 10
254.945999999999998
 20
11.1049000000000007
 30
0.0
 70
    32
  0
VERTEX
  5
3531
  8
241
 10
254.9470000000000027
 20
11.1150000000000002
 30
0.0
 70
    32
  0
VERTEX
  5
3532
  8
241
 10
254.9490000000000123
 20
11.1250999999999998
 30
0.0
 70
    32
  0
VERTEX
  5
3533
  8
241
 10
254.9509999999999934
 20
11.1350999999999996
 30
0.0
 70
    32
  0
VERTEX
  5
3534
  8
241
 10
254.9519999999999982
 20
11.1452000000000009
 30
0.0
 70
    32
  0
VERTEX
  5
3535
  8
241
 10
254.9540000000000077
 20
11.1552000000000007
 30
0.0
 70
    32
  0
VERTEX
  5
3536
  8
241
 10
254.9559999999999889
 20
11.1653000000000002
 30
0.0
 70
    32
  0
VERTEX
  5
3537
  8
241
 10
254.9569999999999936
 20
11.1753
 30
0.0
 70
    32
  0
VERTEX
  5
3538
  8
241
 10
254.9590000000000032
 20
11.1853999999999996
 30
0.0
 70
    32
  0
VERTEX
  5
3539
  8
241
 10
254.9610000000000127
 20
11.1953999999999994
 30
0.0
 70
    32
  0
VERTEX
  5
353A
  8
241
 10
254.9619999999999891
 20
11.2055000000000007
 30
0.0
 70
    32
  0
VERTEX
  5
353B
  8
241
 10
254.9639999999999986
 20
11.2155000000000005
 30
0.0
 70
    32
  0
VERTEX
  5
353C
  8
241
 10
254.9660000000000082
 20
11.2255000000000003
 30
0.0
 70
    32
  0
VERTEX
  5
353D
  8
241
 10
254.9679999999999893
 20
11.2355
 30
0.0
 70
    32
  0
VERTEX
  5
353E
  8
241
 10
254.9699999999999989
 20
11.2455999999999996
 30
0.0
 70
    32
  0
VERTEX
  5
353F
  8
241
 10
254.9710000000000036
 20
11.2555999999999994
 30
0.0
 70
    32
  0
VERTEX
  5
3540
  8
241
 10
254.9730000000000132
 20
11.2655999999999992
 30
0.0
 70
    32
  0
VERTEX
  5
3541
  8
241
 10
254.9749999999999943
 20
11.2756000000000007
 30
0.0
 70
    32
  0
VERTEX
  5
3542
  8
241
 10
254.9770000000000039
 20
11.2856000000000005
 30
0.0
 70
    32
  0
VERTEX
  5
3543
  8
241
 10
254.9790000000000134
 20
11.2956000000000003
 30
0.0
 70
    32
  0
VERTEX
  5
3544
  8
241
 10
254.9809999999999945
 20
11.3056000000000001
 30
0.0
 70
    32
  0
VERTEX
  5
3545
  8
241
 10
254.9819999999999993
 20
11.3155999999999999
 30
0.0
 70
    32
  0
VERTEX
  5
3546
  8
241
 10
254.9840000000000089
 20
11.3255999999999997
 30
0.0
 70
    32
  0
VERTEX
  5
3547
  8
241
 10
254.98599999999999
 20
11.3354999999999997
 30
0.0
 70
    32
  0
VERTEX
  5
3548
  8
241
 10
254.9879999999999995
 20
11.3454999999999995
 30
0.0
 70
    32
  0
VERTEX
  5
3549
  8
241
 10
254.9900000000000091
 20
11.3554999999999993
 30
0.0
 70
    32
  0
VERTEX
  5
354A
  8
241
 10
254.9919999999999902
 20
11.3653999999999993
 30
0.0
 70
    32
  0
VERTEX
  5
354B
  8
241
 10
254.9939999999999998
 20
11.3754000000000008
 30
0.0
 70
    32
  0
VERTEX
  5
354C
  8
241
 10
254.9960000000000093
 20
11.3853000000000009
 30
0.0
 70
    32
  0
VERTEX
  5
354D
  8
241
 10
254.9979999999999905
 20
11.3953000000000007
 30
0.0
 70
    32
  0
VERTEX
  5
354E
  8
241
 10
255.0
 20
11.4052000000000007
 30
0.0
 70
    32
  0
VERTEX
  5
354F
  8
241
 10
255.0020000000000095
 20
11.4152000000000005
 30
0.0
 70
    32
  0
VERTEX
  5
3550
  8
241
 10
255.0039999999999907
 20
11.4251000000000005
 30
0.0
 70
    32
  0
VERTEX
  5
3551
  8
241
 10
255.0060000000000002
 20
11.4350000000000005
 30
0.0
 70
    32
  0
VERTEX
  5
3552
  8
241
 10
255.0080000000000098
 20
11.4449000000000005
 30
0.0
 70
    32
  0
VERTEX
  5
3553
  8
241
 10
255.0099999999999909
 20
11.4549000000000003
 30
0.0
 70
    32
  0
VERTEX
  5
3554
  8
241
 10
255.0120000000000005
 20
11.4648000000000003
 30
0.0
 70
    32
  0
VERTEX
  5
3555
  8
241
 10
255.01400000000001
 20
11.4747000000000003
 30
0.0
 70
    32
  0
VERTEX
  5
3556
  8
241
 10
255.0159999999999911
 20
11.4846000000000004
 30
0.0
 70
    32
  0
VERTEX
  5
3557
  8
241
 10
255.0180000000000007
 20
11.4944000000000006
 30
0.0
 70
    32
  0
VERTEX
  5
3558
  8
241
 10
255.0200000000000102
 20
11.5043000000000006
 30
0.0
 70
    32
  0
VERTEX
  5
3559
  8
241
 10
255.0219999999999914
 20
11.5142000000000007
 30
0.0
 70
    32
  0
VERTEX
  5
355A
  8
241
 10
255.0240000000000009
 20
11.5241000000000007
 30
0.0
 70
    32
  0
VERTEX
  5
355B
  8
241
 10
255.0260000000000105
 20
11.5338999999999992
 30
0.0
 70
    32
  0
VERTEX
  5
355C
  8
241
 10
255.0289999999999964
 20
11.5437999999999992
 30
0.0
 70
    32
  0
VERTEX
  5
355D
  8
241
 10
255.0310000000000059
 20
11.5535999999999994
 30
0.0
 70
    32
  0
VERTEX
  5
355E
  8
241
 10
255.032999999999987
 20
11.5634999999999994
 30
0.0
 70
    32
  0
VERTEX
  5
355F
  8
241
 10
255.0349999999999966
 20
11.5732999999999997
 30
0.0
 70
    32
  0
VERTEX
  5
3560
  8
241
 10
255.0370000000000061
 20
11.5831
 30
0.0
 70
    32
  0
VERTEX
  5
3561
  8
241
 10
255.0389999999999873
 20
11.593
 30
0.0
 70
    32
  0
VERTEX
  5
3562
  8
241
 10
255.0420000000000016
 20
11.6028000000000002
 30
0.0
 70
    32
  0
VERTEX
  5
3563
  8
241
 10
255.0440000000000111
 20
11.6126000000000005
 30
0.0
 70
    32
  0
VERTEX
  5
3564
  8
241
 10
255.0459999999999923
 20
11.6224000000000007
 30
0.0
 70
    32
  0
VERTEX
  5
3565
  8
241
 10
255.0480000000000018
 20
11.6321999999999992
 30
0.0
 70
    32
  0
VERTEX
  5
3566
  8
241
 10
255.0509999999999877
 20
11.6418999999999997
 30
0.0
 70
    32
  0
VERTEX
  5
3567
  8
241
 10
255.0529999999999973
 20
11.6516999999999999
 30
0.0
 70
    32
  0
VERTEX
  5
3568
  8
241
 10
255.0550000000000068
 20
11.6615000000000002
 30
0.0
 70
    32
  0
VERTEX
  5
3569
  8
241
 10
255.0569999999999879
 20
11.6712000000000007
 30
0.0
 70
    32
  0
VERTEX
  5
356A
  8
241
 10
255.0600000000000023
 20
11.6809999999999992
 30
0.0
 70
    32
  0
VERTEX
  5
356B
  8
241
 10
255.0620000000000118
 20
11.6906999999999996
 30
0.0
 70
    32
  0
VERTEX
  5
356C
  8
241
 10
255.063999999999993
 20
11.7004999999999999
 30
0.0
 70
    32
  0
VERTEX
  5
356D
  8
241
 10
255.0670000000000073
 20
11.7102000000000004
 30
0.0
 70
    32
  0
VERTEX
  5
356E
  8
241
 10
255.0689999999999884
 20
11.7199000000000009
 30
0.0
 70
    32
  0
VERTEX
  5
356F
  8
241
 10
255.070999999999998
 20
11.7295999999999996
 30
0.0
 70
    32
  0
VERTEX
  5
3570
  8
241
 10
255.0740000000000123
 20
11.7393000000000001
 30
0.0
 70
    32
  0
VERTEX
  5
3571
  8
241
 10
255.0759999999999934
 20
11.7490000000000006
 30
0.0
 70
    32
  0
VERTEX
  5
3572
  8
241
 10
255.078000000000003
 20
11.7586999999999993
 30
0.0
 70
    32
  0
VERTEX
  5
3573
  8
241
 10
255.0809999999999889
 20
11.7683999999999997
 30
0.0
 70
    32
  0
VERTEX
  5
3574
  8
241
 10
255.0829999999999984
 20
11.7781000000000002
 30
0.0
 70
    32
  0
VERTEX
  5
3575
  8
241
 10
255.0860000000000127
 20
11.7876999999999992
 30
0.0
 70
    32
  0
VERTEX
  5
3576
  8
241
 10
255.0879999999999939
 20
11.7973999999999997
 30
0.0
 70
    32
  0
VERTEX
  5
3577
  8
241
 10
255.0900000000000034
 20
11.8070000000000004
 30
0.0
 70
    32
  0
VERTEX
  5
3578
  8
241
 10
255.0929999999999893
 20
11.8167000000000009
 30
0.0
 70
    32
  0
VERTEX
  5
3579
  8
241
 10
255.0949999999999989
 20
11.8262999999999998
 30
0.0
 70
    32
  0
VERTEX
  5
357A
  8
241
 10
255.0980000000000132
 20
11.8359000000000005
 30
0.0
 70
    32
  0
VERTEX
  5
357B
  8
241
 10
255.0999999999999943
 20
11.8454999999999995
 30
0.0
 70
    32
  0
VERTEX
  5
357C
  8
241
 10
255.1030000000000086
 20
11.8551000000000002
 30
0.0
 70
    32
  0
VERTEX
  5
357D
  8
241
 10
255.1049999999999898
 20
11.8646999999999991
 30
0.0
 70
    32
  0
VERTEX
  5
357E
  8
241
 10
255.1080000000000041
 20
11.8742999999999999
 30
0.0
 70
    32
  0
VERTEX
  5
357F
  8
241
 10
255.1100000000000136
 20
11.8838000000000008
 30
0.0
 70
    32
  0
VERTEX
  5
3580
  8
241
 10
255.1129999999999995
 20
11.8933999999999997
 30
0.0
 70
    32
  0
VERTEX
  5
3581
  8
241
 10
255.1150000000000091
 20
11.9029000000000007
 30
0.0
 70
    32
  0
VERTEX
  5
3582
  8
241
 10
255.117999999999995
 20
11.9124999999999996
 30
0.0
 70
    32
  0
VERTEX
  5
3583
  8
241
 10
255.1200000000000045
 20
11.9220000000000006
 30
0.0
 70
    32
  0
VERTEX
  5
3584
  8
241
 10
255.1229999999999905
 20
11.9314999999999998
 30
0.0
 70
    32
  0
VERTEX
  5
3585
  8
241
 10
255.125
 20
11.9410000000000007
 30
0.0
 70
    32
  0
VERTEX
  5
3586
  8
241
 10
255.1279999999999859
 20
11.9504999999999999
 30
0.0
 70
    32
  0
VERTEX
  5
3587
  8
241
 10
255.1299999999999955
 20
11.9600000000000009
 30
0.0
 70
    32
  0
VERTEX
  5
3588
  8
241
 10
255.1330000000000098
 20
11.9695
 30
0.0
 70
    32
  0
VERTEX
  5
3589
  8
241
 10
255.1359999999999957
 20
11.9789999999999992
 30
0.0
 70
    32
  0
VERTEX
  5
358A
  8
241
 10
255.1380000000000052
 20
11.9884000000000004
 30
0.0
 70
    32
  0
VERTEX
  5
358B
  8
241
 10
255.1409999999999911
 20
11.9978999999999996
 30
0.0
 70
    32
  0
VERTEX
  5
358C
  8
241
 10
255.1430000000000007
 20
12.0073000000000008
 30
0.0
 70
    32
  0
VERTEX
  5
358D
  8
241
 10
255.1459999999999866
 20
12.0167000000000002
 30
0.0
 70
    32
  0
VERTEX
  5
358E
  8
241
 10
255.1490000000000009
 20
12.0260999999999996
 30
0.0
 70
    32
  0
VERTEX
  5
358F
  8
241
 10
255.1510000000000105
 20
12.0355000000000008
 30
0.0
 70
    32
  0
VERTEX
  5
3590
  8
241
 10
255.1539999999999964
 20
12.0449000000000002
 30
0.0
 70
    32
  0
VERTEX
  5
3591
  8
241
 10
255.1570000000000107
 20
12.0542999999999996
 30
0.0
 70
    32
  0
VERTEX
  5
3592
  8
241
 10
255.1589999999999918
 20
12.0637000000000008
 30
0.0
 70
    32
  0
VERTEX
  5
3593
  8
241
 10
255.1620000000000061
 20
12.0731000000000002
 30
0.0
 70
    32
  0
VERTEX
  5
3594
  8
241
 10
255.164999999999992
 20
12.0823999999999998
 30
0.0
 70
    32
  0
VERTEX
  5
3595
  8
241
 10
255.1670000000000016
 20
12.0916999999999994
 30
0.0
 70
    32
  0
VERTEX
  5
3596
  8
241
 10
255.1699999999999875
 20
12.1011000000000006
 30
0.0
 70
    32
  0
VERTEX
  5
3597
  8
241
 10
255.1730000000000018
 20
12.1104000000000003
 30
0.0
 70
    32
  0
VERTEX
  5
3598
  8
241
 10
255.1759999999999877
 20
12.1196999999999999
 30
0.0
 70
    32
  0
VERTEX
  5
3599
  8
241
 10
255.1779999999999973
 20
12.1289999999999996
 30
0.0
 70
    32
  0
VERTEX
  5
359A
  8
241
 10
255.1810000000000116
 20
12.1382999999999992
 30
0.0
 70
    32
  0
VERTEX
  5
359B
  8
241
 10
255.1839999999999975
 20
12.1475000000000009
 30
0.0
 70
    32
  0
VERTEX
  5
359C
  8
241
 10
255.1870000000000118
 20
12.1568000000000005
 30
0.0
 70
    32
  0
VERTEX
  5
359D
  8
241
 10
255.188999999999993
 20
12.1660000000000004
 30
0.0
 70
    32
  0
VERTEX
  5
359E
  8
241
 10
255.1920000000000073
 20
12.1753
 30
0.0
 70
    32
  0
VERTEX
  5
359F
  8
241
 10
255.1949999999999932
 20
12.1844999999999999
 30
0.0
 70
    32
  0
VERTEX
  5
35A0
  8
241
 10
255.1980000000000075
 20
12.1936999999999998
 30
0.0
 70
    32
  0
VERTEX
  5
35A1
  8
241
 10
255.2009999999999934
 20
12.2028999999999996
 30
0.0
 70
    32
  0
VERTEX
  5
35A2
  8
241
 10
255.203000000000003
 20
12.2120999999999995
 30
0.0
 70
    32
  0
VERTEX
  5
35A3
  8
241
 10
255.2059999999999889
 20
12.2211999999999996
 30
0.0
 70
    32
  0
VERTEX
  5
35A4
  8
241
 10
255.2090000000000032
 20
12.2303999999999995
 30
0.0
 70
    32
  0
VERTEX
  5
35A5
  8
241
 10
255.2119999999999891
 20
12.2394999999999996
 30
0.0
 70
    32
  0
VERTEX
  5
35A6
  8
241
 10
255.2150000000000034
 20
12.2486999999999995
 30
0.0
 70
    32
  0
VERTEX
  5
35A7
  8
241
 10
255.217000000000013
 20
12.2577999999999996
 30
0.0
 70
    32
  0
VERTEX
  5
35A8
  8
241
 10
255.2199999999999989
 20
12.2668999999999997
 30
0.0
 70
    32
  0
VERTEX
  5
35A9
  8
241
 10
255.2230000000000132
 20
12.2759999999999998
 30
0.0
 70
    32
  0
VERTEX
  5
35AA
  8
241
 10
255.2259999999999991
 20
12.2850999999999999
 30
0.0
 70
    32
  0
VERTEX
  5
35AB
  8
241
 10
255.2290000000000134
 20
12.2941000000000003
 30
0.0
 70
    32
  0
VERTEX
  5
35AC
  8
241
 10
255.2319999999999993
 20
12.3032000000000004
 30
0.0
 70
    32
  0
VERTEX
  5
35AD
  8
241
 10
255.2350000000000136
 20
12.3122000000000007
 30
0.0
 70
    32
  0
VERTEX
  5
35AE
  8
241
 10
255.2379999999999995
 20
12.3213000000000008
 30
0.0
 70
    32
  0
VERTEX
  5
35AF
  8
241
 10
255.2410000000000139
 20
12.3302999999999994
 30
0.0
 70
    32
  0
VERTEX
  5
35B0
  8
241
 10
255.242999999999995
 20
12.3392999999999997
 30
0.0
 70
    32
  0
VERTEX
  5
35B1
  8
241
 10
255.2460000000000093
 20
12.3483000000000001
 30
0.0
 70
    32
  0
VERTEX
  5
35B2
  8
241
 10
255.2489999999999952
 20
12.3573000000000004
 30
0.0
 70
    32
  0
VERTEX
  5
35B3
  8
241
 10
255.2520000000000095
 20
12.3661999999999992
 30
0.0
 70
    32
  0
VERTEX
  5
35B4
  8
241
 10
255.2549999999999955
 20
12.3751999999999995
 30
0.0
 70
    32
  0
VERTEX
  5
35B5
  8
241
 10
255.2580000000000098
 20
12.3841000000000001
 30
0.0
 70
    32
  0
VERTEX
  5
35B6
  8
241
 10
255.2609999999999957
 20
12.3930000000000007
 30
0.0
 70
    32
  0
VERTEX
  5
35B7
  8
241
 10
255.26400000000001
 20
12.4018999999999995
 30
0.0
 70
    32
  0
VERTEX
  5
35B8
  8
241
 10
255.2669999999999959
 20
12.4108000000000001
 30
0.0
 70
    32
  0
VERTEX
  5
35B9
  8
241
 10
255.2700000000000102
 20
12.4197000000000006
 30
0.0
 70
    32
  0
VERTEX
  5
35BA
  8
241
 10
255.2729999999999961
 20
12.4285999999999994
 30
0.0
 70
    32
  0
VERTEX
  5
35BB
  8
241
 10
255.2760000000000105
 20
12.4375
 30
0.0
 70
    32
  0
VERTEX
  5
35BC
  8
241
 10
255.2789999999999964
 20
12.4464000000000006
 30
0.0
 70
    32
  0
VERTEX
  5
35BD
  8
241
 10
255.2820000000000107
 20
12.4552999999999994
 30
0.0
 70
    32
  0
VERTEX
  5
35BE
  8
241
 10
255.2849999999999966
 20
12.4642999999999997
 30
0.0
 70
    32
  0
VERTEX
  5
35BF
  8
241
 10
255.2880000000000109
 20
12.4732000000000003
 30
0.0
 70
    32
  0
VERTEX
  5
35C0
  8
241
 10
255.2909999999999968
 20
12.4821000000000009
 30
0.0
 70
    32
  0
VERTEX
  5
35C1
  8
241
 10
255.2940000000000111
 20
12.4910999999999994
 30
0.0
 70
    32
  0
VERTEX
  5
35C2
  8
241
 10
255.296999999999997
 20
12.5
 30
0.0
 70
    32
  0
VERTEX
  5
35C3
  8
241
 10
255.3000000000000114
 20
12.5090000000000003
 30
0.0
 70
    32
  0
VERTEX
  5
35C4
  8
241
 10
255.304000000000002
 20
12.5180000000000007
 30
0.0
 70
    32
  0
VERTEX
  5
35C5
  8
241
 10
255.3069999999999879
 20
12.5268999999999995
 30
0.0
 70
    32
  0
VERTEX
  5
35C6
  8
241
 10
255.3100000000000023
 20
12.5358999999999998
 30
0.0
 70
    32
  0
VERTEX
  5
35C7
  8
241
 10
255.3129999999999882
 20
12.5449000000000002
 30
0.0
 70
    32
  0
VERTEX
  5
35C8
  8
241
 10
255.3160000000000025
 20
12.5539000000000005
 30
0.0
 70
    32
  0
VERTEX
  5
35C9
  8
241
 10
255.3189999999999884
 20
12.5629000000000008
 30
0.0
 70
    32
  0
VERTEX
  5
35CA
  8
241
 10
255.3230000000000075
 20
12.5718999999999994
 30
0.0
 70
    32
  0
VERTEX
  5
35CB
  8
241
 10
255.3259999999999934
 20
12.5808999999999997
 30
0.0
 70
    32
  0
VERTEX
  5
35CC
  8
241
 10
255.3290000000000077
 20
12.5899000000000001
 30
0.0
 70
    32
  0
VERTEX
  5
35CD
  8
241
 10
255.3319999999999936
 20
12.5989000000000004
 30
0.0
 70
    32
  0
VERTEX
  5
35CE
  8
241
 10
255.3360000000000127
 20
12.6079000000000008
 30
0.0
 70
    32
  0
VERTEX
  5
35CF
  8
241
 10
255.3389999999999986
 20
12.6170000000000009
 30
0.0
 70
    32
  0
VERTEX
  5
35D0
  8
241
 10
255.342000000000013
 20
12.6259999999999994
 30
0.0
 70
    32
  0
VERTEX
  5
35D1
  8
241
 10
255.3449999999999989
 20
12.6349999999999998
 30
0.0
 70
    32
  0
VERTEX
  5
35D2
  8
241
 10
255.3489999999999895
 20
12.6440999999999999
 30
0.0
 70
    32
  0
VERTEX
  5
35D3
  8
241
 10
255.3520000000000039
 20
12.6531000000000002
 30
0.0
 70
    32
  0
VERTEX
  5
35D4
  8
241
 10
255.3549999999999898
 20
12.6622000000000003
 30
0.0
 70
    32
  0
VERTEX
  5
35D5
  8
241
 10
255.3590000000000089
 20
12.6712000000000007
 30
0.0
 70
    32
  0
VERTEX
  5
35D6
  8
241
 10
255.3619999999999948
 20
12.6803000000000008
 30
0.0
 70
    32
  0
VERTEX
  5
35D7
  8
241
 10
255.3660000000000139
 20
12.6893999999999991
 30
0.0
 70
    32
  0
VERTEX
  5
35D8
  8
241
 10
255.3689999999999998
 20
12.6983999999999995
 30
0.0
 70
    32
  0
VERTEX
  5
35D9
  8
241
 10
255.3720000000000141
 20
12.7074999999999996
 30
0.0
 70
    32
  0
VERTEX
  5
35DA
  8
241
 10
255.3760000000000048
 20
12.7165999999999997
 30
0.0
 70
    32
  0
VERTEX
  5
35DB
  8
241
 10
255.3789999999999907
 20
12.7256999999999998
 30
0.0
 70
    32
  0
SEQEND
  5
35DC
  8
241
  0
ARC
  5
17E8
  8
241
  6
CONTINUOUS
 10
262.6980824764204954
 20
9.9282032302755283
 30
0.0
 40
7.9100707570572943
 50
212.0581811256321885
 51
227.0107077130271023
  0
ARC
  5
17E9
  8
240
  6
CONTINUOUS
 10
279.6980824764203817
 20
4.2500000000000551
 30
0.0
 40
28.75
 50
90.0000000000241442
 51
180.0
  0
LINE
  5
17EA
  8
240
  6
CONTINUOUS
 10
250.9480824764204101
 20
4.2500000000000551
 30
0.0
 11
250.9480824764204101
 21
0.0000000000000568
 31
0.0
  0
POLYLINE
  5
35DD
  8
241
 66
     1
 10
0.0
 20
0.0
 30
0.0
 70
     8
  0
VERTEX
  5
35DE
  8
241
 10
255.3789999999999907
 20
12.7256999999999998
 30
0.0
 70
    32
  0
VERTEX
  5
35DF
  8
241
 10
255.3909999999999911
 20
12.7571999999999992
 30
0.0
 70
    32
  0
VERTEX
  5
35E0
  8
241
 10
255.4029999999999916
 20
12.7886000000000006
 30
0.0
 70
    32
  0
VERTEX
  5
35E1
  8
241
 10
255.4159999999999968
 20
12.8200000000000003
 30
0.0
 70
    32
  0
VERTEX
  5
35E2
  8
241
 10
255.4279999999999973
 20
12.8513000000000002
 30
0.0
 70
    32
  0
VERTEX
  5
35E3
  8
241
 10
255.4399999999999977
 20
12.8826000000000001
 30
0.0
 70
    32
  0
VERTEX
  5
35E4
  8
241
 10
255.453000000000003
 20
12.9138000000000002
 30
0.0
 70
    32
  0
VERTEX
  5
35E5
  8
241
 10
255.4650000000000034
 20
12.9450000000000003
 30
0.0
 70
    32
  0
VERTEX
  5
35E6
  8
241
 10
255.4780000000000086
 20
12.9761000000000006
 30
0.0
 70
    32
  0
VERTEX
  5
35E7
  8
241
 10
255.4910000000000139
 20
13.0070999999999994
 30
0.0
 70
    32
  0
VERTEX
  5
35E8
  8
241
 10
255.5029999999999859
 20
13.0381
 30
0.0
 70
    32
  0
VERTEX
  5
35E9
  8
241
 10
255.5159999999999911
 20
13.0690000000000008
 30
0.0
 70
    32
  0
VERTEX
  5
35EA
  8
241
 10
255.5289999999999964
 20
13.0998000000000001
 30
0.0
 70
    32
  0
VERTEX
  5
35EB
  8
241
 10
255.5420000000000016
 20
13.1305999999999994
 30
0.0
 70
    32
  0
VERTEX
  5
35EC
  8
241
 10
255.5560000000000116
 20
13.1613000000000007
 30
0.0
 70
    32
  0
VERTEX
  5
35ED
  8
241
 10
255.5689999999999884
 20
13.1920000000000002
 30
0.0
 70
    32
  0
VERTEX
  5
35EE
  8
241
 10
255.5819999999999936
 20
13.2225000000000001
 30
0.0
 70
    32
  0
VERTEX
  5
35EF
  8
241
 10
255.5960000000000036
 20
13.2530999999999999
 30
0.0
 70
    32
  0
VERTEX
  5
35F0
  8
241
 10
255.6090000000000089
 20
13.2835000000000001
 30
0.0
 70
    32
  0
VERTEX
  5
35F1
  8
241
 10
255.6229999999999905
 20
13.3139000000000003
 30
0.0
 70
    32
  0
VERTEX
  5
35F2
  8
241
 10
255.6359999999999957
 20
13.3443000000000005
 30
0.0
 70
    32
  0
VERTEX
  5
35F3
  8
241
 10
255.6500000000000057
 20
13.3744999999999994
 30
0.0
 70
    32
  0
VERTEX
  5
35F4
  8
241
 10
255.6639999999999873
 20
13.4047999999999998
 30
0.0
 70
    32
  0
VERTEX
  5
35F5
  8
241
 10
255.6779999999999973
 20
13.4349000000000007
 30
0.0
 70
    32
  0
VERTEX
  5
35F6
  8
241
 10
255.6920000000000073
 20
13.4649999999999999
 30
0.0
 70
    32
  0
VERTEX
  5
35F7
  8
241
 10
255.7059999999999889
 20
13.4949999999999992
 30
0.0
 70
    32
  0
VERTEX
  5
35F8
  8
241
 10
255.7199999999999989
 20
13.5249000000000006
 30
0.0
 70
    32
  0
VERTEX
  5
35F9
  8
241
 10
255.7340000000000089
 20
13.5548000000000002
 30
0.0
 70
    32
  0
VERTEX
  5
35FA
  8
241
 10
255.7489999999999952
 20
13.5846
 30
0.0
 70
    32
  0
VERTEX
  5
35FB
  8
241
 10
255.7630000000000052
 20
13.6143999999999998
 30
0.0
 70
    32
  0
VERTEX
  5
35FC
  8
241
 10
255.7779999999999916
 20
13.6440000000000001
 30
0.0
 70
    32
  0
VERTEX
  5
35FD
  8
241
 10
255.7920000000000016
 20
13.6737000000000002
 30
0.0
 70
    32
  0
VERTEX
  5
35FE
  8
241
 10
255.8069999999999879
 20
13.7032000000000007
 30
0.0
 70
    32
  0
VERTEX
  5
35FF
  8
241
 10
255.8220000000000027
 20
13.7326999999999995
 30
0.0
 70
    32
  0
VERTEX
  5
3600
  8
241
 10
255.8369999999999891
 20
13.7621000000000002
 30
0.0
 70
    32
  0
VERTEX
  5
3601
  8
241
 10
255.8520000000000039
 20
13.7913999999999994
 30
0.0
 70
    32
  0
VERTEX
  5
3602
  8
241
 10
255.8669999999999902
 20
13.8207000000000004
 30
0.0
 70
    32
  0
VERTEX
  5
3603
  8
241
 10
255.882000000000005
 20
13.8498999999999999
 30
0.0
 70
    32
  0
VERTEX
  5
3604
  8
241
 10
255.8969999999999914
 20
13.8789999999999996
 30
0.0
 70
    32
  0
VERTEX
  5
3605
  8
241
 10
255.9120000000000061
 20
13.9080999999999992
 30
0.0
 70
    32
  0
VERTEX
  5
3606
  8
241
 10
255.9269999999999925
 20
13.9370999999999992
 30
0.0
 70
    32
  0
VERTEX
  5
3607
  8
241
 10
255.9430000000000121
 20
13.9659999999999993
 30
0.0
 70
    32
  0
VERTEX
  5
3608
  8
241
 10
255.9579999999999984
 20
13.9948999999999995
 30
0.0
 70
    32
  0
VERTEX
  5
3609
  8
241
 10
255.9739999999999895
 20
14.0236999999999998
 30
0.0
 70
    32
  0
VERTEX
  5
360A
  8
241
 10
255.9890000000000043
 20
14.0524000000000004
 30
0.0
 70
    32
  0
VERTEX
  5
360B
  8
241
 10
256.0049999999999955
 20
14.0809999999999995
 30
0.0
 70
    32
  0
VERTEX
  5
360C
  8
241
 10
256.021000000000015
 20
14.1096000000000004
 30
0.0
 70
    32
  0
VERTEX
  5
360D
  8
241
 10
256.0369999999999777
 20
14.1380999999999997
 30
0.0
 70
    32
  0
VERTEX
  5
360E
  8
241
 10
256.0529999999999973
 20
14.1664999999999992
 30
0.0
 70
    32
  0
VERTEX
  5
360F
  8
241
 10
256.0690000000000168
 20
14.1949000000000005
 30
0.0
 70
    32
  0
VERTEX
  5
3610
  8
241
 10
256.0849999999999795
 20
14.2232000000000003
 30
0.0
 70
    32
  0
VERTEX
  5
3611
  8
241
 10
256.1009999999999991
 20
14.2514000000000003
 30
0.0
 70
    32
  0
VERTEX
  5
3612
  8
241
 10
256.1170000000000186
 20
14.2796000000000003
 30
0.0
 70
    32
  0
VERTEX
  5
3613
  8
241
 10
256.1329999999999814
 20
14.3076000000000008
 30
0.0
 70
    32
  0
VERTEX
  5
3614
  8
241
 10
256.1499999999999773
 20
14.3355999999999995
 30
0.0
 70
    32
  0
VERTEX
  5
3615
  8
241
 10
256.1659999999999968
 20
14.3635000000000002
 30
0.0
 70
    32
  0
VERTEX
  5
3616
  8
241
 10
256.1829999999999927
 20
14.3914000000000009
 30
0.0
 70
    32
  0
VERTEX
  5
3617
  8
241
 10
256.1990000000000123
 20
14.4192
 30
0.0
 70
    32
  0
VERTEX
  5
3618
  8
241
 10
256.2160000000000082
 20
14.4468999999999994
 30
0.0
 70
    32
  0
VERTEX
  5
3619
  8
241
 10
256.2330000000000041
 20
14.4745000000000008
 30
0.0
 70
    32
  0
VERTEX
  5
361A
  8
241
 10
256.25
 20
14.5021000000000004
 30
0.0
 70
    32
  0
VERTEX
  5
361B
  8
241
 10
256.2669999999999959
 20
14.5295000000000005
 30
0.0
 70
    32
  0
VERTEX
  5
361C
  8
241
 10
256.2839999999999918
 20
14.5569000000000006
 30
0.0
 70
    32
  0
VERTEX
  5
361D
  8
241
 10
256.3009999999999877
 20
14.5843000000000007
 30
0.0
 70
    32
  0
VERTEX
  5
361E
  8
241
 10
256.3179999999999836
 20
14.6114999999999995
 30
0.0
 70
    32
  0
VERTEX
  5
361F
  8
241
 10
256.3349999999999795
 20
14.6387
 30
0.0
 70
    32
  0
VERTEX
  5
3620
  8
241
 10
256.3519999999999754
 20
14.6658000000000008
 30
0.0
 70
    32
  0
VERTEX
  5
3621
  8
241
 10
256.3690000000000282
 20
14.6928000000000001
 30
0.0
 70
    32
  0
VERTEX
  5
3622
  8
241
 10
256.3870000000000005
 20
14.7197999999999993
 30
0.0
 70
    32
  0
VERTEX
  5
3623
  8
241
 10
256.4039999999999964
 20
14.7466000000000008
 30
0.0
 70
    32
  0
VERTEX
  5
3624
  8
241
 10
256.4220000000000255
 20
14.7734000000000005
 30
0.0
 70
    32
  0
VERTEX
  5
3625
  8
241
 10
256.4390000000000214
 20
14.8001000000000005
 30
0.0
 70
    32
  0
VERTEX
  5
3626
  8
241
 10
256.4569999999999936
 20
14.8268000000000004
 30
0.0
 70
    32
  0
VERTEX
  5
3627
  8
241
 10
256.4750000000000227
 20
14.8533000000000008
 30
0.0
 70
    32
  0
VERTEX
  5
3628
  8
241
 10
256.492999999999995
 20
14.8797999999999995
 30
0.0
 70
    32
  0
VERTEX
  5
3629
  8
241
 10
256.5099999999999909
 20
14.9062000000000001
 30
0.0
 70
    32
  0
VERTEX
  5
362A
  8
241
 10
256.52800000000002
 20
14.9326000000000008
 30
0.0
 70
    32
  0
VERTEX
  5
362B
  8
241
 10
256.5459999999999923
 20
14.9588000000000001
 30
0.0
 70
    32
  0
VERTEX
  5
362C
  8
241
 10
256.5640000000000214
 20
14.9849999999999994
 30
0.0
 70
    32
  0
VERTEX
  5
362D
  8
241
 10
256.5830000000000268
 20
15.0111000000000008
 30
0.0
 70
    32
  0
VERTEX
  5
362E
  8
241
 10
256.6009999999999991
 20
15.0371000000000006
 30
0.0
 70
    32
  0
VERTEX
  5
362F
  8
241
 10
256.6190000000000282
 20
15.0630000000000006
 30
0.0
 70
    32
  0
VERTEX
  5
3630
  8
241
 10
256.6370000000000005
 20
15.0888000000000009
 30
0.0
 70
    32
  0
VERTEX
  5
3631
  8
241
 10
256.6560000000000059
 20
15.1145999999999994
 30
0.0
 70
    32
  0
VERTEX
  5
3632
  8
241
 10
256.6739999999999782
 20
15.1402999999999999
 30
0.0
 70
    32
  0
VERTEX
  5
3633
  8
241
 10
256.6929999999999836
 20
15.1659000000000006
 30
0.0
 70
    32
  0
VERTEX
  5
3634
  8
241
 10
256.7110000000000127
 20
15.1913999999999998
 30
0.0
 70
    32
  0
VERTEX
  5
3635
  8
241
 10
256.7300000000000182
 20
15.2167999999999992
 30
0.0
 70
    32
  0
VERTEX
  5
3636
  8
241
 10
256.7490000000000236
 20
15.2422000000000004
 30
0.0
 70
    32
  0
VERTEX
  5
3637
  8
241
 10
256.7669999999999959
 20
15.2675000000000001
 30
0.0
 70
    32
  0
VERTEX
  5
3638
  8
241
 10
256.7860000000000014
 20
15.2927
 30
0.0
 70
    32
  0
VERTEX
  5
3639
  8
241
 10
256.8050000000000068
 20
15.3178000000000001
 30
0.0
 70
    32
  0
VERTEX
  5
363A
  8
241
 10
256.8240000000000123
 20
15.3428000000000004
 30
0.0
 70
    32
  0
VERTEX
  5
363B
  8
241
 10
256.8430000000000177
 20
15.3678000000000008
 30
0.0
 70
    32
  0
VERTEX
  5
363C
  8
241
 10
256.8620000000000232
 20
15.3925999999999998
 30
0.0
 70
    32
  0
VERTEX
  5
363D
  8
241
 10
256.8809999999999718
 20
15.4174000000000007
 30
0.0
 70
    32
  0
VERTEX
  5
363E
  8
241
 10
256.9010000000000105
 20
15.4420999999999999
 30
0.0
 70
    32
  0
VERTEX
  5
363F
  8
241
 10
256.9200000000000159
 20
15.4666999999999994
 30
0.0
 70
    32
  0
VERTEX
  5
3640
  8
241
 10
256.9390000000000214
 20
15.4911999999999992
 30
0.0
 70
    32
  0
VERTEX
  5
3641
  8
241
 10
256.9590000000000032
 20
15.5157000000000007
 30
0.0
 70
    32
  0
VERTEX
  5
3642
  8
241
 10
256.9780000000000086
 20
15.5399999999999991
 30
0.0
 70
    32
  0
VERTEX
  5
3643
  8
241
 10
256.9979999999999905
 20
15.5641999999999996
 30
0.0
 70
    32
  0
VERTEX
  5
3644
  8
241
 10
257.0169999999999959
 20
15.5884
 30
0.0
 70
    32
  0
VERTEX
  5
3645
  8
241
 10
257.0369999999999777
 20
15.6123999999999992
 30
0.0
 70
    32
  0
VERTEX
  5
3646
  8
241
 10
257.0559999999999832
 20
15.6364000000000001
 30
0.0
 70
    32
  0
VERTEX
  5
3647
  8
241
 10
257.0759999999999081
 20
15.6602999999999994
 30
0.0
 70
    32
  0
VERTEX
  5
3648
  8
241
 10
257.0960000000000036
 20
15.6839999999999993
 30
0.0
 70
    32
  0
VERTEX
  5
3649
  8
241
 10
257.1159999999999854
 20
15.7077000000000009
 30
0.0
 70
    32
  0
VERTEX
  5
364A
  8
241
 10
257.1349999999999909
 20
15.7312999999999992
 30
0.0
 70
    32
  0
VERTEX
  5
364B
  8
241
 10
257.1549999999999727
 20
15.7547999999999995
 30
0.0
 70
    32
  0
VERTEX
  5
364C
  8
241
 10
257.1750000000000114
 20
15.7781000000000002
 30
0.0
 70
    32
  0
VERTEX
  5
364D
  8
241
 10
257.1949999999999932
 20
15.8013999999999992
 30
0.0
 70
    32
  0
VERTEX
  5
364E
  8
241
 10
257.214999999999975
 20
15.8246000000000002
 30
0.0
 70
    32
  0
VERTEX
  5
364F
  8
241
 10
257.2350000000000136
 20
15.8476999999999997
 30
0.0
 70
    32
  0
VERTEX
  5
3650
  8
241
 10
257.2549999999999955
 20
15.8706999999999994
 30
0.0
 70
    32
  0
VERTEX
  5
3651
  8
241
 10
257.2760000000000105
 20
15.8935999999999993
 30
0.0
 70
    32
  0
VERTEX
  5
3652
  8
241
 10
257.2959999999999923
 20
15.9163999999999994
 30
0.0
 70
    32
  0
VERTEX
  5
3653
  8
241
 10
257.3159999999999741
 20
15.9391999999999996
 30
0.0
 70
    32
  0
VERTEX
  5
3654
  8
241
 10
257.3360000000000127
 20
15.9618000000000002
 30
0.0
 70
    32
  0
VERTEX
  5
3655
  8
241
 10
257.3570000000000277
 20
15.9842999999999993
 30
0.0
 70
    32
  0
VERTEX
  5
3656
  8
241
 10
257.3770000000000095
 20
16.0066999999999986
 30
0.0
 70
    32
  0
VERTEX
  5
3657
  8
241
 10
257.3980000000000246
 20
16.0289999999999999
 30
0.0
 70
    32
  0
VERTEX
  5
3658
  8
241
 10
257.4180000000000064
 20
16.0513000000000012
 30
0.0
 70
    32
  0
VERTEX
  5
3659
  8
241
 10
257.4390000000000214
 20
16.0733999999999995
 30
0.0
 70
    32
  0
VERTEX
  5
365A
  8
241
 10
257.4590000000000032
 20
16.0954000000000015
 30
0.0
 70
    32
  0
VERTEX
  5
365B
  8
241
 10
257.4800000000000182
 20
16.1173999999999999
 30
0.0
 70
    32
  0
VERTEX
  5
365C
  8
241
 10
257.5009999999999764
 20
16.1391999999999989
 30
0.0
 70
    32
  0
VERTEX
  5
365D
  8
241
 10
257.521000000000015
 20
16.1610000000000014
 30
0.0
 70
    32
  0
VERTEX
  5
365E
  8
241
 10
257.5419999999999732
 20
16.1826000000000008
 30
0.0
 70
    32
  0
VERTEX
  5
365F
  8
241
 10
257.5629999999999882
 20
16.2041000000000004
 30
0.0
 70
    32
  0
VERTEX
  5
3660
  8
241
 10
257.5840000000000032
 20
16.2256
 30
0.0
 70
    32
  0
VERTEX
  5
3661
  8
241
 10
257.603999999999985
 20
16.2469000000000001
 30
0.0
 70
    32
  0
VERTEX
  5
3662
  8
241
 10
257.625
 20
16.2682000000000002
 30
0.0
 70
    32
  0
VERTEX
  5
3663
  8
241
 10
257.6459999999999013
 20
16.2893000000000008
 30
0.0
 70
    32
  0
VERTEX
  5
3664
  8
241
 10
257.6669999999999732
 20
16.3104000000000013
 30
0.0
 70
    32
  0
VERTEX
  5
3665
  8
241
 10
257.6879999999999882
 20
16.3312999999999988
 30
0.0
 70
    32
  0
VERTEX
  5
3666
  8
241
 10
257.7099999999999795
 20
16.3521999999999998
 30
0.0
 70
    32
  0
VERTEX
  5
3667
  8
241
 10
257.7309999999999945
 20
16.3729000000000013
 30
0.0
 70
    32
  0
VERTEX
  5
3668
  8
241
 10
257.7520000000000095
 20
16.3935999999999993
 30
0.0
 70
    32
  0
VERTEX
  5
3669
  8
241
 10
257.7730000000000246
 20
16.414200000000001
 30
0.0
 70
    32
  0
VERTEX
  5
366A
  8
241
 10
257.7939999999999827
 20
16.4345999999999997
 30
0.0
 70
    32
  0
VERTEX
  5
366B
  8
241
 10
257.8159999999999741
 20
16.4549999999999983
 30
0.0
 70
    32
  0
VERTEX
  5
366C
  8
241
 10
257.8369999999999891
 20
16.475200000000001
 30
0.0
 70
    32
  0
VERTEX
  5
366D
  8
241
 10
257.8580000000000041
 20
16.4954000000000001
 30
0.0
 70
    32
  0
VERTEX
  5
366E
  8
241
 10
257.8799999999999955
 20
16.5153999999999996
 30
0.0
 70
    32
  0
VERTEX
  5
366F
  8
241
 10
257.9010000000000105
 20
16.5353999999999992
 30
0.0
 70
    32
  0
VERTEX
  5
3670
  8
241
 10
257.9220000000000255
 20
16.5551999999999992
 30
0.0
 70
    32
  0
VERTEX
  5
3671
  8
241
 10
257.9440000000000168
 20
16.5749999999999993
 30
0.0
 70
    32
  0
VERTEX
  5
3672
  8
241
 10
257.9660000000000082
 20
16.5945999999999998
 30
0.0
 70
    32
  0
VERTEX
  5
3673
  8
241
 10
257.9870000000000232
 20
16.6142000000000003
 30
0.0
 70
    32
  0
VERTEX
  5
3674
  8
241
 10
258.0090000000000146
 20
16.633700000000001
 30
0.0
 70
    32
  0
VERTEX
  5
3675
  8
241
 10
258.0299999999999727
 20
16.6529999999999987
 30
0.0
 70
    32
  0
VERTEX
  5
3676
  8
241
 10
258.0520000000000209
 20
16.6722999999999999
 30
0.0
 70
    32
  0
VERTEX
  5
3677
  8
241
 10
258.0740000000000123
 20
16.6914000000000016
 30
0.0
 70
    32
  0
VERTEX
  5
3678
  8
241
 10
258.0950000000000273
 20
16.7103999999999999
 30
0.0
 70
    32
  0
VERTEX
  5
3679
  8
241
 10
258.1170000000000186
 20
16.7293999999999983
 30
0.0
 70
    32
  0
VERTEX
  5
367A
  8
241
 10
258.13900000000001
 20
16.7482000000000006
 30
0.0
 70
    32
  0
VERTEX
  5
367B
  8
241
 10
258.1610000000000014
 20
16.7669999999999995
 30
0.0
 70
    32
  0
VERTEX
  5
367C
  8
241
 10
258.1829999999999927
 20
16.7855999999999987
 30
0.0
 70
    32
  0
VERTEX
  5
367D
  8
241
 10
258.2049999999999841
 20
16.8042000000000016
 30
0.0
 70
    32
  0
VERTEX
  5
367E
  8
241
 10
258.2269999999999754
 20
16.8226000000000013
 30
0.0
 70
    32
  0
VERTEX
  5
367F
  8
241
 10
258.2490000000000236
 20
16.8409000000000013
 30
0.0
 70
    32
  0
VERTEX
  5
3680
  8
241
 10
258.271000000000015
 20
16.8591000000000015
 30
0.0
 70
    32
  0
VERTEX
  5
3681
  8
241
 10
258.2930000000000064
 20
16.8773000000000017
 30
0.0
 70
    32
  0
VERTEX
  5
3682
  8
241
 10
258.3149999999999977
 20
16.8952999999999989
 30
0.0
 70
    32
  0
VERTEX
  5
3683
  8
241
 10
258.3369999999999891
 20
16.9131999999999998
 30
0.0
 70
    32
  0
VERTEX
  5
3684
  8
241
 10
258.3589999999999804
 20
16.9310000000000009
 30
0.0
 70
    32
  0
VERTEX
  5
3685
  8
241
 10
258.3809999999999718
 20
16.9486999999999988
 30
0.0
 70
    32
  0
VERTEX
  5
3686
  8
241
 10
258.40300000000002
 20
16.9664000000000001
 30
0.0
 70
    32
  0
VERTEX
  5
3687
  8
241
 10
258.4250000000000114
 20
16.9838999999999984
 30
0.0
 70
    32
  0
VERTEX
  5
3688
  8
241
 10
258.4479999999999791
 20
17.0013000000000005
 30
0.0
 70
    32
  0
VERTEX
  5
3689
  8
241
 10
258.4700000000000273
 20
17.0185999999999993
 30
0.0
 70
    32
  0
VERTEX
  5
368A
  8
241
 10
258.4920000000000186
 20
17.0357999999999983
 30
0.0
 70
    32
  0
VERTEX
  5
368B
  8
241
 10
258.5149999999999864
 20
17.0529000000000011
 30
0.0
 70
    32
  0
VERTEX
  5
368C
  8
241
 10
258.5370000000000914
 20
17.0698000000000008
 30
0.0
 70
    32
  0
VERTEX
  5
368D
  8
241
 10
258.5590000000000259
 20
17.0867000000000004
 30
0.0
 70
    32
  0
VERTEX
  5
368E
  8
241
 10
258.5819999999999936
 20
17.1035000000000004
 30
0.0
 70
    32
  0
VERTEX
  5
368F
  8
241
 10
258.6040000000000987
 20
17.1202000000000005
 30
0.0
 70
    32
  0
VERTEX
  5
3690
  8
241
 10
258.6270000000000095
 20
17.1367000000000012
 30
0.0
 70
    32
  0
VERTEX
  5
3691
  8
241
 10
258.6490000000000009
 20
17.1531999999999982
 30
0.0
 70
    32
  0
VERTEX
  5
3692
  8
241
 10
258.6720000000000255
 20
17.1695999999999991
 30
0.0
 70
    32
  0
VERTEX
  5
3693
  8
241
 10
258.6940000000000168
 20
17.1858000000000004
 30
0.0
 70
    32
  0
VERTEX
  5
3694
  8
241
 10
258.7169999999999845
 20
17.2020000000000017
 30
0.0
 70
    32
  0
VERTEX
  5
3695
  8
241
 10
258.7389999999999759
 20
17.218
 30
0.0
 70
    32
  0
VERTEX
  5
3696
  8
241
 10
258.7620000000000005
 20
17.2338999999999984
 30
0.0
 70
    32
  0
VERTEX
  5
3697
  8
241
 10
258.7839999999999918
 20
17.2498000000000005
 30
0.0
 70
    32
  0
VERTEX
  5
3698
  8
241
 10
258.8070000000000164
 20
17.2654999999999994
 30
0.0
 70
    32
  0
VERTEX
  5
3699
  8
241
 10
258.8299999999999841
 20
17.2810999999999986
 30
0.0
 70
    32
  0
VERTEX
  5
369A
  8
241
 10
258.8519999999999754
 20
17.2966000000000015
 30
0.0
 70
    32
  0
VERTEX
  5
369B
  8
241
 10
258.875
 20
17.3120000000000012
 30
0.0
 70
    32
  0
VERTEX
  5
369C
  8
241
 10
258.8980000000000246
 20
17.327300000000001
 30
0.0
 70
    32
  0
VERTEX
  5
369D
  8
241
 10
258.9209999999999923
 20
17.3425000000000011
 30
0.0
 70
    32
  0
VERTEX
  5
369E
  8
241
 10
258.9429999999999836
 20
17.3576000000000015
 30
0.0
 70
    32
  0
VERTEX
  5
369F
  8
241
 10
258.9660000000000082
 20
17.3725999999999985
 30
0.0
 70
    32
  0
VERTEX
  5
36A0
  8
241
 10
258.9889999999999759
 20
17.3874999999999993
 30
0.0
 70
    32
  0
VERTEX
  5
36A1
  8
241
 10
259.0120000000000005
 20
17.4022000000000006
 30
0.0
 70
    32
  0
VERTEX
  5
36A2
  8
241
 10
259.035000000000025
 20
17.4168999999999983
 30
0.0
 70
    32
  0
VERTEX
  5
36A3
  8
241
 10
259.0579999999999927
 20
17.4314999999999998
 30
0.0
 70
    32
  0
VERTEX
  5
36A4
  8
241
 10
259.0799999999999841
 20
17.4459000000000017
 30
0.0
 70
    32
  0
VERTEX
  5
36A5
  8
241
 10
259.1030000000000086
 20
17.4602000000000004
 30
0.0
 70
    32
  0
VERTEX
  5
36A6
  8
241
 10
259.1259999999999764
 20
17.474499999999999
 30
0.0
 70
    32
  0
VERTEX
  5
36A7
  8
241
 10
259.1490000000000009
 20
17.4886000000000017
 30
0.0
 70
    32
  0
VERTEX
  5
36A8
  8
241
 10
259.1720000000000255
 20
17.502600000000001
 30
0.0
 70
    32
  0
VERTEX
  5
36A9
  8
241
 10
259.1949999999999932
 20
17.5165000000000006
 30
0.0
 70
    32
  0
VERTEX
  5
36AA
  8
241
 10
259.2180000000000177
 20
17.5303000000000004
 30
0.0
 70
    32
  0
VERTEX
  5
36AB
  8
241
 10
259.2409999999999854
 20
17.5440000000000005
 30
0.0
 70
    32
  0
VERTEX
  5
36AC
  8
241
 10
259.26400000000001
 20
17.5576000000000008
 30
0.0
 70
    32
  0
VERTEX
  5
36AD
  8
241
 10
259.2869999999999777
 20
17.5710000000000015
 30
0.0
 70
    32
  0
VERTEX
  5
36AE
  8
241
 10
259.3100000000000023
 20
17.5843999999999987
 30
0.0
 70
    32
  0
VERTEX
  5
36AF
  8
241
 10
259.3330000000000268
 20
17.5976999999999997
 30
0.0
 70
    32
  0
VERTEX
  5
36B0
  8
241
 10
259.3570000000000277
 20
17.6108000000000011
 30
0.0
 70
    32
  0
VERTEX
  5
36B1
  8
241
 10
259.3799999999999955
 20
17.6237999999999992
 30
0.0
 70
    32
  0
VERTEX
  5
36B2
  8
241
 10
259.40300000000002
 20
17.6368000000000009
 30
0.0
 70
    32
  0
VERTEX
  5
36B3
  8
241
 10
259.4259999999999877
 20
17.6495999999999995
 30
0.0
 70
    32
  0
VERTEX
  5
36B4
  8
241
 10
259.4490000000000123
 20
17.6622999999999983
 30
0.0
 70
    32
  0
VERTEX
  5
36B5
  8
241
 10
259.47199999999998
 20
17.6748000000000012
 30
0.0
 70
    32
  0
VERTEX
  5
36B6
  8
241
 10
259.4950000000000045
 20
17.6873000000000005
 30
0.0
 70
    32
  0
VERTEX
  5
36B7
  8
241
 10
259.5179999999999723
 20
17.6996000000000002
 30
0.0
 70
    32
  0
VERTEX
  5
36B8
  8
241
 10
259.5409999999999968
 20
17.7118000000000002
 30
0.0
 70
    32
  0
VERTEX
  5
36B9
  8
241
 10
259.5649999999999977
 20
17.7240000000000002
 30
0.0
 70
    32
  0
VERTEX
  5
36BA
  8
241
 10
259.5880000000000223
 20
17.7359000000000009
 30
0.0
 70
    32
  0
VERTEX
  5
36BB
  8
241
 10
259.61099999999999
 20
17.7478000000000016
 30
0.0
 70
    32
  0
VERTEX
  5
36BC
  8
241
 10
259.6340000000000146
 20
17.7595999999999989
 30
0.0
 70
    32
  0
VERTEX
  5
36BD
  8
241
 10
259.6569999999999823
 20
17.7712000000000003
 30
0.0
 70
    32
  0
VERTEX
  5
36BE
  8
241
 10
259.6800000000000068
 20
17.7828000000000017
 30
0.0
 70
    32
  0
VERTEX
  5
36BF
  8
241
 10
259.7029999999999745
 20
17.7942
 30
0.0
 70
    32
  0
VERTEX
  5
36C0
  8
241
 10
259.7259999999999991
 20
17.8054999999999986
 30
0.0
 70
    32
  0
VERTEX
  5
36C1
  8
241
 10
259.7490000000000236
 20
17.8166000000000011
 30
0.0
 70
    32
  0
VERTEX
  5
36C2
  8
241
 10
259.7719999999999914
 20
17.8277000000000001
 30
0.0
 70
    32
  0
VERTEX
  5
36C3
  8
241
 10
259.7950000000000159
 20
17.8386999999999993
 30
0.0
 70
    32
  0
VERTEX
  5
36C4
  8
241
 10
259.8190000000000168
 20
17.849499999999999
 30
0.0
 70
    32
  0
VERTEX
  5
36C5
  8
241
 10
259.8419999999999845
 20
17.860199999999999
 30
0.0
 70
    32
  0
VERTEX
  5
36C6
  8
241
 10
259.8650000000000091
 20
17.8707999999999991
 30
0.0
 70
    32
  0
VERTEX
  5
36C7
  8
241
 10
259.8879999999999768
 20
17.8812999999999995
 30
0.0
 70
    32
  0
VERTEX
  5
36C8
  8
241
 10
259.9110000000000014
 20
17.8917000000000002
 30
0.0
 70
    32
  0
VERTEX
  5
36C9
  8
241
 10
259.9340000000000259
 20
17.902000000000001
 30
0.0
 70
    32
  0
VERTEX
  5
36CA
  8
241
 10
259.9569999999999936
 20
17.9120999999999988
 30
0.0
 70
    32
  0
VERTEX
  5
36CB
  8
241
 10
259.9800000000000182
 20
17.9222000000000001
 30
0.0
 70
    32
  0
VERTEX
  5
36CC
  8
241
 10
260.0029999999999859
 20
17.9320999999999984
 30
0.0
 70
    32
  0
VERTEX
  5
36CD
  8
241
 10
260.0260000000000105
 20
17.9419000000000004
 30
0.0
 70
    32
  0
VERTEX
  5
36CE
  8
241
 10
260.0489999999999782
 20
17.9515999999999991
 30
0.0
 70
    32
  0
VERTEX
  5
36CF
  8
241
 10
260.0720000000000027
 20
17.9610999999999983
 30
0.0
 70
    32
  0
VERTEX
  5
36D0
  8
241
 10
260.0950000000000273
 20
17.970600000000001
 30
0.0
 70
    32
  0
VERTEX
  5
36D1
  8
241
 10
260.117999999999995
 20
17.9800000000000004
 30
0.0
 70
    32
  0
VERTEX
  5
36D2
  8
241
 10
260.1410000000000196
 20
17.9892000000000003
 30
0.0
 70
    32
  0
VERTEX
  5
36D3
  8
241
 10
260.1639999999999873
 20
17.9983000000000004
 30
0.0
 70
    32
  0
VERTEX
  5
36D4
  8
241
 10
260.1870000000000118
 20
18.0073000000000008
 30
0.0
 70
    32
  0
VERTEX
  5
36D5
  8
241
 10
260.2099999999999795
 20
18.0162000000000013
 30
0.0
 70
    32
  0
VERTEX
  5
36D6
  8
241
 10
260.2320000000000277
 20
18.0249999999999986
 30
0.0
 70
    32
  0
VERTEX
  5
36D7
  8
241
 10
260.2549999999999955
 20
18.0336999999999996
 30
0.0
 70
    32
  0
VERTEX
  5
36D8
  8
241
 10
260.27800000000002
 20
18.0422000000000011
 30
0.0
 70
    32
  0
VERTEX
  5
36D9
  8
241
 10
260.3009999999999877
 20
18.0506999999999991
 30
0.0
 70
    32
  0
VERTEX
  5
36DA
  8
241
 10
260.3240000000000123
 20
18.0590000000000011
 30
0.0
 70
    32
  0
VERTEX
  5
36DB
  8
241
 10
260.34699999999998
 20
18.0671999999999997
 30
0.0
 70
    32
  0
VERTEX
  5
36DC
  8
241
 10
260.3700000000000045
 20
18.0752999999999986
 30
0.0
 70
    32
  0
VERTEX
  5
36DD
  8
241
 10
260.3929999999999723
 20
18.0833000000000013
 30
0.0
 70
    32
  0
SEQEND
  5
36DE
  8
241
  0
ARC
  5
17ED
  8
240
  6
CONTINUOUS
 10
306.7582007318899855
 20
18.0000000000000604
 30
0.0
 40
15.0
 50
33.6312774479312395
 51
90.0000000000227942
  0
LINE
  5
17EF
  8
240
  6
CONTINUOUS
 10
279.698082476408274
 20
32.9999999999885603
 30
0.0
 11
306.758200731883619
 21
32.9999999999999716
 31
0.0
  0
LINE
  5
17F0
  8
241
  6
CONTINUOUS
 10
305.0980824764204158
 20
32.0000000000000284
 30
0.0
 11
305.0980824764204158
 21
32.7999999999996916
 31
0.0
  0
LINE
  5
1966
  8
241
  6
CONTINUOUS
 10
117.9999999999985931
 20
22.2313551494098114
 30
0.0
 11
117.9999999999985931
 21
18.7672535294098104
 31
0.0
  0
LINE
  5
1967
  8
241
  6
CONTINUOUS
 10
111.9999999999985931
 20
18.7672535294098104
 30
0.0
 11
111.9999999999985931
 21
22.2313551494098114
 31
0.0
  0
CIRCLE
  5
1968
  8
242
  6
CONTINUOUS
 10
114.9999999999985931
 20
20.4993043394098216
 30
0.0
 40
5.125
  0
CIRCLE
  5
1969
  8
241
  6
CONTINUOUS
 10
114.9999999999985931
 20
20.4993043394098216
 30
0.0
 40
6.0
  0
LINE
  5
196A
  8
245
  6
CENTER2
 10
114.9999999999985931
 20
13.4993043394098091
 30
0.0
 11
114.9999999999985931
 21
27.4993043394098002
 31
0.0
  0
LINE
  5
196B
  8
241
  6
CONTINUOUS
 10
114.9999999999985931
 20
23.9634059594098012
 30
0.0
 11
117.9999999999985931
 21
22.2313551494098114
 31
0.0
  0
LINE
  5
196C
  8
241
  6
CONTINUOUS
 10
111.9999999999985931
 20
22.2313551494098114
 30
0.0
 11
114.9999999999985931
 21
23.9634059594098012
 31
0.0
  0
LINE
  5
196D
  8
241
  6
CONTINUOUS
 10
117.9999999999985931
 20
18.7672535294098104
 30
0.0
 11
114.9999999999985931
 21
17.0352027294098107
 31
0.0
  0
LINE
  5
196E
  8
241
  6
CONTINUOUS
 10
114.9999999999985931
 20
17.0352027294098107
 30
0.0
 11
111.9999999999985931
 21
18.7672535294098104
 31
0.0
  0
LINE
  5
1980
  8
241
  6
CONTINUOUS
 10
88.9999999999986073
 20
22.2313551494100814
 30
0.0
 11
88.9999999999986073
 21
18.7672535294100804
 31
0.0
  0
LINE
  5
1981
  8
241
  6
CONTINUOUS
 10
82.9999999999986215
 20
18.7672535294100804
 30
0.0
 11
82.9999999999986215
 21
22.2313551494100814
 31
0.0
  0
CIRCLE
  5
1982
  8
242
  6
CONTINUOUS
 10
85.9999999999986215
 20
20.4993043394100987
 30
0.0
 40
5.125
  0
CIRCLE
  5
1983
  8
241
  6
CONTINUOUS
 10
85.9999999999986215
 20
20.4993043394100987
 30
0.0
 40
6.0
  0
LINE
  5
1984
  8
245
  6
CENTER2
 10
85.9999999999986215
 20
13.4993043394100791
 30
0.0
 11
85.9999999999986215
 21
27.4993043394100809
 31
0.0
  0
LINE
  5
1985
  8
241
  6
CONTINUOUS
 10
85.9999999999986215
 20
23.9634059594100783
 30
0.0
 11
88.9999999999986073
 21
22.2313551494100814
 31
0.0
  0
LINE
  5
1986
  8
241
  6
CONTINUOUS
 10
82.9999999999986215
 20
22.2313551494100814
 30
0.0
 11
85.9999999999986215
 21
23.9634059594100783
 31
0.0
  0
LINE
  5
1987
  8
241
  6
CONTINUOUS
 10
88.9999999999986073
 20
18.7672535294100804
 30
0.0
 11
85.9999999999986215
 21
17.0352027294100914
 31
0.0
  0
LINE
  5
1988
  8
241
  6
CONTINUOUS
 10
85.9999999999986215
 20
17.0352027294100914
 30
0.0
 11
82.9999999999986215
 21
18.7672535294100804
 31
0.0
  0
LINE
  5
199A
  8
241
  6
CONTINUOUS
 10
59.9999999999985079
 20
22.2313551494103585
 30
0.0
 11
59.9999999999985079
 21
18.7672535294103611
 31
0.0
  0
LINE
  5
199B
  8
241
  6
CONTINUOUS
 10
53.9999999999985221
 20
18.7672535294103611
 30
0.0
 11
53.9999999999985221
 21
22.2313551494103585
 31
0.0
  0
CIRCLE
  5
199C
  8
242
  6
CONTINUOUS
 10
56.9999999999985221
 20
20.4993043394103687
 30
0.0
 40
5.125
  0
CIRCLE
  5
199D
  8
241
  6
CONTINUOUS
 10
56.9999999999985221
 20
20.4993043394103687
 30
0.0
 40
6.0
  0
LINE
  5
199E
  8
245
  6
CENTER2
 10
56.9999999999985221
 20
13.4993043394103598
 30
0.0
 11
56.9999999999985221
 21
27.4993043394103509
 31
0.0
  0
LINE
  5
199F
  8
241
  6
CONTINUOUS
 10
56.9999999999985221
 20
23.963405959410359
 30
0.0
 11
59.9999999999985079
 21
22.2313551494103585
 31
0.0
  0
LINE
  5
19A0
  8
241
  6
CONTINUOUS
 10
53.9999999999985221
 20
22.2313551494103585
 30
0.0
 11
56.9999999999985221
 21
23.963405959410359
 31
0.0
  0
LINE
  5
19A1
  8
241
  6
CONTINUOUS
 10
59.9999999999985079
 20
18.7672535294103611
 30
0.0
 11
56.9999999999985221
 21
17.0352027294103685
 31
0.0
  0
LINE
  5
19A2
  8
241
  6
CONTINUOUS
 10
56.9999999999985221
 20
17.0352027294103685
 30
0.0
 11
53.9999999999985221
 21
18.7672535294103611
 31
0.0
  0
LINE
  5
28F2
  8
241
  6
CONTINUOUS
 10
279.6980824764203817
 20
32.9999999999992681
 30
0.0
 11
279.6980824764203817
 21
7.6000000000001933
 31
0.0
  0
LINE
  5
28FC
  8
243
  6
HIDDEN2
 10
38.0999999999998309
 20
32.9993043394097185
 30
0.0
 11
38.0999999999998309
 21
7.600000000000418
 31
0.0
  0
LINE
  5
28FD
  8
243
  6
HIDDEN2
 10
38.0999999999998025
 20
7.600000000000418
 30
0.0
 11
127.0000000000000995
 21
7.600000000000418
 31
0.0
  0
LINE
  5
2988
  8
246
  6
PHANTOM2
 10
304.7080824764262275
 20
-8.000000000001755
 30
0.0
 11
310.4236825519329841
 21
-8.0000000000017533
 31
0.0
  0
LINE
  5
2989
  8
246
  6
PHANTOM2
 10
304.7080824764262275
 20
8.0000000000001243
 30
0.0
 11
310.4236825519334957
 21
8.0000000000001261
 31
0.0
  0
LINE
  5
298A
  8
246
  6
PHANTOM2
 10
257.0980824764266117
 20
8.0000000000001137
 30
0.0
 11
248.9724824009192901
 21
8.0000000000001137
 31
0.0
  0
LINE
  5
298B
  8
246
  6
PHANTOM2
 10
304.7080824764262275
 20
-8.0000000000017462
 30
0.0
 11
304.7080824764262275
 21
8.0000000000001297
 31
0.0
  0
LINE
  5
298C
  8
246
  6
PHANTOM2
 10
257.0980824764266117
 20
-8.0000000000017621
 30
0.0
 11
257.0980824764266117
 21
8.0000000000001137
 31
0.0
  0
ARC
  5
298E
  8
246
  6
PHANTOM2
 10
279.6980824764264071
 20
0.0000000000001172
 30
0.0
 40
31.7500000000000107
 50
14.5940287352485996
 51
165.4059712647510025
  0
LINE
  5
298F
  8
246
  6
PHANTOM2
 10
248.9724824009192901
 20
-7.9999999999997771
 30
0.0
 11
257.0980824764266117
 21
-7.9999999999997744
 31
0.0
  0
ARC
  5
2990
  8
246
  6
PHANTOM2
 10
279.6980824764264071
 20
0.0000000000001172
 30
0.0
 40
31.7500000000000107
 50
194.5940287352487985
 51
345.4059712647510878
  0
ARC
  5
29A1
  8
246
  6
PHANTOM2
 10
121.999999999999801
 20
-42.5
 30
0.0
 40
5.0
 50
270.0
 51
0.0
  0
LINE
  5
29A2
  8
246
  6
PHANTOM2
 10
39.9999999999998934
 20
47.4999999999998792
 30
0.0
 11
122.999999999999801
 21
47.4999999999999289
 31
0.0
  0
LINE
  5
29A3
  8
246
  6
PHANTOM2
 10
36.464466094067042
 20
43.9644660940670988
 30
0.0
 11
39.9999999999998934
 21
47.4999999999998792
 31
0.0
  0
ARC
  5
29A5
  8
246
  6
PHANTOM2
 10
122.999999999999801
 20
43.4999999999999289
 30
0.0
 40
4.0
 50
0.0
 51
90.0
  0
LINE
  5
29A6
  8
246
  6
PHANTOM2
 10
39.9999999999997797
 20
-47.4999999999999289
 30
0.0
 11
121.999999999999801
 21
-47.5
 31
0.0
  0
LINE
  5
29A7
  8
246
  6
PHANTOM2
 10
34.999999999999801
 20
-42.4999999999997016
 30
0.0
 11
39.9999999999997797
 21
-47.4999999999999289
 31
0.0
  0
TEXT
  5
2A6B
  8
241
  6
CONTINUOUS
 10
-70.0
 20
77.0
 30
0.0
 40
5.0
  1
BCV40Y-180-BH1.000R-5
  7
YOKO
  0
LINE
  5
2AA4
  8
250
  6
CONTINUOUS
 10
128.2539409082554869
 20
0.0000000000000001
 30
0.0
 11
140.7539409082557995
 21
0.0000000000000021
 31
0.0
  0
LINE
  5
2AA5
  8
250
  6
CONTINUOUS
 10
127.5000000000000995
 20
32.9993043394097398
 30
0.0
 11
140.7539409082557995
 21
32.9993043394097398
 31
0.0
  0
LINE
  5
2AA6
  8
250
  6
CONTINUOUS
 10
139.7539409082557995
 20
2.2300000000000022
 30
0.0
 11
139.7539409082557995
 21
30.7693043394097394
 31
0.0
  0
LINE
  5
2AAA
  8
250
  6
CONTINUOUS
 10
140.1256075749224124
 20
2.23
 30
0.0
 11
139.7539409082557995
 21
0.0000000000000019
 31
0.0
  0
LINE
  5
2AAB
  8
250
  6
CONTINUOUS
 10
139.3822742415891867
 20
2.23
 30
0.0
 11
139.7539409082557995
 21
0.0000000000000019
 31
0.0
  0
LINE
  5
2AAC
  8
250
  6
CONTINUOUS
 10
139.7539409082557995
 20
0.0000000000000019
 30
0.0
 11
139.7539409082557995
 21
2.23
 31
0.0
  0
LINE
  5
2CBD
  8
250
  6
CONTINUOUS
 10
139.3822742415891867
 20
30.7693043394097288
 30
0.0
 11
139.7539409082557995
 21
32.9993043394097398
 31
0.0
  0
LINE
  5
2CBE
  8
250
  6
CONTINUOUS
 10
140.1256075749224124
 20
30.7693043394097288
 30
0.0
 11
139.7539409082557995
 21
32.9993043394097398
 31
0.0
  0
LINE
  5
2CBF
  8
250
  6
CONTINUOUS
 10
139.7539409082557995
 20
32.9993043394097398
 30
0.0
 11
139.7539409082557995
 21
30.7693043394097288
 31
0.0
  0
TEXT
  5
2CC0
  8
250
  6
CONTINUOUS
 10
138.7539409082557995
 20
10.3663188363714909
 30
0.0
 40
2.799999999999998
  1
1.299
 50
90.0
  0
LINE
  5
2CC1
  8
250
  6
CONTINUOUS
 10
127.0000000000000995
 20
3.642321810981286
 30
0.0
 11
127.0000000000000995
 21
-64.0
 31
0.0
  0
LINE
  5
2CC2
  8
250
  6
CONTINUOUS
 10
0.0
 20
-22.7250000000000014
 30
0.0
 11
-0.0000000000000026
 21
-64.0
 31
0.0
  0
LINE
  5
2CC3
  8
250
  6
CONTINUOUS
 10
124.7700000000000955
 20
-63.0
 30
0.0
 11
2.229999999999996
 21
-63.0
 31
0.0
  0
LINE
  5
2CC7
  8
250
  6
CONTINUOUS
 10
124.7700000000000955
 20
-62.6283333333333303
 30
0.0
 11
127.0000000000000995
 21
-63.0
 31
0.0
  0
LINE
  5
2CC8
  8
250
  6
CONTINUOUS
 10
124.7700000000000955
 20
-63.3716666666666626
 30
0.0
 11
127.0000000000000995
 21
-63.0
 31
0.0
  0
LINE
  5
2CC9
  8
250
  6
CONTINUOUS
 10
127.0000000000000995
 20
-63.0
 30
0.0
 11
124.7700000000000955
 21
-63.0
 31
0.0
  0
TEXT
  5
2CCA
  8
250
  6
CONTINUOUS
 10
58.8333333333333925
 20
-62.0
 30
0.0
 40
2.799999999999998
  1
5.00
  0
LINE
  5
2CCB
  8
250
  6
CONTINUOUS
 10
2.229999999999996
 20
-63.3716666666666626
 30
0.0
 11
-0.0000000000000025
 21
-63.0
 31
0.0
  0
LINE
  5
2CCC
  8
250
  6
CONTINUOUS
 10
2.229999999999996
 20
-62.6283333333333303
 30
0.0
 11
-0.0000000000000025
 21
-63.0
 31
0.0
  0
LINE
  5
2CCD
  8
250
  6
CONTINUOUS
 10
-0.0000000000000025
 20
-63.0
 30
0.0
 11
2.229999999999996
 21
-63.0
 31
0.0
  0
LINE
  5
2CCE
  8
250
  6
CONTINUOUS
 10
244.5264504437541007
 20
28.5013894425997591
 30
0.0
 11
314.8697145090864069
 21
-28.5013894425997591
 31
0.0
  0
LINE
  5
2CD2
  8
250
  6
CONTINUOUS
 10
244.2924540574165917
 20
28.2126303695092311
 30
0.0
 11
242.7938960052111099
 21
29.9053677606248698
 31
0.0
  0
LINE
  5
2CD3
  8
250
  6
CONTINUOUS
 10
244.7604468300916949
 20
28.7901485156902588
 30
0.0
 11
242.7938960052111099
 21
29.9053677606248698
 31
0.0
  0
LINE
  5
2CD4
  8
250
  6
CONTINUOUS
 10
242.7938960052111099
 20
29.9053677606248698
 30
0.0
 11
244.5264504437541859
 21
28.5013894425997414
 31
0.0
  0
LINE
  5
2CD5
  8
250
  6
CONTINUOUS
 10
315.1037108954238875
 20
-28.2126303695092311
 30
0.0
 11
316.6022689476295113
 21
-29.9053677606248698
 31
0.0
  0
LINE
  5
2CD6
  8
250
  6
CONTINUOUS
 10
314.6357181227489264
 20
-28.7901485156902588
 30
0.0
 11
316.6022689476295113
 21
-29.9053677606248698
 31
0.0
  0
LINE
  5
2CD7
  8
250
  6
CONTINUOUS
 10
316.6022689476295113
 20
-29.9053677606248698
 30
0.0
 11
314.8697145090864069
 21
-28.5013894425997414
 31
0.0
  0
TEXT
  5
2CD8
  8
250
  6
CONTINUOUS
 10
287.7787715514165825
 20
-3.7165425297758641
 30
0.0
 40
2.799999999999998
  1
(\U+22053.74)
 50
320.9803641695111196
  0
LINE
  5
2DCB
  8
250
  6
CONTINUOUS
 10
279.6980913078343747
 20
33.4999999999986926
 30
0.0
 11
279.6980913078343747
 21
64.0
 31
0.0
  0
LINE
  5
2DCC
  8
250
  6
CONTINUOUS
 10
305.0980824764204158
 20
33.4999999999992681
 30
0.0
 11
305.0980824764204158
 21
64.0
 31
0.0
  0
LINE
  5
2DCD
  8
250
  6
CONTINUOUS
 10
281.9280913078343929
 20
63.0
 30
0.0
 11
302.8680824764203976
 21
63.0
 31
0.0
  0
LINE
  5
2DD1
  8
250
  6
CONTINUOUS
 10
281.9280913078343929
 20
62.6283333333333303
 30
0.0
 11
279.6980913078343747
 21
63.0
 31
0.0
  0
LINE
  5
2DD2
  8
250
  6
CONTINUOUS
 10
281.9280913078343929
 20
63.3716666666666626
 30
0.0
 11
279.6980913078343747
 21
63.0
 31
0.0
  0
LINE
  5
2DD3
  8
250
  6
CONTINUOUS
 10
279.6980913078343747
 20
63.0
 30
0.0
 11
281.9280913078343929
 21
63.0
 31
0.0
  0
TEXT
  5
2DD4
  8
250
  6
CONTINUOUS
 10
284.7314202254607949
 20
64.0000000000000142
 30
0.0
 40
2.799999999999998
  1
üá1.000
  0
LINE
  5
2DD5
  8
250
  6
CONTINUOUS
 10
302.8680824764203976
 20
63.3716666666666626
 30
0.0
 11
305.0980824764204158
 21
63.0
 31
0.0
  0
LINE
  5
2DD6
  8
250
  6
CONTINUOUS
 10
302.8680824764203976
 20
62.6283333333333303
 30
0.0
 11
305.0980824764204158
 21
63.0
 31
0.0
  0
LINE
  5
2DD7
  8
250
  6
CONTINUOUS
 10
305.0980824764204158
 20
63.0
 30
0.0
 11
302.8680824764203976
 21
63.0
 31
0.0
  0
LINE
  5
37C9
  8
241
 10
250.9480824764204101
 20
0.0000000000016627
 30
0.0
 11
327.1980824764203817
 21
0.0000000000016627
 31
0.0
  0
LINE
  5
37CC
  8
241
 10
262.0369015261604773
 20
-22.68579263420553
 30
0.0
 11
320.1144104181936996
 21
-22.68579263420553
 31
0.0
  0
VIEWPORT
  5
22
 67
     1
  8
0
 10
261.517699115044195
 20
148.5
 30
0.0
 40
523.0353982300885036
 41
297.0
 68
     1
 69
     1
1001
ACAD
1000
MVIEW
1002
{
1070
    16
1010
0.0
1020
0.0
1030
0.0
1010
0.0
1020
0.0
1030
1.0
1040
0.0
1040
297.0
1040
261.517699115044195
1040
148.5
1040
50.0
1040
0.0
1040
0.0
1070
     0
1070
   100
1070
     1
1070
     1
1070
     0
1070
     0
1070
     0
1070
     0
1040
0.0
1040
0.0
1040
0.0
1040
1.0
1040
1.0
1040
10.0
1040
10.0
1070
     0
1002
{
1002
}
1002
}
1001
GENIUS_GENODEF_13
1002
{
1000
HIER
1070
     0
1002
}
1002
{
1000
MANEDIT
1070
     0
1002
}
1002
{
1000
NOSEL
1070
     0
1002
}
1002
{
1000
BEHIND
1070
     0
1002
}
1002
{
1000
OTHER
1070
     0
1002
}
1002
{
1000
REACTOR
1002
}
1001
GENIUS_GENOBJ-N-SDF_13
1002
{
1000
OWNER
1000
GEN
1002
}
1001
GENIUS_GENSCREG_15
1000
PF
1040
1.0
1000
DF
1040
1.0
1000
MIN
1011
0.0
1021
0.0
1031
0.0
1021
0.0
1031
0.0
1000
MAX
1011
523.0353982300885036
1021
0.0
1031
0.0
1021
297.0
1031
0.0
1000
FLAGS
1070
     4
  0
ENDSEC
  0
EOF
