  0
SECTION
  2
HEADER
  9
$ACADVER
  1
AC1009
  9
$INSBASE
 10
0.0
 20
0.0
 30
0.0
  9
$EXTMIN
 10
-69.25
 20
-58.0924613419339266
 30
0.0
  9
$EXTMAX
 10
305.0721889190191973
 20
82.0
 30
0.0
  9
$LIMMIN
 10
0.0
 20
0.0
  9
$LIMMAX
 10
297.0
 20
210.0
  9
$ORTHOMODE
 70
     0
  9
$REGENMODE
 70
     1
  9
$FILLMODE
 70
     1
  9
$QTEXTMODE
 70
     0
  9
$MIRRTEXT
 70
     1
  9
$DRAGMODE
 70
     2
  9
$LTSCALE
 40
10.0
  9
$OSMODE
 70
   807
  9
$ATTMODE
 70
     1
  9
$TEXTSIZE
 40
3.0
  9
$TRACEWID
 40
1.0
  9
$TEXTSTYLE
  7
YOKO
  9
$CLAYER
  8
240
  9
$CELTYPE
  6
BYLAYER
  9
$CECOLOR
 62
   256
  9
$DIMSCALE
 40
1.0
  9
$DIMASZ
 40
2.0
  9
$DIMEXO
 40
2.0
  9
$DIMDLI
 40
7.0
  9
$DIMRND
 40
0.0
  9
$DIMDLE
 40
0.0
  9
$DIMEXE
 40
2.0
  9
$DIMTP
 40
0.0
  9
$DIMTM
 40
0.01
  9
$DIMTXT
 40
4.0
  9
$DIMCEN
 40
0.0
  9
$DIMTSZ
 40
0.0
  9
$DIMTOL
 70
     0
  9
$DIMLIM
 70
     0
  9
$DIMTIH
 70
     0
  9
$DIMTOH
 70
     0
  9
$DIMSE1
 70
     0
  9
$DIMSE2
 70
     0
  9
$DIMTAD
 70
     3
  9
$DIMZIN
 70
     8
  9
$DIMBLK
  1
OPEN
  9
$DIMASO
 70
     1
  9
$DIMSHO
 70
     1
  9
$DIMPOST
  1

  9
$DIMAPOST
  1

  9
$DIMALT
 70
     0
  9
$DIMALTD
 70
     2
  9
$DIMALTF
 40
25.3999999999999986
  9
$DIMLFAC
 40
1.0
  9
$DIMTOFL
 70
     1
  9
$DIMTVP
 40
0.0
  9
$DIMTIX
 70
     1
  9
$DIMSOXD
 70
     0
  9
$DIMSAH
 70
     0
  9
$DIMBLK1
  1

  9
$DIMBLK2
  1

  9
$DIMSTYLE
  2
BIGT
  9
$DIMCLRD
 70
   256
  9
$DIMCLRE
 70
   256
  9
$DIMCLRT
 70
   256
  9
$DIMTFAC
 40
1.0
  9
$DIMGAP
 40
1.0
  9
$LUNITS
 70
     2
  9
$LUPREC
 70
     3
  9
$SKETCHINC
 40
1.0
  9
$FILLETRAD
 40
0.0
  9
$AUNITS
 70
     0
  9
$AUPREC
 70
     3
  9
$MENU
  1
.
  9
$ELEVATION
 40
0.0
  9
$PELEVATION
 40
0.0
  9
$THICKNESS
 40
0.0
  9
$LIMCHECK
 70
     0
  9
$BLIPMODE
 70
     0
  9
$CHAMFERA
 40
0.25
  9
$CHAMFERB
 40
0.25
  9
$SKPOLY
 70
     0
  9
$TDCREATE
 40
2458170.7112615741789341
  9
$TDUPDATE
 40
2458186.5733217587694526
  9
$TDINDWG
 40
0.1791082523
  9
$TDUSRTIMER
 40
0.1791080787
  9
$USRTIMER
 70
     1
  9
$ANGBASE
 50
0.0
  9
$ANGDIR
 70
     0
  9
$PDMODE
 70
     0
  9
$PDSIZE
 40
-5.0
  9
$PLINEWID
 40
0.0
  9
$COORDS
 70
     1
  9
$SPLFRAME
 70
     0
  9
$SPLINETYPE
 70
     6
  9
$SPLINESEGS
 70
     4
  9
$ATTDIA
 70
     1
  9
$ATTREQ
 70
     1
  9
$HANDLING
 70
     1
  9
$HANDSEED
  5
3EF7
  9
$SURFTAB1
 70
     6
  9
$SURFTAB2
 70
     6
  9
$SURFTYPE
 70
     6
  9
$SURFU
 70
     6
  9
$SURFV
 70
     6
  9
$UCSNAME
  2

  9
$UCSORG
 10
0.0
 20
0.0
 30
0.0
  9
$UCSXDIR
 10
1.0
 20
0.0
 30
0.0
  9
$UCSYDIR
 10
0.0
 20
1.0
 30
0.0
  9
$PUCSNAME
  2

  9
$PUCSORG
 10
0.0
 20
0.0
 30
0.0
  9
$PUCSXDIR
 10
1.0
 20
0.0
 30
0.0
  9
$PUCSYDIR
 10
0.0
 20
1.0
 30
0.0
  9
$USERI1
 70
     1
  9
$USERI2
 70
     0
  9
$USERI3
 70
     0
  9
$USERI4
 70
     0
  9
$USERI5
 70
     0
  9
$USERR1
 40
0.0
  9
$USERR2
 40
0.0
  9
$USERR3
 40
0.0
  9
$USERR4
 40
0.0
  9
$USERR5
 40
0.0
  9
$WORLDVIEW
 70
     1
  9
$SHADEDGE
 70
     3
  9
$SHADEDIF
 70
    70
  9
$TILEMODE
 70
     1
  9
$MAXACTVP
 70
    16
  9
$PLIMCHECK
 70
     0
  9
$PEXTMIN
 10
1.0000000000000000E+20
 20
1.0000000000000000E+20
 30
1.0000000000000000E+20
  9
$PEXTMAX
 10
-1.0000000000000000E+20
 20
-1.0000000000000000E+20
 30
-1.0000000000000000E+20
  9
$PLIMMIN
 10
0.0
 20
0.0
  9
$PLIMMAX
 10
420.0
 20
297.0
  9
$UNITMODE
 70
     0
  9
$VISRETAIN
 70
     1
  9
$PLINEGEN
 70
     0
  9
$PSLTSCALE
 70
     1
  0
ENDSEC
  0
SECTION
  2
TABLES
  0
TABLE
  2
VPORT
 70
     1
  0
VPORT
  2
*ACTIVE
 70
     0
 10
0.0
 20
0.0
 11
1.0
 21
1.0
 12
122.915269548130297
 22
2.1397581851071261
 13
0.0
 23
0.0
 14
7.0
 24
7.0
 15
7.0
 25
7.0
 16
0.0
 26
0.0
 36
1.0
 17
0.0
 27
0.0
 37
0.0
 40
227.5559020437229947
 41
1.8592342342342341
 42
50.0
 43
0.0
 44
0.0
 50
0.0
 51
0.0
 71
     0
 72
  2000
 73
     1
 74
     0
 75
     0
 76
     0
 77
     0
 78
     0
  0
ENDTAB
  0
TABLE
  2
LTYPE
 70
    16
  0
LTYPE
  2
CONTINUOUS
 70
     0
  3
Solid line
 72
    65
 73
     0
 40
0.0
  0
LTYPE
  2
CENTER2
 70
     0
  3
___ _ ___ _ ___ _ ___ _ ___ _ ___ _ ___ _ ___ _
 72
    65
 73
     4
 40
1.125
 49
0.75
 49
-0.125
 49
0.125
 49
-0.125
  0
LTYPE
  2
HIDDEN2
 70
     0
  3
_ _ _ _ _ _ _ _ _ _ _ _ _ _ _ _ _ _ _ _ _ _ _ _
 72
    65
 73
     2
 40
0.1875
 49
0.125
 49
-0.0625
  0
LTYPE
  2
PHANTOM2
 70
     0
  3
___ _ _ ___ _ _ ___ _ _ ___ _ _ ___ _ _ ___ _ _
 72
    65
 73
     6
 40
1.25
 49
0.625
 49
-0.125
 49
0.125
 49
-0.125
 49
0.125
 49
-0.125
  0
LTYPE
  2
HIDDEN
 70
     0
  3
Hidden __ __ __ __ __ __ __ __ __ __ __ __ __ _
 72
    65
 73
     2
 40
0.375
 49
0.25
 49
-0.125
  0
LTYPE
  2
CENTER
 70
     0
  3
Center ____ _ ____ _ ____ _ ____ _ ____ _ ____
 72
    65
 73
     4
 40
2.0
 49
1.25
 49
-0.25
 49
0.25
 49
-0.25
  0
LTYPE
  2
AMCONSTR
 70
     0
  3
_______________________
 72
    65
 73
     2
 40
9999.0
 49
9999.0
 49
0.0
  0
LTYPE
  2
AMZIGZAG2
 70
     0
  3
/\/-/\/-/\/-/\/-/\/-/\/
 72
    65
 73
     2
 40
0.4401
 49
0.0001
 49
-0.4400000000000001
  0
LTYPE
  2
ACANSTGB
 70
     0
  3
__ . . __ . .
 72
    65
 73
     6
 40
0.35433070866
 49
0.15748031496
 49
-0.03937007874
 49
0.03937007874
 49
-0.03937007874
 49
0.03937007874
 49
-0.03937007874
  0
LTYPE
  2
ACANSTGL
 70
     0
  3
_ _ _ _ _
 72
    65
 73
     2
 40
0.11811023622
 49
0.07874015748
 49
-0.03937007874
  0
ENDTAB
  0
TABLE
  2
LAYER
 70
     9
  0
LAYER
  2
0
 70
     0
 62
     7
  6
CONTINUOUS
  0
LAYER
  2
240
 70
     0
 62
     4
  6
CONTINUOUS
  0
LAYER
  2
245
 70
     0
 62
     2
  6
CENTER2
  0
LAYER
  2
241
 70
     0
 62
   211
  6
CONTINUOUS
  0
LAYER
  2
242
 70
     0
 62
     3
  6
CONTINUOUS
  0
LAYER
  2
243
 70
     0
 62
   211
  6
HIDDEN2
  0
LAYER
  2
246
 70
     0
 62
     3
  6
PHANTOM2
  0
LAYER
  2
247
 70
     0
 62
    60
  6
CONTINUOUS
  0
LAYER
  2
250
 70
     0
 62
     3
  6
CONTINUOUS
  0
ENDTAB
  0
TABLE
  2
STYLE
 70
     5
  0
STYLE
  2
STANDARD
 70
     0
 40
0.0
 41
1.0
 50
0.0
 71
     0
 42
3.0
  3
romans.shx
  4
extfont.shx
  0
STYLE
  2
YOKO
 70
     0
 40
0.0
 41
1.0
 50
0.0
 71
     0
 42
3.0
  3
romans.shx
  4
extfont.shx
  0
STYLE
  2

 70
     1
 40
0.0
 41
1.0
 50
0.0
 71
     0
 42
3.0
  3
genltshp.shx
  4

  0
STYLE
  2
ACANSGDT
 70
     0
 40
0.0
 41
1.0
 50
0.0
 71
     0
 42
3.0
  3
amgdt.shx
  4

  0
ENDTAB
  0
TABLE
  2
VIEW
 70
     0
  0
ENDTAB
  0
TABLE
  2
UCS
 70
     0
  0
ENDTAB
  0
TABLE
  2
APPID
 70
    46
  0
APPID
  2
ACAD
 70
     0
  0
APPID
  2
ACADANNOTATIVE
 70
     0
  0
APPID
  2
GLOBAL
 70
     0
  0
APPID
  2
DETAIL
 70
     0
  0
APPID
  2
GRPNAME
 70
     0
  0
APPID
  2
GPARA
 70
     0
  0
APPID
  2
MCAD_NO_VIS
 70
     0
  0
APPID
  2
ACAD_TEMP_GRAPHIC
 70
     0
  0
APPID
  2
ACATTRIBSERVICES
 70
     0
  0
APPID
  2
GENIUS_GENSCREG_15
 70
     0
  0
APPID
  2
GENIUS_GENODEF_13
 70
     0
  0
APPID
  2
GENIUS_GENOBJ-N-SDF_13
 70
     0
  0
APPID
  2
GENIUS_GENREC_14
 70
     0
  0
APPID
  2
GENIUS_GENOBJ-N-REC_13
 70
     0
  0
APPID
  2
GENIUS_GENDIMSH_14
 70
     0
  0
APPID
  2
GENIUS_GENOBJ-N-DIM_13
 70
     0
  0
APPID
  2
GENIUS_GENDIM_13
 70
     0
  0
APPID
  2
GENIUS_GENDTOL_13
 70
     0
  0
APPID
  2
GENIUS_GENOLIS_13
 70
     0
  0
APPID
  2
GENIUS_GENOENT_13
 70
     0
  0
APPID
  2
GENIUS_GENOBJ-F-FEM_13
 70
     0
  0
APPID
  2
GENIUS_GENOREF_13
 70
     0
  0
APPID
  2
GENIUS_GEFFEM_13
 70
     0
  0
APPID
  2
GENIUS_GEFFEMP_13
 70
     0
  0
APPID
  2
AD_DRAW
 70
     0
  0
APPID
  2
DESIGNERASSEMBLIES
 70
     0
  0
APPID
  2
ACADM_DIM_EDIT
 70
     0
  0
APPID
  2
AMDT_DM_ADJ
 70
     0
  0
APPID
  2
ACAD_NAV_VCDISPLAY
 70
     0
  0
APPID
  2
ITEMNAME
 70
     0
  0
APPID
  2
GRADE_0
 70
     0
  0
APPID
  2
ACAD_DSTYLE_DIMJAG
 70
     0
  0
APPID
  2
ACAD_DSTYLE_DIMTALN
 70
     0
  0
APPID
  2
ACAD_DSTYLE_DIMBREAK
 70
     0
  0
APPID
  2
ACAD_PSEXT
 70
     0
  0
APPID
  2
ACAD_DSTYLE_DIMINSPECT
 70
     0
  0
APPID
  2
ACADANNOMONITORALERTICONDI
 70
     0
  0
APPID
  2
ACAD_EXEMPT_FROM_CAD_STANDARDS
 70
     0
  0
APPID
  2
GENIUS_GENOBJ-N-FIL_13
 70
     0
  0
APPID
  2
ACAD_MLEADERVER
 70
     0
  0
APPID
  2
ACAD_DSTYLE_DIMARC_LENGTH_
 70
     0
  0
APPID
  2
ACAD_DSTYLE_DIM_LINETYPE
 70
     0
  0
APPID
  2
ACAD_DSTYLE_DIM_EXT1_LINETYPE
 70
     0
  0
APPID
  2
ACAD_DSTYLE_DIM_EXT2_LINETYPE
 70
     0
  0
APPID
  2
ACAECLAYERSTANDARD
 70
     0
  0
APPID
  2
ACAD_DSTYLE_DIMRADIAL_EXTENSION
 70
     0
  0
ENDTAB
  0
TABLE
  2
DIMSTYLE
 70
     7
  0
DIMSTYLE
  2
BIGT
 70
     0
  3

  4

  5

  6

  7

 40
1.0
 41
2.2299999999999991
 42
0.5
 43
7.0
 44
1.0
 45
0.0
 46
0.0
 47
0.0
 48
0.01
140
2.799999999999998
141
0.0
142
0.0
143
25.3999999999999986
144
1.0
145
0.0
146
1.0
147
1.0
 71
     0
 72
     0
 73
     0
 74
     0
 75
     0
 76
     0
 77
     3
 78
     9
170
     0
171
     2
172
     1
173
     0
174
     1
175
     0
176
   256
177
   256
178
    40
  0
DIMSTYLE
  2
AM_ANSI
 70
     0
  3

  4
mm
  5

  6

  7

 40
1.0
 41
0.12
 42
0.05
 43
0.5
 44
0.1
 45
0.0
 46
0.0
 47
0.1
 48
0.1
140
0.12
141
0.0
142
0.0
143
25.3999999999999986
144
1.0
145
0.0
146
0.71
147
0.06
 71
     0
 72
     0
 73
     1
 74
     1
 75
     0
 76
     0
 77
     0
 78
     7
170
     0
171
     2
172
     0
173
     0
174
     0
175
     0
176
   256
177
   256
178
     2
  0
DIMSTYLE
  2
AM_ANSI$3
 70
     0
  3

  4
mm
  5

  6

  7

 40
1.0
 41
0.12
 42
0.05
 43
0.5
 44
0.1
 45
0.0
 46
0.0
 47
0.1
 48
0.1
140
0.12
141
0.0
142
0.0
143
25.3999999999999986
144
1.0
145
0.0
146
0.71
147
0.06
 71
     0
 72
     0
 73
     1
 74
     1
 75
     0
 76
     0
 77
     0
 78
     7
170
     0
171
     2
172
     0
173
     0
174
     0
175
     0
176
   256
177
   256
178
     2
  0
DIMSTYLE
  2
AM_ANSI$4
 70
     0
  3

  4
mm
  5

  6

  7

 40
1.0
 41
0.12
 42
0.05
 43
0.5
 44
0.1
 45
0.0
 46
0.0
 47
0.1
 48
0.1
140
0.12
141
0.0
142
0.0
143
25.3999999999999986
144
1.0
145
0.0
146
0.71
147
0.06
 71
     0
 72
     0
 73
     1
 74
     1
 75
     0
 76
     0
 77
     0
 78
     7
170
     0
171
     2
172
     0
173
     0
174
     0
175
     0
176
   256
177
   256
178
     2
  0
DIMSTYLE
  2
AM_ANSI$7
 70
     0
  3

  4
mm
  5

  6

  7

 40
1.0
 41
0.12
 42
0.05
 43
0.5
 44
0.1
 45
0.0
 46
0.0
 47
0.1
 48
0.1
140
0.12
141
0.0
142
0.0
143
25.3999999999999986
144
1.0
145
0.0
146
0.71
147
0.06
 71
     0
 72
     0
 73
     1
 74
     1
 75
     0
 76
     0
 77
     0
 78
     7
170
     0
171
     2
172
     0
173
     0
174
     0
175
     0
176
   256
177
   256
178
     2
  0
DIMSTYLE
  2
AM_ANSI$SF
 70
     0
  3

  4
mm
  5

  6

  7

 40
1.0
 41
0.12
 42
0.05
 43
0.5
 44
0.1
 45
0.0
 46
0.0
 47
0.1
 48
0.1
140
0.12
141
0.0
142
0.0
143
25.3999999999999986
144
1.0
145
0.0
146
0.71
147
0.06
 71
     0
 72
     0
 73
     1
 74
     1
 75
     1
 76
     1
 77
     0
 78
     7
170
     0
171
     2
172
     0
173
     0
174
     0
175
     0
176
   256
177
   256
178
     2
  0
DIMSTYLE
  2
AM_ANSI$SH
 70
     0
  3

  4
mm
  5

  6
GENAXEH
  7

 40
1.0
 41
0.12
 42
0.05
 43
0.5
 44
0.1
 45
0.0
 46
0.0
 47
0.1
 48
0.1
140
0.12
141
0.0
142
0.0
143
25.3999999999999986
144
1.0
145
0.0
146
0.71
147
0.06
 71
     0
 72
     0
 73
     1
 74
     1
 75
     1
 76
     1
 77
     0
 78
     7
170
     0
171
     2
172
     0
173
     1
174
     0
175
     0
176
   256
177
   256
178
     2
  0
ENDTAB
  0
ENDSEC
  0
SECTION
  2
BLOCKS
  0
BLOCK
  8
0
  2
$MODEL_SPACE
 70
     0
 10
0.0
 20
0.0
 30
0.0
  3
$MODEL_SPACE
  1

  0
ENDBLK
  5
3D50
  8
0
  0
BLOCK
 67
     1
  8
0
  2
$PAPER_SPACE
 70
     0
 10
0.0
 20
0.0
 30
0.0
  3
$PAPER_SPACE
  1

  0
ENDBLK
  5
3D4C
 67
     1
  8
0
  0
BLOCK
  8
0
  2
_OPEN
 70
     0
 10
0.0
 20
0.0
 30
0.0
  3
_OPEN
  1

  0
LINE
  5
595
  8
0
  6
BYBLOCK
 62
     0
 10
-1.0
 20
0.1666666666666666
 30
0.0
 11
0.0
 21
0.0
 31
0.0
  0
LINE
  5
596
  8
0
  6
BYBLOCK
 62
     0
 10
-1.0
 20
-0.1666666666666666
 30
0.0
 11
0.0
 21
0.0
 31
0.0
  0
LINE
  5
597
  8
0
  6
BYBLOCK
 62
     0
 10
0.0
 20
0.0
 30
0.0
 11
-1.0
 21
0.0
 31
0.0
  0
ENDBLK
  5
599
  8
0
  0
BLOCK
  8
0
  2
GENAXEH
 70
     0
 10
0.0
 20
0.0
 30
0.0
  3
GENAXEH
  1

  0
LINE
  5
3E86
  8
0
 10
-1.0
 20
0.0
 30
0.0
 11
1.0
 21
0.0
 31
0.0
  0
ENDBLK
  5
3E88
  8
0
  0
BLOCK
  8
0
  2
_ACMFILLEDHALF
 70
     0
 10
0.0
 20
0.0
 30
0.0
  3
_ACMFILLEDHALF
  1

  0
TRACE
  5
3E96
  8
240
 62
     0
 10
-0.8
 20
0.0
 30
0.0
 11
-1.0
 21
0.166666666
 31
0.0
 12
0.0
 22
0.0
 32
0.0
 13
0.0
 23
0.0
 33
0.0
  0
LINE
  5
3E97
  8
240
 62
     0
 10
-1.0
 20
0.0
 30
0.0
 11
-0.8
 21
0.0
 31
0.0
  0
ENDBLK
  5
3E95
  8
0
  0
ENDSEC
  0
SECTION
  2
ENTITIES
  0
ARC
  5
1861
  8
240
  6
CONTINUOUS
 10
251.999999999994202
 20
-4.25
 30
0.0
 40
28.75
 50
187.494717453929411
 51
221.9743579732393073
  0
LINE
  5
1862
  8
245
  6
CENTER2
 10
251.999999999994202
 20
0.0
 30
0.0
 11
251.9999999999938893
 21
-50.7915881200787993
 31
0.0
  0
LINE
  5
1863
  8
241
  6
CONTINUOUS
 10
277.3999999999941792
 20
-32.9999999999992966
 30
0.0
 11
277.3999999999941792
 21
-7.6000000000001391
 31
0.0
  0
ARC
  5
1865
  8
240
  6
CONTINUOUS
 10
251.999999999994202
 20
0.0
 30
0.0
 40
47.4999999999999929
 50
326.3687225520678794
 51
18.5530045350240016
  0
CIRCLE
  5
1866
  8
246
  6
PHANTOM2
 10
251.999999999994202
 20
0.0
 30
0.0
 40
47.5
  0
ARC
  5
1868
  8
241
  6
CONTINUOUS
 10
234.9999999999940883
 20
-9.9282032302754715
 30
0.0
 40
7.9100707570572943
 50
344.8160485684463765
 51
47.0107077130271165
  0
ARC
  5
186A
  8
240
  6
CONTINUOUS
 10
251.9999999999942872
 20
-0.0000000000001137
 30
0.0
 40
28.7500000000001492
 50
90.0
 51
125.2486176409638006
  0
POLYLINE
  5
186E
  8
241
  6
CONTINUOUS
 66
     1
 10
0.0
 20
0.0
 30
0.0
 70
     8
  0
VERTEX
  5
3514
  8
241
 10
242.6339999999999861
 20
-12.0
 30
0.0
 70
    32
  0
VERTEX
  5
3515
  8
241
 10
242.6040000000000134
 20
-12.1072000000000006
 30
0.0
 70
    32
  0
VERTEX
  5
3516
  8
241
 10
242.5730000000000075
 20
-12.2139000000000006
 30
0.0
 70
    32
  0
VERTEX
  5
3517
  8
241
 10
242.5409999999999968
 20
-12.3202999999999996
 30
0.0
 70
    32
  0
VERTEX
  5
3518
  8
241
 10
242.5080000000000098
 20
-12.4260999999999999
 30
0.0
 70
    32
  0
VERTEX
  5
3519
  8
241
 10
242.4739999999999895
 20
-12.5314999999999994
 30
0.0
 70
    32
  0
VERTEX
  5
351A
  8
241
 10
242.438999999999993
 20
-12.6364000000000001
 30
0.0
 70
    32
  0
VERTEX
  5
351B
  8
241
 10
242.4019999999999868
 20
-12.7408000000000001
 30
0.0
 70
    32
  0
VERTEX
  5
351C
  8
241
 10
242.3650000000000091
 20
-12.8446999999999996
 30
0.0
 70
    32
  0
VERTEX
  5
351D
  8
241
 10
242.3259999999999934
 20
-12.9480000000000004
 30
0.0
 70
    32
  0
VERTEX
  5
351E
  8
241
 10
242.2870000000000061
 20
-13.0508000000000006
 30
0.0
 70
    32
  0
VERTEX
  5
351F
  8
241
 10
242.2460000000000093
 20
-13.1530000000000005
 30
0.0
 70
    32
  0
VERTEX
  5
3520
  8
241
 10
242.2040000000000077
 20
-13.2546999999999997
 30
0.0
 70
    32
  0
VERTEX
  5
3521
  8
241
 10
242.1610000000000014
 20
-13.3557000000000006
 30
0.0
 70
    32
  0
VERTEX
  5
3522
  8
241
 10
242.1169999999999902
 20
-13.4560999999999993
 30
0.0
 70
    32
  0
VERTEX
  5
3523
  8
241
 10
242.0720000000000027
 20
-13.5559999999999992
 30
0.0
 70
    32
  0
VERTEX
  5
3524
  8
241
 10
242.0260000000000105
 20
-13.6550999999999991
 30
0.0
 70
    32
  0
VERTEX
  5
3525
  8
241
 10
241.9790000000000134
 20
-13.7536000000000005
 30
0.0
 70
    32
  0
VERTEX
  5
3526
  8
241
 10
241.9310000000000116
 20
-13.8514999999999997
 30
0.0
 70
    32
  0
VERTEX
  5
3527
  8
241
 10
241.8810000000000002
 20
-13.9486000000000008
 30
0.0
 70
    32
  0
VERTEX
  5
3528
  8
241
 10
241.8309999999999889
 20
-14.0450999999999997
 30
0.0
 70
    32
  0
VERTEX
  5
3529
  8
241
 10
241.7800000000000011
 20
-14.1408000000000005
 30
0.0
 70
    32
  0
VERTEX
  5
352A
  8
241
 10
241.7280000000000086
 20
-14.2357999999999993
 30
0.0
 70
    32
  0
VERTEX
  5
352B
  8
241
 10
241.6750000000000114
 20
-14.3300999999999998
 30
0.0
 70
    32
  0
VERTEX
  5
352C
  8
241
 10
241.6200000000000045
 20
-14.4236000000000004
 30
0.0
 70
    32
  0
VERTEX
  5
352D
  8
241
 10
241.5649999999999977
 20
-14.5164000000000009
 30
0.0
 70
    32
  0
VERTEX
  5
352E
  8
241
 10
241.5089999999999861
 20
-14.6082999999999998
 30
0.0
 70
    32
  0
VERTEX
  5
352F
  8
241
 10
241.4519999999999982
 20
-14.6995000000000005
 30
0.0
 70
    32
  0
VERTEX
  5
3530
  8
241
 10
241.3940000000000055
 20
-14.7898999999999994
 30
0.0
 70
    32
  0
VERTEX
  5
3531
  8
241
 10
241.335000000000008
 20
-14.8794000000000004
 30
0.0
 70
    32
  0
VERTEX
  5
3532
  8
241
 10
241.2750000000000057
 20
-14.9680999999999997
 30
0.0
 70
    32
  0
VERTEX
  5
3533
  8
241
 10
241.2139999999999986
 20
-15.0558999999999994
 30
0.0
 70
    32
  0
VERTEX
  5
3534
  8
241
 10
241.1519999999999868
 20
-15.1428999999999991
 30
0.0
 70
    32
  0
VERTEX
  5
3535
  8
241
 10
241.0889999999999986
 20
-15.2289999999999992
 30
0.0
 70
    32
  0
VERTEX
  5
3536
  8
241
 10
241.0250000000000057
 20
-15.3141999999999996
 30
0.0
 70
    32
  0
VERTEX
  5
3537
  8
241
 10
240.9610000000000127
 20
-15.3985000000000003
 30
0.0
 70
    32
  0
VERTEX
  5
3538
  8
241
 10
240.8950000000000102
 20
-15.4818999999999996
 30
0.0
 70
    32
  0
VERTEX
  5
3539
  8
241
 10
240.8290000000000077
 20
-15.5643999999999991
 30
0.0
 70
    32
  0
VERTEX
  5
353A
  8
241
 10
240.7620000000000005
 20
-15.6458999999999993
 30
0.0
 70
    32
  0
VERTEX
  5
353B
  8
241
 10
240.6939999999999884
 20
-15.7264999999999997
 30
0.0
 70
    32
  0
VERTEX
  5
353C
  8
241
 10
240.625
 20
-15.8061000000000007
 30
0.0
 70
    32
  0
VERTEX
  5
353D
  8
241
 10
240.5550000000000068
 20
-15.8848000000000003
 30
0.0
 70
    32
  0
VERTEX
  5
353E
  8
241
 10
240.4850000000000136
 20
-15.9624000000000006
 30
0.0
 70
    32
  0
VERTEX
  5
353F
  8
241
 10
240.4130000000000109
 20
-16.0391000000000012
 30
0.0
 70
    32
  0
VERTEX
  5
3540
  8
241
 10
240.3410000000000082
 20
-16.1146999999999991
 30
0.0
 70
    32
  0
VERTEX
  5
3541
  8
241
 10
240.2680000000000007
 20
-16.1893999999999991
 30
0.0
 70
    32
  0
VERTEX
  5
3542
  8
241
 10
240.1949999999999932
 20
-16.2630000000000017
 30
0.0
 70
    32
  0
VERTEX
  5
3543
  8
241
 10
240.1200000000000045
 20
-16.3354999999999997
 30
0.0
 70
    32
  0
VERTEX
  5
3544
  8
241
 10
240.0449999999999875
 20
-16.407
 30
0.0
 70
    32
  0
VERTEX
  5
3545
  8
241
 10
239.9689999999999941
 20
-16.4774999999999991
 30
0.0
 70
    32
  0
VERTEX
  5
3546
  8
241
 10
239.8919999999999959
 20
-16.5468000000000011
 30
0.0
 70
    32
  0
VERTEX
  5
3547
  8
241
 10
239.8149999999999977
 20
-16.6151000000000018
 30
0.0
 70
    32
  0
VERTEX
  5
3548
  8
241
 10
239.73599999999999
 20
-16.6823000000000015
 30
0.0
 70
    32
  0
VERTEX
  5
3549
  8
241
 10
239.6570000000000107
 20
-16.7483000000000004
 30
0.0
 70
    32
  0
VERTEX
  5
354A
  8
241
 10
239.578000000000003
 20
-16.8133000000000017
 30
0.0
 70
    32
  0
VERTEX
  5
354B
  8
241
 10
239.4979999999999905
 20
-16.8770999999999987
 30
0.0
 70
    32
  0
VERTEX
  5
354C
  8
241
 10
239.4170000000000016
 20
-16.9399000000000015
 30
0.0
 70
    32
  0
VERTEX
  5
354D
  8
241
 10
239.335000000000008
 20
-17.0014000000000003
 30
0.0
 70
    32
  0
VERTEX
  5
354E
  8
241
 10
239.2529999999999859
 20
-17.0618000000000016
 30
0.0
 70
    32
  0
VERTEX
  5
354F
  8
241
 10
239.1699999999999875
 20
-17.1210999999999984
 30
0.0
 70
    32
  0
VERTEX
  5
3550
  8
241
 10
239.0860000000000127
 20
-17.1790999999999983
 30
0.0
 70
    32
  0
VERTEX
  5
3551
  8
241
 10
239.0020000000000095
 20
-17.2360000000000007
 30
0.0
 70
    32
  0
VERTEX
  5
3552
  8
241
 10
238.9180000000000064
 20
-17.2916999999999987
 30
0.0
 70
    32
  0
VERTEX
  5
3553
  8
241
 10
238.8319999999999936
 20
-17.3462999999999994
 30
0.0
 70
    32
  0
VERTEX
  5
3554
  8
241
 10
238.7470000000000141
 20
-17.3995999999999995
 30
0.0
 70
    32
  0
VERTEX
  5
3555
  8
241
 10
238.6599999999999966
 20
-17.4516999999999989
 30
0.0
 70
    32
  0
VERTEX
  5
3556
  8
241
 10
238.5730000000000075
 20
-17.5025000000000013
 30
0.0
 70
    32
  0
VERTEX
  5
3557
  8
241
 10
238.48599999999999
 20
-17.5521999999999991
 30
0.0
 70
    32
  0
VERTEX
  5
3558
  8
241
 10
238.3979999999999961
 20
-17.6006
 30
0.0
 70
    32
  0
VERTEX
  5
3559
  8
241
 10
238.3089999999999975
 20
-17.6478000000000002
 30
0.0
 70
    32
  0
VERTEX
  5
355A
  8
241
 10
238.2199999999999989
 20
-17.6936999999999998
 30
0.0
 70
    32
  0
VERTEX
  5
355B
  8
241
 10
238.1310000000000002
 20
-17.7383999999999986
 30
0.0
 70
    32
  0
VERTEX
  5
355C
  8
241
 10
238.0409999999999968
 20
-17.7818000000000005
 30
0.0
 70
    32
  0
VERTEX
  5
355D
  8
241
 10
237.9509999999999934
 20
-17.8240000000000016
 30
0.0
 70
    32
  0
VERTEX
  5
355E
  8
241
 10
237.8600000000000136
 20
-17.8647999999999989
 30
0.0
 70
    32
  0
VERTEX
  5
355F
  8
241
 10
237.7690000000000055
 20
-17.904399999999999
 30
0.0
 70
    32
  0
VERTEX
  5
3560
  8
241
 10
237.6769999999999925
 20
-17.9426999999999985
 30
0.0
 70
    32
  0
VERTEX
  5
3561
  8
241
 10
237.585000000000008
 20
-17.9797000000000011
 30
0.0
 70
    32
  0
VERTEX
  5
3562
  8
241
 10
237.4919999999999902
 20
-18.0153999999999996
 30
0.0
 70
    32
  0
VERTEX
  5
3563
  8
241
 10
237.4000000000000057
 20
-18.0499000000000009
 30
0.0
 70
    32
  0
VERTEX
  5
3564
  8
241
 10
237.3060000000000116
 20
-18.0829999999999984
 30
0.0
 70
    32
  0
VERTEX
  5
3565
  8
241
 10
237.2129999999999939
 20
-18.1147999999999989
 30
0.0
 70
    32
  0
VERTEX
  5
3566
  8
241
 10
237.1189999999999998
 20
-18.1451999999999991
 30
0.0
 70
    32
  0
VERTEX
  5
3567
  8
241
 10
237.0250000000000057
 20
-18.1743999999999986
 30
0.0
 70
    32
  0
VERTEX
  5
3568
  8
241
 10
236.9310000000000116
 20
-18.2022000000000013
 30
0.0
 70
    32
  0
VERTEX
  5
3569
  8
241
 10
236.8360000000000127
 20
-18.2286999999999999
 30
0.0
 70
    32
  0
VERTEX
  5
356A
  8
241
 10
236.7410000000000139
 20
-18.2537999999999982
 30
0.0
 70
    32
  0
VERTEX
  5
356B
  8
241
 10
236.6459999999999866
 20
-18.2776999999999994
 30
0.0
 70
    32
  0
VERTEX
  5
356C
  8
241
 10
236.5500000000000114
 20
-18.3001000000000005
 30
0.0
 70
    32
  0
VERTEX
  5
356D
  8
241
 10
236.4540000000000077
 20
-18.3213000000000008
 30
0.0
 70
    32
  0
VERTEX
  5
356E
  8
241
 10
236.3580000000000041
 20
-18.3411000000000008
 30
0.0
 70
    32
  0
VERTEX
  5
356F
  8
241
 10
236.2620000000000005
 20
-18.3595000000000006
 30
0.0
 70
    32
  0
VERTEX
  5
3570
  8
241
 10
236.1659999999999968
 20
-18.3765999999999998
 30
0.0
 70
    32
  0
VERTEX
  5
3571
  8
241
 10
236.0689999999999884
 20
-18.3922999999999988
 30
0.0
 70
    32
  0
VERTEX
  5
3572
  8
241
 10
235.9730000000000132
 20
-18.4067000000000007
 30
0.0
 70
    32
  0
VERTEX
  5
3573
  8
241
 10
235.8760000000000048
 20
-18.4196999999999989
 30
0.0
 70
    32
  0
VERTEX
  5
3574
  8
241
 10
235.7789999999999964
 20
-18.4313000000000002
 30
0.0
 70
    32
  0
VERTEX
  5
3575
  8
241
 10
235.6819999999999879
 20
-18.4416000000000011
 30
0.0
 70
    32
  0
VERTEX
  5
3576
  8
241
 10
235.585000000000008
 20
-18.4505000000000017
 30
0.0
 70
    32
  0
VERTEX
  5
3577
  8
241
 10
235.4879999999999995
 20
-18.4579999999999984
 30
0.0
 70
    32
  0
VERTEX
  5
3578
  8
241
 10
235.3899999999999864
 20
-18.4642000000000017
 30
0.0
 70
    32
  0
VERTEX
  5
3579
  8
241
 10
235.2930000000000064
 20
-18.4690000000000012
 30
0.0
 70
    32
  0
VERTEX
  5
357A
  8
241
 10
235.1949999999999932
 20
-18.4725000000000001
 30
0.0
 70
    32
  0
VERTEX
  5
357B
  8
241
 10
235.0980000000000132
 20
-18.474499999999999
 30
0.0
 70
    32
  0
VERTEX
  5
357C
  8
241
 10
235.0
 20
-18.475200000000001
 30
0.0
 70
    32
  0
VERTEX
  5
357D
  8
241
 10
234.9029999999999916
 20
-18.474499999999999
 30
0.0
 70
    32
  0
VERTEX
  5
357E
  8
241
 10
234.8060000000000116
 20
-18.4725000000000001
 30
0.0
 70
    32
  0
VERTEX
  5
357F
  8
241
 10
234.7079999999999984
 20
-18.469100000000001
 30
0.0
 70
    32
  0
VERTEX
  5
3580
  8
241
 10
234.61099999999999
 20
-18.4643000000000015
 30
0.0
 70
    32
  0
VERTEX
  5
3581
  8
241
 10
234.5130000000000052
 20
-18.4581000000000017
 30
0.0
 70
    32
  0
VERTEX
  5
3582
  8
241
 10
234.4159999999999968
 20
-18.4506000000000014
 30
0.0
 70
    32
  0
VERTEX
  5
3583
  8
241
 10
234.3189999999999884
 20
-18.4417000000000009
 30
0.0
 70
    32
  0
VERTEX
  5
3584
  8
241
 10
234.2220000000000084
 20
-18.4314
 30
0.0
 70
    32
  0
VERTEX
  5
3585
  8
241
 10
234.125
 20
-18.4197999999999986
 30
0.0
 70
    32
  0
VERTEX
  5
3586
  8
241
 10
234.0279999999999916
 20
-18.4068000000000005
 30
0.0
 70
    32
  0
VERTEX
  5
3587
  8
241
 10
233.9319999999999879
 20
-18.3924999999999983
 30
0.0
 70
    32
  0
VERTEX
  5
3588
  8
241
 10
233.835000000000008
 20
-18.3766999999999996
 30
0.0
 70
    32
  0
VERTEX
  5
3589
  8
241
 10
233.7390000000000043
 20
-18.3597000000000001
 30
0.0
 70
    32
  0
VERTEX
  5
358A
  8
241
 10
233.6430000000000007
 20
-18.3413000000000004
 30
0.0
 70
    32
  0
VERTEX
  5
358B
  8
241
 10
233.546999999999997
 20
-18.3215000000000003
 30
0.0
 70
    32
  0
VERTEX
  5
358C
  8
241
 10
233.4509999999999934
 20
-18.3003999999999998
 30
0.0
 70
    32
  0
VERTEX
  5
358D
  8
241
 10
233.3549999999999898
 20
-18.2778999999999989
 30
0.0
 70
    32
  0
VERTEX
  5
358E
  8
241
 10
233.2599999999999909
 20
-18.2541000000000011
 30
0.0
 70
    32
  0
VERTEX
  5
358F
  8
241
 10
233.164999999999992
 20
-18.2289999999999992
 30
0.0
 70
    32
  0
VERTEX
  5
3590
  8
241
 10
233.0699999999999932
 20
-18.2025000000000006
 30
0.0
 70
    32
  0
VERTEX
  5
3591
  8
241
 10
232.9759999999999991
 20
-18.1747000000000014
 30
0.0
 70
    32
  0
VERTEX
  5
3592
  8
241
 10
232.882000000000005
 20
-18.1454999999999984
 30
0.0
 70
    32
  0
VERTEX
  5
3593
  8
241
 10
232.7880000000000109
 20
-18.1151000000000018
 30
0.0
 70
    32
  0
VERTEX
  5
3594
  8
241
 10
232.6939999999999884
 20
-18.0833000000000013
 30
0.0
 70
    32
  0
SEQEND
  5
3595
  8
241
  0
POLYLINE
  5
186F
  8
241
  6
CONTINUOUS
 66
     1
 10
0.0
 20
0.0
 30
0.0
 70
     8
  0
VERTEX
  5
3596
  8
241
 10
241.0
 20
-7.282449999999999
 30
0.0
 70
    32
  0
VERTEX
  5
3597
  8
241
 10
240.992999999999995
 20
-7.53742
 30
0.0
 70
    32
  0
VERTEX
  5
3598
  8
241
 10
240.9710000000000036
 20
-7.79176
 30
0.0
 70
    32
  0
VERTEX
  5
3599
  8
241
 10
240.9350000000000023
 20
-8.0448899999999988
 30
0.0
 70
    32
  0
VERTEX
  5
359A
  8
241
 10
240.8849999999999909
 20
-8.29617
 30
0.0
 70
    32
  0
VERTEX
  5
359B
  8
241
 10
240.8199999999999932
 20
-8.5450100000000013
 30
0.0
 70
    32
  0
VERTEX
  5
359C
  8
241
 10
240.7419999999999902
 20
-8.7908200000000001
 30
0.0
 70
    32
  0
VERTEX
  5
359D
  8
241
 10
240.6490000000000009
 20
-9.0329800000000002
 30
0.0
 70
    32
  0
VERTEX
  5
359E
  8
241
 10
240.5430000000000064
 20
-9.2709299999999981
 30
0.0
 70
    32
  0
VERTEX
  5
359F
  8
241
 10
240.4240000000000066
 20
-9.5040899999999997
 30
0.0
 70
    32
  0
VERTEX
  5
35A0
  8
241
 10
240.2920000000000016
 20
-9.7318999999999996
 30
0.0
 70
    32
  0
VERTEX
  5
35A1
  8
241
 10
240.1459999999999866
 20
-9.9538100000000007
 30
0.0
 70
    32
  0
VERTEX
  5
35A2
  8
241
 10
239.9890000000000043
 20
-10.1692999999999998
 30
0.0
 70
    32
  0
VERTEX
  5
35A3
  8
241
 10
239.8189999999999884
 20
-10.3778000000000006
 30
0.0
 70
    32
  0
VERTEX
  5
35A4
  8
241
 10
239.6380000000000052
 20
-10.5789000000000009
 30
0.0
 70
    32
  0
VERTEX
  5
35A5
  8
241
 10
239.445999999999998
 20
-10.7720000000000002
 30
0.0
 70
    32
  0
VERTEX
  5
35A6
  8
241
 10
239.242999999999995
 20
-10.9566999999999997
 30
0.0
 70
    32
  0
VERTEX
  5
35A7
  8
241
 10
239.0289999999999964
 20
-11.1325000000000003
 30
0.0
 70
    32
  0
VERTEX
  5
35A8
  8
241
 10
238.8060000000000116
 20
-11.2990999999999993
 30
0.0
 70
    32
  0
VERTEX
  5
35A9
  8
241
 10
238.5740000000000123
 20
-11.4559999999999995
 30
0.0
 70
    32
  0
VERTEX
  5
35AA
  8
241
 10
238.3329999999999984
 20
-11.6029
 30
0.0
 70
    32
  0
VERTEX
  5
35AB
  8
241
 10
238.085000000000008
 20
-11.7393000000000001
 30
0.0
 70
    32
  0
VERTEX
  5
35AC
  8
241
 10
237.828000000000003
 20
-11.8650000000000002
 30
0.0
 70
    32
  0
VERTEX
  5
35AD
  8
241
 10
237.5649999999999977
 20
-11.9796999999999993
 30
0.0
 70
    32
  0
VERTEX
  5
35AE
  8
241
 10
237.2959999999999923
 20
-12.0831
 30
0.0
 70
    32
  0
VERTEX
  5
35AF
  8
241
 10
237.0209999999999866
 20
-12.1748999999999992
 30
0.0
 70
    32
  0
VERTEX
  5
35B0
  8
241
 10
236.7419999999999902
 20
-12.2548999999999992
 30
0.0
 70
    32
  0
VERTEX
  5
35B1
  8
241
 10
236.4579999999999984
 20
-12.3229000000000006
 30
0.0
 70
    32
  0
VERTEX
  5
35B2
  8
241
 10
236.1709999999999923
 20
-12.3788
 30
0.0
 70
    32
  0
VERTEX
  5
35B3
  8
241
 10
235.8799999999999955
 20
-12.4223999999999997
 30
0.0
 70
    32
  0
VERTEX
  5
35B4
  8
241
 10
235.5879999999999939
 20
-12.4535999999999998
 30
0.0
 70
    32
  0
VERTEX
  5
35B5
  8
241
 10
235.2940000000000111
 20
-12.4723000000000006
 30
0.0
 70
    32
  0
VERTEX
  5
35B6
  8
241
 10
235.0
 20
-12.4786000000000001
 30
0.0
 70
    32
  0
VERTEX
  5
35B7
  8
241
 10
234.7059999999999889
 20
-12.4723000000000006
 30
0.0
 70
    32
  0
VERTEX
  5
35B8
  8
241
 10
234.4120000000000061
 20
-12.4535999999999998
 30
0.0
 70
    32
  0
VERTEX
  5
35B9
  8
241
 10
234.1200000000000045
 20
-12.4223999999999997
 30
0.0
 70
    32
  0
VERTEX
  5
35BA
  8
241
 10
233.8290000000000077
 20
-12.3788
 30
0.0
 70
    32
  0
VERTEX
  5
35BB
  8
241
 10
233.5420000000000016
 20
-12.3229000000000006
 30
0.0
 70
    32
  0
VERTEX
  5
35BC
  8
241
 10
233.2580000000000098
 20
-12.2548999999999992
 30
0.0
 70
    32
  0
VERTEX
  5
35BD
  8
241
 10
232.9790000000000134
 20
-12.1748999999999992
 30
0.0
 70
    32
  0
VERTEX
  5
35BE
  8
241
 10
232.7040000000000077
 20
-12.0831
 30
0.0
 70
    32
  0
VERTEX
  5
35BF
  8
241
 10
232.4350000000000023
 20
-11.9796999999999993
 30
0.0
 70
    32
  0
VERTEX
  5
35C0
  8
241
 10
232.171999999999997
 20
-11.8650000000000002
 30
0.0
 70
    32
  0
VERTEX
  5
35C1
  8
241
 10
231.914999999999992
 20
-11.7393000000000001
 30
0.0
 70
    32
  0
VERTEX
  5
35C2
  8
241
 10
231.6670000000000016
 20
-11.6029
 30
0.0
 70
    32
  0
VERTEX
  5
35C3
  8
241
 10
231.4259999999999877
 20
-11.4559999999999995
 30
0.0
 70
    32
  0
VERTEX
  5
35C4
  8
241
 10
231.1939999999999884
 20
-11.2990999999999993
 30
0.0
 70
    32
  0
VERTEX
  5
35C5
  8
241
 10
230.9710000000000036
 20
-11.1325000000000003
 30
0.0
 70
    32
  0
VERTEX
  5
35C6
  8
241
 10
230.757000000000005
 20
-10.9566999999999997
 30
0.0
 70
    32
  0
VERTEX
  5
35C7
  8
241
 10
230.554000000000002
 20
-10.7720000000000002
 30
0.0
 70
    32
  0
VERTEX
  5
35C8
  8
241
 10
230.3619999999999948
 20
-10.5789000000000009
 30
0.0
 70
    32
  0
VERTEX
  5
35C9
  8
241
 10
230.1810000000000116
 20
-10.3778000000000006
 30
0.0
 70
    32
  0
VERTEX
  5
35CA
  8
241
 10
230.0109999999999957
 20
-10.1692999999999998
 30
0.0
 70
    32
  0
VERTEX
  5
35CB
  8
241
 10
229.8540000000000134
 20
-9.9538100000000007
 30
0.0
 70
    32
  0
VERTEX
  5
35CC
  8
241
 10
229.7079999999999984
 20
-9.7318999999999996
 30
0.0
 70
    32
  0
VERTEX
  5
35CD
  8
241
 10
229.5759999999999934
 20
-9.5040899999999997
 30
0.0
 70
    32
  0
VERTEX
  5
35CE
  8
241
 10
229.4569999999999936
 20
-9.2709299999999981
 30
0.0
 70
    32
  0
VERTEX
  5
35CF
  8
241
 10
229.3509999999999991
 20
-9.0329800000000002
 30
0.0
 70
    32
  0
VERTEX
  5
35D0
  8
241
 10
229.2580000000000098
 20
-8.7908200000000001
 30
0.0
 70
    32
  0
VERTEX
  5
35D1
  8
241
 10
229.1800000000000068
 20
-8.5450100000000013
 30
0.0
 70
    32
  0
VERTEX
  5
35D2
  8
241
 10
229.1150000000000091
 20
-8.29617
 30
0.0
 70
    32
  0
VERTEX
  5
35D3
  8
241
 10
229.0649999999999977
 20
-8.0448899999999988
 30
0.0
 70
    32
  0
VERTEX
  5
35D4
  8
241
 10
229.0289999999999964
 20
-7.79176
 30
0.0
 70
    32
  0
VERTEX
  5
35D5
  8
241
 10
229.007000000000005
 20
-7.53742
 30
0.0
 70
    32
  0
VERTEX
  5
35D6
  8
241
 10
229.0
 20
-7.282449999999999
 30
0.0
 70
    32
  0
VERTEX
  5
35D7
  8
241
 10
229.007000000000005
 20
-7.0274899999999993
 30
0.0
 70
    32
  0
VERTEX
  5
35D8
  8
241
 10
229.0289999999999964
 20
-6.7731399999999988
 30
0.0
 70
    32
  0
VERTEX
  5
35D9
  8
241
 10
229.0649999999999977
 20
-6.5200199999999988
 30
0.0
 70
    32
  0
VERTEX
  5
35DA
  8
241
 10
229.1150000000000091
 20
-6.2687299999999997
 30
0.0
 70
    32
  0
VERTEX
  5
35DB
  8
241
 10
229.1800000000000068
 20
-6.0198900000000002
 30
0.0
 70
    32
  0
VERTEX
  5
35DC
  8
241
 10
229.2580000000000098
 20
-5.7740900000000002
 30
0.0
 70
    32
  0
VERTEX
  5
35DD
  8
241
 10
229.3509999999999991
 20
-5.5319199999999986
 30
0.0
 70
    32
  0
VERTEX
  5
35DE
  8
241
 10
229.4569999999999936
 20
-5.293969999999999
 30
0.0
 70
    32
  0
VERTEX
  5
35DF
  8
241
 10
229.5759999999999934
 20
-5.06081
 30
0.0
 70
    32
  0
VERTEX
  5
35E0
  8
241
 10
229.7079999999999984
 20
-4.8330000000000002
 30
0.0
 70
    32
  0
VERTEX
  5
35E1
  8
241
 10
229.8540000000000134
 20
-4.6111000000000004
 30
0.0
 70
    32
  0
VERTEX
  5
35E2
  8
241
 10
230.0109999999999957
 20
-4.3956200000000001
 30
0.0
 70
    32
  0
VERTEX
  5
35E3
  8
241
 10
230.1810000000000116
 20
-4.1871099999999988
 30
0.0
 70
    32
  0
VERTEX
  5
35E4
  8
241
 10
230.3619999999999948
 20
-3.9860500000000001
 30
0.0
 70
    32
  0
VERTEX
  5
35E5
  8
241
 10
230.554000000000002
 20
-3.7929300000000001
 30
0.0
 70
    32
  0
VERTEX
  5
35E6
  8
241
 10
230.757000000000005
 20
-3.6082199999999989
 30
0.0
 70
    32
  0
VERTEX
  5
35E7
  8
241
 10
230.9710000000000036
 20
-3.4323599999999992
 30
0.0
 70
    32
  0
VERTEX
  5
35E8
  8
241
 10
231.1939999999999884
 20
-3.2657699999999998
 30
0.0
 70
    32
  0
VERTEX
  5
35E9
  8
241
 10
231.4259999999999877
 20
-3.1088599999999991
 30
0.0
 70
    32
  0
VERTEX
  5
35EA
  8
241
 10
231.6670000000000016
 20
-2.9620099999999989
 30
0.0
 70
    32
  0
VERTEX
  5
35EB
  8
241
 10
231.914999999999992
 20
-2.825559999999999
 30
0.0
 70
    32
  0
VERTEX
  5
35EC
  8
241
 10
232.171999999999997
 20
-2.6998500000000001
 30
0.0
 70
    32
  0
VERTEX
  5
35ED
  8
241
 10
232.4350000000000023
 20
-2.5851899999999999
 30
0.0
 70
    32
  0
VERTEX
  5
35EE
  8
241
 10
232.7040000000000077
 20
-2.4818299999999991
 30
0.0
 70
    32
  0
VERTEX
  5
35EF
  8
241
 10
232.9790000000000134
 20
-2.39005
 30
0.0
 70
    32
  0
VERTEX
  5
35F0
  8
241
 10
233.2580000000000098
 20
-2.3100399999999999
 30
0.0
 70
    32
  0
VERTEX
  5
35F1
  8
241
 10
233.5420000000000016
 20
-2.2420200000000001
 30
0.0
 70
    32
  0
VERTEX
  5
35F2
  8
241
 10
233.8290000000000077
 20
-2.1861399999999991
 30
0.0
 70
    32
  0
VERTEX
  5
35F3
  8
241
 10
234.1200000000000045
 20
-2.1425399999999999
 30
0.0
 70
    32
  0
VERTEX
  5
35F4
  8
241
 10
234.4120000000000061
 20
-2.1113200000000001
 30
0.0
 70
    32
  0
VERTEX
  5
35F5
  8
241
 10
234.7059999999999889
 20
-2.0925599999999989
 30
0.0
 70
    32
  0
VERTEX
  5
35F6
  8
241
 10
235.0
 20
-2.0863
 30
0.0
 70
    32
  0
VERTEX
  5
35F7
  8
241
 10
235.2940000000000111
 20
-2.0925599999999989
 30
0.0
 70
    32
  0
VERTEX
  5
35F8
  8
241
 10
235.5879999999999939
 20
-2.1113200000000001
 30
0.0
 70
    32
  0
VERTEX
  5
35F9
  8
241
 10
235.8799999999999955
 20
-2.1425399999999999
 30
0.0
 70
    32
  0
VERTEX
  5
35FA
  8
241
 10
236.1709999999999923
 20
-2.1861399999999991
 30
0.0
 70
    32
  0
VERTEX
  5
35FB
  8
241
 10
236.4579999999999984
 20
-2.2420200000000001
 30
0.0
 70
    32
  0
VERTEX
  5
35FC
  8
241
 10
236.7419999999999902
 20
-2.3100399999999999
 30
0.0
 70
    32
  0
VERTEX
  5
35FD
  8
241
 10
237.0209999999999866
 20
-2.39005
 30
0.0
 70
    32
  0
VERTEX
  5
35FE
  8
241
 10
237.2959999999999923
 20
-2.4818299999999991
 30
0.0
 70
    32
  0
VERTEX
  5
35FF
  8
241
 10
237.5649999999999977
 20
-2.5851899999999999
 30
0.0
 70
    32
  0
VERTEX
  5
3600
  8
241
 10
237.828000000000003
 20
-2.6998500000000001
 30
0.0
 70
    32
  0
VERTEX
  5
3601
  8
241
 10
238.085000000000008
 20
-2.825559999999999
 30
0.0
 70
    32
  0
VERTEX
  5
3602
  8
241
 10
238.3329999999999984
 20
-2.9620099999999989
 30
0.0
 70
    32
  0
VERTEX
  5
3603
  8
241
 10
238.5740000000000123
 20
-3.1088599999999991
 30
0.0
 70
    32
  0
VERTEX
  5
3604
  8
241
 10
238.8060000000000116
 20
-3.2657699999999998
 30
0.0
 70
    32
  0
VERTEX
  5
3605
  8
241
 10
239.0289999999999964
 20
-3.4323599999999992
 30
0.0
 70
    32
  0
VERTEX
  5
3606
  8
241
 10
239.242999999999995
 20
-3.6082199999999989
 30
0.0
 70
    32
  0
VERTEX
  5
3607
  8
241
 10
239.445999999999998
 20
-3.7929300000000001
 30
0.0
 70
    32
  0
VERTEX
  5
3608
  8
241
 10
239.6380000000000052
 20
-3.9860500000000001
 30
0.0
 70
    32
  0
VERTEX
  5
3609
  8
241
 10
239.8189999999999884
 20
-4.1871099999999988
 30
0.0
 70
    32
  0
VERTEX
  5
360A
  8
241
 10
239.9890000000000043
 20
-4.3956200000000001
 30
0.0
 70
    32
  0
VERTEX
  5
360B
  8
241
 10
240.1459999999999866
 20
-4.6111000000000004
 30
0.0
 70
    32
  0
VERTEX
  5
360C
  8
241
 10
240.2920000000000016
 20
-4.8330000000000002
 30
0.0
 70
    32
  0
VERTEX
  5
360D
  8
241
 10
240.4240000000000066
 20
-5.06081
 30
0.0
 70
    32
  0
VERTEX
  5
360E
  8
241
 10
240.5430000000000064
 20
-5.293969999999999
 30
0.0
 70
    32
  0
VERTEX
  5
360F
  8
241
 10
240.6490000000000009
 20
-5.5319199999999986
 30
0.0
 70
    32
  0
VERTEX
  5
3610
  8
241
 10
240.7419999999999902
 20
-5.7740900000000002
 30
0.0
 70
    32
  0
VERTEX
  5
3611
  8
241
 10
240.8199999999999932
 20
-6.0198900000000002
 30
0.0
 70
    32
  0
VERTEX
  5
3612
  8
241
 10
240.8849999999999909
 20
-6.2687299999999997
 30
0.0
 70
    32
  0
VERTEX
  5
3613
  8
241
 10
240.9350000000000023
 20
-6.5200199999999988
 30
0.0
 70
    32
  0
VERTEX
  5
3614
  8
241
 10
240.9710000000000036
 20
-6.7731399999999988
 30
0.0
 70
    32
  0
VERTEX
  5
3615
  8
241
 10
240.992999999999995
 20
-7.0274899999999993
 30
0.0
 70
    32
  0
VERTEX
  5
3616
  8
241
 10
241.0
 20
-7.282449999999999
 30
0.0
 70
    32
  0
SEQEND
  5
3617
  8
241
  0
LINE
  5
1871
  8
245
  6
CENTER2
 10
305.0721889190191973
 20
0.0000000000002274
 30
0.0
 11
200.6064400695175038
 21
-0.0000000000002274
 31
0.0
  0
ARC
  5
1872
  8
240
  6
CONTINUOUS
 10
252.0009268849111095
 20
-0.0009135980265
 30
0.0
 40
28.7512810246609405
 50
125.2490753589212034
 51
145.5781743748036092
  0
POLYLINE
  5
3618
  8
240
 66
     1
 10
0.0
 20
0.0
 30
0.0
 70
     8
  0
VERTEX
  5
3619
  8
240
 10
223.25
 20
0.0
 30
0.0
 70
    32
  0
VERTEX
  5
361A
  8
240
 10
223.25
 20
0.0270937
 30
0.0
 70
    32
  0
VERTEX
  5
361B
  8
240
 10
223.25
 20
0.0542028
 30
0.0
 70
    32
  0
VERTEX
  5
361C
  8
240
 10
223.25
 20
0.0813272
 30
0.0
 70
    32
  0
VERTEX
  5
361D
  8
240
 10
223.25
 20
0.108467
 30
0.0
 70
    32
  0
VERTEX
  5
361E
  8
240
 10
223.25
 20
0.135622
 30
0.0
 70
    32
  0
VERTEX
  5
361F
  8
240
 10
223.25
 20
0.162791
 30
0.0
 70
    32
  0
VERTEX
  5
3620
  8
240
 10
223.2510000000000048
 20
0.189976
 30
0.0
 70
    32
  0
VERTEX
  5
3621
  8
240
 10
223.2510000000000048
 20
0.217176
 30
0.0
 70
    32
  0
VERTEX
  5
3622
  8
240
 10
223.2510000000000048
 20
0.244391
 30
0.0
 70
    32
  0
VERTEX
  5
3623
  8
240
 10
223.2510000000000048
 20
0.27162
 30
0.0
 70
    32
  0
VERTEX
  5
3624
  8
240
 10
223.2520000000000095
 20
0.298864
 30
0.0
 70
    32
  0
VERTEX
  5
3625
  8
240
 10
223.2520000000000095
 20
0.326123
 30
0.0
 70
    32
  0
VERTEX
  5
3626
  8
240
 10
223.2520000000000095
 20
0.353396
 30
0.0
 70
    32
  0
VERTEX
  5
3627
  8
240
 10
223.2529999999999859
 20
0.380684
 30
0.0
 70
    32
  0
VERTEX
  5
3628
  8
240
 10
223.2529999999999859
 20
0.407986
 30
0.0
 70
    32
  0
VERTEX
  5
3629
  8
240
 10
223.2529999999999859
 20
0.435302
 30
0.0
 70
    32
  0
VERTEX
  5
362A
  8
240
 10
223.2539999999999907
 20
0.4626330000000001
 30
0.0
 70
    32
  0
VERTEX
  5
362B
  8
240
 10
223.2539999999999907
 20
0.4899770000000001
 30
0.0
 70
    32
  0
VERTEX
  5
362C
  8
240
 10
223.2549999999999955
 20
0.5173360000000001
 30
0.0
 70
    32
  0
VERTEX
  5
362D
  8
240
 10
223.2549999999999955
 20
0.5447090000000001
 30
0.0
 70
    32
  0
VERTEX
  5
362E
  8
240
 10
223.2560000000000002
 20
0.572096
 30
0.0
 70
    32
  0
VERTEX
  5
362F
  8
240
 10
223.2560000000000002
 20
0.5994960000000001
 30
0.0
 70
    32
  0
VERTEX
  5
3630
  8
240
 10
223.257000000000005
 20
0.6269100000000001
 30
0.0
 70
    32
  0
VERTEX
  5
3631
  8
240
 10
223.257000000000005
 20
0.654338
 30
0.0
 70
    32
  0
VERTEX
  5
3632
  8
240
 10
223.2580000000000098
 20
0.6817800000000001
 30
0.0
 70
    32
  0
VERTEX
  5
3633
  8
240
 10
223.2589999999999861
 20
0.7092350000000001
 30
0.0
 70
    32
  0
VERTEX
  5
3634
  8
240
 10
223.2599999999999909
 20
0.736703
 30
0.0
 70
    32
  0
VERTEX
  5
3635
  8
240
 10
223.2599999999999909
 20
0.764185
 30
0.0
 70
    32
  0
VERTEX
  5
3636
  8
240
 10
223.2609999999999957
 20
0.7916800000000001
 30
0.0
 70
    32
  0
VERTEX
  5
3637
  8
240
 10
223.2620000000000005
 20
0.8191880000000001
 30
0.0
 70
    32
  0
VERTEX
  5
3638
  8
240
 10
223.2630000000000052
 20
0.84671
 30
0.0
 70
    32
  0
VERTEX
  5
3639
  8
240
 10
223.2630000000000052
 20
0.874244
 30
0.0
 70
    32
  0
VERTEX
  5
363A
  8
240
 10
223.26400000000001
 20
0.901791
 30
0.0
 70
    32
  0
VERTEX
  5
363B
  8
240
 10
223.2649999999999864
 20
0.929352
 30
0.0
 70
    32
  0
VERTEX
  5
363C
  8
240
 10
223.2659999999999911
 20
0.956925
 30
0.0
 70
    32
  0
VERTEX
  5
363D
  8
240
 10
223.2669999999999959
 20
0.984511
 30
0.0
 70
    32
  0
VERTEX
  5
363E
  8
240
 10
223.2680000000000007
 20
1.0121100000000001
 30
0.0
 70
    32
  0
VERTEX
  5
363F
  8
240
 10
223.2690000000000055
 20
1.0397199999999991
 30
0.0
 70
    32
  0
VERTEX
  5
3640
  8
240
 10
223.2700000000000102
 20
1.0673399999999991
 30
0.0
 70
    32
  0
VERTEX
  5
3641
  8
240
 10
223.2709999999999866
 20
1.094979999999999
 30
0.0
 70
    32
  0
VERTEX
  5
3642
  8
240
 10
223.2719999999999914
 20
1.12263
 30
0.0
 70
    32
  0
VERTEX
  5
3643
  8
240
 10
223.2729999999999961
 20
1.15029
 30
0.0
 70
    32
  0
VERTEX
  5
3644
  8
240
 10
223.2740000000000009
 20
1.1779599999999999
 30
0.0
 70
    32
  0
VERTEX
  5
3645
  8
240
 10
223.2750000000000057
 20
1.2056500000000001
 30
0.0
 70
    32
  0
VERTEX
  5
3646
  8
240
 10
223.2769999999999868
 20
1.233339999999999
 30
0.0
 70
    32
  0
VERTEX
  5
3647
  8
240
 10
223.2779999999999916
 20
1.26105
 30
0.0
 70
    32
  0
VERTEX
  5
3648
  8
240
 10
223.2789999999999964
 20
1.2887699999999991
 30
0.0
 70
    32
  0
VERTEX
  5
3649
  8
240
 10
223.2800000000000011
 20
1.3165100000000001
 30
0.0
 70
    32
  0
VERTEX
  5
364A
  8
240
 10
223.2820000000000107
 20
1.3442499999999991
 30
0.0
 70
    32
  0
VERTEX
  5
364B
  8
240
 10
223.282999999999987
 20
1.3720099999999991
 30
0.0
 70
    32
  0
VERTEX
  5
364C
  8
240
 10
223.2839999999999918
 20
1.39977
 30
0.0
 70
    32
  0
VERTEX
  5
364D
  8
240
 10
223.2860000000000014
 20
1.4275500000000001
 30
0.0
 70
    32
  0
VERTEX
  5
364E
  8
240
 10
223.2870000000000061
 20
1.455339999999999
 30
0.0
 70
    32
  0
VERTEX
  5
364F
  8
240
 10
223.2880000000000109
 20
1.483139999999999
 30
0.0
 70
    32
  0
VERTEX
  5
3650
  8
240
 10
223.289999999999992
 20
1.5109600000000001
 30
0.0
 70
    32
  0
VERTEX
  5
3651
  8
240
 10
223.2909999999999968
 20
1.53878
 30
0.0
 70
    32
  0
VERTEX
  5
3652
  8
240
 10
223.2930000000000064
 20
1.5666199999999999
 30
0.0
 70
    32
  0
VERTEX
  5
3653
  8
240
 10
223.2940000000000111
 20
1.5944599999999991
 30
0.0
 70
    32
  0
VERTEX
  5
3654
  8
240
 10
223.2959999999999923
 20
1.62232
 30
0.0
 70
    32
  0
VERTEX
  5
3655
  8
240
 10
223.2980000000000018
 20
1.65019
 30
0.0
 70
    32
  0
VERTEX
  5
3656
  8
240
 10
223.2990000000000066
 20
1.67807
 30
0.0
 70
    32
  0
VERTEX
  5
3657
  8
240
 10
223.3009999999999877
 20
1.705959999999999
 30
0.0
 70
    32
  0
VERTEX
  5
3658
  8
240
 10
223.3019999999999925
 20
1.7338599999999991
 30
0.0
 70
    32
  0
VERTEX
  5
3659
  8
240
 10
223.304000000000002
 20
1.7617700000000001
 30
0.0
 70
    32
  0
VERTEX
  5
365A
  8
240
 10
223.3060000000000116
 20
1.78969
 30
0.0
 70
    32
  0
VERTEX
  5
365B
  8
240
 10
223.3079999999999927
 20
1.8176199999999989
 30
0.0
 70
    32
  0
VERTEX
  5
365C
  8
240
 10
223.3089999999999975
 20
1.845559999999999
 30
0.0
 70
    32
  0
VERTEX
  5
365D
  8
240
 10
223.311000000000007
 20
1.8735099999999989
 30
0.0
 70
    32
  0
VERTEX
  5
365E
  8
240
 10
223.3129999999999882
 20
1.9014799999999989
 30
0.0
 70
    32
  0
VERTEX
  5
365F
  8
240
 10
223.3149999999999977
 20
1.9294500000000001
 30
0.0
 70
    32
  0
VERTEX
  5
3660
  8
240
 10
223.3170000000000073
 20
1.95743
 30
0.0
 70
    32
  0
VERTEX
  5
3661
  8
240
 10
223.3189999999999884
 20
1.9854199999999991
 30
0.0
 70
    32
  0
VERTEX
  5
3662
  8
240
 10
223.320999999999998
 20
2.0134199999999991
 30
0.0
 70
    32
  0
VERTEX
  5
3663
  8
240
 10
223.3230000000000075
 20
2.0414400000000001
 30
0.0
 70
    32
  0
VERTEX
  5
3664
  8
240
 10
223.3249999999999886
 20
2.069459999999999
 30
0.0
 70
    32
  0
VERTEX
  5
3665
  8
240
 10
223.3269999999999982
 20
2.0974900000000001
 30
0.0
 70
    32
  0
VERTEX
  5
3666
  8
240
 10
223.3290000000000077
 20
2.125529999999999
 30
0.0
 70
    32
  0
VERTEX
  5
3667
  8
240
 10
223.3309999999999889
 20
2.1535799999999989
 30
0.0
 70
    32
  0
VERTEX
  5
3668
  8
240
 10
223.3329999999999984
 20
2.1816399999999998
 30
0.0
 70
    32
  0
VERTEX
  5
3669
  8
240
 10
223.335000000000008
 20
2.209709999999999
 30
0.0
 70
    32
  0
VERTEX
  5
366A
  8
240
 10
223.3369999999999891
 20
2.2377899999999991
 30
0.0
 70
    32
  0
VERTEX
  5
366B
  8
240
 10
223.3400000000000034
 20
2.2658700000000001
 30
0.0
 70
    32
  0
VERTEX
  5
366C
  8
240
 10
223.342000000000013
 20
2.2939699999999998
 30
0.0
 70
    32
  0
VERTEX
  5
366D
  8
240
 10
223.3439999999999941
 20
2.3220700000000001
 30
0.0
 70
    32
  0
VERTEX
  5
366E
  8
240
 10
223.3460000000000036
 20
2.35019
 30
0.0
 70
    32
  0
VERTEX
  5
366F
  8
240
 10
223.3489999999999895
 20
2.378309999999999
 30
0.0
 70
    32
  0
VERTEX
  5
3670
  8
240
 10
223.3509999999999991
 20
2.4064399999999999
 30
0.0
 70
    32
  0
VERTEX
  5
3671
  8
240
 10
223.3530000000000086
 20
2.4345799999999991
 30
0.0
 70
    32
  0
VERTEX
  5
3672
  8
240
 10
223.3559999999999945
 20
2.4627300000000001
 30
0.0
 70
    32
  0
VERTEX
  5
3673
  8
240
 10
223.3580000000000041
 20
2.4908899999999998
 30
0.0
 70
    32
  0
VERTEX
  5
3674
  8
240
 10
223.36099999999999
 20
2.5190599999999992
 30
0.0
 70
    32
  0
VERTEX
  5
3675
  8
240
 10
223.3629999999999995
 20
2.547229999999999
 30
0.0
 70
    32
  0
VERTEX
  5
3676
  8
240
 10
223.3660000000000139
 20
2.5754099999999989
 30
0.0
 70
    32
  0
VERTEX
  5
3677
  8
240
 10
223.367999999999995
 20
2.6036000000000001
 30
0.0
 70
    32
  0
VERTEX
  5
3678
  8
240
 10
223.3710000000000093
 20
2.6318000000000001
 30
0.0
 70
    32
  0
VERTEX
  5
3679
  8
240
 10
223.3729999999999905
 20
2.6600099999999989
 30
0.0
 70
    32
  0
VERTEX
  5
367A
  8
240
 10
223.3760000000000048
 20
2.6882199999999998
 30
0.0
 70
    32
  0
VERTEX
  5
367B
  8
240
 10
223.3789999999999907
 20
2.71645
 30
0.0
 70
    32
  0
VERTEX
  5
367C
  8
240
 10
223.3810000000000002
 20
2.7446799999999989
 30
0.0
 70
    32
  0
VERTEX
  5
367D
  8
240
 10
223.3839999999999861
 20
2.7729200000000001
 30
0.0
 70
    32
  0
VERTEX
  5
367E
  8
240
 10
223.3870000000000005
 20
2.801159999999999
 30
0.0
 70
    32
  0
VERTEX
  5
367F
  8
240
 10
223.3899999999999864
 20
2.8294099999999989
 30
0.0
 70
    32
  0
VERTEX
  5
3680
  8
240
 10
223.3919999999999959
 20
2.8576799999999989
 30
0.0
 70
    32
  0
VERTEX
  5
3681
  8
240
 10
223.3950000000000102
 20
2.8859400000000002
 30
0.0
 70
    32
  0
VERTEX
  5
3682
  8
240
 10
223.3979999999999961
 20
2.9142199999999998
 30
0.0
 70
    32
  0
VERTEX
  5
3683
  8
240
 10
223.4010000000000105
 20
2.942499999999999
 30
0.0
 70
    32
  0
VERTEX
  5
3684
  8
240
 10
223.4039999999999964
 20
2.97079
 30
0.0
 70
    32
  0
VERTEX
  5
3685
  8
240
 10
223.4070000000000107
 20
2.9990899999999998
 30
0.0
 70
    32
  0
VERTEX
  5
3686
  8
240
 10
223.4099999999999966
 20
3.02739
 30
0.0
 70
    32
  0
VERTEX
  5
3687
  8
240
 10
223.4130000000000109
 20
3.055709999999999
 30
0.0
 70
    32
  0
VERTEX
  5
3688
  8
240
 10
223.4159999999999968
 20
3.0840200000000002
 30
0.0
 70
    32
  0
VERTEX
  5
3689
  8
240
 10
223.4190000000000111
 20
3.1123500000000002
 30
0.0
 70
    32
  0
VERTEX
  5
368A
  8
240
 10
223.421999999999997
 20
3.1406800000000001
 30
0.0
 70
    32
  0
VERTEX
  5
368B
  8
240
 10
223.4250000000000114
 20
3.1690200000000002
 30
0.0
 70
    32
  0
VERTEX
  5
368C
  8
240
 10
223.4279999999999973
 20
3.1973599999999989
 30
0.0
 70
    32
  0
VERTEX
  5
368D
  8
240
 10
223.4319999999999879
 20
3.225719999999999
 30
0.0
 70
    32
  0
VERTEX
  5
368E
  8
240
 10
223.4350000000000023
 20
3.25407
 30
0.0
 70
    32
  0
VERTEX
  5
368F
  8
240
 10
223.4379999999999882
 20
3.2824399999999998
 30
0.0
 70
    32
  0
VERTEX
  5
3690
  8
240
 10
223.4410000000000025
 20
3.31081
 30
0.0
 70
    32
  0
VERTEX
  5
3691
  8
240
 10
223.4449999999999932
 20
3.3391799999999998
 30
0.0
 70
    32
  0
VERTEX
  5
3692
  8
240
 10
223.4480000000000075
 20
3.3675699999999988
 30
0.0
 70
    32
  0
VERTEX
  5
3693
  8
240
 10
223.4509999999999934
 20
3.3959599999999992
 30
0.0
 70
    32
  0
VERTEX
  5
3694
  8
240
 10
223.4550000000000125
 20
3.42435
 30
0.0
 70
    32
  0
VERTEX
  5
3695
  8
240
 10
223.4579999999999984
 20
3.4527499999999991
 30
0.0
 70
    32
  0
VERTEX
  5
3696
  8
240
 10
223.4619999999999891
 20
3.48116
 30
0.0
 70
    32
  0
VERTEX
  5
3697
  8
240
 10
223.4650000000000034
 20
3.5095699999999992
 30
0.0
 70
    32
  0
VERTEX
  5
3698
  8
240
 10
223.4689999999999941
 20
3.5379900000000002
 30
0.0
 70
    32
  0
SEQEND
  5
3699
  8
240
  0
ARC
  5
1875
  8
240
  6
CONTINUOUS
 10
251.999999999994202
 20
0.0
 30
0.0
 40
28.7500000000000107
 50
145.5786320927645079
 51
163.8435646427566041
  0
ARC
  5
1876
  8
240
  6
CONTINUOUS
 10
251.999999999994202
 20
0.0
 30
0.0
 40
28.7500000000000107
 50
163.8435646427496124
 51
172.9312394053322066
  0
ARC
  5
1878
  8
240
  6
CONTINUOUS
 10
251.999999999994202
 20
-4.25
 30
0.0
 40
28.75
 50
180.0
 51
187.494717453929411
  0
LINE
  5
1879
  8
240
  6
CONTINUOUS
 10
223.2499999999940883
 20
-4.25
 30
0.0
 11
223.2499999999940883
 21
0.0
 31
0.0
  0
POLYLINE
  5
369A
  8
241
 66
     1
 10
0.0
 20
0.0
 30
0.0
 70
     8
  0
VERTEX
  5
369B
  8
241
 10
228.2959999999999923
 20
-5.7296899999999988
 30
0.0
 70
    32
  0
VERTEX
  5
369C
  8
241
 10
228.2909999999999968
 20
-5.7382699999999991
 30
0.0
 70
    32
  0
VERTEX
  5
369D
  8
241
 10
228.2849999999999966
 20
-5.7468500000000002
 30
0.0
 70
    32
  0
VERTEX
  5
369E
  8
241
 10
228.2800000000000011
 20
-5.7554299999999996
 30
0.0
 70
    32
  0
VERTEX
  5
369F
  8
241
 10
228.2750000000000057
 20
-5.7640199999999986
 30
0.0
 70
    32
  0
VERTEX
  5
36A0
  8
241
 10
228.2690000000000055
 20
-5.7726100000000002
 30
0.0
 70
    32
  0
VERTEX
  5
36A1
  8
241
 10
228.26400000000001
 20
-5.7812000000000001
 30
0.0
 70
    32
  0
VERTEX
  5
36A2
  8
241
 10
228.2589999999999861
 20
-5.7897999999999987
 30
0.0
 70
    32
  0
VERTEX
  5
36A3
  8
241
 10
228.2539999999999907
 20
-5.7983999999999991
 30
0.0
 70
    32
  0
VERTEX
  5
36A4
  8
241
 10
228.2479999999999905
 20
-5.8070000000000004
 30
0.0
 70
    32
  0
VERTEX
  5
36A5
  8
241
 10
228.242999999999995
 20
-5.8156099999999986
 30
0.0
 70
    32
  0
VERTEX
  5
36A6
  8
241
 10
228.2379999999999995
 20
-5.824209999999999
 30
0.0
 70
    32
  0
VERTEX
  5
36A7
  8
241
 10
228.2330000000000041
 20
-5.832819999999999
 30
0.0
 70
    32
  0
VERTEX
  5
36A8
  8
241
 10
228.2280000000000086
 20
-5.841429999999999
 30
0.0
 70
    32
  0
VERTEX
  5
36A9
  8
241
 10
228.2220000000000084
 20
-5.8500500000000004
 30
0.0
 70
    32
  0
VERTEX
  5
36AA
  8
241
 10
228.217000000000013
 20
-5.8586599999999986
 30
0.0
 70
    32
  0
VERTEX
  5
36AB
  8
241
 10
228.2119999999999891
 20
-5.8672800000000001
 30
0.0
 70
    32
  0
VERTEX
  5
36AC
  8
241
 10
228.2069999999999936
 20
-5.8758999999999988
 30
0.0
 70
    32
  0
VERTEX
  5
36AD
  8
241
 10
228.2019999999999982
 20
-5.8845099999999988
 30
0.0
 70
    32
  0
VERTEX
  5
36AE
  8
241
 10
228.1970000000000027
 20
-5.8931399999999989
 30
0.0
 70
    32
  0
VERTEX
  5
36AF
  8
241
 10
228.1920000000000073
 20
-5.9017599999999986
 30
0.0
 70
    32
  0
VERTEX
  5
36B0
  8
241
 10
228.1870000000000118
 20
-5.9103799999999991
 30
0.0
 70
    32
  0
VERTEX
  5
36B1
  8
241
 10
228.1819999999999879
 20
-5.9189999999999987
 30
0.0
 70
    32
  0
VERTEX
  5
36B2
  8
241
 10
228.1769999999999925
 20
-5.9276299999999997
 30
0.0
 70
    32
  0
VERTEX
  5
36B3
  8
241
 10
228.171999999999997
 20
-5.9362500000000002
 30
0.0
 70
    32
  0
VERTEX
  5
36B4
  8
241
 10
228.1670000000000016
 20
-5.9448800000000004
 30
0.0
 70
    32
  0
VERTEX
  5
36B5
  8
241
 10
228.1620000000000061
 20
-5.9535
 30
0.0
 70
    32
  0
VERTEX
  5
36B6
  8
241
 10
228.1570000000000107
 20
-5.9621300000000002
 30
0.0
 70
    32
  0
VERTEX
  5
36B7
  8
241
 10
228.1519999999999868
 20
-5.9707600000000003
 30
0.0
 70
    32
  0
VERTEX
  5
36B8
  8
241
 10
228.1469999999999914
 20
-5.979379999999999
 30
0.0
 70
    32
  0
VERTEX
  5
36B9
  8
241
 10
228.1419999999999959
 20
-5.9880100000000001
 30
0.0
 70
    32
  0
VERTEX
  5
36BA
  8
241
 10
228.1370000000000005
 20
-5.9966299999999997
 30
0.0
 70
    32
  0
VERTEX
  5
36BB
  8
241
 10
228.132000000000005
 20
-6.0052599999999989
 30
0.0
 70
    32
  0
VERTEX
  5
36BC
  8
241
 10
228.1270000000000095
 20
-6.0138800000000003
 30
0.0
 70
    32
  0
VERTEX
  5
36BD
  8
241
 10
228.1220000000000141
 20
-6.0224999999999991
 30
0.0
 70
    32
  0
VERTEX
  5
36BE
  8
241
 10
228.1169999999999902
 20
-6.0311300000000001
 30
0.0
 70
    32
  0
VERTEX
  5
36BF
  8
241
 10
228.1119999999999948
 20
-6.0397499999999988
 30
0.0
 70
    32
  0
VERTEX
  5
36C0
  8
241
 10
228.1080000000000041
 20
-6.0483699999999994
 30
0.0
 70
    32
  0
VERTEX
  5
36C1
  8
241
 10
228.1030000000000086
 20
-6.0569800000000003
 30
0.0
 70
    32
  0
VERTEX
  5
36C2
  8
241
 10
228.0980000000000132
 20
-6.065599999999999
 30
0.0
 70
    32
  0
VERTEX
  5
36C3
  8
241
 10
228.0929999999999893
 20
-6.0742199999999986
 30
0.0
 70
    32
  0
VERTEX
  5
36C4
  8
241
 10
228.0889999999999986
 20
-6.0828300000000004
 30
0.0
 70
    32
  0
VERTEX
  5
36C5
  8
241
 10
228.0840000000000032
 20
-6.0914400000000004
 30
0.0
 70
    32
  0
VERTEX
  5
36C6
  8
241
 10
228.0790000000000077
 20
-6.1000500000000004
 30
0.0
 70
    32
  0
VERTEX
  5
36C7
  8
241
 10
228.0740000000000123
 20
-6.1086599999999986
 30
0.0
 70
    32
  0
VERTEX
  5
36C8
  8
241
 10
228.0699999999999932
 20
-6.117259999999999
 30
0.0
 70
    32
  0
VERTEX
  5
36C9
  8
241
 10
228.0649999999999977
 20
-6.1258599999999994
 30
0.0
 70
    32
  0
VERTEX
  5
36CA
  8
241
 10
228.0600000000000023
 20
-6.1344599999999989
 30
0.0
 70
    32
  0
VERTEX
  5
36CB
  8
241
 10
228.0560000000000116
 20
-6.1430600000000002
 30
0.0
 70
    32
  0
VERTEX
  5
36CC
  8
241
 10
228.0509999999999877
 20
-6.1516500000000001
 30
0.0
 70
    32
  0
VERTEX
  5
36CD
  8
241
 10
228.0459999999999923
 20
-6.160239999999999
 30
0.0
 70
    32
  0
VERTEX
  5
36CE
  8
241
 10
228.0420000000000016
 20
-6.1688299999999998
 30
0.0
 70
    32
  0
VERTEX
  5
36CF
  8
241
 10
228.0370000000000061
 20
-6.1774100000000001
 30
0.0
 70
    32
  0
VERTEX
  5
36D0
  8
241
 10
228.032999999999987
 20
-6.1859900000000003
 30
0.0
 70
    32
  0
VERTEX
  5
36D1
  8
241
 10
228.0279999999999916
 20
-6.1945699999999988
 30
0.0
 70
    32
  0
VERTEX
  5
36D2
  8
241
 10
228.0240000000000009
 20
-6.2031400000000003
 30
0.0
 70
    32
  0
VERTEX
  5
36D3
  8
241
 10
228.0190000000000055
 20
-6.2117100000000001
 30
0.0
 70
    32
  0
VERTEX
  5
36D4
  8
241
 10
228.0149999999999864
 20
-6.2202799999999998
 30
0.0
 70
    32
  0
VERTEX
  5
36D5
  8
241
 10
228.0099999999999909
 20
-6.228839999999999
 30
0.0
 70
    32
  0
VERTEX
  5
36D6
  8
241
 10
228.0060000000000002
 20
-6.2373900000000004
 30
0.0
 70
    32
  0
VERTEX
  5
36D7
  8
241
 10
228.0010000000000048
 20
-6.24594
 30
0.0
 70
    32
  0
VERTEX
  5
36D8
  8
241
 10
227.9970000000000141
 20
-6.2544899999999997
 30
0.0
 70
    32
  0
VERTEX
  5
36D9
  8
241
 10
227.9919999999999902
 20
-6.2630299999999997
 30
0.0
 70
    32
  0
VERTEX
  5
36DA
  8
241
 10
227.9879999999999995
 20
-6.2715699999999988
 30
0.0
 70
    32
  0
VERTEX
  5
36DB
  8
241
 10
227.9840000000000089
 20
-6.2801
 30
0.0
 70
    32
  0
VERTEX
  5
36DC
  8
241
 10
227.9790000000000134
 20
-6.2886300000000004
 30
0.0
 70
    32
  0
VERTEX
  5
36DD
  8
241
 10
227.9749999999999943
 20
-6.2971500000000002
 30
0.0
 70
    32
  0
VERTEX
  5
36DE
  8
241
 10
227.9710000000000036
 20
-6.3056700000000001
 30
0.0
 70
    32
  0
VERTEX
  5
36DF
  8
241
 10
227.9660000000000082
 20
-6.3141800000000003
 30
0.0
 70
    32
  0
VERTEX
  5
36E0
  8
241
 10
227.9619999999999891
 20
-6.3226800000000001
 30
0.0
 70
    32
  0
VERTEX
  5
36E1
  8
241
 10
227.9579999999999984
 20
-6.3311799999999998
 30
0.0
 70
    32
  0
VERTEX
  5
36E2
  8
241
 10
227.953000000000003
 20
-6.3396800000000004
 30
0.0
 70
    32
  0
VERTEX
  5
36E3
  8
241
 10
227.9490000000000123
 20
-6.34816
 30
0.0
 70
    32
  0
VERTEX
  5
36E4
  8
241
 10
227.9449999999999932
 20
-6.3566399999999996
 30
0.0
 70
    32
  0
VERTEX
  5
36E5
  8
241
 10
227.9410000000000025
 20
-6.3651200000000001
 30
0.0
 70
    32
  0
VERTEX
  5
36E6
  8
241
 10
227.936000000000007
 20
-6.3735900000000001
 30
0.0
 70
    32
  0
VERTEX
  5
36E7
  8
241
 10
227.9319999999999879
 20
-6.3820499999999987
 30
0.0
 70
    32
  0
VERTEX
  5
36E8
  8
241
 10
227.9279999999999973
 20
-6.3905000000000003
 30
0.0
 70
    32
  0
VERTEX
  5
36E9
  8
241
 10
227.9240000000000066
 20
-6.3989500000000001
 30
0.0
 70
    32
  0
VERTEX
  5
36EA
  8
241
 10
227.9199999999999875
 20
-6.4073900000000004
 30
0.0
 70
    32
  0
VERTEX
  5
36EB
  8
241
 10
227.9159999999999968
 20
-6.4158200000000001
 30
0.0
 70
    32
  0
VERTEX
  5
36EC
  8
241
 10
227.9120000000000061
 20
-6.4242400000000002
 30
0.0
 70
    32
  0
VERTEX
  5
36ED
  8
241
 10
227.907999999999987
 20
-6.432669999999999
 30
0.0
 70
    32
  0
VERTEX
  5
36EE
  8
241
 10
227.9029999999999916
 20
-6.4411199999999988
 30
0.0
 70
    32
  0
VERTEX
  5
36EF
  8
241
 10
227.8990000000000009
 20
-6.4495899999999988
 30
0.0
 70
    32
  0
VERTEX
  5
36F0
  8
241
 10
227.8950000000000102
 20
-6.4580799999999998
 30
0.0
 70
    32
  0
VERTEX
  5
36F1
  8
241
 10
227.8909999999999911
 20
-6.4665999999999988
 30
0.0
 70
    32
  0
VERTEX
  5
36F2
  8
241
 10
227.8870000000000005
 20
-6.4751399999999997
 30
0.0
 70
    32
  0
VERTEX
  5
36F3
  8
241
 10
227.8830000000000098
 20
-6.4836999999999989
 30
0.0
 70
    32
  0
VERTEX
  5
36F4
  8
241
 10
227.8789999999999907
 20
-6.4922800000000001
 30
0.0
 70
    32
  0
VERTEX
  5
36F5
  8
241
 10
227.875
 20
-6.5008800000000004
 30
0.0
 70
    32
  0
VERTEX
  5
36F6
  8
241
 10
227.8710000000000093
 20
-6.5095099999999988
 30
0.0
 70
    32
  0
VERTEX
  5
36F7
  8
241
 10
227.8669999999999902
 20
-6.5181500000000003
 30
0.0
 70
    32
  0
VERTEX
  5
36F8
  8
241
 10
227.8629999999999995
 20
-6.526819999999999
 30
0.0
 70
    32
  0
VERTEX
  5
36F9
  8
241
 10
227.8590000000000089
 20
-6.5355099999999986
 30
0.0
 70
    32
  0
VERTEX
  5
36FA
  8
241
 10
227.8549999999999898
 20
-6.5442200000000001
 30
0.0
 70
    32
  0
VERTEX
  5
36FB
  8
241
 10
227.8509999999999991
 20
-6.5529400000000004
 30
0.0
 70
    32
  0
VERTEX
  5
36FC
  8
241
 10
227.8470000000000084
 20
-6.5616899999999987
 30
0.0
 70
    32
  0
VERTEX
  5
36FD
  8
241
 10
227.8429999999999893
 20
-6.5704599999999997
 30
0.0
 70
    32
  0
VERTEX
  5
36FE
  8
241
 10
227.8389999999999986
 20
-6.57925
 30
0.0
 70
    32
  0
VERTEX
  5
36FF
  8
241
 10
227.835000000000008
 20
-6.5880599999999996
 30
0.0
 70
    32
  0
VERTEX
  5
3700
  8
241
 10
227.8309999999999889
 20
-6.5968799999999996
 30
0.0
 70
    32
  0
VERTEX
  5
3701
  8
241
 10
227.8269999999999982
 20
-6.6057300000000003
 30
0.0
 70
    32
  0
VERTEX
  5
3702
  8
241
 10
227.8230000000000075
 20
-6.6145899999999989
 30
0.0
 70
    32
  0
VERTEX
  5
3703
  8
241
 10
227.8189999999999884
 20
-6.6234799999999998
 30
0.0
 70
    32
  0
VERTEX
  5
3704
  8
241
 10
227.8149999999999977
 20
-6.6323800000000004
 30
0.0
 70
    32
  0
VERTEX
  5
3705
  8
241
 10
227.811000000000007
 20
-6.6413000000000002
 30
0.0
 70
    32
  0
VERTEX
  5
3706
  8
241
 10
227.8069999999999879
 20
-6.6502399999999993
 30
0.0
 70
    32
  0
VERTEX
  5
3707
  8
241
 10
227.8029999999999973
 20
-6.6591899999999988
 30
0.0
 70
    32
  0
VERTEX
  5
3708
  8
241
 10
227.7990000000000066
 20
-6.668169999999999
 30
0.0
 70
    32
  0
VERTEX
  5
3709
  8
241
 10
227.7949999999999875
 20
-6.6771599999999998
 30
0.0
 70
    32
  0
VERTEX
  5
370A
  8
241
 10
227.7909999999999968
 20
-6.6861699999999988
 30
0.0
 70
    32
  0
VERTEX
  5
370B
  8
241
 10
227.7870000000000061
 20
-6.6951899999999993
 30
0.0
 70
    32
  0
VERTEX
  5
370C
  8
241
 10
227.782999999999987
 20
-6.704229999999999
 30
0.0
 70
    32
  0
VERTEX
  5
370D
  8
241
 10
227.7789999999999964
 20
-6.7132899999999989
 30
0.0
 70
    32
  0
VERTEX
  5
370E
  8
241
 10
227.7750000000000057
 20
-6.7223699999999988
 30
0.0
 70
    32
  0
VERTEX
  5
370F
  8
241
 10
227.7709999999999866
 20
-6.7314600000000002
 30
0.0
 70
    32
  0
VERTEX
  5
3710
  8
241
 10
227.7669999999999959
 20
-6.7405699999999991
 30
0.0
 70
    32
  0
VERTEX
  5
3711
  8
241
 10
227.7630000000000052
 20
-6.7496899999999993
 30
0.0
 70
    32
  0
VERTEX
  5
3712
  8
241
 10
227.7589999999999861
 20
-6.7588299999999997
 30
0.0
 70
    32
  0
VERTEX
  5
3713
  8
241
 10
227.7549999999999955
 20
-6.7679799999999997
 30
0.0
 70
    32
  0
VERTEX
  5
3714
  8
241
 10
227.7520000000000095
 20
-6.7771499999999989
 30
0.0
 70
    32
  0
VERTEX
  5
3715
  8
241
 10
227.7479999999999905
 20
-6.7863399999999992
 30
0.0
 70
    32
  0
VERTEX
  5
3716
  8
241
 10
227.7439999999999998
 20
-6.795539999999999
 30
0.0
 70
    32
  0
VERTEX
  5
3717
  8
241
 10
227.7400000000000091
 20
-6.8047500000000003
 30
0.0
 70
    32
  0
VERTEX
  5
3718
  8
241
 10
227.73599999999999
 20
-6.813979999999999
 30
0.0
 70
    32
  0
VERTEX
  5
3719
  8
241
 10
227.7319999999999993
 20
-6.8232200000000001
 30
0.0
 70
    32
  0
VERTEX
  5
371A
  8
241
 10
227.7280000000000086
 20
-6.8324800000000003
 30
0.0
 70
    32
  0
VERTEX
  5
371B
  8
241
 10
227.7249999999999943
 20
-6.8417500000000002
 30
0.0
 70
    32
  0
VERTEX
  5
371C
  8
241
 10
227.7210000000000036
 20
-6.8510299999999997
 30
0.0
 70
    32
  0
VERTEX
  5
371D
  8
241
 10
227.717000000000013
 20
-6.8603300000000003
 30
0.0
 70
    32
  0
VERTEX
  5
371E
  8
241
 10
227.7129999999999939
 20
-6.8696399999999986
 30
0.0
 70
    32
  0
VERTEX
  5
371F
  8
241
 10
227.7090000000000032
 20
-6.8789699999999989
 30
0.0
 70
    32
  0
VERTEX
  5
3720
  8
241
 10
227.7059999999999889
 20
-6.8883000000000001
 30
0.0
 70
    32
  0
VERTEX
  5
3721
  8
241
 10
227.7019999999999982
 20
-6.8976499999999987
 30
0.0
 70
    32
  0
VERTEX
  5
3722
  8
241
 10
227.6980000000000075
 20
-6.9070099999999996
 30
0.0
 70
    32
  0
VERTEX
  5
3723
  8
241
 10
227.6939999999999884
 20
-6.9163899999999989
 30
0.0
 70
    32
  0
VERTEX
  5
3724
  8
241
 10
227.6899999999999977
 20
-6.9257699999999991
 30
0.0
 70
    32
  0
VERTEX
  5
3725
  8
241
 10
227.6870000000000118
 20
-6.9351699999999994
 30
0.0
 70
    32
  0
VERTEX
  5
3726
  8
241
 10
227.6829999999999927
 20
-6.9445800000000002
 30
0.0
 70
    32
  0
VERTEX
  5
3727
  8
241
 10
227.679000000000002
 20
-6.9539999999999988
 30
0.0
 70
    32
  0
VERTEX
  5
3728
  8
241
 10
227.6759999999999877
 20
-6.9634299999999998
 30
0.0
 70
    32
  0
VERTEX
  5
3729
  8
241
 10
227.671999999999997
 20
-6.9728699999999986
 30
0.0
 70
    32
  0
VERTEX
  5
372A
  8
241
 10
227.6680000000000064
 20
-6.9823300000000001
 30
0.0
 70
    32
  0
VERTEX
  5
372B
  8
241
 10
227.6639999999999873
 20
-6.9917899999999991
 30
0.0
 70
    32
  0
VERTEX
  5
372C
  8
241
 10
227.6610000000000014
 20
-7.001269999999999
 30
0.0
 70
    32
  0
VERTEX
  5
372D
  8
241
 10
227.6570000000000107
 20
-7.0107499999999989
 30
0.0
 70
    32
  0
VERTEX
  5
372E
  8
241
 10
227.6539999999999964
 20
-7.020249999999999
 30
0.0
 70
    32
  0
VERTEX
  5
372F
  8
241
 10
227.6500000000000057
 20
-7.0297499999999991
 30
0.0
 70
    32
  0
VERTEX
  5
3730
  8
241
 10
227.6459999999999866
 20
-7.0392599999999996
 30
0.0
 70
    32
  0
VERTEX
  5
3731
  8
241
 10
227.6430000000000007
 20
-7.0487899999999986
 30
0.0
 70
    32
  0
VERTEX
  5
3732
  8
241
 10
227.63900000000001
 20
-7.0583200000000001
 30
0.0
 70
    32
  0
VERTEX
  5
3733
  8
241
 10
227.6349999999999909
 20
-7.0678599999999996
 30
0.0
 70
    32
  0
VERTEX
  5
3734
  8
241
 10
227.632000000000005
 20
-7.0774100000000004
 30
0.0
 70
    32
  0
VERTEX
  5
3735
  8
241
 10
227.6279999999999859
 20
-7.0869699999999991
 30
0.0
 70
    32
  0
VERTEX
  5
3736
  8
241
 10
227.625
 20
-7.0965299999999996
 30
0.0
 70
    32
  0
VERTEX
  5
3737
  8
241
 10
227.6210000000000093
 20
-7.1061100000000001
 30
0.0
 70
    32
  0
VERTEX
  5
3738
  8
241
 10
227.617999999999995
 20
-7.115689999999999
 30
0.0
 70
    32
  0
VERTEX
  5
3739
  8
241
 10
227.6140000000000043
 20
-7.1252800000000001
 30
0.0
 70
    32
  0
VERTEX
  5
373A
  8
241
 10
227.61099999999999
 20
-7.134879999999999
 30
0.0
 70
    32
  0
VERTEX
  5
373B
  8
241
 10
227.6069999999999993
 20
-7.1444899999999993
 30
0.0
 70
    32
  0
VERTEX
  5
373C
  8
241
 10
227.6040000000000134
 20
-7.1540999999999988
 30
0.0
 70
    32
  0
VERTEX
  5
373D
  8
241
 10
227.5999999999999943
 20
-7.1637199999999988
 30
0.0
 70
    32
  0
VERTEX
  5
373E
  8
241
 10
227.5970000000000084
 20
-7.1733500000000001
 30
0.0
 70
    32
  0
VERTEX
  5
373F
  8
241
 10
227.5929999999999893
 20
-7.1829799999999997
 30
0.0
 70
    32
  0
VERTEX
  5
3740
  8
241
 10
227.5900000000000034
 20
-7.1926199999999989
 30
0.0
 70
    32
  0
VERTEX
  5
3741
  8
241
 10
227.5860000000000127
 20
-7.2022599999999999
 30
0.0
 70
    32
  0
VERTEX
  5
3742
  8
241
 10
227.5829999999999984
 20
-7.2119099999999996
 30
0.0
 70
    32
  0
VERTEX
  5
3743
  8
241
 10
227.5800000000000125
 20
-7.2215699999999989
 30
0.0
 70
    32
  0
VERTEX
  5
3744
  8
241
 10
227.5759999999999934
 20
-7.23123
 30
0.0
 70
    32
  0
VERTEX
  5
3745
  8
241
 10
227.5730000000000075
 20
-7.240899999999999
 30
0.0
 70
    32
  0
VERTEX
  5
3746
  8
241
 10
227.5689999999999884
 20
-7.2505699999999988
 30
0.0
 70
    32
  0
VERTEX
  5
3747
  8
241
 10
227.5660000000000025
 20
-7.2602500000000001
 30
0.0
 70
    32
  0
VERTEX
  5
3748
  8
241
 10
227.5629999999999882
 20
-7.2699299999999996
 30
0.0
 70
    32
  0
VERTEX
  5
3749
  8
241
 10
227.5589999999999975
 20
-7.2796199999999986
 30
0.0
 70
    32
  0
VERTEX
  5
374A
  8
241
 10
227.5560000000000116
 20
-7.2893100000000004
 30
0.0
 70
    32
  0
VERTEX
  5
374B
  8
241
 10
227.5529999999999973
 20
-7.29901
 30
0.0
 70
    32
  0
VERTEX
  5
374C
  8
241
 10
227.5500000000000114
 20
-7.3086999999999991
 30
0.0
 70
    32
  0
VERTEX
  5
374D
  8
241
 10
227.5459999999999923
 20
-7.3184100000000001
 30
0.0
 70
    32
  0
VERTEX
  5
374E
  8
241
 10
227.5430000000000064
 20
-7.3281099999999997
 30
0.0
 70
    32
  0
VERTEX
  5
374F
  8
241
 10
227.539999999999992
 20
-7.3378199999999989
 30
0.0
 70
    32
  0
VERTEX
  5
3750
  8
241
 10
227.5370000000000061
 20
-7.347529999999999
 30
0.0
 70
    32
  0
VERTEX
  5
3751
  8
241
 10
227.532999999999987
 20
-7.3572499999999987
 30
0.0
 70
    32
  0
VERTEX
  5
3752
  8
241
 10
227.5300000000000011
 20
-7.3669599999999997
 30
0.0
 70
    32
  0
VERTEX
  5
3753
  8
241
 10
227.5269999999999868
 20
-7.3766800000000003
 30
0.0
 70
    32
  0
VERTEX
  5
3754
  8
241
 10
227.5240000000000009
 20
-7.3864000000000001
 30
0.0
 70
    32
  0
VERTEX
  5
3755
  8
241
 10
227.5209999999999866
 20
-7.3961199999999989
 30
0.0
 70
    32
  0
VERTEX
  5
3756
  8
241
 10
227.5180000000000007
 20
-7.40585
 30
0.0
 70
    32
  0
VERTEX
  5
3757
  8
241
 10
227.51400000000001
 20
-7.4155699999999989
 30
0.0
 70
    32
  0
VERTEX
  5
3758
  8
241
 10
227.5109999999999957
 20
-7.4253
 30
0.0
 70
    32
  0
VERTEX
  5
3759
  8
241
 10
227.5080000000000098
 20
-7.4350199999999989
 30
0.0
 70
    32
  0
VERTEX
  5
375A
  8
241
 10
227.5049999999999955
 20
-7.4447499999999991
 30
0.0
 70
    32
  0
VERTEX
  5
375B
  8
241
 10
227.5020000000000095
 20
-7.4544800000000002
 30
0.0
 70
    32
  0
VERTEX
  5
375C
  8
241
 10
227.4989999999999952
 20
-7.4642099999999996
 30
0.0
 70
    32
  0
VERTEX
  5
375D
  8
241
 10
227.4960000000000093
 20
-7.4739300000000002
 30
0.0
 70
    32
  0
VERTEX
  5
375E
  8
241
 10
227.492999999999995
 20
-7.4836600000000004
 30
0.0
 70
    32
  0
VERTEX
  5
375F
  8
241
 10
227.4900000000000091
 20
-7.4933899999999989
 30
0.0
 70
    32
  0
VERTEX
  5
3760
  8
241
 10
227.4869999999999948
 20
-7.5031100000000004
 30
0.0
 70
    32
  0
VERTEX
  5
3761
  8
241
 10
227.4840000000000089
 20
-7.5128300000000001
 30
0.0
 70
    32
  0
VERTEX
  5
3762
  8
241
 10
227.4809999999999945
 20
-7.5225600000000004
 30
0.0
 70
    32
  0
VERTEX
  5
3763
  8
241
 10
227.4780000000000086
 20
-7.5322800000000001
 30
0.0
 70
    32
  0
VERTEX
  5
3764
  8
241
 10
227.4749999999999943
 20
-7.5419999999999989
 30
0.0
 70
    32
  0
VERTEX
  5
3765
  8
241
 10
227.4720000000000084
 20
-7.5517099999999999
 30
0.0
 70
    32
  0
VERTEX
  5
3766
  8
241
 10
227.4689999999999941
 20
-7.5614299999999997
 30
0.0
 70
    32
  0
VERTEX
  5
3767
  8
241
 10
227.4660000000000082
 20
-7.5711399999999989
 30
0.0
 70
    32
  0
VERTEX
  5
3768
  8
241
 10
227.4639999999999986
 20
-7.580849999999999
 30
0.0
 70
    32
  0
VERTEX
  5
3769
  8
241
 10
227.4610000000000127
 20
-7.5905500000000004
 30
0.0
 70
    32
  0
VERTEX
  5
376A
  8
241
 10
227.4579999999999984
 20
-7.6002599999999996
 30
0.0
 70
    32
  0
VERTEX
  5
376B
  8
241
 10
227.4550000000000125
 20
-7.6099600000000001
 30
0.0
 70
    32
  0
VERTEX
  5
376C
  8
241
 10
227.4519999999999982
 20
-7.61965
 30
0.0
 70
    32
  0
VERTEX
  5
376D
  8
241
 10
227.4490000000000123
 20
-7.6293399999999991
 30
0.0
 70
    32
  0
VERTEX
  5
376E
  8
241
 10
227.4470000000000027
 20
-7.6390299999999991
 30
0.0
 70
    32
  0
VERTEX
  5
376F
  8
241
 10
227.4439999999999884
 20
-7.6487100000000003
 30
0.0
 70
    32
  0
VERTEX
  5
3770
  8
241
 10
227.4410000000000025
 20
-7.6583899999999989
 30
0.0
 70
    32
  0
VERTEX
  5
3771
  8
241
 10
227.4379999999999882
 20
-7.6680599999999997
 30
0.0
 70
    32
  0
VERTEX
  5
3772
  8
241
 10
227.436000000000007
 20
-7.6777300000000004
 30
0.0
 70
    32
  0
VERTEX
  5
3773
  8
241
 10
227.4329999999999927
 20
-7.6873899999999988
 30
0.0
 70
    32
  0
VERTEX
  5
3774
  8
241
 10
227.4300000000000068
 20
-7.6970499999999991
 30
0.0
 70
    32
  0
VERTEX
  5
3775
  8
241
 10
227.4269999999999925
 20
-7.7066999999999988
 30
0.0
 70
    32
  0
VERTEX
  5
3776
  8
241
 10
227.4250000000000114
 20
-7.7163500000000003
 30
0.0
 70
    32
  0
VERTEX
  5
3777
  8
241
 10
227.421999999999997
 20
-7.725979999999999
 30
0.0
 70
    32
  0
VERTEX
  5
3778
  8
241
 10
227.4190000000000111
 20
-7.7356199999999991
 30
0.0
 70
    32
  0
VERTEX
  5
3779
  8
241
 10
227.4170000000000016
 20
-7.745239999999999
 30
0.0
 70
    32
  0
VERTEX
  5
377A
  8
241
 10
227.4139999999999873
 20
-7.7548599999999999
 30
0.0
 70
    32
  0
VERTEX
  5
377B
  8
241
 10
227.4120000000000061
 20
-7.7644699999999993
 30
0.0
 70
    32
  0
VERTEX
  5
377C
  8
241
 10
227.4089999999999918
 20
-7.77407
 30
0.0
 70
    32
  0
VERTEX
  5
377D
  8
241
 10
227.4060000000000059
 20
-7.783669999999999
 30
0.0
 70
    32
  0
VERTEX
  5
377E
  8
241
 10
227.4039999999999964
 20
-7.7932600000000001
 30
0.0
 70
    32
  0
VERTEX
  5
377F
  8
241
 10
227.4010000000000105
 20
-7.8028399999999989
 30
0.0
 70
    32
  0
VERTEX
  5
3780
  8
241
 10
227.3990000000000009
 20
-7.8124099999999999
 30
0.0
 70
    32
  0
VERTEX
  5
3781
  8
241
 10
227.3959999999999866
 20
-7.8219699999999994
 30
0.0
 70
    32
  0
VERTEX
  5
3782
  8
241
 10
227.3940000000000055
 20
-7.8315199999999994
 30
0.0
 70
    32
  0
VERTEX
  5
3783
  8
241
 10
227.3909999999999911
 20
-7.8410699999999993
 30
0.0
 70
    32
  0
VERTEX
  5
3784
  8
241
 10
227.38900000000001
 20
-7.8506
 30
0.0
 70
    32
  0
VERTEX
  5
3785
  8
241
 10
227.3859999999999957
 20
-7.8601299999999998
 30
0.0
 70
    32
  0
VERTEX
  5
3786
  8
241
 10
227.3839999999999861
 20
-7.8696399999999986
 30
0.0
 70
    32
  0
VERTEX
  5
3787
  8
241
 10
227.382000000000005
 20
-7.8791500000000001
 30
0.0
 70
    32
  0
VERTEX
  5
3788
  8
241
 10
227.3789999999999907
 20
-7.8886399999999988
 30
0.0
 70
    32
  0
VERTEX
  5
3789
  8
241
 10
227.3770000000000095
 20
-7.8981199999999987
 30
0.0
 70
    32
  0
VERTEX
  5
378A
  8
241
 10
227.3739999999999952
 20
-7.9076000000000004
 30
0.0
 70
    32
  0
VERTEX
  5
378B
  8
241
 10
227.3720000000000141
 20
-7.9170600000000002
 30
0.0
 70
    32
  0
VERTEX
  5
378C
  8
241
 10
227.3700000000000045
 20
-7.9265100000000004
 30
0.0
 70
    32
  0
VERTEX
  5
378D
  8
241
 10
227.3669999999999902
 20
-7.9359500000000001
 30
0.0
 70
    32
  0
VERTEX
  5
378E
  8
241
 10
227.3650000000000091
 20
-7.9453800000000001
 30
0.0
 70
    32
  0
VERTEX
  5
378F
  8
241
 10
227.3629999999999995
 20
-7.9547899999999991
 30
0.0
 70
    32
  0
VERTEX
  5
3790
  8
241
 10
227.36099999999999
 20
-7.9641999999999991
 30
0.0
 70
    32
  0
VERTEX
  5
3791
  8
241
 10
227.3580000000000041
 20
-7.9735899999999988
 30
0.0
 70
    32
  0
VERTEX
  5
3792
  8
241
 10
227.3559999999999945
 20
-7.982969999999999
 30
0.0
 70
    32
  0
VERTEX
  5
3793
  8
241
 10
227.3540000000000134
 20
-7.992329999999999
 30
0.0
 70
    32
  0
VERTEX
  5
3794
  8
241
 10
227.3520000000000039
 20
-8.0016800000000003
 30
0.0
 70
    32
  0
VERTEX
  5
3795
  8
241
 10
227.3489999999999895
 20
-8.0110200000000003
 30
0.0
 70
    32
  0
VERTEX
  5
3796
  8
241
 10
227.3470000000000084
 20
-8.0203500000000005
 30
0.0
 70
    32
  0
VERTEX
  5
3797
  8
241
 10
227.3449999999999989
 20
-8.0296599999999998
 30
0.0
 70
    32
  0
VERTEX
  5
3798
  8
241
 10
227.3429999999999893
 20
-8.0389499999999998
 30
0.0
 70
    32
  0
VERTEX
  5
3799
  8
241
 10
227.3410000000000082
 20
-8.0482399999999998
 30
0.0
 70
    32
  0
VERTEX
  5
379A
  8
241
 10
227.3389999999999986
 20
-8.0575100000000006
 30
0.0
 70
    32
  0
VERTEX
  5
379B
  8
241
 10
227.3369999999999891
 20
-8.0667600000000004
 30
0.0
 70
    32
  0
VERTEX
  5
379C
  8
241
 10
227.3340000000000032
 20
-8.0760000000000005
 30
0.0
 70
    32
  0
VERTEX
  5
379D
  8
241
 10
227.3319999999999936
 20
-8.0852199999999996
 30
0.0
 70
    32
  0
VERTEX
  5
379E
  8
241
 10
227.3300000000000125
 20
-8.0944299999999991
 30
0.0
 70
    32
  0
VERTEX
  5
379F
  8
241
 10
227.328000000000003
 20
-8.1036199999999994
 30
0.0
 70
    32
  0
VERTEX
  5
37A0
  8
241
 10
227.3259999999999934
 20
-8.1128
 30
0.0
 70
    32
  0
VERTEX
  5
37A1
  8
241
 10
227.3240000000000123
 20
-8.1219600000000014
 30
0.0
 70
    32
  0
VERTEX
  5
37A2
  8
241
 10
227.3220000000000027
 20
-8.1310999999999982
 30
0.0
 70
    32
  0
VERTEX
  5
37A3
  8
241
 10
227.3199999999999932
 20
-8.1402199999999993
 30
0.0
 70
    32
  0
VERTEX
  5
37A4
  8
241
 10
227.3180000000000121
 20
-8.1493599999999997
 30
0.0
 70
    32
  0
VERTEX
  5
37A5
  8
241
 10
227.3160000000000025
 20
-8.1585199999999993
 30
0.0
 70
    32
  0
VERTEX
  5
37A6
  8
241
 10
227.313999999999993
 20
-8.1677100000000014
 30
0.0
 70
    32
  0
VERTEX
  5
37A7
  8
241
 10
227.3120000000000118
 20
-8.1769400000000001
 30
0.0
 70
    32
  0
VERTEX
  5
37A8
  8
241
 10
227.3100000000000023
 20
-8.1861899999999999
 30
0.0
 70
    32
  0
VERTEX
  5
37A9
  8
241
 10
227.3089999999999975
 20
-8.1954700000000003
 30
0.0
 70
    32
  0
VERTEX
  5
37AA
  8
241
 10
227.3069999999999879
 20
-8.2047699999999981
 30
0.0
 70
    32
  0
VERTEX
  5
37AB
  8
241
 10
227.3050000000000068
 20
-8.2141099999999998
 30
0.0
 70
    32
  0
VERTEX
  5
37AC
  8
241
 10
227.3029999999999973
 20
-8.2234699999999972
 30
0.0
 70
    32
  0
VERTEX
  5
37AD
  8
241
 10
227.3009999999999877
 20
-8.2328499999999991
 30
0.0
 70
    32
  0
VERTEX
  5
37AE
  8
241
 10
227.2990000000000066
 20
-8.2422699999999995
 30
0.0
 70
    32
  0
VERTEX
  5
37AF
  8
241
 10
227.296999999999997
 20
-8.2517099999999992
 30
0.0
 70
    32
  0
VERTEX
  5
37B0
  8
241
 10
227.2949999999999875
 20
-8.2611699999999981
 30
0.0
 70
    32
  0
VERTEX
  5
37B1
  8
241
 10
227.2930000000000064
 20
-8.2706600000000012
 30
0.0
 70
    32
  0
VERTEX
  5
37B2
  8
241
 10
227.2909999999999968
 20
-8.28017
 30
0.0
 70
    32
  0
VERTEX
  5
37B3
  8
241
 10
227.289999999999992
 20
-8.2897100000000012
 30
0.0
 70
    32
  0
VERTEX
  5
37B4
  8
241
 10
227.2880000000000109
 20
-8.2992699999999981
 30
0.0
 70
    32
  0
VERTEX
  5
37B5
  8
241
 10
227.2860000000000014
 20
-8.3088499999999996
 30
0.0
 70
    32
  0
VERTEX
  5
37B6
  8
241
 10
227.2839999999999918
 20
-8.3184599999999982
 30
0.0
 70
    32
  0
VERTEX
  5
37B7
  8
241
 10
227.2820000000000107
 20
-8.3280799999999982
 30
0.0
 70
    32
  0
VERTEX
  5
37B8
  8
241
 10
227.2800000000000011
 20
-8.3377300000000005
 30
0.0
 70
    32
  0
VERTEX
  5
37B9
  8
241
 10
227.2789999999999964
 20
-8.3474000000000004
 30
0.0
 70
    32
  0
VERTEX
  5
37BA
  8
241
 10
227.2769999999999868
 20
-8.3570899999999995
 30
0.0
 70
    32
  0
VERTEX
  5
37BB
  8
241
 10
227.2750000000000057
 20
-8.3667999999999996
 30
0.0
 70
    32
  0
VERTEX
  5
37BC
  8
241
 10
227.2729999999999961
 20
-8.3765300000000007
 30
0.0
 70
    32
  0
VERTEX
  5
37BD
  8
241
 10
227.2709999999999866
 20
-8.3862800000000011
 30
0.0
 70
    32
  0
VERTEX
  5
37BE
  8
241
 10
227.2700000000000102
 20
-8.3960500000000007
 30
0.0
 70
    32
  0
VERTEX
  5
37BF
  8
241
 10
227.2680000000000007
 20
-8.4058399999999995
 30
0.0
 70
    32
  0
VERTEX
  5
37C0
  8
241
 10
227.2659999999999911
 20
-8.4156399999999998
 30
0.0
 70
    32
  0
VERTEX
  5
37C1
  8
241
 10
227.26400000000001
 20
-8.4254699999999971
 30
0.0
 70
    32
  0
VERTEX
  5
37C2
  8
241
 10
227.2630000000000052
 20
-8.4353100000000012
 30
0.0
 70
    32
  0
VERTEX
  5
37C3
  8
241
 10
227.2609999999999957
 20
-8.4451600000000013
 30
0.0
 70
    32
  0
VERTEX
  5
37C4
  8
241
 10
227.2589999999999861
 20
-8.4550399999999986
 30
0.0
 70
    32
  0
VERTEX
  5
37C5
  8
241
 10
227.257000000000005
 20
-8.4649300000000007
 30
0.0
 70
    32
  0
VERTEX
  5
37C6
  8
241
 10
227.2560000000000002
 20
-8.4748300000000008
 30
0.0
 70
    32
  0
VERTEX
  5
37C7
  8
241
 10
227.2539999999999907
 20
-8.48475
 30
0.0
 70
    32
  0
VERTEX
  5
37C8
  8
241
 10
227.2520000000000095
 20
-8.4946800000000007
 30
0.0
 70
    32
  0
VERTEX
  5
37C9
  8
241
 10
227.2510000000000048
 20
-8.5046300000000006
 30
0.0
 70
    32
  0
VERTEX
  5
37CA
  8
241
 10
227.2489999999999952
 20
-8.5145900000000001
 30
0.0
 70
    32
  0
VERTEX
  5
37CB
  8
241
 10
227.2470000000000141
 20
-8.524560000000001
 30
0.0
 70
    32
  0
VERTEX
  5
37CC
  8
241
 10
227.2460000000000093
 20
-8.5345499999999994
 30
0.0
 70
    32
  0
VERTEX
  5
37CD
  8
241
 10
227.2439999999999998
 20
-8.5445499999999992
 30
0.0
 70
    32
  0
VERTEX
  5
37CE
  8
241
 10
227.2419999999999902
 20
-8.5545600000000004
 30
0.0
 70
    32
  0
VERTEX
  5
37CF
  8
241
 10
227.2410000000000139
 20
-8.5645799999999994
 30
0.0
 70
    32
  0
VERTEX
  5
37D0
  8
241
 10
227.2390000000000043
 20
-8.5746199999999995
 30
0.0
 70
    32
  0
VERTEX
  5
37D1
  8
241
 10
227.2379999999999995
 20
-8.5846600000000013
 30
0.0
 70
    32
  0
VERTEX
  5
37D2
  8
241
 10
227.23599999999999
 20
-8.5947099999999992
 30
0.0
 70
    32
  0
VERTEX
  5
37D3
  8
241
 10
227.2350000000000136
 20
-8.6047799999999999
 30
0.0
 70
    32
  0
VERTEX
  5
37D4
  8
241
 10
227.2330000000000041
 20
-8.6148500000000006
 30
0.0
 70
    32
  0
VERTEX
  5
37D5
  8
241
 10
227.2309999999999945
 20
-8.6249300000000009
 30
0.0
 70
    32
  0
VERTEX
  5
37D6
  8
241
 10
227.2299999999999898
 20
-8.635019999999999
 30
0.0
 70
    32
  0
VERTEX
  5
37D7
  8
241
 10
227.2280000000000086
 20
-8.6451100000000007
 30
0.0
 70
    32
  0
VERTEX
  5
37D8
  8
241
 10
227.2270000000000039
 20
-8.6552199999999981
 30
0.0
 70
    32
  0
VERTEX
  5
37D9
  8
241
 10
227.2249999999999943
 20
-8.6653300000000009
 30
0.0
 70
    32
  0
VERTEX
  5
37DA
  8
241
 10
227.2239999999999895
 20
-8.6754499999999997
 30
0.0
 70
    32
  0
VERTEX
  5
37DB
  8
241
 10
227.2230000000000132
 20
-8.6855700000000002
 30
0.0
 70
    32
  0
VERTEX
  5
37DC
  8
241
 10
227.2210000000000036
 20
-8.6957000000000004
 30
0.0
 70
    32
  0
VERTEX
  5
37DD
  8
241
 10
227.2199999999999989
 20
-8.7058400000000002
 30
0.0
 70
    32
  0
VERTEX
  5
37DE
  8
241
 10
227.2179999999999893
 20
-8.7159700000000004
 30
0.0
 70
    32
  0
VERTEX
  5
37DF
  8
241
 10
227.217000000000013
 20
-8.7261199999999999
 30
0.0
 70
    32
  0
VERTEX
  5
37E0
  8
241
 10
227.2150000000000034
 20
-8.7362699999999993
 30
0.0
 70
    32
  0
VERTEX
  5
37E1
  8
241
 10
227.2139999999999986
 20
-8.7464200000000005
 30
0.0
 70
    32
  0
VERTEX
  5
37E2
  8
241
 10
227.2129999999999939
 20
-8.7565699999999982
 30
0.0
 70
    32
  0
VERTEX
  5
37E3
  8
241
 10
227.2110000000000127
 20
-8.7667300000000008
 30
0.0
 70
    32
  0
VERTEX
  5
37E4
  8
241
 10
227.210000000000008
 20
-8.7768800000000002
 30
0.0
 70
    32
  0
VERTEX
  5
37E5
  8
241
 10
227.2090000000000032
 20
-8.7870399999999993
 30
0.0
 70
    32
  0
VERTEX
  5
37E6
  8
241
 10
227.2069999999999936
 20
-8.7972099999999998
 30
0.0
 70
    32
  0
VERTEX
  5
37E7
  8
241
 10
227.2059999999999889
 20
-8.8073700000000006
 30
0.0
 70
    32
  0
VERTEX
  5
37E8
  8
241
 10
227.2050000000000125
 20
-8.8175299999999996
 30
0.0
 70
    32
  0
VERTEX
  5
37E9
  8
241
 10
227.2040000000000077
 20
-8.8276899999999987
 30
0.0
 70
    32
  0
VERTEX
  5
37EA
  8
241
 10
227.2019999999999982
 20
-8.8378499999999995
 30
0.0
 70
    32
  0
VERTEX
  5
37EB
  8
241
 10
227.2009999999999934
 20
-8.8480100000000004
 30
0.0
 70
    32
  0
VERTEX
  5
37EC
  8
241
 10
227.1999999999999886
 20
-8.8581699999999994
 30
0.0
 70
    32
  0
VERTEX
  5
37ED
  8
241
 10
227.1990000000000123
 20
-8.8683199999999989
 30
0.0
 70
    32
  0
VERTEX
  5
37EE
  8
241
 10
227.1970000000000027
 20
-8.8784799999999997
 30
0.0
 70
    32
  0
VERTEX
  5
37EF
  8
241
 10
227.195999999999998
 20
-8.8886299999999991
 30
0.0
 70
    32
  0
VERTEX
  5
37F0
  8
241
 10
227.1949999999999932
 20
-8.8987800000000004
 30
0.0
 70
    32
  0
VERTEX
  5
37F1
  8
241
 10
227.1939999999999884
 20
-8.9089200000000002
 30
0.0
 70
    32
  0
VERTEX
  5
37F2
  8
241
 10
227.1930000000000121
 20
-8.9190599999999982
 30
0.0
 70
    32
  0
VERTEX
  5
37F3
  8
241
 10
227.1920000000000073
 20
-8.9291900000000002
 30
0.0
 70
    32
  0
VERTEX
  5
37F4
  8
241
 10
227.1910000000000025
 20
-8.9393200000000004
 30
0.0
 70
    32
  0
VERTEX
  5
37F5
  8
241
 10
227.188999999999993
 20
-8.9494399999999992
 30
0.0
 70
    32
  0
VERTEX
  5
37F6
  8
241
 10
227.1879999999999882
 20
-8.9595599999999997
 30
0.0
 70
    32
  0
VERTEX
  5
37F7
  8
241
 10
227.1870000000000118
 20
-8.9696699999999971
 30
0.0
 70
    32
  0
VERTEX
  5
37F8
  8
241
 10
227.186000000000007
 20
-8.9797700000000003
 30
0.0
 70
    32
  0
VERTEX
  5
37F9
  8
241
 10
227.1850000000000023
 20
-8.9898600000000002
 30
0.0
 70
    32
  0
VERTEX
  5
37FA
  8
241
 10
227.1839999999999975
 20
-8.9999500000000001
 30
0.0
 70
    32
  0
VERTEX
  5
37FB
  8
241
 10
227.1829999999999927
 20
-9.0100300000000004
 30
0.0
 70
    32
  0
VERTEX
  5
37FC
  8
241
 10
227.1819999999999879
 20
-9.0200999999999993
 30
0.0
 70
    32
  0
VERTEX
  5
37FD
  8
241
 10
227.1810000000000116
 20
-9.0301600000000004
 30
0.0
 70
    32
  0
VERTEX
  5
37FE
  8
241
 10
227.1800000000000068
 20
-9.0402100000000001
 30
0.0
 70
    32
  0
VERTEX
  5
37FF
  8
241
 10
227.179000000000002
 20
-9.0502399999999987
 30
0.0
 70
    32
  0
VERTEX
  5
3800
  8
241
 10
227.1779999999999973
 20
-9.0602699999999992
 30
0.0
 70
    32
  0
VERTEX
  5
3801
  8
241
 10
227.1769999999999925
 20
-9.0702899999999982
 30
0.0
 70
    32
  0
VERTEX
  5
3802
  8
241
 10
227.1759999999999877
 20
-9.0802899999999998
 30
0.0
 70
    32
  0
VERTEX
  5
3803
  8
241
 10
227.1750000000000114
 20
-9.0902899999999995
 30
0.0
 70
    32
  0
VERTEX
  5
3804
  8
241
 10
227.1750000000000114
 20
-9.1002700000000001
 30
0.0
 70
    32
  0
VERTEX
  5
3805
  8
241
 10
227.1740000000000066
 20
-9.1102299999999996
 30
0.0
 70
    32
  0
VERTEX
  5
3806
  8
241
 10
227.1730000000000018
 20
-9.1201899999999991
 30
0.0
 70
    32
  0
VERTEX
  5
3807
  8
241
 10
227.171999999999997
 20
-9.1301199999999998
 30
0.0
 70
    32
  0
VERTEX
  5
3808
  8
241
 10
227.1709999999999923
 20
-9.1400500000000005
 30
0.0
 70
    32
  0
VERTEX
  5
3809
  8
241
 10
227.1699999999999875
 20
-9.1499600000000001
 30
0.0
 70
    32
  0
VERTEX
  5
380A
  8
241
 10
227.1690000000000111
 20
-9.1598500000000005
 30
0.0
 70
    32
  0
VERTEX
  5
380B
  8
241
 10
227.1690000000000111
 20
-9.1697299999999995
 30
0.0
 70
    32
  0
VERTEX
  5
380C
  8
241
 10
227.1680000000000064
 20
-9.1795899999999993
 30
0.0
 70
    32
  0
VERTEX
  5
380D
  8
241
 10
227.1670000000000016
 20
-9.1894299999999998
 30
0.0
 70
    32
  0
VERTEX
  5
380E
  8
241
 10
227.1659999999999968
 20
-9.1992600000000007
 30
0.0
 70
    32
  0
VERTEX
  5
380F
  8
241
 10
227.1659999999999968
 20
-9.2090700000000005
 30
0.0
 70
    32
  0
VERTEX
  5
3810
  8
241
 10
227.164999999999992
 20
-9.2188600000000012
 30
0.0
 70
    32
  0
VERTEX
  5
3811
  8
241
 10
227.1639999999999873
 20
-9.2286300000000008
 30
0.0
 70
    32
  0
VERTEX
  5
3812
  8
241
 10
227.1630000000000109
 20
-9.2383899999999972
 30
0.0
 70
    32
  0
VERTEX
  5
3813
  8
241
 10
227.1630000000000109
 20
-9.2481200000000001
 30
0.0
 70
    32
  0
VERTEX
  5
3814
  8
241
 10
227.1620000000000061
 20
-9.2578300000000002
 30
0.0
 70
    32
  0
VERTEX
  5
3815
  8
241
 10
227.1610000000000014
 20
-9.2675199999999993
 30
0.0
 70
    32
  0
VERTEX
  5
3816
  8
241
 10
227.1610000000000014
 20
-9.2771899999999992
 30
0.0
 70
    32
  0
VERTEX
  5
3817
  8
241
 10
227.1599999999999966
 20
-9.2868399999999998
 30
0.0
 70
    32
  0
VERTEX
  5
3818
  8
241
 10
227.1589999999999918
 20
-9.2964699999999993
 30
0.0
 70
    32
  0
VERTEX
  5
3819
  8
241
 10
227.1589999999999918
 20
-9.3060799999999997
 30
0.0
 70
    32
  0
VERTEX
  5
381A
  8
241
 10
227.157999999999987
 20
-9.3156600000000012
 30
0.0
 70
    32
  0
VERTEX
  5
381B
  8
241
 10
227.157999999999987
 20
-9.3252199999999998
 30
0.0
 70
    32
  0
VERTEX
  5
381C
  8
241
 10
227.1570000000000107
 20
-9.3347499999999997
 30
0.0
 70
    32
  0
VERTEX
  5
381D
  8
241
 10
227.1570000000000107
 20
-9.3442600000000002
 30
0.0
 70
    32
  0
VERTEX
  5
381E
  8
241
 10
227.1560000000000059
 20
-9.3537499999999998
 30
0.0
 70
    32
  0
VERTEX
  5
381F
  8
241
 10
227.1550000000000011
 20
-9.3632100000000005
 30
0.0
 70
    32
  0
VERTEX
  5
3820
  8
241
 10
227.1550000000000011
 20
-9.3726399999999988
 30
0.0
 70
    32
  0
VERTEX
  5
3821
  8
241
 10
227.1539999999999964
 20
-9.3820499999999996
 30
0.0
 70
    32
  0
VERTEX
  5
3822
  8
241
 10
227.1539999999999964
 20
-9.3914399999999993
 30
0.0
 70
    32
  0
VERTEX
  5
3823
  8
241
 10
227.1529999999999916
 20
-9.4007899999999989
 30
0.0
 70
    32
  0
VERTEX
  5
3824
  8
241
 10
227.1529999999999916
 20
-9.4101199999999992
 30
0.0
 70
    32
  0
VERTEX
  5
3825
  8
241
 10
227.1529999999999916
 20
-9.4194499999999994
 30
0.0
 70
    32
  0
VERTEX
  5
3826
  8
241
 10
227.1519999999999868
 20
-9.4287899999999993
 30
0.0
 70
    32
  0
VERTEX
  5
3827
  8
241
 10
227.1519999999999868
 20
-9.4381500000000003
 30
0.0
 70
    32
  0
VERTEX
  5
3828
  8
241
 10
227.1510000000000105
 20
-9.4475100000000012
 30
0.0
 70
    32
  0
VERTEX
  5
3829
  8
241
 10
227.1510000000000105
 20
-9.4568899999999996
 30
0.0
 70
    32
  0
VERTEX
  5
382A
  8
241
 10
227.1500000000000057
 20
-9.4662800000000011
 30
0.0
 70
    32
  0
VERTEX
  5
382B
  8
241
 10
227.1500000000000057
 20
-9.4756800000000005
 30
0.0
 70
    32
  0
VERTEX
  5
382C
  8
241
 10
227.1500000000000057
 20
-9.4850899999999996
 30
0.0
 70
    32
  0
VERTEX
  5
382D
  8
241
 10
227.1490000000000009
 20
-9.4945199999999996
 30
0.0
 70
    32
  0
VERTEX
  5
382E
  8
241
 10
227.1490000000000009
 20
-9.5039499999999997
 30
0.0
 70
    32
  0
VERTEX
  5
382F
  8
241
 10
227.1490000000000009
 20
-9.5134000000000007
 30
0.0
 70
    32
  0
VERTEX
  5
3830
  8
241
 10
227.1479999999999961
 20
-9.52285
 30
0.0
 70
    32
  0
VERTEX
  5
3831
  8
241
 10
227.1479999999999961
 20
-9.5323200000000003
 30
0.0
 70
    32
  0
VERTEX
  5
3832
  8
241
 10
227.1479999999999961
 20
-9.5418000000000003
 30
0.0
 70
    32
  0
VERTEX
  5
3833
  8
241
 10
227.1469999999999914
 20
-9.5512899999999998
 30
0.0
 70
    32
  0
VERTEX
  5
3834
  8
241
 10
227.1469999999999914
 20
-9.5607800000000012
 30
0.0
 70
    32
  0
VERTEX
  5
3835
  8
241
 10
227.1469999999999914
 20
-9.5702899999999982
 30
0.0
 70
    32
  0
VERTEX
  5
3836
  8
241
 10
227.1459999999999866
 20
-9.5798100000000002
 30
0.0
 70
    32
  0
VERTEX
  5
3837
  8
241
 10
227.1459999999999866
 20
-9.5893399999999982
 30
0.0
 70
    32
  0
VERTEX
  5
3838
  8
241
 10
227.1459999999999866
 20
-9.5988799999999994
 30
0.0
 70
    32
  0
VERTEX
  5
3839
  8
241
 10
227.1459999999999866
 20
-9.6084399999999999
 30
0.0
 70
    32
  0
VERTEX
  5
383A
  8
241
 10
227.1450000000000102
 20
-9.6180000000000003
 30
0.0
 70
    32
  0
VERTEX
  5
383B
  8
241
 10
227.1450000000000102
 20
-9.6275700000000004
 30
0.0
 70
    32
  0
VERTEX
  5
383C
  8
241
 10
227.1450000000000102
 20
-9.6371500000000001
 30
0.0
 70
    32
  0
VERTEX
  5
383D
  8
241
 10
227.1450000000000102
 20
-9.6467399999999994
 30
0.0
 70
    32
  0
VERTEX
  5
383E
  8
241
 10
227.1450000000000102
 20
-9.6563400000000001
 30
0.0
 70
    32
  0
VERTEX
  5
383F
  8
241
 10
227.1440000000000055
 20
-9.6659500000000005
 30
0.0
 70
    32
  0
VERTEX
  5
3840
  8
241
 10
227.1440000000000055
 20
-9.6755700000000004
 30
0.0
 70
    32
  0
VERTEX
  5
3841
  8
241
 10
227.1440000000000055
 20
-9.6851899999999986
 30
0.0
 70
    32
  0
VERTEX
  5
3842
  8
241
 10
227.1440000000000055
 20
-9.6948299999999996
 30
0.0
 70
    32
  0
VERTEX
  5
3843
  8
241
 10
227.1440000000000055
 20
-9.7044800000000002
 30
0.0
 70
    32
  0
VERTEX
  5
3844
  8
241
 10
227.1440000000000055
 20
-9.7141399999999987
 30
0.0
 70
    32
  0
VERTEX
  5
3845
  8
241
 10
227.1440000000000055
 20
-9.7238000000000007
 30
0.0
 70
    32
  0
VERTEX
  5
3846
  8
241
 10
227.1430000000000007
 20
-9.7334800000000001
 30
0.0
 70
    32
  0
VERTEX
  5
3847
  8
241
 10
227.1430000000000007
 20
-9.7431600000000014
 30
0.0
 70
    32
  0
VERTEX
  5
3848
  8
241
 10
227.1430000000000007
 20
-9.7528500000000005
 30
0.0
 70
    32
  0
VERTEX
  5
3849
  8
241
 10
227.1430000000000007
 20
-9.7625499999999992
 30
0.0
 70
    32
  0
VERTEX
  5
384A
  8
241
 10
227.1430000000000007
 20
-9.7722600000000011
 30
0.0
 70
    32
  0
VERTEX
  5
384B
  8
241
 10
227.1430000000000007
 20
-9.7819800000000008
 30
0.0
 70
    32
  0
VERTEX
  5
384C
  8
241
 10
227.1430000000000007
 20
-9.7917100000000001
 30
0.0
 70
    32
  0
VERTEX
  5
384D
  8
241
 10
227.1430000000000007
 20
-9.8014399999999995
 30
0.0
 70
    32
  0
VERTEX
  5
384E
  8
241
 10
227.1430000000000007
 20
-9.8111800000000002
 30
0.0
 70
    32
  0
VERTEX
  5
384F
  8
241
 10
227.1430000000000007
 20
-9.8209300000000006
 30
0.0
 70
    32
  0
VERTEX
  5
3850
  8
241
 10
227.1430000000000007
 20
-9.8306899999999988
 30
0.0
 70
    32
  0
VERTEX
  5
3851
  8
241
 10
227.1430000000000007
 20
-9.8404600000000002
 30
0.0
 70
    32
  0
VERTEX
  5
3852
  8
241
 10
227.1430000000000007
 20
-9.8502399999999994
 30
0.0
 70
    32
  0
VERTEX
  5
3853
  8
241
 10
227.1430000000000007
 20
-9.8600200000000005
 30
0.0
 70
    32
  0
VERTEX
  5
3854
  8
241
 10
227.1430000000000007
 20
-9.8698100000000011
 30
0.0
 70
    32
  0
VERTEX
  5
3855
  8
241
 10
227.1430000000000007
 20
-9.8796100000000013
 30
0.0
 70
    32
  0
VERTEX
  5
3856
  8
241
 10
227.1440000000000055
 20
-9.8894099999999998
 30
0.0
 70
    32
  0
VERTEX
  5
3857
  8
241
 10
227.1440000000000055
 20
-9.8992300000000011
 30
0.0
 70
    32
  0
VERTEX
  5
3858
  8
241
 10
227.1440000000000055
 20
-9.9090500000000006
 30
0.0
 70
    32
  0
VERTEX
  5
3859
  8
241
 10
227.1440000000000055
 20
-9.9188799999999997
 30
0.0
 70
    32
  0
VERTEX
  5
385A
  8
241
 10
227.1440000000000055
 20
-9.9287100000000006
 30
0.0
 70
    32
  0
VERTEX
  5
385B
  8
241
 10
227.1440000000000055
 20
-9.9385499999999993
 30
0.0
 70
    32
  0
VERTEX
  5
385C
  8
241
 10
227.1440000000000055
 20
-9.9483999999999995
 30
0.0
 70
    32
  0
VERTEX
  5
385D
  8
241
 10
227.1450000000000102
 20
-9.9582599999999992
 30
0.0
 70
    32
  0
VERTEX
  5
385E
  8
241
 10
227.1450000000000102
 20
-9.9681199999999972
 30
0.0
 70
    32
  0
VERTEX
  5
385F
  8
241
 10
227.1450000000000102
 20
-9.9779900000000001
 30
0.0
 70
    32
  0
VERTEX
  5
3860
  8
241
 10
227.1450000000000102
 20
-9.9878699999999991
 30
0.0
 70
    32
  0
VERTEX
  5
3861
  8
241
 10
227.1450000000000102
 20
-9.9977499999999981
 30
0.0
 70
    32
  0
VERTEX
  5
3862
  8
241
 10
227.1459999999999866
 20
-10.0076000000000001
 30
0.0
 70
    32
  0
VERTEX
  5
3863
  8
241
 10
227.1459999999999866
 20
-10.0175000000000001
 30
0.0
 70
    32
  0
VERTEX
  5
3864
  8
241
 10
227.1459999999999866
 20
-10.0274000000000001
 30
0.0
 70
    32
  0
VERTEX
  5
3865
  8
241
 10
227.1459999999999866
 20
-10.0373999999999999
 30
0.0
 70
    32
  0
VERTEX
  5
3866
  8
241
 10
227.1469999999999914
 20
-10.0472999999999999
 30
0.0
 70
    32
  0
VERTEX
  5
3867
  8
241
 10
227.1469999999999914
 20
-10.0571999999999999
 30
0.0
 70
    32
  0
VERTEX
  5
3868
  8
241
 10
227.1469999999999914
 20
-10.0670999999999999
 30
0.0
 70
    32
  0
VERTEX
  5
3869
  8
241
 10
227.1479999999999961
 20
-10.077
 30
0.0
 70
    32
  0
VERTEX
  5
386A
  8
241
 10
227.1479999999999961
 20
-10.0869999999999997
 30
0.0
 70
    32
  0
VERTEX
  5
386B
  8
241
 10
227.1479999999999961
 20
-10.0968999999999998
 30
0.0
 70
    32
  0
VERTEX
  5
386C
  8
241
 10
227.1490000000000009
 20
-10.1068999999999996
 30
0.0
 70
    32
  0
VERTEX
  5
386D
  8
241
 10
227.1490000000000009
 20
-10.1167999999999996
 30
0.0
 70
    32
  0
VERTEX
  5
386E
  8
241
 10
227.1490000000000009
 20
-10.1267999999999994
 30
0.0
 70
    32
  0
VERTEX
  5
386F
  8
241
 10
227.1500000000000057
 20
-10.1367999999999991
 30
0.0
 70
    32
  0
VERTEX
  5
3870
  8
241
 10
227.1500000000000057
 20
-10.1466999999999992
 30
0.0
 70
    32
  0
VERTEX
  5
3871
  8
241
 10
227.1510000000000105
 20
-10.1567000000000007
 30
0.0
 70
    32
  0
VERTEX
  5
3872
  8
241
 10
227.1510000000000105
 20
-10.1667000000000005
 30
0.0
 70
    32
  0
VERTEX
  5
3873
  8
241
 10
227.1519999999999868
 20
-10.1767000000000003
 30
0.0
 70
    32
  0
VERTEX
  5
3874
  8
241
 10
227.1519999999999868
 20
-10.1867000000000001
 30
0.0
 70
    32
  0
VERTEX
  5
3875
  8
241
 10
227.1519999999999868
 20
-10.1966999999999999
 30
0.0
 70
    32
  0
VERTEX
  5
3876
  8
241
 10
227.1529999999999916
 20
-10.2066999999999997
 30
0.0
 70
    32
  0
VERTEX
  5
3877
  8
241
 10
227.1529999999999916
 20
-10.2166999999999994
 30
0.0
 70
    32
  0
VERTEX
  5
3878
  8
241
 10
227.1539999999999964
 20
-10.2266999999999992
 30
0.0
 70
    32
  0
VERTEX
  5
3879
  8
241
 10
227.1550000000000011
 20
-10.2367000000000008
 30
0.0
 70
    32
  0
VERTEX
  5
387A
  8
241
 10
227.1550000000000011
 20
-10.2467000000000006
 30
0.0
 70
    32
  0
VERTEX
  5
387B
  8
241
 10
227.1560000000000059
 20
-10.2567000000000004
 30
0.0
 70
    32
  0
VERTEX
  5
387C
  8
241
 10
227.1560000000000059
 20
-10.2667999999999999
 30
0.0
 70
    32
  0
VERTEX
  5
387D
  8
241
 10
227.1570000000000107
 20
-10.2767999999999997
 30
0.0
 70
    32
  0
VERTEX
  5
387E
  8
241
 10
227.1570000000000107
 20
-10.2867999999999995
 30
0.0
 70
    32
  0
VERTEX
  5
387F
  8
241
 10
227.157999999999987
 20
-10.2969000000000008
 30
0.0
 70
    32
  0
VERTEX
  5
3880
  8
241
 10
227.1589999999999918
 20
-10.3069000000000006
 30
0.0
 70
    32
  0
VERTEX
  5
3881
  8
241
 10
227.1589999999999918
 20
-10.3170000000000002
 30
0.0
 70
    32
  0
VERTEX
  5
3882
  8
241
 10
227.1599999999999966
 20
-10.327
 30
0.0
 70
    32
  0
VERTEX
  5
3883
  8
241
 10
227.1599999999999966
 20
-10.3370999999999995
 30
0.0
 70
    32
  0
VERTEX
  5
3884
  8
241
 10
227.1610000000000014
 20
-10.3470999999999993
 30
0.0
 70
    32
  0
VERTEX
  5
3885
  8
241
 10
227.1620000000000061
 20
-10.3572000000000006
 30
0.0
 70
    32
  0
VERTEX
  5
3886
  8
241
 10
227.1630000000000109
 20
-10.3672000000000004
 30
0.0
 70
    32
  0
VERTEX
  5
3887
  8
241
 10
227.1630000000000109
 20
-10.3773
 30
0.0
 70
    32
  0
VERTEX
  5
3888
  8
241
 10
227.1639999999999873
 20
-10.3873999999999995
 30
0.0
 70
    32
  0
VERTEX
  5
3889
  8
241
 10
227.164999999999992
 20
-10.3975000000000009
 30
0.0
 70
    32
  0
VERTEX
  5
388A
  8
241
 10
227.164999999999992
 20
-10.4075000000000006
 30
0.0
 70
    32
  0
VERTEX
  5
388B
  8
241
 10
227.1659999999999968
 20
-10.4176000000000002
 30
0.0
 70
    32
  0
VERTEX
  5
388C
  8
241
 10
227.1670000000000016
 20
-10.4276999999999997
 30
0.0
 70
    32
  0
VERTEX
  5
388D
  8
241
 10
227.1680000000000064
 20
-10.4377999999999993
 30
0.0
 70
    32
  0
VERTEX
  5
388E
  8
241
 10
227.1690000000000111
 20
-10.4479000000000006
 30
0.0
 70
    32
  0
VERTEX
  5
388F
  8
241
 10
227.1690000000000111
 20
-10.4580000000000002
 30
0.0
 70
    32
  0
VERTEX
  5
3890
  8
241
 10
227.1699999999999875
 20
-10.4680999999999997
 30
0.0
 70
    32
  0
VERTEX
  5
3891
  8
241
 10
227.1709999999999923
 20
-10.4780999999999995
 30
0.0
 70
    32
  0
VERTEX
  5
3892
  8
241
 10
227.171999999999997
 20
-10.4882000000000009
 30
0.0
 70
    32
  0
VERTEX
  5
3893
  8
241
 10
227.1730000000000018
 20
-10.4983000000000004
 30
0.0
 70
    32
  0
VERTEX
  5
3894
  8
241
 10
227.1740000000000066
 20
-10.5084
 30
0.0
 70
    32
  0
VERTEX
  5
3895
  8
241
 10
227.1740000000000066
 20
-10.5185999999999993
 30
0.0
 70
    32
  0
VERTEX
  5
3896
  8
241
 10
227.1750000000000114
 20
-10.5287000000000006
 30
0.0
 70
    32
  0
VERTEX
  5
3897
  8
241
 10
227.1759999999999877
 20
-10.5388000000000002
 30
0.0
 70
    32
  0
VERTEX
  5
3898
  8
241
 10
227.1769999999999925
 20
-10.5488999999999997
 30
0.0
 70
    32
  0
VERTEX
  5
3899
  8
241
 10
227.1779999999999973
 20
-10.5589999999999993
 30
0.0
 70
    32
  0
VERTEX
  5
389A
  8
241
 10
227.179000000000002
 20
-10.5691000000000006
 30
0.0
 70
    32
  0
VERTEX
  5
389B
  8
241
 10
227.1800000000000068
 20
-10.5792000000000002
 30
0.0
 70
    32
  0
VERTEX
  5
389C
  8
241
 10
227.1810000000000116
 20
-10.5892999999999997
 30
0.0
 70
    32
  0
VERTEX
  5
389D
  8
241
 10
227.1819999999999879
 20
-10.5993999999999993
 30
0.0
 70
    32
  0
VERTEX
  5
389E
  8
241
 10
227.1829999999999927
 20
-10.6096000000000004
 30
0.0
 70
    32
  0
VERTEX
  5
389F
  8
241
 10
227.1839999999999975
 20
-10.6196999999999999
 30
0.0
 70
    32
  0
VERTEX
  5
38A0
  8
241
 10
227.1850000000000023
 20
-10.6297999999999995
 30
0.0
 70
    32
  0
VERTEX
  5
38A1
  8
241
 10
227.186000000000007
 20
-10.6399000000000008
 30
0.0
 70
    32
  0
VERTEX
  5
38A2
  8
241
 10
227.1870000000000118
 20
-10.6500000000000004
 30
0.0
 70
    32
  0
VERTEX
  5
38A3
  8
241
 10
227.1879999999999882
 20
-10.6601999999999997
 30
0.0
 70
    32
  0
VERTEX
  5
38A4
  8
241
 10
227.188999999999993
 20
-10.6702999999999992
 30
0.0
 70
    32
  0
VERTEX
  5
38A5
  8
241
 10
227.1899999999999977
 20
-10.6804000000000006
 30
0.0
 70
    32
  0
VERTEX
  5
38A6
  8
241
 10
227.1910000000000025
 20
-10.6905000000000001
 30
0.0
 70
    32
  0
VERTEX
  5
38A7
  8
241
 10
227.1930000000000121
 20
-10.7005999999999997
 30
0.0
 70
    32
  0
VERTEX
  5
38A8
  8
241
 10
227.1939999999999884
 20
-10.7108000000000008
 30
0.0
 70
    32
  0
VERTEX
  5
38A9
  8
241
 10
227.1949999999999932
 20
-10.7209000000000003
 30
0.0
 70
    32
  0
VERTEX
  5
38AA
  8
241
 10
227.195999999999998
 20
-10.7309999999999999
 30
0.0
 70
    32
  0
VERTEX
  5
38AB
  8
241
 10
227.1970000000000027
 20
-10.7410999999999994
 30
0.0
 70
    32
  0
VERTEX
  5
38AC
  8
241
 10
227.1980000000000075
 20
-10.7513000000000005
 30
0.0
 70
    32
  0
VERTEX
  5
38AD
  8
241
 10
227.1990000000000123
 20
-10.7614000000000001
 30
0.0
 70
    32
  0
VERTEX
  5
38AE
  8
241
 10
227.2009999999999934
 20
-10.7714999999999996
 30
0.0
 70
    32
  0
VERTEX
  5
38AF
  8
241
 10
227.2019999999999982
 20
-10.7815999999999992
 30
0.0
 70
    32
  0
VERTEX
  5
38B0
  8
241
 10
227.203000000000003
 20
-10.7918000000000003
 30
0.0
 70
    32
  0
VERTEX
  5
38B1
  8
241
 10
227.2040000000000077
 20
-10.8018999999999998
 30
0.0
 70
    32
  0
VERTEX
  5
38B2
  8
241
 10
227.2059999999999889
 20
-10.8119999999999994
 30
0.0
 70
    32
  0
VERTEX
  5
38B3
  8
241
 10
227.2069999999999936
 20
-10.8221000000000007
 30
0.0
 70
    32
  0
VERTEX
  5
38B4
  8
241
 10
227.2079999999999984
 20
-10.8323
 30
0.0
 70
    32
  0
VERTEX
  5
38B5
  8
241
 10
227.2090000000000032
 20
-10.8423999999999996
 30
0.0
 70
    32
  0
VERTEX
  5
38B6
  8
241
 10
227.2110000000000127
 20
-10.8524999999999991
 30
0.0
 70
    32
  0
VERTEX
  5
38B7
  8
241
 10
227.2119999999999891
 20
-10.8626000000000005
 30
0.0
 70
    32
  0
VERTEX
  5
38B8
  8
241
 10
227.2129999999999939
 20
-10.8727
 30
0.0
 70
    32
  0
VERTEX
  5
38B9
  8
241
 10
227.2150000000000034
 20
-10.8827999999999996
 30
0.0
 70
    32
  0
VERTEX
  5
38BA
  8
241
 10
227.2160000000000082
 20
-10.8930000000000007
 30
0.0
 70
    32
  0
VERTEX
  5
38BB
  8
241
 10
227.217000000000013
 20
-10.9031000000000002
 30
0.0
 70
    32
  0
VERTEX
  5
38BC
  8
241
 10
227.2189999999999941
 20
-10.9131999999999998
 30
0.0
 70
    32
  0
VERTEX
  5
38BD
  8
241
 10
227.2199999999999989
 20
-10.9232999999999993
 30
0.0
 70
    32
  0
VERTEX
  5
38BE
  8
241
 10
227.2220000000000084
 20
-10.9334000000000007
 30
0.0
 70
    32
  0
VERTEX
  5
38BF
  8
241
 10
227.2230000000000132
 20
-10.9435000000000002
 30
0.0
 70
    32
  0
VERTEX
  5
38C0
  8
241
 10
227.2239999999999895
 20
-10.9535999999999998
 30
0.0
 70
    32
  0
VERTEX
  5
38C1
  8
241
 10
227.2259999999999991
 20
-10.9636999999999993
 30
0.0
 70
    32
  0
VERTEX
  5
38C2
  8
241
 10
227.2270000000000039
 20
-10.9738000000000007
 30
0.0
 70
    32
  0
VERTEX
  5
38C3
  8
241
 10
227.2290000000000134
 20
-10.9839000000000002
 30
0.0
 70
    32
  0
VERTEX
  5
38C4
  8
241
 10
227.2299999999999898
 20
-10.9939999999999998
 30
0.0
 70
    32
  0
VERTEX
  5
38C5
  8
241
 10
227.2319999999999993
 20
-11.0040999999999993
 30
0.0
 70
    32
  0
VERTEX
  5
38C6
  8
241
 10
227.2330000000000041
 20
-11.0142000000000007
 30
0.0
 70
    32
  0
VERTEX
  5
38C7
  8
241
 10
227.2350000000000136
 20
-11.0243000000000002
 30
0.0
 70
    32
  0
VERTEX
  5
38C8
  8
241
 10
227.23599999999999
 20
-11.0343999999999998
 30
0.0
 70
    32
  0
VERTEX
  5
38C9
  8
241
 10
227.2379999999999995
 20
-11.0444999999999993
 30
0.0
 70
    32
  0
VERTEX
  5
38CA
  8
241
 10
227.2400000000000091
 20
-11.0546000000000006
 30
0.0
 70
    32
  0
VERTEX
  5
38CB
  8
241
 10
227.2410000000000139
 20
-11.0646000000000004
 30
0.0
 70
    32
  0
VERTEX
  5
38CC
  8
241
 10
227.242999999999995
 20
-11.0747
 30
0.0
 70
    32
  0
VERTEX
  5
38CD
  8
241
 10
227.2439999999999998
 20
-11.0847999999999995
 30
0.0
 70
    32
  0
VERTEX
  5
38CE
  8
241
 10
227.2460000000000093
 20
-11.0949000000000009
 30
0.0
 70
    32
  0
VERTEX
  5
38CF
  8
241
 10
227.2470000000000141
 20
-11.1049000000000007
 30
0.0
 70
    32
  0
VERTEX
  5
38D0
  8
241
 10
227.2489999999999952
 20
-11.1150000000000002
 30
0.0
 70
    32
  0
VERTEX
  5
38D1
  8
241
 10
227.2510000000000048
 20
-11.1250999999999998
 30
0.0
 70
    32
  0
VERTEX
  5
38D2
  8
241
 10
227.2520000000000095
 20
-11.1350999999999996
 30
0.0
 70
    32
  0
VERTEX
  5
38D3
  8
241
 10
227.2539999999999907
 20
-11.1452000000000009
 30
0.0
 70
    32
  0
VERTEX
  5
38D4
  8
241
 10
227.2560000000000002
 20
-11.1552000000000007
 30
0.0
 70
    32
  0
VERTEX
  5
38D5
  8
241
 10
227.257000000000005
 20
-11.1653000000000002
 30
0.0
 70
    32
  0
VERTEX
  5
38D6
  8
241
 10
227.2589999999999861
 20
-11.1753
 30
0.0
 70
    32
  0
VERTEX
  5
38D7
  8
241
 10
227.2609999999999957
 20
-11.1853999999999996
 30
0.0
 70
    32
  0
VERTEX
  5
38D8
  8
241
 10
227.2630000000000052
 20
-11.1953999999999994
 30
0.0
 70
    32
  0
VERTEX
  5
38D9
  8
241
 10
227.26400000000001
 20
-11.2055000000000007
 30
0.0
 70
    32
  0
VERTEX
  5
38DA
  8
241
 10
227.2659999999999911
 20
-11.2155000000000005
 30
0.0
 70
    32
  0
VERTEX
  5
38DB
  8
241
 10
227.2680000000000007
 20
-11.2255000000000003
 30
0.0
 70
    32
  0
VERTEX
  5
38DC
  8
241
 10
227.2700000000000102
 20
-11.2355
 30
0.0
 70
    32
  0
VERTEX
  5
38DD
  8
241
 10
227.2709999999999866
 20
-11.2455999999999996
 30
0.0
 70
    32
  0
VERTEX
  5
38DE
  8
241
 10
227.2729999999999961
 20
-11.2555999999999994
 30
0.0
 70
    32
  0
VERTEX
  5
38DF
  8
241
 10
227.2750000000000057
 20
-11.2655999999999992
 30
0.0
 70
    32
  0
VERTEX
  5
38E0
  8
241
 10
227.2769999999999868
 20
-11.2756000000000007
 30
0.0
 70
    32
  0
VERTEX
  5
38E1
  8
241
 10
227.2789999999999964
 20
-11.2856000000000005
 30
0.0
 70
    32
  0
VERTEX
  5
38E2
  8
241
 10
227.2810000000000059
 20
-11.2956000000000003
 30
0.0
 70
    32
  0
VERTEX
  5
38E3
  8
241
 10
227.2820000000000107
 20
-11.3056000000000001
 30
0.0
 70
    32
  0
VERTEX
  5
38E4
  8
241
 10
227.2839999999999918
 20
-11.3155999999999999
 30
0.0
 70
    32
  0
VERTEX
  5
38E5
  8
241
 10
227.2860000000000014
 20
-11.3255999999999997
 30
0.0
 70
    32
  0
VERTEX
  5
38E6
  8
241
 10
227.2880000000000109
 20
-11.3354999999999997
 30
0.0
 70
    32
  0
VERTEX
  5
38E7
  8
241
 10
227.289999999999992
 20
-11.3454999999999995
 30
0.0
 70
    32
  0
VERTEX
  5
38E8
  8
241
 10
227.2920000000000016
 20
-11.3554999999999993
 30
0.0
 70
    32
  0
VERTEX
  5
38E9
  8
241
 10
227.2940000000000111
 20
-11.3653999999999993
 30
0.0
 70
    32
  0
VERTEX
  5
38EA
  8
241
 10
227.2959999999999923
 20
-11.3754000000000008
 30
0.0
 70
    32
  0
VERTEX
  5
38EB
  8
241
 10
227.2980000000000018
 20
-11.3853000000000009
 30
0.0
 70
    32
  0
VERTEX
  5
38EC
  8
241
 10
227.3000000000000114
 20
-11.3953000000000007
 30
0.0
 70
    32
  0
VERTEX
  5
38ED
  8
241
 10
227.3019999999999925
 20
-11.4052000000000007
 30
0.0
 70
    32
  0
VERTEX
  5
38EE
  8
241
 10
227.304000000000002
 20
-11.4152000000000005
 30
0.0
 70
    32
  0
VERTEX
  5
38EF
  8
241
 10
227.3060000000000116
 20
-11.4251000000000005
 30
0.0
 70
    32
  0
VERTEX
  5
38F0
  8
241
 10
227.3079999999999927
 20
-11.4350000000000005
 30
0.0
 70
    32
  0
VERTEX
  5
38F1
  8
241
 10
227.3100000000000023
 20
-11.4449000000000005
 30
0.0
 70
    32
  0
VERTEX
  5
38F2
  8
241
 10
227.3120000000000118
 20
-11.4549000000000003
 30
0.0
 70
    32
  0
VERTEX
  5
38F3
  8
241
 10
227.313999999999993
 20
-11.4648000000000003
 30
0.0
 70
    32
  0
VERTEX
  5
38F4
  8
241
 10
227.3160000000000025
 20
-11.4747000000000003
 30
0.0
 70
    32
  0
VERTEX
  5
38F5
  8
241
 10
227.3180000000000121
 20
-11.4846000000000004
 30
0.0
 70
    32
  0
VERTEX
  5
38F6
  8
241
 10
227.3199999999999932
 20
-11.4944000000000006
 30
0.0
 70
    32
  0
VERTEX
  5
38F7
  8
241
 10
227.3220000000000027
 20
-11.5043000000000006
 30
0.0
 70
    32
  0
VERTEX
  5
38F8
  8
241
 10
227.3240000000000123
 20
-11.5142000000000007
 30
0.0
 70
    32
  0
VERTEX
  5
38F9
  8
241
 10
227.3259999999999934
 20
-11.5241000000000007
 30
0.0
 70
    32
  0
VERTEX
  5
38FA
  8
241
 10
227.328000000000003
 20
-11.5338999999999992
 30
0.0
 70
    32
  0
VERTEX
  5
38FB
  8
241
 10
227.3309999999999889
 20
-11.5437999999999992
 30
0.0
 70
    32
  0
VERTEX
  5
38FC
  8
241
 10
227.3329999999999984
 20
-11.5535999999999994
 30
0.0
 70
    32
  0
VERTEX
  5
38FD
  8
241
 10
227.335000000000008
 20
-11.5634999999999994
 30
0.0
 70
    32
  0
VERTEX
  5
38FE
  8
241
 10
227.3369999999999891
 20
-11.5732999999999997
 30
0.0
 70
    32
  0
VERTEX
  5
38FF
  8
241
 10
227.3389999999999986
 20
-11.5831
 30
0.0
 70
    32
  0
VERTEX
  5
3900
  8
241
 10
227.3410000000000082
 20
-11.593
 30
0.0
 70
    32
  0
VERTEX
  5
3901
  8
241
 10
227.3439999999999941
 20
-11.6028000000000002
 30
0.0
 70
    32
  0
VERTEX
  5
3902
  8
241
 10
227.3460000000000036
 20
-11.6126000000000005
 30
0.0
 70
    32
  0
VERTEX
  5
3903
  8
241
 10
227.3480000000000132
 20
-11.6224000000000007
 30
0.0
 70
    32
  0
VERTEX
  5
3904
  8
241
 10
227.3499999999999943
 20
-11.6321999999999992
 30
0.0
 70
    32
  0
VERTEX
  5
3905
  8
241
 10
227.3520000000000039
 20
-11.6418999999999997
 30
0.0
 70
    32
  0
VERTEX
  5
3906
  8
241
 10
227.3549999999999898
 20
-11.6516999999999999
 30
0.0
 70
    32
  0
VERTEX
  5
3907
  8
241
 10
227.3569999999999993
 20
-11.6615000000000002
 30
0.0
 70
    32
  0
VERTEX
  5
3908
  8
241
 10
227.3590000000000089
 20
-11.6712000000000007
 30
0.0
 70
    32
  0
VERTEX
  5
3909
  8
241
 10
227.3619999999999948
 20
-11.6809999999999992
 30
0.0
 70
    32
  0
VERTEX
  5
390A
  8
241
 10
227.3640000000000043
 20
-11.6906999999999996
 30
0.0
 70
    32
  0
VERTEX
  5
390B
  8
241
 10
227.3660000000000139
 20
-11.7004999999999999
 30
0.0
 70
    32
  0
VERTEX
  5
390C
  8
241
 10
227.3689999999999998
 20
-11.7102000000000004
 30
0.0
 70
    32
  0
VERTEX
  5
390D
  8
241
 10
227.3710000000000093
 20
-11.7199000000000009
 30
0.0
 70
    32
  0
VERTEX
  5
390E
  8
241
 10
227.3729999999999905
 20
-11.7295999999999996
 30
0.0
 70
    32
  0
VERTEX
  5
390F
  8
241
 10
227.3760000000000048
 20
-11.7393000000000001
 30
0.0
 70
    32
  0
VERTEX
  5
3910
  8
241
 10
227.3779999999999859
 20
-11.7490000000000006
 30
0.0
 70
    32
  0
VERTEX
  5
3911
  8
241
 10
227.3799999999999955
 20
-11.7586999999999993
 30
0.0
 70
    32
  0
VERTEX
  5
3912
  8
241
 10
227.3830000000000098
 20
-11.7683999999999997
 30
0.0
 70
    32
  0
VERTEX
  5
3913
  8
241
 10
227.3849999999999909
 20
-11.7781000000000002
 30
0.0
 70
    32
  0
VERTEX
  5
3914
  8
241
 10
227.3870000000000005
 20
-11.7876999999999992
 30
0.0
 70
    32
  0
VERTEX
  5
3915
  8
241
 10
227.3899999999999864
 20
-11.7973999999999997
 30
0.0
 70
    32
  0
VERTEX
  5
3916
  8
241
 10
227.3919999999999959
 20
-11.8070000000000004
 30
0.0
 70
    32
  0
VERTEX
  5
3917
  8
241
 10
227.3950000000000102
 20
-11.8167000000000009
 30
0.0
 70
    32
  0
VERTEX
  5
3918
  8
241
 10
227.3969999999999914
 20
-11.8262999999999998
 30
0.0
 70
    32
  0
VERTEX
  5
3919
  8
241
 10
227.4000000000000057
 20
-11.8359000000000005
 30
0.0
 70
    32
  0
VERTEX
  5
391A
  8
241
 10
227.4019999999999868
 20
-11.8454999999999995
 30
0.0
 70
    32
  0
VERTEX
  5
391B
  8
241
 10
227.4050000000000011
 20
-11.8551000000000002
 30
0.0
 70
    32
  0
VERTEX
  5
391C
  8
241
 10
227.4070000000000107
 20
-11.8646999999999991
 30
0.0
 70
    32
  0
VERTEX
  5
391D
  8
241
 10
227.4099999999999966
 20
-11.8742999999999999
 30
0.0
 70
    32
  0
VERTEX
  5
391E
  8
241
 10
227.4120000000000061
 20
-11.8838000000000008
 30
0.0
 70
    32
  0
VERTEX
  5
391F
  8
241
 10
227.414999999999992
 20
-11.8933999999999997
 30
0.0
 70
    32
  0
VERTEX
  5
3920
  8
241
 10
227.4170000000000016
 20
-11.9029000000000007
 30
0.0
 70
    32
  0
VERTEX
  5
3921
  8
241
 10
227.4199999999999875
 20
-11.9124999999999996
 30
0.0
 70
    32
  0
VERTEX
  5
3922
  8
241
 10
227.421999999999997
 20
-11.9220000000000006
 30
0.0
 70
    32
  0
VERTEX
  5
3923
  8
241
 10
227.4250000000000114
 20
-11.9314999999999998
 30
0.0
 70
    32
  0
VERTEX
  5
3924
  8
241
 10
227.4269999999999925
 20
-11.9410000000000007
 30
0.0
 70
    32
  0
VERTEX
  5
3925
  8
241
 10
227.4300000000000068
 20
-11.9504999999999999
 30
0.0
 70
    32
  0
VERTEX
  5
3926
  8
241
 10
227.4319999999999879
 20
-11.9600000000000009
 30
0.0
 70
    32
  0
VERTEX
  5
3927
  8
241
 10
227.4350000000000023
 20
-11.9695
 30
0.0
 70
    32
  0
VERTEX
  5
3928
  8
241
 10
227.4379999999999882
 20
-11.9789999999999992
 30
0.0
 70
    32
  0
VERTEX
  5
3929
  8
241
 10
227.4399999999999977
 20
-11.9884000000000004
 30
0.0
 70
    32
  0
VERTEX
  5
392A
  8
241
 10
227.4430000000000121
 20
-11.9978999999999996
 30
0.0
 70
    32
  0
VERTEX
  5
392B
  8
241
 10
227.4449999999999932
 20
-12.0073000000000008
 30
0.0
 70
    32
  0
VERTEX
  5
392C
  8
241
 10
227.4480000000000075
 20
-12.0167000000000002
 30
0.0
 70
    32
  0
VERTEX
  5
392D
  8
241
 10
227.4509999999999934
 20
-12.0260999999999996
 30
0.0
 70
    32
  0
VERTEX
  5
392E
  8
241
 10
227.453000000000003
 20
-12.0355000000000008
 30
0.0
 70
    32
  0
VERTEX
  5
392F
  8
241
 10
227.4559999999999889
 20
-12.0449000000000002
 30
0.0
 70
    32
  0
VERTEX
  5
3930
  8
241
 10
227.4590000000000032
 20
-12.0542999999999996
 30
0.0
 70
    32
  0
VERTEX
  5
3931
  8
241
 10
227.4610000000000127
 20
-12.0637000000000008
 30
0.0
 70
    32
  0
VERTEX
  5
3932
  8
241
 10
227.4639999999999986
 20
-12.0731000000000002
 30
0.0
 70
    32
  0
VERTEX
  5
3933
  8
241
 10
227.467000000000013
 20
-12.0823999999999998
 30
0.0
 70
    32
  0
VERTEX
  5
3934
  8
241
 10
227.4689999999999941
 20
-12.0916999999999994
 30
0.0
 70
    32
  0
VERTEX
  5
3935
  8
241
 10
227.4720000000000084
 20
-12.1011000000000006
 30
0.0
 70
    32
  0
VERTEX
  5
3936
  8
241
 10
227.4749999999999943
 20
-12.1104000000000003
 30
0.0
 70
    32
  0
VERTEX
  5
3937
  8
241
 10
227.4780000000000086
 20
-12.1196999999999999
 30
0.0
 70
    32
  0
VERTEX
  5
3938
  8
241
 10
227.4799999999999898
 20
-12.1289999999999996
 30
0.0
 70
    32
  0
VERTEX
  5
3939
  8
241
 10
227.4830000000000041
 20
-12.1382999999999992
 30
0.0
 70
    32
  0
VERTEX
  5
393A
  8
241
 10
227.48599999999999
 20
-12.1475000000000009
 30
0.0
 70
    32
  0
VERTEX
  5
393B
  8
241
 10
227.4890000000000043
 20
-12.1568000000000005
 30
0.0
 70
    32
  0
VERTEX
  5
393C
  8
241
 10
227.4910000000000139
 20
-12.1660000000000004
 30
0.0
 70
    32
  0
VERTEX
  5
393D
  8
241
 10
227.4939999999999998
 20
-12.1753
 30
0.0
 70
    32
  0
VERTEX
  5
393E
  8
241
 10
227.4970000000000141
 20
-12.1844999999999999
 30
0.0
 70
    32
  0
VERTEX
  5
393F
  8
241
 10
227.5
 20
-12.1936999999999998
 30
0.0
 70
    32
  0
VERTEX
  5
3940
  8
241
 10
227.5020000000000095
 20
-12.2028999999999996
 30
0.0
 70
    32
  0
VERTEX
  5
3941
  8
241
 10
227.5049999999999955
 20
-12.2120999999999995
 30
0.0
 70
    32
  0
VERTEX
  5
3942
  8
241
 10
227.5080000000000098
 20
-12.2211999999999996
 30
0.0
 70
    32
  0
VERTEX
  5
3943
  8
241
 10
227.5109999999999957
 20
-12.2303999999999995
 30
0.0
 70
    32
  0
VERTEX
  5
3944
  8
241
 10
227.51400000000001
 20
-12.2394999999999996
 30
0.0
 70
    32
  0
VERTEX
  5
3945
  8
241
 10
227.5169999999999959
 20
-12.2486999999999995
 30
0.0
 70
    32
  0
VERTEX
  5
3946
  8
241
 10
227.5190000000000055
 20
-12.2577999999999996
 30
0.0
 70
    32
  0
VERTEX
  5
3947
  8
241
 10
227.5219999999999914
 20
-12.2668999999999997
 30
0.0
 70
    32
  0
VERTEX
  5
3948
  8
241
 10
227.5250000000000057
 20
-12.2759999999999998
 30
0.0
 70
    32
  0
VERTEX
  5
3949
  8
241
 10
227.5279999999999916
 20
-12.2850999999999999
 30
0.0
 70
    32
  0
VERTEX
  5
394A
  8
241
 10
227.5310000000000059
 20
-12.2941000000000003
 30
0.0
 70
    32
  0
VERTEX
  5
394B
  8
241
 10
227.5339999999999918
 20
-12.3032000000000004
 30
0.0
 70
    32
  0
VERTEX
  5
394C
  8
241
 10
227.5370000000000061
 20
-12.3122000000000007
 30
0.0
 70
    32
  0
VERTEX
  5
394D
  8
241
 10
227.539999999999992
 20
-12.3213000000000008
 30
0.0
 70
    32
  0
VERTEX
  5
394E
  8
241
 10
227.5420000000000016
 20
-12.3302999999999994
 30
0.0
 70
    32
  0
VERTEX
  5
394F
  8
241
 10
227.5449999999999875
 20
-12.3392999999999997
 30
0.0
 70
    32
  0
VERTEX
  5
3950
  8
241
 10
227.5480000000000018
 20
-12.3483000000000001
 30
0.0
 70
    32
  0
VERTEX
  5
3951
  8
241
 10
227.5509999999999877
 20
-12.3573000000000004
 30
0.0
 70
    32
  0
VERTEX
  5
3952
  8
241
 10
227.554000000000002
 20
-12.3661999999999992
 30
0.0
 70
    32
  0
VERTEX
  5
3953
  8
241
 10
227.5569999999999879
 20
-12.3751999999999995
 30
0.0
 70
    32
  0
VERTEX
  5
3954
  8
241
 10
227.5600000000000023
 20
-12.3841000000000001
 30
0.0
 70
    32
  0
VERTEX
  5
3955
  8
241
 10
227.5629999999999882
 20
-12.3930000000000007
 30
0.0
 70
    32
  0
VERTEX
  5
3956
  8
241
 10
227.5660000000000025
 20
-12.4018999999999995
 30
0.0
 70
    32
  0
VERTEX
  5
3957
  8
241
 10
227.5689999999999884
 20
-12.4108000000000001
 30
0.0
 70
    32
  0
VERTEX
  5
3958
  8
241
 10
227.5720000000000027
 20
-12.4197000000000006
 30
0.0
 70
    32
  0
VERTEX
  5
3959
  8
241
 10
227.5749999999999886
 20
-12.4285999999999994
 30
0.0
 70
    32
  0
VERTEX
  5
395A
  8
241
 10
227.578000000000003
 20
-12.4375
 30
0.0
 70
    32
  0
VERTEX
  5
395B
  8
241
 10
227.5809999999999889
 20
-12.4464000000000006
 30
0.0
 70
    32
  0
VERTEX
  5
395C
  8
241
 10
227.5840000000000032
 20
-12.4552999999999994
 30
0.0
 70
    32
  0
VERTEX
  5
395D
  8
241
 10
227.5869999999999891
 20
-12.4642999999999997
 30
0.0
 70
    32
  0
VERTEX
  5
395E
  8
241
 10
227.5900000000000034
 20
-12.4732000000000003
 30
0.0
 70
    32
  0
VERTEX
  5
395F
  8
241
 10
227.5929999999999893
 20
-12.4821000000000009
 30
0.0
 70
    32
  0
VERTEX
  5
3960
  8
241
 10
227.5960000000000036
 20
-12.4910999999999994
 30
0.0
 70
    32
  0
VERTEX
  5
3961
  8
241
 10
227.5989999999999895
 20
-12.5
 30
0.0
 70
    32
  0
VERTEX
  5
3962
  8
241
 10
227.6020000000000039
 20
-12.5090000000000003
 30
0.0
 70
    32
  0
VERTEX
  5
3963
  8
241
 10
227.6049999999999898
 20
-12.5180000000000007
 30
0.0
 70
    32
  0
VERTEX
  5
3964
  8
241
 10
227.6090000000000089
 20
-12.5268999999999995
 30
0.0
 70
    32
  0
VERTEX
  5
3965
  8
241
 10
227.6119999999999948
 20
-12.5358999999999998
 30
0.0
 70
    32
  0
VERTEX
  5
3966
  8
241
 10
227.6150000000000091
 20
-12.5449000000000002
 30
0.0
 70
    32
  0
VERTEX
  5
3967
  8
241
 10
227.617999999999995
 20
-12.5539000000000005
 30
0.0
 70
    32
  0
VERTEX
  5
3968
  8
241
 10
227.6210000000000093
 20
-12.5629000000000008
 30
0.0
 70
    32
  0
VERTEX
  5
3969
  8
241
 10
227.625
 20
-12.5718999999999994
 30
0.0
 70
    32
  0
VERTEX
  5
396A
  8
241
 10
227.6279999999999859
 20
-12.5808999999999997
 30
0.0
 70
    32
  0
VERTEX
  5
396B
  8
241
 10
227.6310000000000002
 20
-12.5899000000000001
 30
0.0
 70
    32
  0
VERTEX
  5
396C
  8
241
 10
227.6339999999999861
 20
-12.5989000000000004
 30
0.0
 70
    32
  0
VERTEX
  5
396D
  8
241
 10
227.6370000000000005
 20
-12.6079000000000008
 30
0.0
 70
    32
  0
VERTEX
  5
396E
  8
241
 10
227.6409999999999911
 20
-12.6170000000000009
 30
0.0
 70
    32
  0
VERTEX
  5
396F
  8
241
 10
227.6440000000000055
 20
-12.6259999999999994
 30
0.0
 70
    32
  0
VERTEX
  5
3970
  8
241
 10
227.6469999999999914
 20
-12.6349999999999998
 30
0.0
 70
    32
  0
VERTEX
  5
3971
  8
241
 10
227.6510000000000105
 20
-12.6440999999999999
 30
0.0
 70
    32
  0
VERTEX
  5
3972
  8
241
 10
227.6539999999999964
 20
-12.6531000000000002
 30
0.0
 70
    32
  0
VERTEX
  5
3973
  8
241
 10
227.6570000000000107
 20
-12.6622000000000003
 30
0.0
 70
    32
  0
VERTEX
  5
3974
  8
241
 10
227.6610000000000014
 20
-12.6712000000000007
 30
0.0
 70
    32
  0
VERTEX
  5
3975
  8
241
 10
227.6639999999999873
 20
-12.6803000000000008
 30
0.0
 70
    32
  0
VERTEX
  5
3976
  8
241
 10
227.6670000000000016
 20
-12.6893999999999991
 30
0.0
 70
    32
  0
VERTEX
  5
3977
  8
241
 10
227.6709999999999923
 20
-12.6983999999999995
 30
0.0
 70
    32
  0
VERTEX
  5
3978
  8
241
 10
227.6740000000000066
 20
-12.7074999999999996
 30
0.0
 70
    32
  0
VERTEX
  5
3979
  8
241
 10
227.6779999999999973
 20
-12.7165999999999997
 30
0.0
 70
    32
  0
VERTEX
  5
397A
  8
241
 10
227.6810000000000116
 20
-12.7256999999999998
 30
0.0
 70
    32
  0
SEQEND
  5
397B
  8
241
  0
POLYLINE
  5
397C
  8
241
 66
     1
 10
0.0
 20
0.0
 30
0.0
 70
     8
  0
VERTEX
  5
397D
  8
241
 10
240.3940000000000055
 20
-4.1421400000000004
 30
0.0
 70
    32
  0
VERTEX
  5
397E
  8
241
 10
240.3789999999999907
 20
-4.1289400000000001
 30
0.0
 70
    32
  0
VERTEX
  5
397F
  8
241
 10
240.3650000000000091
 20
-4.1157799999999991
 30
0.0
 70
    32
  0
VERTEX
  5
3980
  8
241
 10
240.3509999999999991
 20
-4.1026499999999988
 30
0.0
 70
    32
  0
VERTEX
  5
3981
  8
241
 10
240.3369999999999891
 20
-4.0895599999999988
 30
0.0
 70
    32
  0
VERTEX
  5
3982
  8
241
 10
240.3220000000000027
 20
-4.0765000000000002
 30
0.0
 70
    32
  0
VERTEX
  5
3983
  8
241
 10
240.3079999999999927
 20
-4.0634800000000002
 30
0.0
 70
    32
  0
VERTEX
  5
3984
  8
241
 10
240.2930000000000064
 20
-4.050489999999999
 30
0.0
 70
    32
  0
VERTEX
  5
3985
  8
241
 10
240.2789999999999964
 20
-4.037539999999999
 30
0.0
 70
    32
  0
VERTEX
  5
3986
  8
241
 10
240.2649999999999864
 20
-4.0246199999999988
 30
0.0
 70
    32
  0
VERTEX
  5
3987
  8
241
 10
240.25
 20
-4.0117399999999996
 30
0.0
 70
    32
  0
VERTEX
  5
3988
  8
241
 10
240.2350000000000136
 20
-3.9988899999999998
 30
0.0
 70
    32
  0
VERTEX
  5
3989
  8
241
 10
240.2210000000000036
 20
-3.9860799999999998
 30
0.0
 70
    32
  0
VERTEX
  5
398A
  8
241
 10
240.2059999999999889
 20
-3.9733099999999988
 30
0.0
 70
    32
  0
VERTEX
  5
398B
  8
241
 10
240.1920000000000073
 20
-3.9605699999999988
 30
0.0
 70
    32
  0
VERTEX
  5
398C
  8
241
 10
240.1769999999999925
 20
-3.9478599999999999
 30
0.0
 70
    32
  0
VERTEX
  5
398D
  8
241
 10
240.1620000000000061
 20
-3.9352
 30
0.0
 70
    32
  0
VERTEX
  5
398E
  8
241
 10
240.1469999999999914
 20
-3.922569999999999
 30
0.0
 70
    32
  0
VERTEX
  5
398F
  8
241
 10
240.1330000000000098
 20
-3.9099699999999991
 30
0.0
 70
    32
  0
VERTEX
  5
3990
  8
241
 10
240.117999999999995
 20
-3.8974099999999989
 30
0.0
 70
    32
  0
VERTEX
  5
3991
  8
241
 10
240.1030000000000086
 20
-3.88489
 30
0.0
 70
    32
  0
VERTEX
  5
3992
  8
241
 10
240.0879999999999939
 20
-3.872399999999999
 30
0.0
 70
    32
  0
VERTEX
  5
3993
  8
241
 10
240.0730000000000075
 20
-3.8599499999999991
 30
0.0
 70
    32
  0
VERTEX
  5
3994
  8
241
 10
240.0579999999999927
 20
-3.84754
 30
0.0
 70
    32
  0
VERTEX
  5
3995
  8
241
 10
240.0430000000000064
 20
-3.8351599999999988
 30
0.0
 70
    32
  0
VERTEX
  5
3996
  8
241
 10
240.0279999999999916
 20
-3.8228199999999992
 30
0.0
 70
    32
  0
VERTEX
  5
3997
  8
241
 10
240.0130000000000052
 20
-3.810519999999999
 30
0.0
 70
    32
  0
VERTEX
  5
3998
  8
241
 10
239.9979999999999905
 20
-3.798249999999999
 30
0.0
 70
    32
  0
VERTEX
  5
3999
  8
241
 10
239.9830000000000041
 20
-3.7860199999999988
 30
0.0
 70
    32
  0
VERTEX
  5
399A
  8
241
 10
239.967000000000013
 20
-3.7738299999999998
 30
0.0
 70
    32
  0
VERTEX
  5
399B
  8
241
 10
239.9519999999999982
 20
-3.7616699999999992
 30
0.0
 70
    32
  0
VERTEX
  5
399C
  8
241
 10
239.9370000000000118
 20
-3.7495500000000002
 30
0.0
 70
    32
  0
VERTEX
  5
399D
  8
241
 10
239.921999999999997
 20
-3.7374699999999992
 30
0.0
 70
    32
  0
VERTEX
  5
399E
  8
241
 10
239.9060000000000059
 20
-3.7254299999999998
 30
0.0
 70
    32
  0
VERTEX
  5
399F
  8
241
 10
239.8909999999999911
 20
-3.7134199999999988
 30
0.0
 70
    32
  0
VERTEX
  5
39A0
  8
241
 10
239.8760000000000048
 20
-3.701449999999999
 30
0.0
 70
    32
  0
VERTEX
  5
39A1
  8
241
 10
239.8600000000000136
 20
-3.689519999999999
 30
0.0
 70
    32
  0
VERTEX
  5
39A2
  8
241
 10
239.8449999999999989
 20
-3.6776300000000002
 30
0.0
 70
    32
  0
VERTEX
  5
39A3
  8
241
 10
239.8290000000000077
 20
-3.6657699999999989
 30
0.0
 70
    32
  0
VERTEX
  5
39A4
  8
241
 10
239.813999999999993
 20
-3.6539599999999992
 30
0.0
 70
    32
  0
VERTEX
  5
39A5
  8
241
 10
239.7980000000000018
 20
-3.6421800000000002
 30
0.0
 70
    32
  0
VERTEX
  5
39A6
  8
241
 10
239.782999999999987
 20
-3.6304400000000001
 30
0.0
 70
    32
  0
VERTEX
  5
39A7
  8
241
 10
239.7669999999999959
 20
-3.6187299999999998
 30
0.0
 70
    32
  0
VERTEX
  5
39A8
  8
241
 10
239.7510000000000048
 20
-3.6070699999999989
 30
0.0
 70
    32
  0
VERTEX
  5
39A9
  8
241
 10
239.73599999999999
 20
-3.5954399999999991
 30
0.0
 70
    32
  0
VERTEX
  5
39AA
  8
241
 10
239.7199999999999989
 20
-3.5838499999999991
 30
0.0
 70
    32
  0
VERTEX
  5
39AB
  8
241
 10
239.7040000000000077
 20
-3.5722999999999989
 30
0.0
 70
    32
  0
VERTEX
  5
39AC
  8
241
 10
239.688999999999993
 20
-3.5607899999999999
 30
0.0
 70
    32
  0
VERTEX
  5
39AD
  8
241
 10
239.6730000000000018
 20
-3.5493199999999989
 30
0.0
 70
    32
  0
VERTEX
  5
39AE
  8
241
 10
239.6570000000000107
 20
-3.5378899999999991
 30
0.0
 70
    32
  0
VERTEX
  5
39AF
  8
241
 10
239.6409999999999911
 20
-3.5264999999999991
 30
0.0
 70
    32
  0
VERTEX
  5
39B0
  8
241
 10
239.625
 20
-3.5151400000000002
 30
0.0
 70
    32
  0
VERTEX
  5
39B1
  8
241
 10
239.6090000000000089
 20
-3.5038199999999988
 30
0.0
 70
    32
  0
VERTEX
  5
39B2
  8
241
 10
239.5929999999999893
 20
-3.49255
 30
0.0
 70
    32
  0
VERTEX
  5
39B3
  8
241
 10
239.5769999999999982
 20
-3.4813099999999988
 30
0.0
 70
    32
  0
VERTEX
  5
39B4
  8
241
 10
239.561000000000007
 20
-3.47011
 30
0.0
 70
    32
  0
VERTEX
  5
39B5
  8
241
 10
239.5449999999999875
 20
-3.4589500000000002
 30
0.0
 70
    32
  0
VERTEX
  5
39B6
  8
241
 10
239.5289999999999964
 20
-3.4478300000000002
 30
0.0
 70
    32
  0
VERTEX
  5
39B7
  8
241
 10
239.5130000000000052
 20
-3.4367499999999991
 30
0.0
 70
    32
  0
VERTEX
  5
39B8
  8
241
 10
239.4970000000000141
 20
-3.4257199999999992
 30
0.0
 70
    32
  0
VERTEX
  5
39B9
  8
241
 10
239.4809999999999945
 20
-3.4147199999999991
 30
0.0
 70
    32
  0
VERTEX
  5
39BA
  8
241
 10
239.4650000000000034
 20
-3.4037599999999988
 30
0.0
 70
    32
  0
VERTEX
  5
39BB
  8
241
 10
239.4480000000000075
 20
-3.3928400000000001
 30
0.0
 70
    32
  0
VERTEX
  5
39BC
  8
241
 10
239.4319999999999879
 20
-3.381959999999999
 30
0.0
 70
    32
  0
VERTEX
  5
39BD
  8
241
 10
239.4159999999999968
 20
-3.371119999999999
 30
0.0
 70
    32
  0
VERTEX
  5
39BE
  8
241
 10
239.4000000000000057
 20
-3.3603199999999989
 30
0.0
 70
    32
  0
VERTEX
  5
39BF
  8
241
 10
239.3830000000000098
 20
-3.349559999999999
 30
0.0
 70
    32
  0
VERTEX
  5
39C0
  8
241
 10
239.3669999999999902
 20
-3.3388399999999998
 30
0.0
 70
    32
  0
VERTEX
  5
39C1
  8
241
 10
239.3499999999999943
 20
-3.32816
 30
0.0
 70
    32
  0
VERTEX
  5
39C2
  8
241
 10
239.3340000000000032
 20
-3.3175199999999991
 30
0.0
 70
    32
  0
VERTEX
  5
39C3
  8
241
 10
239.3180000000000121
 20
-3.3069299999999999
 30
0.0
 70
    32
  0
VERTEX
  5
39C4
  8
241
 10
239.3009999999999877
 20
-3.2963699999999991
 30
0.0
 70
    32
  0
VERTEX
  5
39C5
  8
241
 10
239.2849999999999966
 20
-3.285849999999999
 30
0.0
 70
    32
  0
VERTEX
  5
39C6
  8
241
 10
239.2680000000000007
 20
-3.2753799999999988
 30
0.0
 70
    32
  0
VERTEX
  5
39C7
  8
241
 10
239.2510000000000048
 20
-3.2649499999999989
 30
0.0
 70
    32
  0
VERTEX
  5
39C8
  8
241
 10
239.2350000000000136
 20
-3.2545500000000001
 30
0.0
 70
    32
  0
VERTEX
  5
39C9
  8
241
 10
239.2179999999999893
 20
-3.2442000000000002
 30
0.0
 70
    32
  0
VERTEX
  5
39CA
  8
241
 10
239.2019999999999982
 20
-3.2338900000000002
 30
0.0
 70
    32
  0
VERTEX
  5
39CB
  8
241
 10
239.1850000000000023
 20
-3.2236299999999991
 30
0.0
 70
    32
  0
VERTEX
  5
39CC
  8
241
 10
239.1680000000000064
 20
-3.2134
 30
0.0
 70
    32
  0
VERTEX
  5
39CD
  8
241
 10
239.1519999999999868
 20
-3.203209999999999
 30
0.0
 70
    32
  0
VERTEX
  5
39CE
  8
241
 10
239.1349999999999909
 20
-3.1930700000000001
 30
0.0
 70
    32
  0
VERTEX
  5
39CF
  8
241
 10
239.117999999999995
 20
-3.1829700000000001
 30
0.0
 70
    32
  0
VERTEX
  5
39D0
  8
241
 10
239.1009999999999991
 20
-3.172909999999999
 30
0.0
 70
    32
  0
VERTEX
  5
39D1
  8
241
 10
239.0840000000000032
 20
-3.1628899999999991
 30
0.0
 70
    32
  0
VERTEX
  5
39D2
  8
241
 10
239.0670000000000073
 20
-3.1529199999999991
 30
0.0
 70
    32
  0
VERTEX
  5
39D3
  8
241
 10
239.0509999999999877
 20
-3.1429800000000001
 30
0.0
 70
    32
  0
VERTEX
  5
39D4
  8
241
 10
239.0339999999999918
 20
-3.1330900000000002
 30
0.0
 70
    32
  0
VERTEX
  5
39D5
  8
241
 10
239.0169999999999959
 20
-3.12324
 30
0.0
 70
    32
  0
VERTEX
  5
39D6
  8
241
 10
239.0
 20
-3.1134400000000002
 30
0.0
 70
    32
  0
VERTEX
  5
39D7
  8
241
 10
238.9830000000000041
 20
-3.1036700000000002
 30
0.0
 70
    32
  0
VERTEX
  5
39D8
  8
241
 10
238.9660000000000082
 20
-3.0939499999999991
 30
0.0
 70
    32
  0
VERTEX
  5
39D9
  8
241
 10
238.9490000000000123
 20
-3.0842700000000001
 30
0.0
 70
    32
  0
VERTEX
  5
39DA
  8
241
 10
238.9319999999999879
 20
-3.07464
 30
0.0
 70
    32
  0
VERTEX
  5
39DB
  8
241
 10
238.914999999999992
 20
-3.0650400000000002
 30
0.0
 70
    32
  0
VERTEX
  5
39DC
  8
241
 10
238.8969999999999914
 20
-3.0554899999999998
 30
0.0
 70
    32
  0
VERTEX
  5
39DD
  8
241
 10
238.8799999999999955
 20
-3.0459800000000001
 30
0.0
 70
    32
  0
VERTEX
  5
39DE
  8
241
 10
238.8629999999999995
 20
-3.036519999999999
 30
0.0
 70
    32
  0
VERTEX
  5
39DF
  8
241
 10
238.8460000000000036
 20
-3.027099999999999
 30
0.0
 70
    32
  0
VERTEX
  5
39E0
  8
241
 10
238.8290000000000077
 20
-3.0177200000000002
 30
0.0
 70
    32
  0
VERTEX
  5
39E1
  8
241
 10
238.811000000000007
 20
-3.0083899999999999
 30
0.0
 70
    32
  0
VERTEX
  5
39E2
  8
241
 10
238.7940000000000111
 20
-2.9990899999999998
 30
0.0
 70
    32
  0
VERTEX
  5
39E3
  8
241
 10
238.7769999999999868
 20
-2.9898500000000001
 30
0.0
 70
    32
  0
VERTEX
  5
39E4
  8
241
 10
238.7599999999999909
 20
-2.9806400000000002
 30
0.0
 70
    32
  0
VERTEX
  5
39E5
  8
241
 10
238.7419999999999902
 20
-2.9714800000000001
 30
0.0
 70
    32
  0
VERTEX
  5
39E6
  8
241
 10
238.7249999999999943
 20
-2.9623699999999991
 30
0.0
 70
    32
  0
VERTEX
  5
39E7
  8
241
 10
238.7069999999999936
 20
-2.9532899999999991
 30
0.0
 70
    32
  0
VERTEX
  5
39E8
  8
241
 10
238.6899999999999977
 20
-2.944259999999999
 30
0.0
 70
    32
  0
VERTEX
  5
39E9
  8
241
 10
238.6730000000000018
 20
-2.93527
 30
0.0
 70
    32
  0
VERTEX
  5
39EA
  8
241
 10
238.6550000000000011
 20
-2.9263300000000001
 30
0.0
 70
    32
  0
VERTEX
  5
39EB
  8
241
 10
238.6380000000000052
 20
-2.9174299999999991
 30
0.0
 70
    32
  0
VERTEX
  5
39EC
  8
241
 10
238.6200000000000045
 20
-2.9085700000000001
 30
0.0
 70
    32
  0
VERTEX
  5
39ED
  8
241
 10
238.6030000000000086
 20
-2.8997599999999988
 30
0.0
 70
    32
  0
VERTEX
  5
39EE
  8
241
 10
238.585000000000008
 20
-2.8909899999999999
 30
0.0
 70
    32
  0
VERTEX
  5
39EF
  8
241
 10
238.5670000000000073
 20
-2.8822700000000001
 30
0.0
 70
    32
  0
VERTEX
  5
39F0
  8
241
 10
238.5500000000000114
 20
-2.8735900000000001
 30
0.0
 70
    32
  0
VERTEX
  5
39F1
  8
241
 10
238.5320000000000107
 20
-2.864949999999999
 30
0.0
 70
    32
  0
VERTEX
  5
39F2
  8
241
 10
238.5149999999999864
 20
-2.85636
 30
0.0
 70
    32
  0
VERTEX
  5
39F3
  8
241
 10
238.4970000000000141
 20
-2.8478099999999991
 30
0.0
 70
    32
  0
VERTEX
  5
39F4
  8
241
 10
238.4790000000000134
 20
-2.8393000000000002
 30
0.0
 70
    32
  0
VERTEX
  5
39F5
  8
241
 10
238.4610000000000127
 20
-2.8308399999999998
 30
0.0
 70
    32
  0
VERTEX
  5
39F6
  8
241
 10
238.4439999999999884
 20
-2.8224200000000002
 30
0.0
 70
    32
  0
VERTEX
  5
39F7
  8
241
 10
238.4259999999999877
 20
-2.8140499999999991
 30
0.0
 70
    32
  0
VERTEX
  5
39F8
  8
241
 10
238.407999999999987
 20
-2.8057199999999991
 30
0.0
 70
    32
  0
VERTEX
  5
39F9
  8
241
 10
238.3899999999999864
 20
-2.797439999999999
 30
0.0
 70
    32
  0
VERTEX
  5
39FA
  8
241
 10
238.3729999999999905
 20
-2.7892000000000001
 30
0.0
 70
    32
  0
VERTEX
  5
39FB
  8
241
 10
238.3549999999999898
 20
-2.7810000000000001
 30
0.0
 70
    32
  0
VERTEX
  5
39FC
  8
241
 10
238.3369999999999891
 20
-2.77285
 30
0.0
 70
    32
  0
VERTEX
  5
39FD
  8
241
 10
238.3189999999999884
 20
-2.7647400000000002
 30
0.0
 70
    32
  0
VERTEX
  5
39FE
  8
241
 10
238.3009999999999877
 20
-2.7566799999999989
 30
0.0
 70
    32
  0
VERTEX
  5
39FF
  8
241
 10
238.282999999999987
 20
-2.7486599999999992
 30
0.0
 70
    32
  0
VERTEX
  5
3A00
  8
241
 10
238.2649999999999864
 20
-2.7406799999999989
 30
0.0
 70
    32
  0
VERTEX
  5
3A01
  8
241
 10
238.2470000000000141
 20
-2.7327499999999989
 30
0.0
 70
    32
  0
VERTEX
  5
3A02
  8
241
 10
238.2290000000000134
 20
-2.7248700000000001
 30
0.0
 70
    32
  0
VERTEX
  5
3A03
  8
241
 10
238.2110000000000127
 20
-2.7170200000000002
 30
0.0
 70
    32
  0
VERTEX
  5
3A04
  8
241
 10
238.1930000000000121
 20
-2.7092299999999989
 30
0.0
 70
    32
  0
VERTEX
  5
3A05
  8
241
 10
238.1750000000000114
 20
-2.7014800000000001
 30
0.0
 70
    32
  0
VERTEX
  5
3A06
  8
241
 10
238.1570000000000107
 20
-2.6937700000000002
 30
0.0
 70
    32
  0
VERTEX
  5
3A07
  8
241
 10
238.13900000000001
 20
-2.6861099999999989
 30
0.0
 70
    32
  0
VERTEX
  5
3A08
  8
241
 10
238.1210000000000093
 20
-2.67849
 30
0.0
 70
    32
  0
VERTEX
  5
3A09
  8
241
 10
238.1030000000000086
 20
-2.6709200000000002
 30
0.0
 70
    32
  0
VERTEX
  5
3A0A
  8
241
 10
238.0840000000000032
 20
-2.6633900000000001
 30
0.0
 70
    32
  0
VERTEX
  5
3A0B
  8
241
 10
238.0660000000000025
 20
-2.6559099999999991
 30
0.0
 70
    32
  0
VERTEX
  5
3A0C
  8
241
 10
238.0480000000000018
 20
-2.6484700000000001
 30
0.0
 70
    32
  0
VERTEX
  5
3A0D
  8
241
 10
238.0300000000000011
 20
-2.64107
 30
0.0
 70
    32
  0
VERTEX
  5
3A0E
  8
241
 10
238.0120000000000005
 20
-2.633729999999999
 30
0.0
 70
    32
  0
VERTEX
  5
3A0F
  8
241
 10
237.992999999999995
 20
-2.6264199999999991
 30
0.0
 70
    32
  0
VERTEX
  5
3A10
  8
241
 10
237.9749999999999943
 20
-2.6191699999999991
 30
0.0
 70
    32
  0
VERTEX
  5
3A11
  8
241
 10
237.9569999999999936
 20
-2.6119500000000002
 30
0.0
 70
    32
  0
VERTEX
  5
3A12
  8
241
 10
237.938999999999993
 20
-2.6047899999999991
 30
0.0
 70
    32
  0
VERTEX
  5
3A13
  8
241
 10
237.9199999999999875
 20
-2.597659999999999
 30
0.0
 70
    32
  0
VERTEX
  5
3A14
  8
241
 10
237.9019999999999868
 20
-2.5905900000000002
 30
0.0
 70
    32
  0
VERTEX
  5
3A15
  8
241
 10
237.8839999999999861
 20
-2.5835499999999989
 30
0.0
 70
    32
  0
VERTEX
  5
3A16
  8
241
 10
237.8650000000000091
 20
-2.5765699999999998
 30
0.0
 70
    32
  0
VERTEX
  5
3A17
  8
241
 10
237.8470000000000084
 20
-2.5696300000000001
 30
0.0
 70
    32
  0
VERTEX
  5
3A18
  8
241
 10
237.828000000000003
 20
-2.5627299999999988
 30
0.0
 70
    32
  0
VERTEX
  5
3A19
  8
241
 10
237.8100000000000023
 20
-2.5558799999999988
 30
0.0
 70
    32
  0
VERTEX
  5
3A1A
  8
241
 10
237.7920000000000016
 20
-2.54908
 30
0.0
 70
    32
  0
VERTEX
  5
3A1B
  8
241
 10
237.7729999999999961
 20
-2.5423200000000001
 30
0.0
 70
    32
  0
VERTEX
  5
3A1C
  8
241
 10
237.7549999999999955
 20
-2.5356000000000001
 30
0.0
 70
    32
  0
VERTEX
  5
3A1D
  8
241
 10
237.73599999999999
 20
-2.5289399999999991
 30
0.0
 70
    32
  0
VERTEX
  5
3A1E
  8
241
 10
237.7179999999999893
 20
-2.5223100000000001
 30
0.0
 70
    32
  0
VERTEX
  5
3A1F
  8
241
 10
237.6990000000000123
 20
-2.5157400000000001
 30
0.0
 70
    32
  0
VERTEX
  5
3A20
  8
241
 10
237.6810000000000116
 20
-2.5092099999999991
 30
0.0
 70
    32
  0
VERTEX
  5
3A21
  8
241
 10
237.6620000000000061
 20
-2.5027200000000001
 30
0.0
 70
    32
  0
VERTEX
  5
3A22
  8
241
 10
237.6440000000000055
 20
-2.4962800000000001
 30
0.0
 70
    32
  0
VERTEX
  5
3A23
  8
241
 10
237.625
 20
-2.489889999999999
 30
0.0
 70
    32
  0
VERTEX
  5
3A24
  8
241
 10
237.6059999999999945
 20
-2.4835400000000001
 30
0.0
 70
    32
  0
VERTEX
  5
3A25
  8
241
 10
237.5879999999999939
 20
-2.4772400000000001
 30
0.0
 70
    32
  0
VERTEX
  5
3A26
  8
241
 10
237.5689999999999884
 20
-2.4709799999999991
 30
0.0
 70
    32
  0
VERTEX
  5
3A27
  8
241
 10
237.5509999999999877
 20
-2.4647799999999989
 30
0.0
 70
    32
  0
VERTEX
  5
3A28
  8
241
 10
237.5320000000000107
 20
-2.4586099999999989
 30
0.0
 70
    32
  0
VERTEX
  5
3A29
  8
241
 10
237.5130000000000052
 20
-2.4524900000000001
 30
0.0
 70
    32
  0
VERTEX
  5
3A2A
  8
241
 10
237.4950000000000045
 20
-2.4464199999999998
 30
0.0
 70
    32
  0
VERTEX
  5
3A2B
  8
241
 10
237.4759999999999991
 20
-2.440399999999999
 30
0.0
 70
    32
  0
VERTEX
  5
3A2C
  8
241
 10
237.4569999999999936
 20
-2.4344199999999998
 30
0.0
 70
    32
  0
VERTEX
  5
3A2D
  8
241
 10
237.4379999999999882
 20
-2.42849
 30
0.0
 70
    32
  0
VERTEX
  5
3A2E
  8
241
 10
237.4199999999999875
 20
-2.4226000000000001
 30
0.0
 70
    32
  0
VERTEX
  5
3A2F
  8
241
 10
237.4010000000000105
 20
-2.41676
 30
0.0
 70
    32
  0
VERTEX
  5
3A30
  8
241
 10
237.382000000000005
 20
-2.4109699999999998
 30
0.0
 70
    32
  0
VERTEX
  5
3A31
  8
241
 10
237.3629999999999995
 20
-2.405219999999999
 30
0.0
 70
    32
  0
VERTEX
  5
3A32
  8
241
 10
237.3449999999999989
 20
-2.399519999999999
 30
0.0
 70
    32
  0
VERTEX
  5
3A33
  8
241
 10
237.3259999999999934
 20
-2.3938700000000002
 30
0.0
 70
    32
  0
VERTEX
  5
3A34
  8
241
 10
237.3069999999999879
 20
-2.3882599999999989
 30
0.0
 70
    32
  0
VERTEX
  5
3A35
  8
241
 10
237.2880000000000109
 20
-2.3826999999999989
 30
0.0
 70
    32
  0
VERTEX
  5
3A36
  8
241
 10
237.2690000000000055
 20
-2.3771900000000001
 30
0.0
 70
    32
  0
VERTEX
  5
3A37
  8
241
 10
237.2510000000000048
 20
-2.3717199999999998
 30
0.0
 70
    32
  0
VERTEX
  5
3A38
  8
241
 10
237.2319999999999993
 20
-2.366299999999999
 30
0.0
 70
    32
  0
VERTEX
  5
3A39
  8
241
 10
237.2129999999999939
 20
-2.3609200000000001
 30
0.0
 70
    32
  0
VERTEX
  5
3A3A
  8
241
 10
237.1939999999999884
 20
-2.355599999999999
 30
0.0
 70
    32
  0
VERTEX
  5
3A3B
  8
241
 10
237.1750000000000114
 20
-2.3503199999999991
 30
0.0
 70
    32
  0
VERTEX
  5
3A3C
  8
241
 10
237.1560000000000059
 20
-2.3450799999999989
 30
0.0
 70
    32
  0
VERTEX
  5
3A3D
  8
241
 10
237.1370000000000005
 20
-2.3399000000000001
 30
0.0
 70
    32
  0
VERTEX
  5
3A3E
  8
241
 10
237.117999999999995
 20
-2.3347599999999988
 30
0.0
 70
    32
  0
VERTEX
  5
3A3F
  8
241
 10
237.0989999999999895
 20
-2.3296600000000001
 30
0.0
 70
    32
  0
VERTEX
  5
3A40
  8
241
 10
237.0800000000000125
 20
-2.324619999999999
 30
0.0
 70
    32
  0
VERTEX
  5
3A41
  8
241
 10
237.0620000000000118
 20
-2.31962
 30
0.0
 70
    32
  0
VERTEX
  5
3A42
  8
241
 10
237.0430000000000064
 20
-2.31467
 30
0.0
 70
    32
  0
VERTEX
  5
3A43
  8
241
 10
237.0240000000000009
 20
-2.3097599999999989
 30
0.0
 70
    32
  0
VERTEX
  5
3A44
  8
241
 10
237.0049999999999955
 20
-2.30491
 30
0.0
 70
    32
  0
VERTEX
  5
3A45
  8
241
 10
236.98599999999999
 20
-2.3001
 30
0.0
 70
    32
  0
VERTEX
  5
3A46
  8
241
 10
236.967000000000013
 20
-2.295329999999999
 30
0.0
 70
    32
  0
VERTEX
  5
3A47
  8
241
 10
236.9480000000000075
 20
-2.2906200000000001
 30
0.0
 70
    32
  0
VERTEX
  5
3A48
  8
241
 10
236.929000000000002
 20
-2.2859500000000001
 30
0.0
 70
    32
  0
VERTEX
  5
3A49
  8
241
 10
236.9099999999999966
 20
-2.2813300000000001
 30
0.0
 70
    32
  0
VERTEX
  5
3A4A
  8
241
 10
236.8899999999999864
 20
-2.276759999999999
 30
0.0
 70
    32
  0
VERTEX
  5
3A4B
  8
241
 10
236.8710000000000093
 20
-2.2722299999999991
 30
0.0
 70
    32
  0
VERTEX
  5
3A4C
  8
241
 10
236.8520000000000039
 20
-2.267749999999999
 30
0.0
 70
    32
  0
VERTEX
  5
3A4D
  8
241
 10
236.8329999999999984
 20
-2.2633200000000002
 30
0.0
 70
    32
  0
VERTEX
  5
3A4E
  8
241
 10
236.813999999999993
 20
-2.2589399999999991
 30
0.0
 70
    32
  0
VERTEX
  5
3A4F
  8
241
 10
236.7949999999999875
 20
-2.254599999999999
 30
0.0
 70
    32
  0
VERTEX
  5
3A50
  8
241
 10
236.7760000000000105
 20
-2.2503099999999989
 30
0.0
 70
    32
  0
VERTEX
  5
3A51
  8
241
 10
236.757000000000005
 20
-2.24607
 30
0.0
 70
    32
  0
VERTEX
  5
3A52
  8
241
 10
236.7379999999999995
 20
-2.2418800000000001
 30
0.0
 70
    32
  0
VERTEX
  5
3A53
  8
241
 10
236.7189999999999941
 20
-2.2377299999999991
 30
0.0
 70
    32
  0
VERTEX
  5
3A54
  8
241
 10
236.6999999999999886
 20
-2.2336299999999989
 30
0.0
 70
    32
  0
VERTEX
  5
3A55
  8
241
 10
236.6800000000000068
 20
-2.229579999999999
 30
0.0
 70
    32
  0
VERTEX
  5
3A56
  8
241
 10
236.6610000000000014
 20
-2.2255699999999998
 30
0.0
 70
    32
  0
VERTEX
  5
3A57
  8
241
 10
236.6419999999999959
 20
-2.2216099999999992
 30
0.0
 70
    32
  0
VERTEX
  5
3A58
  8
241
 10
236.6229999999999905
 20
-2.2176999999999989
 30
0.0
 70
    32
  0
VERTEX
  5
3A59
  8
241
 10
236.6040000000000134
 20
-2.2138299999999989
 30
0.0
 70
    32
  0
VERTEX
  5
3A5A
  8
241
 10
236.585000000000008
 20
-2.2100200000000001
 30
0.0
 70
    32
  0
VERTEX
  5
3A5B
  8
241
 10
236.5660000000000025
 20
-2.2062400000000002
 30
0.0
 70
    32
  0
VERTEX
  5
3A5C
  8
241
 10
236.5459999999999923
 20
-2.2025199999999998
 30
0.0
 70
    32
  0
VERTEX
  5
3A5D
  8
241
 10
236.5269999999999868
 20
-2.1988400000000001
 30
0.0
 70
    32
  0
VERTEX
  5
3A5E
  8
241
 10
236.5080000000000098
 20
-2.195209999999999
 30
0.0
 70
    32
  0
VERTEX
  5
3A5F
  8
241
 10
236.4890000000000043
 20
-2.1916299999999991
 30
0.0
 70
    32
  0
VERTEX
  5
3A60
  8
241
 10
236.4699999999999989
 20
-2.1880899999999999
 30
0.0
 70
    32
  0
VERTEX
  5
3A61
  8
241
 10
236.4499999999999886
 20
-2.1846000000000001
 30
0.0
 70
    32
  0
VERTEX
  5
3A62
  8
241
 10
236.4310000000000116
 20
-2.1811599999999989
 30
0.0
 70
    32
  0
VERTEX
  5
3A63
  8
241
 10
236.4120000000000061
 20
-2.1777599999999988
 30
0.0
 70
    32
  0
VERTEX
  5
3A64
  8
241
 10
236.3930000000000007
 20
-2.1744099999999991
 30
0.0
 70
    32
  0
VERTEX
  5
3A65
  8
241
 10
236.3739999999999952
 20
-2.1711099999999992
 30
0.0
 70
    32
  0
VERTEX
  5
3A66
  8
241
 10
236.3540000000000134
 20
-2.1678599999999988
 30
0.0
 70
    32
  0
VERTEX
  5
3A67
  8
241
 10
236.335000000000008
 20
-2.1646499999999991
 30
0.0
 70
    32
  0
VERTEX
  5
3A68
  8
241
 10
236.3160000000000025
 20
-2.1614800000000001
 30
0.0
 70
    32
  0
VERTEX
  5
3A69
  8
241
 10
236.296999999999997
 20
-2.1583700000000001
 30
0.0
 70
    32
  0
VERTEX
  5
3A6A
  8
241
 10
236.2769999999999868
 20
-2.1552999999999991
 30
0.0
 70
    32
  0
VERTEX
  5
3A6B
  8
241
 10
236.2580000000000098
 20
-2.1522799999999989
 30
0.0
 70
    32
  0
VERTEX
  5
3A6C
  8
241
 10
236.2390000000000043
 20
-2.1493000000000002
 30
0.0
 70
    32
  0
VERTEX
  5
3A6D
  8
241
 10
236.2199999999999989
 20
-2.1463700000000001
 30
0.0
 70
    32
  0
VERTEX
  5
3A6E
  8
241
 10
236.2009999999999934
 20
-2.1434899999999999
 30
0.0
 70
    32
  0
VERTEX
  5
3A6F
  8
241
 10
236.1810000000000116
 20
-2.1406499999999991
 30
0.0
 70
    32
  0
VERTEX
  5
3A70
  8
241
 10
236.1620000000000061
 20
-2.137859999999999
 30
0.0
 70
    32
  0
VERTEX
  5
3A71
  8
241
 10
236.1430000000000007
 20
-2.1351200000000001
 30
0.0
 70
    32
  0
VERTEX
  5
3A72
  8
241
 10
236.1239999999999952
 20
-2.1324200000000002
 30
0.0
 70
    32
  0
VERTEX
  5
3A73
  8
241
 10
236.1040000000000134
 20
-2.1297700000000002
 30
0.0
 70
    32
  0
VERTEX
  5
3A74
  8
241
 10
236.085000000000008
 20
-2.1271599999999991
 30
0.0
 70
    32
  0
VERTEX
  5
3A75
  8
241
 10
236.0660000000000025
 20
-2.1246099999999992
 30
0.0
 70
    32
  0
VERTEX
  5
3A76
  8
241
 10
236.0459999999999923
 20
-2.12209
 30
0.0
 70
    32
  0
VERTEX
  5
3A77
  8
241
 10
236.0269999999999868
 20
-2.119629999999999
 30
0.0
 70
    32
  0
VERTEX
  5
3A78
  8
241
 10
236.0080000000000098
 20
-2.11721
 30
0.0
 70
    32
  0
VERTEX
  5
3A79
  8
241
 10
235.9890000000000043
 20
-2.1148400000000001
 30
0.0
 70
    32
  0
VERTEX
  5
3A7A
  8
241
 10
235.9689999999999941
 20
-2.112509999999999
 30
0.0
 70
    32
  0
VERTEX
  5
3A7B
  8
241
 10
235.9499999999999886
 20
-2.1102300000000001
 30
0.0
 70
    32
  0
VERTEX
  5
3A7C
  8
241
 10
235.9310000000000116
 20
-2.1080000000000001
 30
0.0
 70
    32
  0
VERTEX
  5
3A7D
  8
241
 10
235.9120000000000061
 20
-2.1058099999999991
 30
0.0
 70
    32
  0
VERTEX
  5
3A7E
  8
241
 10
235.8919999999999959
 20
-2.1036700000000002
 30
0.0
 70
    32
  0
VERTEX
  5
3A7F
  8
241
 10
235.8729999999999905
 20
-2.1015700000000002
 30
0.0
 70
    32
  0
VERTEX
  5
3A80
  8
241
 10
235.8540000000000134
 20
-2.0995200000000001
 30
0.0
 70
    32
  0
VERTEX
  5
3A81
  8
241
 10
235.835000000000008
 20
-2.0975199999999998
 30
0.0
 70
    32
  0
VERTEX
  5
3A82
  8
241
 10
235.8149999999999977
 20
-2.095559999999999
 30
0.0
 70
    32
  0
VERTEX
  5
3A83
  8
241
 10
235.7959999999999923
 20
-2.0936499999999989
 30
0.0
 70
    32
  0
VERTEX
  5
3A84
  8
241
 10
235.7769999999999868
 20
-2.0917799999999991
 30
0.0
 70
    32
  0
VERTEX
  5
3A85
  8
241
 10
235.7580000000000098
 20
-2.08996
 30
0.0
 70
    32
  0
VERTEX
  5
3A86
  8
241
 10
235.7379999999999995
 20
-2.0881899999999991
 30
0.0
 70
    32
  0
VERTEX
  5
3A87
  8
241
 10
235.7189999999999941
 20
-2.0864599999999989
 30
0.0
 70
    32
  0
VERTEX
  5
3A88
  8
241
 10
235.6999999999999886
 20
-2.084779999999999
 30
0.0
 70
    32
  0
VERTEX
  5
3A89
  8
241
 10
235.6810000000000116
 20
-2.0831400000000002
 30
0.0
 70
    32
  0
VERTEX
  5
3A8A
  8
241
 10
235.6610000000000014
 20
-2.08155
 30
0.0
 70
    32
  0
VERTEX
  5
3A8B
  8
241
 10
235.6419999999999959
 20
-2.0800099999999988
 30
0.0
 70
    32
  0
VERTEX
  5
3A8C
  8
241
 10
235.6229999999999905
 20
-2.0785099999999992
 30
0.0
 70
    32
  0
VERTEX
  5
3A8D
  8
241
 10
235.6040000000000134
 20
-2.077059999999999
 30
0.0
 70
    32
  0
VERTEX
  5
3A8E
  8
241
 10
235.5840000000000032
 20
-2.0756499999999991
 30
0.0
 70
    32
  0
VERTEX
  5
3A8F
  8
241
 10
235.5649999999999977
 20
-2.0742899999999991
 30
0.0
 70
    32
  0
VERTEX
  5
3A90
  8
241
 10
235.5459999999999923
 20
-2.0729700000000002
 30
0.0
 70
    32
  0
VERTEX
  5
3A91
  8
241
 10
235.5269999999999868
 20
-2.071699999999999
 30
0.0
 70
    32
  0
VERTEX
  5
3A92
  8
241
 10
235.507000000000005
 20
-2.070479999999999
 30
0.0
 70
    32
  0
VERTEX
  5
3A93
  8
241
 10
235.4879999999999995
 20
-2.0693000000000001
 30
0.0
 70
    32
  0
VERTEX
  5
3A94
  8
241
 10
235.4689999999999941
 20
-2.0681699999999998
 30
0.0
 70
    32
  0
VERTEX
  5
3A95
  8
241
 10
235.4499999999999886
 20
-2.0670799999999989
 30
0.0
 70
    32
  0
VERTEX
  5
3A96
  8
241
 10
235.4310000000000116
 20
-2.0660400000000001
 30
0.0
 70
    32
  0
VERTEX
  5
3A97
  8
241
 10
235.4110000000000014
 20
-2.0650400000000002
 30
0.0
 70
    32
  0
VERTEX
  5
3A98
  8
241
 10
235.3919999999999959
 20
-2.0640900000000002
 30
0.0
 70
    32
  0
VERTEX
  5
3A99
  8
241
 10
235.3729999999999905
 20
-2.0631900000000001
 30
0.0
 70
    32
  0
VERTEX
  5
3A9A
  8
241
 10
235.3540000000000134
 20
-2.0623299999999989
 30
0.0
 70
    32
  0
VERTEX
  5
3A9B
  8
241
 10
235.335000000000008
 20
-2.0615099999999988
 30
0.0
 70
    32
  0
VERTEX
  5
3A9C
  8
241
 10
235.3149999999999977
 20
-2.0607500000000001
 30
0.0
 70
    32
  0
VERTEX
  5
3A9D
  8
241
 10
235.2959999999999923
 20
-2.0600200000000002
 30
0.0
 70
    32
  0
VERTEX
  5
3A9E
  8
241
 10
235.2769999999999868
 20
-2.0593499999999989
 30
0.0
 70
    32
  0
VERTEX
  5
3A9F
  8
241
 10
235.2580000000000098
 20
-2.05871
 30
0.0
 70
    32
  0
VERTEX
  5
3AA0
  8
241
 10
235.2390000000000043
 20
-2.0581299999999989
 30
0.0
 70
    32
  0
VERTEX
  5
3AA1
  8
241
 10
235.2199999999999989
 20
-2.0575799999999989
 30
0.0
 70
    32
  0
VERTEX
  5
3AA2
  8
241
 10
235.2009999999999934
 20
-2.0570900000000001
 30
0.0
 70
    32
  0
VERTEX
  5
3AA3
  8
241
 10
235.1810000000000116
 20
-2.0566399999999998
 30
0.0
 70
    32
  0
VERTEX
  5
3AA4
  8
241
 10
235.1620000000000061
 20
-2.0562299999999989
 30
0.0
 70
    32
  0
VERTEX
  5
3AA5
  8
241
 10
235.1430000000000007
 20
-2.0558700000000001
 30
0.0
 70
    32
  0
VERTEX
  5
3AA6
  8
241
 10
235.1239999999999952
 20
-2.0555500000000002
 30
0.0
 70
    32
  0
VERTEX
  5
3AA7
  8
241
 10
235.1049999999999898
 20
-2.0552799999999989
 30
0.0
 70
    32
  0
VERTEX
  5
3AA8
  8
241
 10
235.0860000000000127
 20
-2.0550599999999992
 30
0.0
 70
    32
  0
VERTEX
  5
3AA9
  8
241
 10
235.0670000000000073
 20
-2.0548799999999989
 30
0.0
 70
    32
  0
VERTEX
  5
3AAA
  8
241
 10
235.0480000000000018
 20
-2.0547399999999998
 30
0.0
 70
    32
  0
VERTEX
  5
3AAB
  8
241
 10
235.0289999999999964
 20
-2.0546500000000001
 30
0.0
 70
    32
  0
VERTEX
  5
3AAC
  8
241
 10
235.0099999999999909
 20
-2.0546099999999989
 30
0.0
 70
    32
  0
VERTEX
  5
3AAD
  8
241
 10
234.9900000000000091
 20
-2.0546099999999989
 30
0.0
 70
    32
  0
VERTEX
  5
3AAE
  8
241
 10
234.9710000000000036
 20
-2.0546500000000001
 30
0.0
 70
    32
  0
VERTEX
  5
3AAF
  8
241
 10
234.9519999999999982
 20
-2.0547399999999998
 30
0.0
 70
    32
  0
VERTEX
  5
3AB0
  8
241
 10
234.9329999999999927
 20
-2.0548799999999989
 30
0.0
 70
    32
  0
VERTEX
  5
3AB1
  8
241
 10
234.9139999999999873
 20
-2.0550599999999992
 30
0.0
 70
    32
  0
VERTEX
  5
3AB2
  8
241
 10
234.8950000000000102
 20
-2.0552799999999989
 30
0.0
 70
    32
  0
VERTEX
  5
3AB3
  8
241
 10
234.8760000000000048
 20
-2.0555500000000002
 30
0.0
 70
    32
  0
VERTEX
  5
3AB4
  8
241
 10
234.8569999999999993
 20
-2.0558700000000001
 30
0.0
 70
    32
  0
VERTEX
  5
3AB5
  8
241
 10
234.8379999999999939
 20
-2.0562299999999989
 30
0.0
 70
    32
  0
VERTEX
  5
3AB6
  8
241
 10
234.8189999999999884
 20
-2.0566399999999998
 30
0.0
 70
    32
  0
VERTEX
  5
3AB7
  8
241
 10
234.7990000000000066
 20
-2.0570900000000001
 30
0.0
 70
    32
  0
VERTEX
  5
3AB8
  8
241
 10
234.7800000000000011
 20
-2.0575799999999989
 30
0.0
 70
    32
  0
VERTEX
  5
3AB9
  8
241
 10
234.7609999999999957
 20
-2.0581299999999989
 30
0.0
 70
    32
  0
VERTEX
  5
3ABA
  8
241
 10
234.7419999999999902
 20
-2.05871
 30
0.0
 70
    32
  0
VERTEX
  5
3ABB
  8
241
 10
234.7230000000000132
 20
-2.0593499999999989
 30
0.0
 70
    32
  0
VERTEX
  5
3ABC
  8
241
 10
234.7040000000000077
 20
-2.0600200000000002
 30
0.0
 70
    32
  0
VERTEX
  5
3ABD
  8
241
 10
234.6850000000000023
 20
-2.0607500000000001
 30
0.0
 70
    32
  0
VERTEX
  5
3ABE
  8
241
 10
234.664999999999992
 20
-2.0615099999999988
 30
0.0
 70
    32
  0
VERTEX
  5
3ABF
  8
241
 10
234.6459999999999866
 20
-2.0623299999999989
 30
0.0
 70
    32
  0
VERTEX
  5
3AC0
  8
241
 10
234.6270000000000095
 20
-2.0631900000000001
 30
0.0
 70
    32
  0
VERTEX
  5
3AC1
  8
241
 10
234.6080000000000041
 20
-2.0640900000000002
 30
0.0
 70
    32
  0
VERTEX
  5
3AC2
  8
241
 10
234.5889999999999986
 20
-2.0650400000000002
 30
0.0
 70
    32
  0
VERTEX
  5
3AC3
  8
241
 10
234.5689999999999884
 20
-2.0660400000000001
 30
0.0
 70
    32
  0
VERTEX
  5
3AC4
  8
241
 10
234.5500000000000114
 20
-2.0670799999999989
 30
0.0
 70
    32
  0
VERTEX
  5
3AC5
  8
241
 10
234.5310000000000059
 20
-2.0681699999999998
 30
0.0
 70
    32
  0
VERTEX
  5
3AC6
  8
241
 10
234.5120000000000005
 20
-2.0693000000000001
 30
0.0
 70
    32
  0
VERTEX
  5
3AC7
  8
241
 10
234.492999999999995
 20
-2.070479999999999
 30
0.0
 70
    32
  0
VERTEX
  5
3AC8
  8
241
 10
234.4730000000000132
 20
-2.071699999999999
 30
0.0
 70
    32
  0
VERTEX
  5
3AC9
  8
241
 10
234.4540000000000077
 20
-2.0729700000000002
 30
0.0
 70
    32
  0
VERTEX
  5
3ACA
  8
241
 10
234.4350000000000023
 20
-2.0742899999999991
 30
0.0
 70
    32
  0
VERTEX
  5
3ACB
  8
241
 10
234.4159999999999968
 20
-2.0756499999999991
 30
0.0
 70
    32
  0
VERTEX
  5
3ACC
  8
241
 10
234.3959999999999866
 20
-2.077059999999999
 30
0.0
 70
    32
  0
VERTEX
  5
3ACD
  8
241
 10
234.3770000000000095
 20
-2.0785099999999992
 30
0.0
 70
    32
  0
VERTEX
  5
3ACE
  8
241
 10
234.3580000000000041
 20
-2.0800099999999988
 30
0.0
 70
    32
  0
VERTEX
  5
3ACF
  8
241
 10
234.3389999999999986
 20
-2.08155
 30
0.0
 70
    32
  0
VERTEX
  5
3AD0
  8
241
 10
234.3189999999999884
 20
-2.0831400000000002
 30
0.0
 70
    32
  0
VERTEX
  5
3AD1
  8
241
 10
234.3000000000000114
 20
-2.084779999999999
 30
0.0
 70
    32
  0
VERTEX
  5
3AD2
  8
241
 10
234.2810000000000059
 20
-2.0864599999999989
 30
0.0
 70
    32
  0
VERTEX
  5
3AD3
  8
241
 10
234.2620000000000005
 20
-2.0881899999999991
 30
0.0
 70
    32
  0
VERTEX
  5
3AD4
  8
241
 10
234.2419999999999902
 20
-2.08996
 30
0.0
 70
    32
  0
VERTEX
  5
3AD5
  8
241
 10
234.2230000000000132
 20
-2.0917799999999991
 30
0.0
 70
    32
  0
VERTEX
  5
3AD6
  8
241
 10
234.2040000000000077
 20
-2.0936499999999989
 30
0.0
 70
    32
  0
VERTEX
  5
3AD7
  8
241
 10
234.1850000000000023
 20
-2.095559999999999
 30
0.0
 70
    32
  0
VERTEX
  5
3AD8
  8
241
 10
234.164999999999992
 20
-2.0975199999999998
 30
0.0
 70
    32
  0
VERTEX
  5
3AD9
  8
241
 10
234.1459999999999866
 20
-2.0995200000000001
 30
0.0
 70
    32
  0
VERTEX
  5
3ADA
  8
241
 10
234.1270000000000095
 20
-2.1015700000000002
 30
0.0
 70
    32
  0
VERTEX
  5
3ADB
  8
241
 10
234.1080000000000041
 20
-2.1036700000000002
 30
0.0
 70
    32
  0
VERTEX
  5
3ADC
  8
241
 10
234.0879999999999939
 20
-2.1058099999999991
 30
0.0
 70
    32
  0
VERTEX
  5
3ADD
  8
241
 10
234.0689999999999884
 20
-2.1080000000000001
 30
0.0
 70
    32
  0
VERTEX
  5
3ADE
  8
241
 10
234.0500000000000114
 20
-2.1102300000000001
 30
0.0
 70
    32
  0
VERTEX
  5
3ADF
  8
241
 10
234.0310000000000059
 20
-2.112509999999999
 30
0.0
 70
    32
  0
VERTEX
  5
3AE0
  8
241
 10
234.0109999999999957
 20
-2.1148400000000001
 30
0.0
 70
    32
  0
VERTEX
  5
3AE1
  8
241
 10
233.9919999999999902
 20
-2.11721
 30
0.0
 70
    32
  0
VERTEX
  5
3AE2
  8
241
 10
233.9730000000000132
 20
-2.119629999999999
 30
0.0
 70
    32
  0
VERTEX
  5
3AE3
  8
241
 10
233.9540000000000077
 20
-2.12209
 30
0.0
 70
    32
  0
VERTEX
  5
3AE4
  8
241
 10
233.9339999999999975
 20
-2.1246099999999992
 30
0.0
 70
    32
  0
VERTEX
  5
3AE5
  8
241
 10
233.914999999999992
 20
-2.1271599999999991
 30
0.0
 70
    32
  0
VERTEX
  5
3AE6
  8
241
 10
233.8959999999999866
 20
-2.1297700000000002
 30
0.0
 70
    32
  0
VERTEX
  5
3AE7
  8
241
 10
233.8760000000000048
 20
-2.1324200000000002
 30
0.0
 70
    32
  0
VERTEX
  5
3AE8
  8
241
 10
233.8569999999999993
 20
-2.1351200000000001
 30
0.0
 70
    32
  0
VERTEX
  5
3AE9
  8
241
 10
233.8379999999999939
 20
-2.137859999999999
 30
0.0
 70
    32
  0
VERTEX
  5
3AEA
  8
241
 10
233.8189999999999884
 20
-2.1406499999999991
 30
0.0
 70
    32
  0
VERTEX
  5
3AEB
  8
241
 10
233.7990000000000066
 20
-2.1434899999999999
 30
0.0
 70
    32
  0
VERTEX
  5
3AEC
  8
241
 10
233.7800000000000011
 20
-2.1463700000000001
 30
0.0
 70
    32
  0
VERTEX
  5
3AED
  8
241
 10
233.7609999999999957
 20
-2.1493000000000002
 30
0.0
 70
    32
  0
VERTEX
  5
3AEE
  8
241
 10
233.7419999999999902
 20
-2.1522799999999989
 30
0.0
 70
    32
  0
VERTEX
  5
3AEF
  8
241
 10
233.7230000000000132
 20
-2.1552999999999991
 30
0.0
 70
    32
  0
VERTEX
  5
3AF0
  8
241
 10
233.703000000000003
 20
-2.1583700000000001
 30
0.0
 70
    32
  0
VERTEX
  5
3AF1
  8
241
 10
233.6839999999999975
 20
-2.1614800000000001
 30
0.0
 70
    32
  0
VERTEX
  5
3AF2
  8
241
 10
233.664999999999992
 20
-2.1646499999999991
 30
0.0
 70
    32
  0
VERTEX
  5
3AF3
  8
241
 10
233.6459999999999866
 20
-2.1678599999999988
 30
0.0
 70
    32
  0
VERTEX
  5
3AF4
  8
241
 10
233.6260000000000048
 20
-2.1711099999999992
 30
0.0
 70
    32
  0
VERTEX
  5
3AF5
  8
241
 10
233.6069999999999993
 20
-2.1744099999999991
 30
0.0
 70
    32
  0
VERTEX
  5
3AF6
  8
241
 10
233.5879999999999939
 20
-2.1777599999999988
 30
0.0
 70
    32
  0
VERTEX
  5
3AF7
  8
241
 10
233.5689999999999884
 20
-2.1811599999999989
 30
0.0
 70
    32
  0
VERTEX
  5
3AF8
  8
241
 10
233.5500000000000114
 20
-2.1846000000000001
 30
0.0
 70
    32
  0
VERTEX
  5
3AF9
  8
241
 10
233.5300000000000011
 20
-2.1880899999999999
 30
0.0
 70
    32
  0
VERTEX
  5
3AFA
  8
241
 10
233.5109999999999957
 20
-2.1916299999999991
 30
0.0
 70
    32
  0
VERTEX
  5
3AFB
  8
241
 10
233.4919999999999902
 20
-2.195209999999999
 30
0.0
 70
    32
  0
VERTEX
  5
3AFC
  8
241
 10
233.4730000000000132
 20
-2.1988400000000001
 30
0.0
 70
    32
  0
VERTEX
  5
3AFD
  8
241
 10
233.4540000000000077
 20
-2.2025199999999998
 30
0.0
 70
    32
  0
VERTEX
  5
3AFE
  8
241
 10
233.4339999999999975
 20
-2.2062400000000002
 30
0.0
 70
    32
  0
VERTEX
  5
3AFF
  8
241
 10
233.414999999999992
 20
-2.2100200000000001
 30
0.0
 70
    32
  0
VERTEX
  5
3B00
  8
241
 10
233.3959999999999866
 20
-2.2138299999999989
 30
0.0
 70
    32
  0
VERTEX
  5
3B01
  8
241
 10
233.3770000000000095
 20
-2.2176999999999989
 30
0.0
 70
    32
  0
VERTEX
  5
3B02
  8
241
 10
233.3580000000000041
 20
-2.2216099999999992
 30
0.0
 70
    32
  0
VERTEX
  5
3B03
  8
241
 10
233.3389999999999986
 20
-2.2255699999999998
 30
0.0
 70
    32
  0
VERTEX
  5
3B04
  8
241
 10
233.3199999999999932
 20
-2.229579999999999
 30
0.0
 70
    32
  0
VERTEX
  5
3B05
  8
241
 10
233.3000000000000114
 20
-2.2336299999999989
 30
0.0
 70
    32
  0
VERTEX
  5
3B06
  8
241
 10
233.2810000000000059
 20
-2.2377299999999991
 30
0.0
 70
    32
  0
VERTEX
  5
3B07
  8
241
 10
233.2620000000000005
 20
-2.2418800000000001
 30
0.0
 70
    32
  0
VERTEX
  5
3B08
  8
241
 10
233.242999999999995
 20
-2.24607
 30
0.0
 70
    32
  0
VERTEX
  5
3B09
  8
241
 10
233.2239999999999895
 20
-2.2503099999999989
 30
0.0
 70
    32
  0
VERTEX
  5
3B0A
  8
241
 10
233.2050000000000125
 20
-2.254599999999999
 30
0.0
 70
    32
  0
VERTEX
  5
3B0B
  8
241
 10
233.186000000000007
 20
-2.2589399999999991
 30
0.0
 70
    32
  0
VERTEX
  5
3B0C
  8
241
 10
233.1670000000000016
 20
-2.2633200000000002
 30
0.0
 70
    32
  0
VERTEX
  5
3B0D
  8
241
 10
233.1479999999999961
 20
-2.267749999999999
 30
0.0
 70
    32
  0
VERTEX
  5
3B0E
  8
241
 10
233.1289999999999907
 20
-2.2722299999999991
 30
0.0
 70
    32
  0
VERTEX
  5
3B0F
  8
241
 10
233.1100000000000136
 20
-2.276759999999999
 30
0.0
 70
    32
  0
VERTEX
  5
3B10
  8
241
 10
233.0900000000000034
 20
-2.2813300000000001
 30
0.0
 70
    32
  0
VERTEX
  5
3B11
  8
241
 10
233.070999999999998
 20
-2.2859500000000001
 30
0.0
 70
    32
  0
VERTEX
  5
3B12
  8
241
 10
233.0519999999999925
 20
-2.2906200000000001
 30
0.0
 70
    32
  0
VERTEX
  5
3B13
  8
241
 10
233.032999999999987
 20
-2.295329999999999
 30
0.0
 70
    32
  0
VERTEX
  5
3B14
  8
241
 10
233.01400000000001
 20
-2.3001
 30
0.0
 70
    32
  0
VERTEX
  5
3B15
  8
241
 10
232.9950000000000045
 20
-2.30491
 30
0.0
 70
    32
  0
VERTEX
  5
3B16
  8
241
 10
232.9759999999999991
 20
-2.3097599999999989
 30
0.0
 70
    32
  0
VERTEX
  5
3B17
  8
241
 10
232.9569999999999936
 20
-2.31467
 30
0.0
 70
    32
  0
VERTEX
  5
3B18
  8
241
 10
232.9379999999999882
 20
-2.31962
 30
0.0
 70
    32
  0
VERTEX
  5
3B19
  8
241
 10
232.9199999999999875
 20
-2.324619999999999
 30
0.0
 70
    32
  0
VERTEX
  5
3B1A
  8
241
 10
232.9010000000000105
 20
-2.3296600000000001
 30
0.0
 70
    32
  0
VERTEX
  5
3B1B
  8
241
 10
232.882000000000005
 20
-2.3347599999999988
 30
0.0
 70
    32
  0
VERTEX
  5
3B1C
  8
241
 10
232.8629999999999995
 20
-2.3399000000000001
 30
0.0
 70
    32
  0
VERTEX
  5
3B1D
  8
241
 10
232.8439999999999941
 20
-2.3450799999999989
 30
0.0
 70
    32
  0
VERTEX
  5
3B1E
  8
241
 10
232.8249999999999886
 20
-2.3503199999999991
 30
0.0
 70
    32
  0
VERTEX
  5
3B1F
  8
241
 10
232.8060000000000116
 20
-2.355599999999999
 30
0.0
 70
    32
  0
VERTEX
  5
3B20
  8
241
 10
232.7870000000000061
 20
-2.3609200000000001
 30
0.0
 70
    32
  0
VERTEX
  5
3B21
  8
241
 10
232.7680000000000007
 20
-2.366299999999999
 30
0.0
 70
    32
  0
VERTEX
  5
3B22
  8
241
 10
232.7489999999999952
 20
-2.3717199999999998
 30
0.0
 70
    32
  0
VERTEX
  5
3B23
  8
241
 10
232.7309999999999945
 20
-2.3771900000000001
 30
0.0
 70
    32
  0
VERTEX
  5
3B24
  8
241
 10
232.7119999999999891
 20
-2.3826999999999989
 30
0.0
 70
    32
  0
VERTEX
  5
3B25
  8
241
 10
232.6930000000000121
 20
-2.3882599999999989
 30
0.0
 70
    32
  0
VERTEX
  5
3B26
  8
241
 10
232.6740000000000066
 20
-2.3938700000000002
 30
0.0
 70
    32
  0
VERTEX
  5
3B27
  8
241
 10
232.6550000000000011
 20
-2.399519999999999
 30
0.0
 70
    32
  0
VERTEX
  5
3B28
  8
241
 10
232.6370000000000005
 20
-2.405219999999999
 30
0.0
 70
    32
  0
VERTEX
  5
3B29
  8
241
 10
232.617999999999995
 20
-2.4109699999999998
 30
0.0
 70
    32
  0
VERTEX
  5
3B2A
  8
241
 10
232.5989999999999895
 20
-2.41676
 30
0.0
 70
    32
  0
VERTEX
  5
3B2B
  8
241
 10
232.5800000000000125
 20
-2.4226000000000001
 30
0.0
 70
    32
  0
VERTEX
  5
3B2C
  8
241
 10
232.5620000000000118
 20
-2.42849
 30
0.0
 70
    32
  0
VERTEX
  5
3B2D
  8
241
 10
232.5430000000000064
 20
-2.4344199999999998
 30
0.0
 70
    32
  0
VERTEX
  5
3B2E
  8
241
 10
232.5240000000000009
 20
-2.440399999999999
 30
0.0
 70
    32
  0
VERTEX
  5
3B2F
  8
241
 10
232.5049999999999955
 20
-2.4464199999999998
 30
0.0
 70
    32
  0
VERTEX
  5
3B30
  8
241
 10
232.4869999999999948
 20
-2.4524900000000001
 30
0.0
 70
    32
  0
VERTEX
  5
3B31
  8
241
 10
232.4679999999999893
 20
-2.4586099999999989
 30
0.0
 70
    32
  0
VERTEX
  5
3B32
  8
241
 10
232.4490000000000123
 20
-2.4647799999999989
 30
0.0
 70
    32
  0
VERTEX
  5
3B33
  8
241
 10
232.4310000000000116
 20
-2.4709799999999991
 30
0.0
 70
    32
  0
VERTEX
  5
3B34
  8
241
 10
232.4120000000000061
 20
-2.4772400000000001
 30
0.0
 70
    32
  0
VERTEX
  5
3B35
  8
241
 10
232.3940000000000055
 20
-2.4835400000000001
 30
0.0
 70
    32
  0
VERTEX
  5
3B36
  8
241
 10
232.375
 20
-2.489889999999999
 30
0.0
 70
    32
  0
VERTEX
  5
3B37
  8
241
 10
232.3559999999999945
 20
-2.4962800000000001
 30
0.0
 70
    32
  0
VERTEX
  5
3B38
  8
241
 10
232.3379999999999939
 20
-2.5027200000000001
 30
0.0
 70
    32
  0
VERTEX
  5
3B39
  8
241
 10
232.3189999999999884
 20
-2.5092099999999991
 30
0.0
 70
    32
  0
VERTEX
  5
3B3A
  8
241
 10
232.3009999999999877
 20
-2.5157400000000001
 30
0.0
 70
    32
  0
VERTEX
  5
3B3B
  8
241
 10
232.2820000000000107
 20
-2.5223100000000001
 30
0.0
 70
    32
  0
VERTEX
  5
3B3C
  8
241
 10
232.26400000000001
 20
-2.5289399999999991
 30
0.0
 70
    32
  0
VERTEX
  5
3B3D
  8
241
 10
232.2450000000000045
 20
-2.5356000000000001
 30
0.0
 70
    32
  0
VERTEX
  5
3B3E
  8
241
 10
232.2270000000000039
 20
-2.5423200000000001
 30
0.0
 70
    32
  0
VERTEX
  5
3B3F
  8
241
 10
232.2079999999999984
 20
-2.54908
 30
0.0
 70
    32
  0
VERTEX
  5
3B40
  8
241
 10
232.1899999999999977
 20
-2.5558799999999988
 30
0.0
 70
    32
  0
VERTEX
  5
3B41
  8
241
 10
232.171999999999997
 20
-2.5627299999999988
 30
0.0
 70
    32
  0
VERTEX
  5
3B42
  8
241
 10
232.1529999999999916
 20
-2.5696300000000001
 30
0.0
 70
    32
  0
VERTEX
  5
3B43
  8
241
 10
232.1349999999999909
 20
-2.5765699999999998
 30
0.0
 70
    32
  0
VERTEX
  5
3B44
  8
241
 10
232.1160000000000139
 20
-2.5835499999999989
 30
0.0
 70
    32
  0
VERTEX
  5
3B45
  8
241
 10
232.0980000000000132
 20
-2.5905900000000002
 30
0.0
 70
    32
  0
VERTEX
  5
3B46
  8
241
 10
232.0800000000000125
 20
-2.597659999999999
 30
0.0
 70
    32
  0
VERTEX
  5
3B47
  8
241
 10
232.061000000000007
 20
-2.6047899999999991
 30
0.0
 70
    32
  0
VERTEX
  5
3B48
  8
241
 10
232.0430000000000064
 20
-2.6119500000000002
 30
0.0
 70
    32
  0
VERTEX
  5
3B49
  8
241
 10
232.0250000000000057
 20
-2.6191699999999991
 30
0.0
 70
    32
  0
VERTEX
  5
3B4A
  8
241
 10
232.007000000000005
 20
-2.6264199999999991
 30
0.0
 70
    32
  0
VERTEX
  5
3B4B
  8
241
 10
231.9879999999999995
 20
-2.633729999999999
 30
0.0
 70
    32
  0
VERTEX
  5
3B4C
  8
241
 10
231.9699999999999989
 20
-2.64107
 30
0.0
 70
    32
  0
VERTEX
  5
3B4D
  8
241
 10
231.9519999999999982
 20
-2.6484700000000001
 30
0.0
 70
    32
  0
VERTEX
  5
3B4E
  8
241
 10
231.9339999999999975
 20
-2.6559099999999991
 30
0.0
 70
    32
  0
VERTEX
  5
3B4F
  8
241
 10
231.9159999999999968
 20
-2.6633900000000001
 30
0.0
 70
    32
  0
VERTEX
  5
3B50
  8
241
 10
231.8969999999999914
 20
-2.6709200000000002
 30
0.0
 70
    32
  0
VERTEX
  5
3B51
  8
241
 10
231.8789999999999907
 20
-2.67849
 30
0.0
 70
    32
  0
VERTEX
  5
3B52
  8
241
 10
231.86099999999999
 20
-2.6861099999999989
 30
0.0
 70
    32
  0
VERTEX
  5
3B53
  8
241
 10
231.8429999999999893
 20
-2.6937700000000002
 30
0.0
 70
    32
  0
VERTEX
  5
3B54
  8
241
 10
231.8249999999999886
 20
-2.7014800000000001
 30
0.0
 70
    32
  0
VERTEX
  5
3B55
  8
241
 10
231.8069999999999879
 20
-2.7092299999999989
 30
0.0
 70
    32
  0
VERTEX
  5
3B56
  8
241
 10
231.7889999999999873
 20
-2.7170200000000002
 30
0.0
 70
    32
  0
VERTEX
  5
3B57
  8
241
 10
231.7709999999999866
 20
-2.7248700000000001
 30
0.0
 70
    32
  0
VERTEX
  5
3B58
  8
241
 10
231.7529999999999859
 20
-2.7327499999999989
 30
0.0
 70
    32
  0
VERTEX
  5
3B59
  8
241
 10
231.7350000000000136
 20
-2.7406799999999989
 30
0.0
 70
    32
  0
VERTEX
  5
3B5A
  8
241
 10
231.717000000000013
 20
-2.7486599999999992
 30
0.0
 70
    32
  0
VERTEX
  5
3B5B
  8
241
 10
231.6990000000000123
 20
-2.7566799999999989
 30
0.0
 70
    32
  0
VERTEX
  5
3B5C
  8
241
 10
231.6810000000000116
 20
-2.7647400000000002
 30
0.0
 70
    32
  0
VERTEX
  5
3B5D
  8
241
 10
231.6630000000000109
 20
-2.77285
 30
0.0
 70
    32
  0
VERTEX
  5
3B5E
  8
241
 10
231.6450000000000102
 20
-2.7810000000000001
 30
0.0
 70
    32
  0
VERTEX
  5
3B5F
  8
241
 10
231.6270000000000095
 20
-2.7892000000000001
 30
0.0
 70
    32
  0
VERTEX
  5
3B60
  8
241
 10
231.6100000000000136
 20
-2.797439999999999
 30
0.0
 70
    32
  0
VERTEX
  5
3B61
  8
241
 10
231.592000000000013
 20
-2.8057199999999991
 30
0.0
 70
    32
  0
VERTEX
  5
3B62
  8
241
 10
231.5740000000000123
 20
-2.8140499999999991
 30
0.0
 70
    32
  0
VERTEX
  5
3B63
  8
241
 10
231.5560000000000116
 20
-2.8224200000000002
 30
0.0
 70
    32
  0
VERTEX
  5
3B64
  8
241
 10
231.5389999999999873
 20
-2.8308399999999998
 30
0.0
 70
    32
  0
VERTEX
  5
3B65
  8
241
 10
231.5209999999999866
 20
-2.8393000000000002
 30
0.0
 70
    32
  0
VERTEX
  5
3B66
  8
241
 10
231.5029999999999859
 20
-2.8478099999999991
 30
0.0
 70
    32
  0
VERTEX
  5
3B67
  8
241
 10
231.4850000000000136
 20
-2.85636
 30
0.0
 70
    32
  0
VERTEX
  5
3B68
  8
241
 10
231.4679999999999893
 20
-2.864949999999999
 30
0.0
 70
    32
  0
VERTEX
  5
3B69
  8
241
 10
231.4499999999999886
 20
-2.8735900000000001
 30
0.0
 70
    32
  0
VERTEX
  5
3B6A
  8
241
 10
231.4329999999999927
 20
-2.8822700000000001
 30
0.0
 70
    32
  0
VERTEX
  5
3B6B
  8
241
 10
231.414999999999992
 20
-2.8909899999999999
 30
0.0
 70
    32
  0
VERTEX
  5
3B6C
  8
241
 10
231.3969999999999914
 20
-2.8997599999999988
 30
0.0
 70
    32
  0
VERTEX
  5
3B6D
  8
241
 10
231.3799999999999955
 20
-2.9085700000000001
 30
0.0
 70
    32
  0
VERTEX
  5
3B6E
  8
241
 10
231.3619999999999948
 20
-2.9174299999999991
 30
0.0
 70
    32
  0
VERTEX
  5
3B6F
  8
241
 10
231.3449999999999989
 20
-2.9263300000000001
 30
0.0
 70
    32
  0
VERTEX
  5
3B70
  8
241
 10
231.3269999999999982
 20
-2.93527
 30
0.0
 70
    32
  0
VERTEX
  5
3B71
  8
241
 10
231.3100000000000023
 20
-2.944259999999999
 30
0.0
 70
    32
  0
VERTEX
  5
3B72
  8
241
 10
231.2930000000000064
 20
-2.9532899999999991
 30
0.0
 70
    32
  0
VERTEX
  5
3B73
  8
241
 10
231.2750000000000057
 20
-2.9623699999999991
 30
0.0
 70
    32
  0
VERTEX
  5
3B74
  8
241
 10
231.2580000000000098
 20
-2.9714800000000001
 30
0.0
 70
    32
  0
VERTEX
  5
3B75
  8
241
 10
231.2400000000000091
 20
-2.9806400000000002
 30
0.0
 70
    32
  0
VERTEX
  5
3B76
  8
241
 10
231.2230000000000132
 20
-2.9898500000000001
 30
0.0
 70
    32
  0
VERTEX
  5
3B77
  8
241
 10
231.2059999999999889
 20
-2.9990899999999998
 30
0.0
 70
    32
  0
VERTEX
  5
3B78
  8
241
 10
231.188999999999993
 20
-3.0083899999999999
 30
0.0
 70
    32
  0
VERTEX
  5
3B79
  8
241
 10
231.1709999999999923
 20
-3.0177200000000002
 30
0.0
 70
    32
  0
VERTEX
  5
3B7A
  8
241
 10
231.1539999999999964
 20
-3.027099999999999
 30
0.0
 70
    32
  0
VERTEX
  5
3B7B
  8
241
 10
231.1370000000000005
 20
-3.036519999999999
 30
0.0
 70
    32
  0
VERTEX
  5
3B7C
  8
241
 10
231.1200000000000045
 20
-3.0459800000000001
 30
0.0
 70
    32
  0
VERTEX
  5
3B7D
  8
241
 10
231.1030000000000086
 20
-3.0554899999999998
 30
0.0
 70
    32
  0
VERTEX
  5
3B7E
  8
241
 10
231.085000000000008
 20
-3.0650400000000002
 30
0.0
 70
    32
  0
VERTEX
  5
3B7F
  8
241
 10
231.0680000000000121
 20
-3.07464
 30
0.0
 70
    32
  0
VERTEX
  5
3B80
  8
241
 10
231.0509999999999877
 20
-3.0842700000000001
 30
0.0
 70
    32
  0
VERTEX
  5
3B81
  8
241
 10
231.0339999999999918
 20
-3.0939499999999991
 30
0.0
 70
    32
  0
VERTEX
  5
3B82
  8
241
 10
231.0169999999999959
 20
-3.1036700000000002
 30
0.0
 70
    32
  0
VERTEX
  5
3B83
  8
241
 10
231.0
 20
-3.1134400000000002
 30
0.0
 70
    32
  0
VERTEX
  5
3B84
  8
241
 10
230.9830000000000041
 20
-3.12324
 30
0.0
 70
    32
  0
VERTEX
  5
3B85
  8
241
 10
230.9660000000000082
 20
-3.1330900000000002
 30
0.0
 70
    32
  0
VERTEX
  5
3B86
  8
241
 10
230.9490000000000123
 20
-3.1429800000000001
 30
0.0
 70
    32
  0
VERTEX
  5
3B87
  8
241
 10
230.9329999999999927
 20
-3.1529199999999991
 30
0.0
 70
    32
  0
VERTEX
  5
3B88
  8
241
 10
230.9159999999999968
 20
-3.1628899999999991
 30
0.0
 70
    32
  0
VERTEX
  5
3B89
  8
241
 10
230.8990000000000009
 20
-3.172909999999999
 30
0.0
 70
    32
  0
VERTEX
  5
3B8A
  8
241
 10
230.882000000000005
 20
-3.1829700000000001
 30
0.0
 70
    32
  0
VERTEX
  5
3B8B
  8
241
 10
230.8650000000000091
 20
-3.1930700000000001
 30
0.0
 70
    32
  0
VERTEX
  5
3B8C
  8
241
 10
230.8480000000000132
 20
-3.203209999999999
 30
0.0
 70
    32
  0
VERTEX
  5
3B8D
  8
241
 10
230.8319999999999936
 20
-3.2134
 30
0.0
 70
    32
  0
VERTEX
  5
3B8E
  8
241
 10
230.8149999999999977
 20
-3.2236299999999991
 30
0.0
 70
    32
  0
VERTEX
  5
3B8F
  8
241
 10
230.7980000000000018
 20
-3.2338900000000002
 30
0.0
 70
    32
  0
VERTEX
  5
3B90
  8
241
 10
230.7820000000000107
 20
-3.2442000000000002
 30
0.0
 70
    32
  0
VERTEX
  5
3B91
  8
241
 10
230.7649999999999864
 20
-3.2545500000000001
 30
0.0
 70
    32
  0
VERTEX
  5
3B92
  8
241
 10
230.7489999999999952
 20
-3.2649499999999989
 30
0.0
 70
    32
  0
VERTEX
  5
3B93
  8
241
 10
230.7319999999999993
 20
-3.2753799999999988
 30
0.0
 70
    32
  0
VERTEX
  5
3B94
  8
241
 10
230.7150000000000034
 20
-3.285849999999999
 30
0.0
 70
    32
  0
VERTEX
  5
3B95
  8
241
 10
230.6990000000000123
 20
-3.2963699999999991
 30
0.0
 70
    32
  0
VERTEX
  5
3B96
  8
241
 10
230.6819999999999879
 20
-3.3069299999999999
 30
0.0
 70
    32
  0
VERTEX
  5
3B97
  8
241
 10
230.6659999999999968
 20
-3.3175199999999991
 30
0.0
 70
    32
  0
VERTEX
  5
3B98
  8
241
 10
230.6500000000000057
 20
-3.32816
 30
0.0
 70
    32
  0
VERTEX
  5
3B99
  8
241
 10
230.6330000000000098
 20
-3.3388399999999998
 30
0.0
 70
    32
  0
VERTEX
  5
3B9A
  8
241
 10
230.6169999999999902
 20
-3.349559999999999
 30
0.0
 70
    32
  0
VERTEX
  5
3B9B
  8
241
 10
230.5999999999999943
 20
-3.3603199999999989
 30
0.0
 70
    32
  0
VERTEX
  5
3B9C
  8
241
 10
230.5840000000000032
 20
-3.371119999999999
 30
0.0
 70
    32
  0
VERTEX
  5
3B9D
  8
241
 10
230.5680000000000121
 20
-3.381959999999999
 30
0.0
 70
    32
  0
VERTEX
  5
3B9E
  8
241
 10
230.5519999999999925
 20
-3.3928400000000001
 30
0.0
 70
    32
  0
VERTEX
  5
3B9F
  8
241
 10
230.5349999999999966
 20
-3.4037599999999988
 30
0.0
 70
    32
  0
VERTEX
  5
3BA0
  8
241
 10
230.5190000000000055
 20
-3.4147199999999991
 30
0.0
 70
    32
  0
VERTEX
  5
3BA1
  8
241
 10
230.5029999999999859
 20
-3.4257199999999992
 30
0.0
 70
    32
  0
VERTEX
  5
3BA2
  8
241
 10
230.4869999999999948
 20
-3.4367499999999991
 30
0.0
 70
    32
  0
VERTEX
  5
3BA3
  8
241
 10
230.4710000000000036
 20
-3.4478300000000002
 30
0.0
 70
    32
  0
VERTEX
  5
3BA4
  8
241
 10
230.4550000000000125
 20
-3.4589500000000002
 30
0.0
 70
    32
  0
VERTEX
  5
3BA5
  8
241
 10
230.438999999999993
 20
-3.47011
 30
0.0
 70
    32
  0
VERTEX
  5
3BA6
  8
241
 10
230.4230000000000018
 20
-3.4813099999999988
 30
0.0
 70
    32
  0
VERTEX
  5
3BA7
  8
241
 10
230.4070000000000107
 20
-3.49255
 30
0.0
 70
    32
  0
VERTEX
  5
3BA8
  8
241
 10
230.3909999999999911
 20
-3.5038199999999988
 30
0.0
 70
    32
  0
VERTEX
  5
3BA9
  8
241
 10
230.375
 20
-3.5151400000000002
 30
0.0
 70
    32
  0
VERTEX
  5
3BAA
  8
241
 10
230.3590000000000089
 20
-3.5264999999999991
 30
0.0
 70
    32
  0
VERTEX
  5
3BAB
  8
241
 10
230.3429999999999893
 20
-3.5378899999999991
 30
0.0
 70
    32
  0
VERTEX
  5
3BAC
  8
241
 10
230.3269999999999982
 20
-3.5493199999999989
 30
0.0
 70
    32
  0
VERTEX
  5
3BAD
  8
241
 10
230.311000000000007
 20
-3.5607899999999999
 30
0.0
 70
    32
  0
VERTEX
  5
3BAE
  8
241
 10
230.2959999999999923
 20
-3.5722999999999989
 30
0.0
 70
    32
  0
VERTEX
  5
3BAF
  8
241
 10
230.2800000000000011
 20
-3.5838499999999991
 30
0.0
 70
    32
  0
VERTEX
  5
3BB0
  8
241
 10
230.26400000000001
 20
-3.5954399999999991
 30
0.0
 70
    32
  0
VERTEX
  5
3BB1
  8
241
 10
230.2489999999999952
 20
-3.6070699999999989
 30
0.0
 70
    32
  0
VERTEX
  5
3BB2
  8
241
 10
230.2330000000000041
 20
-3.6187299999999998
 30
0.0
 70
    32
  0
VERTEX
  5
3BB3
  8
241
 10
230.217000000000013
 20
-3.6304400000000001
 30
0.0
 70
    32
  0
VERTEX
  5
3BB4
  8
241
 10
230.2019999999999982
 20
-3.6421800000000002
 30
0.0
 70
    32
  0
VERTEX
  5
3BB5
  8
241
 10
230.186000000000007
 20
-3.6539599999999992
 30
0.0
 70
    32
  0
VERTEX
  5
3BB6
  8
241
 10
230.1709999999999923
 20
-3.6657699999999989
 30
0.0
 70
    32
  0
VERTEX
  5
3BB7
  8
241
 10
230.1550000000000011
 20
-3.6776300000000002
 30
0.0
 70
    32
  0
VERTEX
  5
3BB8
  8
241
 10
230.1399999999999864
 20
-3.689519999999999
 30
0.0
 70
    32
  0
VERTEX
  5
3BB9
  8
241
 10
230.1239999999999952
 20
-3.701449999999999
 30
0.0
 70
    32
  0
VERTEX
  5
3BBA
  8
241
 10
230.1090000000000089
 20
-3.7134199999999988
 30
0.0
 70
    32
  0
VERTEX
  5
3BBB
  8
241
 10
230.0939999999999941
 20
-3.7254299999999998
 30
0.0
 70
    32
  0
VERTEX
  5
3BBC
  8
241
 10
230.078000000000003
 20
-3.7374699999999992
 30
0.0
 70
    32
  0
VERTEX
  5
3BBD
  8
241
 10
230.0629999999999882
 20
-3.7495500000000002
 30
0.0
 70
    32
  0
VERTEX
  5
3BBE
  8
241
 10
230.0480000000000018
 20
-3.7616699999999992
 30
0.0
 70
    32
  0
VERTEX
  5
3BBF
  8
241
 10
230.032999999999987
 20
-3.7738299999999998
 30
0.0
 70
    32
  0
VERTEX
  5
3BC0
  8
241
 10
230.0169999999999959
 20
-3.7860199999999988
 30
0.0
 70
    32
  0
VERTEX
  5
3BC1
  8
241
 10
230.0020000000000095
 20
-3.798249999999999
 30
0.0
 70
    32
  0
VERTEX
  5
3BC2
  8
241
 10
229.9869999999999948
 20
-3.810519999999999
 30
0.0
 70
    32
  0
VERTEX
  5
3BC3
  8
241
 10
229.9720000000000084
 20
-3.8228199999999992
 30
0.0
 70
    32
  0
VERTEX
  5
3BC4
  8
241
 10
229.9569999999999936
 20
-3.8351599999999988
 30
0.0
 70
    32
  0
VERTEX
  5
3BC5
  8
241
 10
229.9420000000000073
 20
-3.84754
 30
0.0
 70
    32
  0
VERTEX
  5
3BC6
  8
241
 10
229.9269999999999925
 20
-3.8599499999999991
 30
0.0
 70
    32
  0
VERTEX
  5
3BC7
  8
241
 10
229.9120000000000061
 20
-3.872399999999999
 30
0.0
 70
    32
  0
VERTEX
  5
3BC8
  8
241
 10
229.8969999999999914
 20
-3.88489
 30
0.0
 70
    32
  0
VERTEX
  5
3BC9
  8
241
 10
229.882000000000005
 20
-3.8974099999999989
 30
0.0
 70
    32
  0
VERTEX
  5
3BCA
  8
241
 10
229.8669999999999902
 20
-3.9099699999999991
 30
0.0
 70
    32
  0
VERTEX
  5
3BCB
  8
241
 10
229.8530000000000086
 20
-3.922569999999999
 30
0.0
 70
    32
  0
VERTEX
  5
3BCC
  8
241
 10
229.8379999999999939
 20
-3.9352
 30
0.0
 70
    32
  0
VERTEX
  5
3BCD
  8
241
 10
229.8230000000000075
 20
-3.9478599999999999
 30
0.0
 70
    32
  0
VERTEX
  5
3BCE
  8
241
 10
229.8079999999999927
 20
-3.9605699999999988
 30
0.0
 70
    32
  0
VERTEX
  5
3BCF
  8
241
 10
229.7940000000000111
 20
-3.9733099999999988
 30
0.0
 70
    32
  0
VERTEX
  5
3BD0
  8
241
 10
229.7789999999999964
 20
-3.9860799999999998
 30
0.0
 70
    32
  0
VERTEX
  5
3BD1
  8
241
 10
229.7649999999999864
 20
-3.9988899999999998
 30
0.0
 70
    32
  0
VERTEX
  5
3BD2
  8
241
 10
229.75
 20
-4.0117399999999996
 30
0.0
 70
    32
  0
VERTEX
  5
3BD3
  8
241
 10
229.7350000000000136
 20
-4.0246199999999988
 30
0.0
 70
    32
  0
VERTEX
  5
3BD4
  8
241
 10
229.7210000000000036
 20
-4.037539999999999
 30
0.0
 70
    32
  0
VERTEX
  5
3BD5
  8
241
 10
229.7069999999999936
 20
-4.050489999999999
 30
0.0
 70
    32
  0
VERTEX
  5
3BD6
  8
241
 10
229.6920000000000073
 20
-4.0634800000000002
 30
0.0
 70
    32
  0
VERTEX
  5
3BD7
  8
241
 10
229.6779999999999973
 20
-4.0765000000000002
 30
0.0
 70
    32
  0
VERTEX
  5
3BD8
  8
241
 10
229.6630000000000109
 20
-4.0895599999999988
 30
0.0
 70
    32
  0
VERTEX
  5
3BD9
  8
241
 10
229.6490000000000009
 20
-4.1026499999999988
 30
0.0
 70
    32
  0
VERTEX
  5
3BDA
  8
241
 10
229.6349999999999909
 20
-4.1157799999999991
 30
0.0
 70
    32
  0
VERTEX
  5
3BDB
  8
241
 10
229.6210000000000093
 20
-4.1289400000000001
 30
0.0
 70
    32
  0
VERTEX
  5
3BDC
  8
241
 10
229.6059999999999945
 20
-4.1421400000000004
 30
0.0
 70
    32
  0
SEQEND
  5
3BDD
  8
241
  0
ARC
  5
1880
  8
241
  6
CONTINUOUS
 10
234.9999999999940883
 20
-9.9282032302754715
 30
0.0
 40
7.9100707570572943
 50
132.9892922869728125
 51
147.9418188743678115
  0
POLYLINE
  5
3BDE
  8
241
 66
     1
 10
0.0
 20
0.0
 30
0.0
 70
     8
  0
VERTEX
  5
3BDF
  8
241
 10
227.6810000000000116
 20
-12.7256999999999998
 30
0.0
 70
    32
  0
VERTEX
  5
3BE0
  8
241
 10
227.6930000000000121
 20
-12.7571999999999992
 30
0.0
 70
    32
  0
VERTEX
  5
3BE1
  8
241
 10
227.7050000000000125
 20
-12.7886000000000006
 30
0.0
 70
    32
  0
VERTEX
  5
3BE2
  8
241
 10
227.717000000000013
 20
-12.8200000000000003
 30
0.0
 70
    32
  0
VERTEX
  5
3BE3
  8
241
 10
227.7299999999999898
 20
-12.8513000000000002
 30
0.0
 70
    32
  0
VERTEX
  5
3BE4
  8
241
 10
227.7419999999999902
 20
-12.8826000000000001
 30
0.0
 70
    32
  0
VERTEX
  5
3BE5
  8
241
 10
227.7549999999999955
 20
-12.9138000000000002
 30
0.0
 70
    32
  0
VERTEX
  5
3BE6
  8
241
 10
227.7669999999999959
 20
-12.9450000000000003
 30
0.0
 70
    32
  0
VERTEX
  5
3BE7
  8
241
 10
227.7800000000000011
 20
-12.9761000000000006
 30
0.0
 70
    32
  0
VERTEX
  5
3BE8
  8
241
 10
227.7920000000000016
 20
-13.0070999999999994
 30
0.0
 70
    32
  0
VERTEX
  5
3BE9
  8
241
 10
227.8050000000000068
 20
-13.0381
 30
0.0
 70
    32
  0
VERTEX
  5
3BEA
  8
241
 10
227.8180000000000121
 20
-13.0690000000000008
 30
0.0
 70
    32
  0
VERTEX
  5
3BEB
  8
241
 10
227.8309999999999889
 20
-13.0998000000000001
 30
0.0
 70
    32
  0
VERTEX
  5
3BEC
  8
241
 10
227.8439999999999941
 20
-13.1305999999999994
 30
0.0
 70
    32
  0
VERTEX
  5
3BED
  8
241
 10
227.8569999999999993
 20
-13.1613000000000007
 30
0.0
 70
    32
  0
VERTEX
  5
3BEE
  8
241
 10
227.8710000000000093
 20
-13.1920000000000002
 30
0.0
 70
    32
  0
VERTEX
  5
3BEF
  8
241
 10
227.8839999999999861
 20
-13.2225000000000001
 30
0.0
 70
    32
  0
VERTEX
  5
3BF0
  8
241
 10
227.8969999999999914
 20
-13.2530999999999999
 30
0.0
 70
    32
  0
VERTEX
  5
3BF1
  8
241
 10
227.9110000000000014
 20
-13.2835000000000001
 30
0.0
 70
    32
  0
VERTEX
  5
3BF2
  8
241
 10
227.9250000000000114
 20
-13.3139000000000003
 30
0.0
 70
    32
  0
VERTEX
  5
3BF3
  8
241
 10
227.9379999999999882
 20
-13.3443000000000005
 30
0.0
 70
    32
  0
VERTEX
  5
3BF4
  8
241
 10
227.9519999999999982
 20
-13.3744999999999994
 30
0.0
 70
    32
  0
VERTEX
  5
3BF5
  8
241
 10
227.9660000000000082
 20
-13.4047999999999998
 30
0.0
 70
    32
  0
VERTEX
  5
3BF6
  8
241
 10
227.9799999999999898
 20
-13.4349000000000007
 30
0.0
 70
    32
  0
VERTEX
  5
3BF7
  8
241
 10
227.9939999999999998
 20
-13.4649999999999999
 30
0.0
 70
    32
  0
VERTEX
  5
3BF8
  8
241
 10
228.0080000000000098
 20
-13.4949999999999992
 30
0.0
 70
    32
  0
VERTEX
  5
3BF9
  8
241
 10
228.0219999999999914
 20
-13.5249000000000006
 30
0.0
 70
    32
  0
VERTEX
  5
3BFA
  8
241
 10
228.0360000000000014
 20
-13.5548000000000002
 30
0.0
 70
    32
  0
VERTEX
  5
3BFB
  8
241
 10
228.0509999999999877
 20
-13.5846
 30
0.0
 70
    32
  0
VERTEX
  5
3BFC
  8
241
 10
228.0649999999999977
 20
-13.6143999999999998
 30
0.0
 70
    32
  0
VERTEX
  5
3BFD
  8
241
 10
228.0800000000000125
 20
-13.6440000000000001
 30
0.0
 70
    32
  0
VERTEX
  5
3BFE
  8
241
 10
228.0939999999999941
 20
-13.6737000000000002
 30
0.0
 70
    32
  0
VERTEX
  5
3BFF
  8
241
 10
228.1090000000000089
 20
-13.7032000000000007
 30
0.0
 70
    32
  0
VERTEX
  5
3C00
  8
241
 10
228.1239999999999952
 20
-13.7326999999999995
 30
0.0
 70
    32
  0
VERTEX
  5
3C01
  8
241
 10
228.13900000000001
 20
-13.7621000000000002
 30
0.0
 70
    32
  0
VERTEX
  5
3C02
  8
241
 10
228.1529999999999916
 20
-13.7913999999999994
 30
0.0
 70
    32
  0
VERTEX
  5
3C03
  8
241
 10
228.1680000000000064
 20
-13.8207000000000004
 30
0.0
 70
    32
  0
VERTEX
  5
3C04
  8
241
 10
228.1839999999999975
 20
-13.8498999999999999
 30
0.0
 70
    32
  0
VERTEX
  5
3C05
  8
241
 10
228.1990000000000123
 20
-13.8789999999999996
 30
0.0
 70
    32
  0
VERTEX
  5
3C06
  8
241
 10
228.2139999999999986
 20
-13.9080999999999992
 30
0.0
 70
    32
  0
VERTEX
  5
3C07
  8
241
 10
228.2290000000000134
 20
-13.9370999999999992
 30
0.0
 70
    32
  0
VERTEX
  5
3C08
  8
241
 10
228.2450000000000045
 20
-13.9659999999999993
 30
0.0
 70
    32
  0
VERTEX
  5
3C09
  8
241
 10
228.2599999999999909
 20
-13.9948999999999995
 30
0.0
 70
    32
  0
VERTEX
  5
3C0A
  8
241
 10
228.2760000000000105
 20
-14.0236999999999998
 30
0.0
 70
    32
  0
VERTEX
  5
3C0B
  8
241
 10
228.2909999999999968
 20
-14.0524000000000004
 30
0.0
 70
    32
  0
VERTEX
  5
3C0C
  8
241
 10
228.3069999999999879
 20
-14.0809999999999995
 30
0.0
 70
    32
  0
VERTEX
  5
3C0D
  8
241
 10
228.3230000000000075
 20
-14.1096000000000004
 30
0.0
 70
    32
  0
VERTEX
  5
3C0E
  8
241
 10
228.3389999999999986
 20
-14.1380999999999997
 30
0.0
 70
    32
  0
VERTEX
  5
3C0F
  8
241
 10
228.3549999999999898
 20
-14.1664999999999992
 30
0.0
 70
    32
  0
VERTEX
  5
3C10
  8
241
 10
228.3710000000000093
 20
-14.1949000000000005
 30
0.0
 70
    32
  0
VERTEX
  5
3C11
  8
241
 10
228.3870000000000005
 20
-14.2232000000000003
 30
0.0
 70
    32
  0
VERTEX
  5
3C12
  8
241
 10
228.4029999999999916
 20
-14.2514000000000003
 30
0.0
 70
    32
  0
VERTEX
  5
3C13
  8
241
 10
228.4190000000000111
 20
-14.2796000000000003
 30
0.0
 70
    32
  0
VERTEX
  5
3C14
  8
241
 10
228.4350000000000023
 20
-14.3076000000000008
 30
0.0
 70
    32
  0
VERTEX
  5
3C15
  8
241
 10
228.4519999999999982
 20
-14.3355999999999995
 30
0.0
 70
    32
  0
VERTEX
  5
3C16
  8
241
 10
228.4679999999999893
 20
-14.3635000000000002
 30
0.0
 70
    32
  0
VERTEX
  5
3C17
  8
241
 10
228.4850000000000136
 20
-14.3914000000000009
 30
0.0
 70
    32
  0
VERTEX
  5
3C18
  8
241
 10
228.5010000000000048
 20
-14.4192
 30
0.0
 70
    32
  0
VERTEX
  5
3C19
  8
241
 10
228.5180000000000007
 20
-14.4468999999999994
 30
0.0
 70
    32
  0
VERTEX
  5
3C1A
  8
241
 10
228.5349999999999966
 20
-14.4745000000000008
 30
0.0
 70
    32
  0
VERTEX
  5
3C1B
  8
241
 10
228.5519999999999925
 20
-14.5021000000000004
 30
0.0
 70
    32
  0
VERTEX
  5
3C1C
  8
241
 10
228.5689999999999884
 20
-14.5295000000000005
 30
0.0
 70
    32
  0
VERTEX
  5
3C1D
  8
241
 10
228.585000000000008
 20
-14.5569000000000006
 30
0.0
 70
    32
  0
VERTEX
  5
3C1E
  8
241
 10
228.6030000000000086
 20
-14.5843000000000007
 30
0.0
 70
    32
  0
VERTEX
  5
3C1F
  8
241
 10
228.6200000000000045
 20
-14.6114999999999995
 30
0.0
 70
    32
  0
VERTEX
  5
3C20
  8
241
 10
228.6370000000000005
 20
-14.6387
 30
0.0
 70
    32
  0
VERTEX
  5
3C21
  8
241
 10
228.6539999999999964
 20
-14.6658000000000008
 30
0.0
 70
    32
  0
VERTEX
  5
3C22
  8
241
 10
228.6709999999999923
 20
-14.6928000000000001
 30
0.0
 70
    32
  0
VERTEX
  5
3C23
  8
241
 10
228.688999999999993
 20
-14.7197999999999993
 30
0.0
 70
    32
  0
VERTEX
  5
3C24
  8
241
 10
228.7059999999999889
 20
-14.7466000000000008
 30
0.0
 70
    32
  0
VERTEX
  5
3C25
  8
241
 10
228.7239999999999895
 20
-14.7734000000000005
 30
0.0
 70
    32
  0
VERTEX
  5
3C26
  8
241
 10
228.7410000000000139
 20
-14.8001000000000005
 30
0.0
 70
    32
  0
VERTEX
  5
3C27
  8
241
 10
228.7589999999999861
 20
-14.8268000000000004
 30
0.0
 70
    32
  0
VERTEX
  5
3C28
  8
241
 10
228.7769999999999868
 20
-14.8533000000000008
 30
0.0
 70
    32
  0
VERTEX
  5
3C29
  8
241
 10
228.7949999999999875
 20
-14.8797999999999995
 30
0.0
 70
    32
  0
VERTEX
  5
3C2A
  8
241
 10
228.8120000000000118
 20
-14.9062000000000001
 30
0.0
 70
    32
  0
VERTEX
  5
3C2B
  8
241
 10
228.8300000000000125
 20
-14.9326000000000008
 30
0.0
 70
    32
  0
VERTEX
  5
3C2C
  8
241
 10
228.8480000000000132
 20
-14.9588000000000001
 30
0.0
 70
    32
  0
VERTEX
  5
3C2D
  8
241
 10
228.8660000000000139
 20
-14.9849999999999994
 30
0.0
 70
    32
  0
VERTEX
  5
3C2E
  8
241
 10
228.8849999999999909
 20
-15.0111000000000008
 30
0.0
 70
    32
  0
VERTEX
  5
3C2F
  8
241
 10
228.9029999999999916
 20
-15.0371000000000006
 30
0.0
 70
    32
  0
VERTEX
  5
3C30
  8
241
 10
228.9209999999999923
 20
-15.0630000000000006
 30
0.0
 70
    32
  0
VERTEX
  5
3C31
  8
241
 10
228.938999999999993
 20
-15.0888000000000009
 30
0.0
 70
    32
  0
VERTEX
  5
3C32
  8
241
 10
228.9579999999999984
 20
-15.1145999999999994
 30
0.0
 70
    32
  0
VERTEX
  5
3C33
  8
241
 10
228.9759999999999991
 20
-15.1402999999999999
 30
0.0
 70
    32
  0
VERTEX
  5
3C34
  8
241
 10
228.9950000000000045
 20
-15.1659000000000006
 30
0.0
 70
    32
  0
VERTEX
  5
3C35
  8
241
 10
229.0130000000000052
 20
-15.1913999999999998
 30
0.0
 70
    32
  0
VERTEX
  5
3C36
  8
241
 10
229.0320000000000107
 20
-15.2167999999999992
 30
0.0
 70
    32
  0
VERTEX
  5
3C37
  8
241
 10
229.0509999999999877
 20
-15.2422000000000004
 30
0.0
 70
    32
  0
VERTEX
  5
3C38
  8
241
 10
229.0689999999999884
 20
-15.2675000000000001
 30
0.0
 70
    32
  0
VERTEX
  5
3C39
  8
241
 10
229.0879999999999939
 20
-15.2927
 30
0.0
 70
    32
  0
VERTEX
  5
3C3A
  8
241
 10
229.1069999999999993
 20
-15.3178000000000001
 30
0.0
 70
    32
  0
VERTEX
  5
3C3B
  8
241
 10
229.1260000000000048
 20
-15.3428000000000004
 30
0.0
 70
    32
  0
VERTEX
  5
3C3C
  8
241
 10
229.1450000000000102
 20
-15.3678000000000008
 30
0.0
 70
    32
  0
VERTEX
  5
3C3D
  8
241
 10
229.1639999999999873
 20
-15.3925999999999998
 30
0.0
 70
    32
  0
VERTEX
  5
3C3E
  8
241
 10
229.1829999999999927
 20
-15.4174000000000007
 30
0.0
 70
    32
  0
VERTEX
  5
3C3F
  8
241
 10
229.203000000000003
 20
-15.4420999999999999
 30
0.0
 70
    32
  0
VERTEX
  5
3C40
  8
241
 10
229.2220000000000084
 20
-15.4666999999999994
 30
0.0
 70
    32
  0
VERTEX
  5
3C41
  8
241
 10
229.2410000000000139
 20
-15.4911999999999992
 30
0.0
 70
    32
  0
VERTEX
  5
3C42
  8
241
 10
229.2609999999999957
 20
-15.5157000000000007
 30
0.0
 70
    32
  0
VERTEX
  5
3C43
  8
241
 10
229.2800000000000011
 20
-15.5399999999999991
 30
0.0
 70
    32
  0
VERTEX
  5
3C44
  8
241
 10
229.2990000000000066
 20
-15.5641999999999996
 30
0.0
 70
    32
  0
VERTEX
  5
3C45
  8
241
 10
229.3189999999999884
 20
-15.5884
 30
0.0
 70
    32
  0
VERTEX
  5
3C46
  8
241
 10
229.3389999999999986
 20
-15.6123999999999992
 30
0.0
 70
    32
  0
VERTEX
  5
3C47
  8
241
 10
229.3580000000000041
 20
-15.6364000000000001
 30
0.0
 70
    32
  0
VERTEX
  5
3C48
  8
241
 10
229.3779999999999859
 20
-15.6602999999999994
 30
0.0
 70
    32
  0
VERTEX
  5
3C49
  8
241
 10
229.3979999999999961
 20
-15.6839999999999993
 30
0.0
 70
    32
  0
VERTEX
  5
3C4A
  8
241
 10
229.4170000000000016
 20
-15.7077000000000009
 30
0.0
 70
    32
  0
VERTEX
  5
3C4B
  8
241
 10
229.4370000000000118
 20
-15.7312999999999992
 30
0.0
 70
    32
  0
VERTEX
  5
3C4C
  8
241
 10
229.4569999999999936
 20
-15.7547999999999995
 30
0.0
 70
    32
  0
VERTEX
  5
3C4D
  8
241
 10
229.4770000000000039
 20
-15.7781000000000002
 30
0.0
 70
    32
  0
VERTEX
  5
3C4E
  8
241
 10
229.4970000000000141
 20
-15.8013999999999992
 30
0.0
 70
    32
  0
VERTEX
  5
3C4F
  8
241
 10
229.5169999999999959
 20
-15.8246000000000002
 30
0.0
 70
    32
  0
VERTEX
  5
3C50
  8
241
 10
229.5370000000000061
 20
-15.8476999999999997
 30
0.0
 70
    32
  0
VERTEX
  5
3C51
  8
241
 10
229.5569999999999879
 20
-15.8706999999999994
 30
0.0
 70
    32
  0
VERTEX
  5
3C52
  8
241
 10
229.578000000000003
 20
-15.8935999999999993
 30
0.0
 70
    32
  0
VERTEX
  5
3C53
  8
241
 10
229.5980000000000132
 20
-15.9163999999999994
 30
0.0
 70
    32
  0
VERTEX
  5
3C54
  8
241
 10
229.617999999999995
 20
-15.9391999999999996
 30
0.0
 70
    32
  0
VERTEX
  5
3C55
  8
241
 10
229.6380000000000052
 20
-15.9618000000000002
 30
0.0
 70
    32
  0
VERTEX
  5
3C56
  8
241
 10
229.6589999999999918
 20
-15.9842999999999993
 30
0.0
 70
    32
  0
VERTEX
  5
3C57
  8
241
 10
229.679000000000002
 20
-16.0066999999999986
 30
0.0
 70
    32
  0
VERTEX
  5
3C58
  8
241
 10
229.6999999999999886
 20
-16.0289999999999999
 30
0.0
 70
    32
  0
VERTEX
  5
3C59
  8
241
 10
229.7199999999999989
 20
-16.0513000000000012
 30
0.0
 70
    32
  0
VERTEX
  5
3C5A
  8
241
 10
229.7410000000000139
 20
-16.0733999999999995
 30
0.0
 70
    32
  0
VERTEX
  5
3C5B
  8
241
 10
229.7609999999999957
 20
-16.0954000000000015
 30
0.0
 70
    32
  0
VERTEX
  5
3C5C
  8
241
 10
229.7820000000000107
 20
-16.1173999999999999
 30
0.0
 70
    32
  0
VERTEX
  5
3C5D
  8
241
 10
229.8019999999999925
 20
-16.1391999999999989
 30
0.0
 70
    32
  0
VERTEX
  5
3C5E
  8
241
 10
229.8230000000000075
 20
-16.1610000000000014
 30
0.0
 70
    32
  0
VERTEX
  5
3C5F
  8
241
 10
229.8439999999999941
 20
-16.1826000000000008
 30
0.0
 70
    32
  0
VERTEX
  5
3C60
  8
241
 10
229.8650000000000091
 20
-16.2041000000000004
 30
0.0
 70
    32
  0
VERTEX
  5
3C61
  8
241
 10
229.8859999999999957
 20
-16.2256
 30
0.0
 70
    32
  0
VERTEX
  5
3C62
  8
241
 10
229.9060000000000059
 20
-16.2469000000000001
 30
0.0
 70
    32
  0
VERTEX
  5
3C63
  8
241
 10
229.9269999999999925
 20
-16.2682000000000002
 30
0.0
 70
    32
  0
VERTEX
  5
3C64
  8
241
 10
229.9480000000000075
 20
-16.2893000000000008
 30
0.0
 70
    32
  0
VERTEX
  5
3C65
  8
241
 10
229.9689999999999941
 20
-16.3104000000000013
 30
0.0
 70
    32
  0
VERTEX
  5
3C66
  8
241
 10
229.9900000000000091
 20
-16.3312999999999988
 30
0.0
 70
    32
  0
VERTEX
  5
3C67
  8
241
 10
230.0109999999999957
 20
-16.3521999999999998
 30
0.0
 70
    32
  0
VERTEX
  5
3C68
  8
241
 10
230.032999999999987
 20
-16.3729000000000013
 30
0.0
 70
    32
  0
VERTEX
  5
3C69
  8
241
 10
230.054000000000002
 20
-16.3935999999999993
 30
0.0
 70
    32
  0
VERTEX
  5
3C6A
  8
241
 10
230.0749999999999886
 20
-16.414200000000001
 30
0.0
 70
    32
  0
VERTEX
  5
3C6B
  8
241
 10
230.0960000000000036
 20
-16.4345999999999997
 30
0.0
 70
    32
  0
VERTEX
  5
3C6C
  8
241
 10
230.1169999999999902
 20
-16.4549999999999983
 30
0.0
 70
    32
  0
VERTEX
  5
3C6D
  8
241
 10
230.13900000000001
 20
-16.475200000000001
 30
0.0
 70
    32
  0
VERTEX
  5
3C6E
  8
241
 10
230.1599999999999966
 20
-16.4954000000000001
 30
0.0
 70
    32
  0
VERTEX
  5
3C6F
  8
241
 10
230.1810000000000116
 20
-16.5153999999999996
 30
0.0
 70
    32
  0
VERTEX
  5
3C70
  8
241
 10
230.203000000000003
 20
-16.5353999999999992
 30
0.0
 70
    32
  0
VERTEX
  5
3C71
  8
241
 10
230.2239999999999895
 20
-16.5551999999999992
 30
0.0
 70
    32
  0
VERTEX
  5
3C72
  8
241
 10
230.2460000000000093
 20
-16.5749999999999993
 30
0.0
 70
    32
  0
VERTEX
  5
3C73
  8
241
 10
230.2669999999999959
 20
-16.5945999999999998
 30
0.0
 70
    32
  0
VERTEX
  5
3C74
  8
241
 10
230.2889999999999873
 20
-16.6142000000000003
 30
0.0
 70
    32
  0
VERTEX
  5
3C75
  8
241
 10
230.311000000000007
 20
-16.633700000000001
 30
0.0
 70
    32
  0
VERTEX
  5
3C76
  8
241
 10
230.3319999999999936
 20
-16.6529999999999987
 30
0.0
 70
    32
  0
VERTEX
  5
3C77
  8
241
 10
230.3540000000000134
 20
-16.6722999999999999
 30
0.0
 70
    32
  0
VERTEX
  5
3C78
  8
241
 10
230.3760000000000048
 20
-16.6914000000000016
 30
0.0
 70
    32
  0
VERTEX
  5
3C79
  8
241
 10
230.3969999999999914
 20
-16.7103999999999999
 30
0.0
 70
    32
  0
VERTEX
  5
3C7A
  8
241
 10
230.4190000000000111
 20
-16.7293999999999983
 30
0.0
 70
    32
  0
VERTEX
  5
3C7B
  8
241
 10
230.4410000000000025
 20
-16.7482000000000006
 30
0.0
 70
    32
  0
VERTEX
  5
3C7C
  8
241
 10
230.4629999999999939
 20
-16.7669999999999995
 30
0.0
 70
    32
  0
VERTEX
  5
3C7D
  8
241
 10
230.4850000000000136
 20
-16.7855999999999987
 30
0.0
 70
    32
  0
VERTEX
  5
3C7E
  8
241
 10
230.507000000000005
 20
-16.8042000000000016
 30
0.0
 70
    32
  0
VERTEX
  5
3C7F
  8
241
 10
230.5289999999999964
 20
-16.8226000000000013
 30
0.0
 70
    32
  0
VERTEX
  5
3C80
  8
241
 10
230.5500000000000114
 20
-16.8409000000000013
 30
0.0
 70
    32
  0
VERTEX
  5
3C81
  8
241
 10
230.5720000000000027
 20
-16.8591000000000015
 30
0.0
 70
    32
  0
VERTEX
  5
3C82
  8
241
 10
230.5949999999999989
 20
-16.8773000000000017
 30
0.0
 70
    32
  0
VERTEX
  5
3C83
  8
241
 10
230.6169999999999902
 20
-16.8952999999999989
 30
0.0
 70
    32
  0
VERTEX
  5
3C84
  8
241
 10
230.63900000000001
 20
-16.9131999999999998
 30
0.0
 70
    32
  0
VERTEX
  5
3C85
  8
241
 10
230.6610000000000014
 20
-16.9310000000000009
 30
0.0
 70
    32
  0
VERTEX
  5
3C86
  8
241
 10
230.6829999999999927
 20
-16.9486999999999988
 30
0.0
 70
    32
  0
VERTEX
  5
3C87
  8
241
 10
230.7050000000000125
 20
-16.9664000000000001
 30
0.0
 70
    32
  0
VERTEX
  5
3C88
  8
241
 10
230.7270000000000039
 20
-16.9838999999999984
 30
0.0
 70
    32
  0
VERTEX
  5
3C89
  8
241
 10
230.75
 20
-17.0013000000000005
 30
0.0
 70
    32
  0
VERTEX
  5
3C8A
  8
241
 10
230.7719999999999914
 20
-17.0185999999999993
 30
0.0
 70
    32
  0
VERTEX
  5
3C8B
  8
241
 10
230.7940000000000111
 20
-17.0357999999999983
 30
0.0
 70
    32
  0
VERTEX
  5
3C8C
  8
241
 10
230.8160000000000025
 20
-17.0529000000000011
 30
0.0
 70
    32
  0
VERTEX
  5
3C8D
  8
241
 10
230.8389999999999986
 20
-17.0698000000000008
 30
0.0
 70
    32
  0
VERTEX
  5
3C8E
  8
241
 10
230.86099999999999
 20
-17.0867000000000004
 30
0.0
 70
    32
  0
VERTEX
  5
3C8F
  8
241
 10
230.8839999999999861
 20
-17.1035000000000004
 30
0.0
 70
    32
  0
VERTEX
  5
3C90
  8
241
 10
230.9060000000000059
 20
-17.1202000000000005
 30
0.0
 70
    32
  0
VERTEX
  5
3C91
  8
241
 10
230.9279999999999973
 20
-17.1367000000000012
 30
0.0
 70
    32
  0
VERTEX
  5
3C92
  8
241
 10
230.9509999999999934
 20
-17.1531999999999982
 30
0.0
 70
    32
  0
VERTEX
  5
3C93
  8
241
 10
230.9730000000000132
 20
-17.1695999999999991
 30
0.0
 70
    32
  0
VERTEX
  5
3C94
  8
241
 10
230.9960000000000093
 20
-17.1858000000000004
 30
0.0
 70
    32
  0
VERTEX
  5
3C95
  8
241
 10
231.0190000000000055
 20
-17.2020000000000017
 30
0.0
 70
    32
  0
VERTEX
  5
3C96
  8
241
 10
231.0409999999999968
 20
-17.218
 30
0.0
 70
    32
  0
VERTEX
  5
3C97
  8
241
 10
231.063999999999993
 20
-17.2338999999999984
 30
0.0
 70
    32
  0
VERTEX
  5
3C98
  8
241
 10
231.0860000000000127
 20
-17.2498000000000005
 30
0.0
 70
    32
  0
VERTEX
  5
3C99
  8
241
 10
231.1090000000000089
 20
-17.2654999999999994
 30
0.0
 70
    32
  0
VERTEX
  5
3C9A
  8
241
 10
231.132000000000005
 20
-17.2810999999999986
 30
0.0
 70
    32
  0
VERTEX
  5
3C9B
  8
241
 10
231.1539999999999964
 20
-17.2966000000000015
 30
0.0
 70
    32
  0
VERTEX
  5
3C9C
  8
241
 10
231.1769999999999925
 20
-17.3120000000000012
 30
0.0
 70
    32
  0
VERTEX
  5
3C9D
  8
241
 10
231.1999999999999886
 20
-17.327300000000001
 30
0.0
 70
    32
  0
VERTEX
  5
3C9E
  8
241
 10
231.2230000000000132
 20
-17.3425000000000011
 30
0.0
 70
    32
  0
VERTEX
  5
3C9F
  8
241
 10
231.2450000000000045
 20
-17.3576000000000015
 30
0.0
 70
    32
  0
VERTEX
  5
3CA0
  8
241
 10
231.2680000000000007
 20
-17.3725999999999985
 30
0.0
 70
    32
  0
VERTEX
  5
3CA1
  8
241
 10
231.2909999999999968
 20
-17.3874999999999993
 30
0.0
 70
    32
  0
VERTEX
  5
3CA2
  8
241
 10
231.313999999999993
 20
-17.4022000000000006
 30
0.0
 70
    32
  0
VERTEX
  5
3CA3
  8
241
 10
231.3369999999999891
 20
-17.4168999999999983
 30
0.0
 70
    32
  0
VERTEX
  5
3CA4
  8
241
 10
231.3590000000000089
 20
-17.4314999999999998
 30
0.0
 70
    32
  0
VERTEX
  5
3CA5
  8
241
 10
231.382000000000005
 20
-17.4459000000000017
 30
0.0
 70
    32
  0
VERTEX
  5
3CA6
  8
241
 10
231.4050000000000011
 20
-17.4602000000000004
 30
0.0
 70
    32
  0
VERTEX
  5
3CA7
  8
241
 10
231.4279999999999973
 20
-17.474499999999999
 30
0.0
 70
    32
  0
VERTEX
  5
3CA8
  8
241
 10
231.4509999999999934
 20
-17.4886000000000017
 30
0.0
 70
    32
  0
VERTEX
  5
3CA9
  8
241
 10
231.4739999999999895
 20
-17.502600000000001
 30
0.0
 70
    32
  0
VERTEX
  5
3CAA
  8
241
 10
231.4970000000000141
 20
-17.5165000000000006
 30
0.0
 70
    32
  0
VERTEX
  5
3CAB
  8
241
 10
231.5200000000000102
 20
-17.5303000000000004
 30
0.0
 70
    32
  0
VERTEX
  5
3CAC
  8
241
 10
231.5430000000000064
 20
-17.5440000000000005
 30
0.0
 70
    32
  0
VERTEX
  5
3CAD
  8
241
 10
231.5660000000000025
 20
-17.5576000000000008
 30
0.0
 70
    32
  0
VERTEX
  5
3CAE
  8
241
 10
231.5889999999999986
 20
-17.5710000000000015
 30
0.0
 70
    32
  0
VERTEX
  5
3CAF
  8
241
 10
231.6119999999999948
 20
-17.5843999999999987
 30
0.0
 70
    32
  0
VERTEX
  5
3CB0
  8
241
 10
231.6349999999999909
 20
-17.5976999999999997
 30
0.0
 70
    32
  0
VERTEX
  5
3CB1
  8
241
 10
231.657999999999987
 20
-17.6108000000000011
 30
0.0
 70
    32
  0
VERTEX
  5
3CB2
  8
241
 10
231.6819999999999879
 20
-17.6237999999999992
 30
0.0
 70
    32
  0
VERTEX
  5
3CB3
  8
241
 10
231.7050000000000125
 20
-17.6368000000000009
 30
0.0
 70
    32
  0
VERTEX
  5
3CB4
  8
241
 10
231.7280000000000086
 20
-17.6495999999999995
 30
0.0
 70
    32
  0
VERTEX
  5
3CB5
  8
241
 10
231.7510000000000048
 20
-17.6622999999999983
 30
0.0
 70
    32
  0
VERTEX
  5
3CB6
  8
241
 10
231.7740000000000009
 20
-17.6748000000000012
 30
0.0
 70
    32
  0
VERTEX
  5
3CB7
  8
241
 10
231.796999999999997
 20
-17.6873000000000005
 30
0.0
 70
    32
  0
VERTEX
  5
3CB8
  8
241
 10
231.8199999999999932
 20
-17.6996000000000002
 30
0.0
 70
    32
  0
VERTEX
  5
3CB9
  8
241
 10
231.8429999999999893
 20
-17.7118000000000002
 30
0.0
 70
    32
  0
VERTEX
  5
3CBA
  8
241
 10
231.8660000000000139
 20
-17.7240000000000002
 30
0.0
 70
    32
  0
VERTEX
  5
3CBB
  8
241
 10
231.8899999999999864
 20
-17.7359000000000009
 30
0.0
 70
    32
  0
VERTEX
  5
3CBC
  8
241
 10
231.9130000000000109
 20
-17.7478000000000016
 30
0.0
 70
    32
  0
VERTEX
  5
3CBD
  8
241
 10
231.936000000000007
 20
-17.7595999999999989
 30
0.0
 70
    32
  0
VERTEX
  5
3CBE
  8
241
 10
231.9590000000000032
 20
-17.7712000000000003
 30
0.0
 70
    32
  0
VERTEX
  5
3CBF
  8
241
 10
231.9819999999999993
 20
-17.7828000000000017
 30
0.0
 70
    32
  0
VERTEX
  5
3CC0
  8
241
 10
232.0049999999999955
 20
-17.7942
 30
0.0
 70
    32
  0
VERTEX
  5
3CC1
  8
241
 10
232.0279999999999916
 20
-17.8054999999999986
 30
0.0
 70
    32
  0
VERTEX
  5
3CC2
  8
241
 10
232.0509999999999877
 20
-17.8166000000000011
 30
0.0
 70
    32
  0
VERTEX
  5
3CC3
  8
241
 10
232.0740000000000123
 20
-17.8277000000000001
 30
0.0
 70
    32
  0
VERTEX
  5
3CC4
  8
241
 10
232.0970000000000084
 20
-17.8386999999999993
 30
0.0
 70
    32
  0
VERTEX
  5
3CC5
  8
241
 10
232.1200000000000045
 20
-17.849499999999999
 30
0.0
 70
    32
  0
VERTEX
  5
3CC6
  8
241
 10
232.1430000000000007
 20
-17.860199999999999
 30
0.0
 70
    32
  0
VERTEX
  5
3CC7
  8
241
 10
232.1670000000000016
 20
-17.8707999999999991
 30
0.0
 70
    32
  0
VERTEX
  5
3CC8
  8
241
 10
232.1899999999999977
 20
-17.8812999999999995
 30
0.0
 70
    32
  0
VERTEX
  5
3CC9
  8
241
 10
232.2129999999999939
 20
-17.8917000000000002
 30
0.0
 70
    32
  0
VERTEX
  5
3CCA
  8
241
 10
232.23599999999999
 20
-17.902000000000001
 30
0.0
 70
    32
  0
VERTEX
  5
3CCB
  8
241
 10
232.2589999999999861
 20
-17.9120999999999988
 30
0.0
 70
    32
  0
VERTEX
  5
3CCC
  8
241
 10
232.2820000000000107
 20
-17.9222000000000001
 30
0.0
 70
    32
  0
VERTEX
  5
3CCD
  8
241
 10
232.3050000000000068
 20
-17.9320999999999984
 30
0.0
 70
    32
  0
VERTEX
  5
3CCE
  8
241
 10
232.328000000000003
 20
-17.9419000000000004
 30
0.0
 70
    32
  0
VERTEX
  5
3CCF
  8
241
 10
232.3509999999999991
 20
-17.9515999999999991
 30
0.0
 70
    32
  0
VERTEX
  5
3CD0
  8
241
 10
232.3739999999999952
 20
-17.9610999999999983
 30
0.0
 70
    32
  0
VERTEX
  5
3CD1
  8
241
 10
232.3969999999999914
 20
-17.970600000000001
 30
0.0
 70
    32
  0
VERTEX
  5
3CD2
  8
241
 10
232.4199999999999875
 20
-17.9800000000000004
 30
0.0
 70
    32
  0
VERTEX
  5
3CD3
  8
241
 10
232.4430000000000121
 20
-17.9892000000000003
 30
0.0
 70
    32
  0
VERTEX
  5
3CD4
  8
241
 10
232.4660000000000082
 20
-17.9983000000000004
 30
0.0
 70
    32
  0
VERTEX
  5
3CD5
  8
241
 10
232.4890000000000043
 20
-18.0073000000000008
 30
0.0
 70
    32
  0
VERTEX
  5
3CD6
  8
241
 10
232.5109999999999957
 20
-18.0162000000000013
 30
0.0
 70
    32
  0
VERTEX
  5
3CD7
  8
241
 10
232.5339999999999918
 20
-18.0249999999999986
 30
0.0
 70
    32
  0
VERTEX
  5
3CD8
  8
241
 10
232.5569999999999879
 20
-18.0336999999999996
 30
0.0
 70
    32
  0
VERTEX
  5
3CD9
  8
241
 10
232.5800000000000125
 20
-18.0422000000000011
 30
0.0
 70
    32
  0
VERTEX
  5
3CDA
  8
241
 10
232.6030000000000086
 20
-18.0506999999999991
 30
0.0
 70
    32
  0
VERTEX
  5
3CDB
  8
241
 10
232.6260000000000048
 20
-18.0590000000000011
 30
0.0
 70
    32
  0
VERTEX
  5
3CDC
  8
241
 10
232.6490000000000009
 20
-18.0671999999999997
 30
0.0
 70
    32
  0
VERTEX
  5
3CDD
  8
241
 10
232.671999999999997
 20
-18.0752999999999986
 30
0.0
 70
    32
  0
VERTEX
  5
3CDE
  8
241
 10
232.6939999999999884
 20
-18.0833000000000013
 30
0.0
 70
    32
  0
SEQEND
  5
3CDF
  8
241
  0
LINE
  5
188A
  8
245
  6
CENTER2
 10
251.999999999994202
 20
-4.25
 30
0.0
 11
251.999999999994003
 21
51.2441563500615302
 31
0.0
  0
ARC
  5
188B
  8
240
  6
CONTINUOUS
 10
278.0708170182617778
 20
8.75
 30
0.0
 40
20.0
 50
18.5530045350240016
 51
90.0
  0
LINE
  5
188C
  8
240
  6
CONTINUOUS
 10
278.0708170182617778
 20
28.7500000000001208
 30
0.0
 11
265.472193585296111
 21
28.7500000000001208
 31
0.0
  0
LINE
  5
188D
  8
240
  6
CONTINUOUS
 10
265.4721935853009995
 20
28.7500000000003411
 30
0.0
 11
251.999999999994202
 21
28.75
 31
0.0
  0
LINE
  5
188F
  8
241
  6
CONTINUOUS
 10
277.3999999999941792
 20
-7.6000000000001391
 30
0.0
 11
251.999999999994003
 21
-7.5999999999997954
 31
0.0
  0
ARC
  5
18A4
  8
240
  6
CONTINUOUS
 10
251.999999999994202
 20
-4.25
 30
0.0
 40
28.75
 50
221.9743579732393073
 51
270.0000176000957026
  0
LINE
  5
18A5
  8
240
  6
CONTINUOUS
 10
251.9999999999886029
 20
-32.9999999999885176
 30
0.0
 11
279.0601182554573256
 21
-33.0
 31
0.0
  0
ARC
  5
18A7
  8
240
  6
CONTINUOUS
 10
279.0601182554638058
 20
-18.0
 30
0.0
 40
15.0
 50
269.9999999999772058
 51
326.3687225520678794
  0
LINE
  5
1BDC
  8
245
  6
CENTER2
 10
-69.25
 20
0.0
 30
0.0
 11
126.9999999999988063
 21
0.0
 31
0.0
  0
LINE
  5
1BDD
  8
240
  6
CONTINUOUS
 10
19.0500000000000007
 20
28.5000000000000284
 30
0.0
 11
19.0500000000000007
 21
31.75
 31
0.0
  0
LINE
  5
1BDE
  8
240
  6
CONTINUOUS
 10
13.0399999999999903
 20
28.9559131899999898
 30
0.0
 11
14.6531667700000003
 21
31.75
 31
0.0
  0
LINE
  5
1BDF
  8
241
  6
CONTINUOUS
 10
14.6461667700000007
 20
31.75
 30
0.0
 11
14.6461667700000007
 21
8.0000000000000693
 31
0.0
  0
LINE
  5
1BE0
  8
240
  6
CONTINUOUS
 10
9.2000000000000028
 20
28.980161909999989
 30
0.0
 11
7.6008332300000063
 21
31.75
 31
0.0
  0
LINE
  5
1BE1
  8
240
  6
CONTINUOUS
 10
1.0
 20
22.2250000000000085
 30
0.0
 11
1.0
 21
31.75
 31
0.0
  0
LINE
  5
1BE2
  8
241
  6
CONTINUOUS
 10
7.5938332300000013
 20
31.75
 30
0.0
 11
7.5938332300000013
 21
8.0000000000000409
 31
0.0
  0
LINE
  5
1BE3
  8
240
  6
CONTINUOUS
 10
0.0
 20
22.2250000000000085
 30
0.0
 11
-68.25
 21
12.2718750014768698
 31
0.0
  0
LINE
  5
1BE4
  8
240
  6
CONTINUOUS
 10
0.0
 20
-22.2250000000000085
 30
0.0
 11
-68.25
 21
-12.2718750014768698
 31
0.0
  0
LINE
  5
1BE5
  8
240
  6
CONTINUOUS
 10
-68.25
 20
-12.2718750014768094
 30
0.0
 11
-68.25
 21
12.2718750014768698
 31
0.0
  0
LINE
  5
1BE6
  8
241
  6
CONTINUOUS
 10
1.0
 20
-22.2250000000000085
 30
0.0
 11
1.0
 21
22.2250000000000085
 31
0.0
  0
LINE
  5
1BE7
  8
241
  6
CONTINUOUS
 10
0.0
 20
-22.2250000000000085
 30
0.0
 11
0.0
 21
22.2250000000000085
 31
0.0
  0
LINE
  5
1BE8
  8
241
  6
CONTINUOUS
 10
14.6461667700000007
 20
-31.75
 30
0.0
 11
14.6461667700000007
 21
-7.9999999999818519
 31
0.0
  0
LINE
  5
1BE9
  8
241
  6
CONTINUOUS
 10
7.5938332300000013
 20
-31.75
 30
0.0
 11
7.5938332300000013
 21
-7.999999999993487
 31
0.0
  0
LINE
  5
1BEA
  8
241
  6
CONTINUOUS
 10
9.2000000000000028
 20
-7.9999999999908384
 30
0.0
 11
9.2000000000000028
 21
-28.1800000000000104
 31
0.0
  0
LINE
  5
1BEB
  8
241
  6
CONTINUOUS
 10
13.0399999999999903
 20
-7.9999999999845022
 30
0.0
 11
13.0399999999999903
 21
-28.1800000000000104
 31
0.0
  0
LINE
  5
1BEC
  8
240
  6
CONTINUOUS
 10
1.0
 20
-31.75
 30
0.0
 11
7.5938332300000013
 21
-31.75
 31
0.0
  0
LINE
  5
1BED
  8
240
  6
CONTINUOUS
 10
1.0
 20
-22.2250000000000085
 30
0.0
 11
1.0
 21
-31.75
 31
0.0
  0
LINE
  5
1BEE
  8
240
  6
CONTINUOUS
 10
0.0
 20
-22.2250000000000085
 30
0.0
 11
1.0
 21
-22.2250000000000085
 31
0.0
  0
LINE
  5
1BEF
  8
240
  6
CONTINUOUS
 10
9.2000000000000028
 20
-28.1800000000000104
 30
0.0
 11
13.0399999999999903
 21
-28.1800000000000104
 31
0.0
  0
LINE
  5
1BF0
  8
240
  6
CONTINUOUS
 10
7.5938332300000013
 20
-31.75
 30
0.0
 11
9.2000000000000028
 21
-28.9680375499999982
 31
0.0
  0
LINE
  5
1BF1
  8
240
  6
CONTINUOUS
 10
9.2000000000000028
 20
-28.9680375499999982
 30
0.0
 11
9.2000000000000028
 21
-28.1800000000000104
 31
0.0
  0
LINE
  5
1BF2
  8
240
  6
CONTINUOUS
 10
19.0500000000000007
 20
-28.4999999999999609
 30
0.0
 11
19.0500000000000007
 21
-31.75
 31
0.0
  0
LINE
  5
1BF3
  8
240
  6
CONTINUOUS
 10
14.6461667700000007
 20
-31.75
 30
0.0
 11
19.0500000000000007
 21
-31.75
 31
0.0
  0
LINE
  5
1BF4
  8
240
  6
CONTINUOUS
 10
13.0399999999999903
 20
-28.9680375499999982
 30
0.0
 11
13.0399999999999903
 21
-28.1800000000000104
 31
0.0
  0
LINE
  5
1BF5
  8
240
  6
CONTINUOUS
 10
14.6461667700000007
 20
-31.75
 30
0.0
 11
13.0399999999999903
 21
-28.9680375499999982
 31
0.0
  0
LINE
  5
1BF6
  8
240
  6
CONTINUOUS
 10
0.0
 20
22.2250000000000085
 30
0.0
 11
1.0
 21
22.2250000000000085
 31
0.0
  0
LINE
  5
1BF7
  8
241
  6
CONTINUOUS
 10
13.0399999999999903
 20
8.0000000000000622
 30
0.0
 11
13.0399999999999903
 21
28.1800000000000104
 31
0.0
  0
LINE
  5
1BF8
  8
241
  6
CONTINUOUS
 10
9.2000000000000028
 20
8.0000000000000462
 30
0.0
 11
9.2000000000000028
 21
28.1800000000000104
 31
0.0
  0
LINE
  5
1BF9
  8
240
  6
CONTINUOUS
 10
9.2000000000000028
 20
28.1800000000000104
 30
0.0
 11
13.0399999999999903
 21
28.1800000000000104
 31
0.0
  0
LINE
  5
1BFA
  8
240
  6
CONTINUOUS
 10
9.2000000000000028
 20
28.9680375499999982
 30
0.0
 11
9.2000000000000028
 21
28.1800000000000104
 31
0.0
  0
LINE
  5
1BFB
  8
240
  6
CONTINUOUS
 10
13.0399999999999903
 20
28.9680375499999982
 30
0.0
 11
13.0399999999999903
 21
28.1800000000000104
 31
0.0
  0
LINE
  5
1BFC
  8
240
  6
CONTINUOUS
 10
1.0
 20
31.75
 30
0.0
 11
7.6008332300000063
 21
31.75
 31
0.0
  0
LINE
  5
1BFD
  8
240
  6
CONTINUOUS
 10
14.6531667700000003
 20
31.75
 30
0.0
 11
19.0500000000000007
 21
31.75
 31
0.0
  0
LINE
  5
1BFE
  8
247
  6
CONTINUOUS
 10
5.4999999999999432
 20
-18.75
 30
0.0
 11
5.5
 21
-14.1153846156700506
 31
0.0
  0
LINE
  5
1BFF
  8
247
  6
CONTINUOUS
 10
3.0
 20
-17.9548934999879712
 30
0.0
 11
5.0999999999160082
 21
-18.5570588100573417
 31
0.0
  0
LINE
  5
1C00
  8
247
  6
CONTINUOUS
 10
3.996153846113998
 20
-17.3251514035190404
 30
0.0
 11
3.996153846113998
 21
-18.2405360188670116
 31
0.0
  0
ARC
  5
1C01
  8
247
  6
CONTINUOUS
 10
3.3847190672940992
 20
-17.0872634019468101
 30
0.0
 40
0.3876715809326743
 50
72.9978896752922282
 51
172.9241662185135908
  0
ARC
  5
1C02
  8
247
  6
CONTINUOUS
 10
3.305223131028014
 20
-17.3824775568041296
 30
0.0
 40
0.6933047965358772
 50
4.7429368522022122
 51
73.8492262732667513
1001
GENIUS_GENOBJ-N-FIL_13
1002
{
1000
OWNER
1000
GEN
1002
}
1001
GENIUS_GENODEF_13
1002
{
1000
HIER
1070
     0
1002
}
1002
{
1000
MANEDIT
1070
     0
1002
}
1002
{
1000
NOSEL
1070
     0
1002
}
1002
{
1000
BEHIND
1070
     0
1002
}
1002
{
1000
OTHER
1070
     0
1002
}
1002
{
1000
REACTOR
1002
}
  0
LINE
  5
1C03
  8
247
  6
CONTINUOUS
 10
5.0999999999160082
 20
-17.6416741947093598
 30
0.0
 11
5.0999999999160082
 21
-18.5570588100573417
 31
0.0
  0
LINE
  5
1C04
  8
247
  6
CONTINUOUS
 10
3.0
 20
-17.9548934999879712
 30
0.0
 11
3.0
 21
-17.0395088846399787
 31
0.0
  0
ARC
  5
1C05
  8
247
  6
CONTINUOUS
 10
4.3874169627678707
 20
-17.3783064762668609
 30
0.0
 40
0.394857301075386
 50
65.990941652528889
 51
172.2634434590690944
  0
ARC
  5
1C06
  8
247
  6
CONTINUOUS
 10
4.391200327332565
 20
-17.7124466104269196
 30
0.0
 40
0.7123241612361686
 50
5.701985164259785
 51
77.2773384368220064
1001
GENIUS_GENOBJ-N-FIL_13
1002
{
1000
OWNER
1000
GEN
1002
}
1001
GENIUS_GENODEF_13
1002
{
1000
HIER
1070
     0
1002
}
1002
{
1000
MANEDIT
1070
     0
1002
}
1002
{
1000
NOSEL
1070
     0
1002
}
1002
{
1000
BEHIND
1070
     0
1002
}
1002
{
1000
OTHER
1070
     0
1002
}
1002
{
1000
REACTOR
1002
}
  0
LINE
  5
1C07
  8
247
  6
CONTINUOUS
 10
5.0999999999160082
 20
-16.6839818870633785
 30
0.0
 11
3.0
 21
-16.0818165769940116
 31
0.0
  0
LINE
  5
1C08
  8
247
  6
CONTINUOUS
 10
3.0
 20
-14.5856627309079805
 30
0.0
 11
3.0
 21
-14.9816783643035993
 31
0.0
  0
LINE
  5
1C09
  8
247
  6
CONTINUOUS
 10
5.0999999999160082
 20
-15.6087396539439798
 30
0.0
 11
5.0999999999160082
 21
-15.1779704231919901
 31
0.0
  0
ARC
  5
1C0A
  8
247
  6
CONTINUOUS
 10
4.4582995950833562
 20
-14.3818165770699693
 30
0.0
 40
1.576855057639547
 50
202.3594881415291127
 51
254.9932485428464872
  0
ARC
  5
1C0B
  8
247
  6
CONTINUOUS
 10
3.5658188585381341
 20
-14.8475113661332294
 30
0.0
 40
0.6234706797009447
 50
94.9945893190753168
 51
155.1663289573039037
1001
GENIUS_GENOBJ-N-FIL_13
1002
{
1000
OWNER
1000
GEN
1002
}
1001
GENIUS_GENODEF_13
1002
{
1000
HIER
1070
     0
1002
}
1002
{
1000
MANEDIT
1070
     0
1002
}
1002
{
1000
NOSEL
1070
     0
1002
}
1002
{
1000
BEHIND
1070
     0
1002
}
1002
{
1000
OTHER
1070
     0
1002
}
1002
{
1000
REACTOR
1002
}
  0
ARC
  5
1C0C
  8
247
  6
CONTINUOUS
 10
4.1621021219694381
 20
-15.4441839510328105
 30
0.0
 40
0.9749472149106978
 50
15.8460965557808002
 51
82.325137004169278
  0
ARC
  5
1C0D
  8
247
  6
CONTINUOUS
 10
4.3714704019710631
 20
-15.0352116387722408
 30
0.0
 40
0.9271945638692008
 50
249.7136016704968995
 51
321.7887456564109243
1001
GENIUS_GENOBJ-N-FIL_13
1002
{
1000
OWNER
1000
GEN
1002
}
1001
GENIUS_GENODEF_13
1002
{
1000
HIER
1070
     0
1002
}
1002
{
1000
MANEDIT
1070
     0
1002
}
1002
{
1000
NOSEL
1070
     0
1002
}
1002
{
1000
BEHIND
1070
     0
1002
}
1002
{
1000
OTHER
1070
     0
1002
}
1002
{
1000
REACTOR
1002
}
  0
LINE
  5
1C0E
  8
247
  6
CONTINUOUS
 10
4.2923076922559744
 20
-14.9625858078159606
 30
0.0
 11
4.2923076922559744
 21
-14.4779704232199702
 31
0.0
  0
ARC
  5
1C0F
  8
247
  6
CONTINUOUS
 10
4.25
 20
-18.75
 30
0.0
 40
1.25
 50
180.0
 51
0.0
  0
LINE
  5
1C10
  8
247
  6
CONTINUOUS
 10
3.0
 20
-18.75
 30
0.0
 11
3.0
 21
-18.3038461539140407
 31
0.0
  0
ARC
  5
1C11
  8
247
  6
CONTINUOUS
 10
4.25
 20
-14.1153846156700506
 30
0.0
 40
1.25
 50
0.0
 51
180.0
  0
LINE
  5
1C12
  8
241
  6
CONTINUOUS
 10
19.0500000000000007
 20
-7.9999999999745874
 30
0.0
 11
3.699999999999815
 21
-7.9999999999999121
 31
0.0
  0
LINE
  5
1C13
  8
241
  6
CONTINUOUS
 10
3.699999999999815
 20
-7.9999999999999121
 30
0.0
 11
0.9999999999997726
 21
-10.6999999999998998
 31
0.0
  0
LINE
  5
1C14
  8
241
  6
CONTINUOUS
 10
3.699999999999815
 20
8.0000000000000284
 30
0.0
 11
19.0500000000000007
 21
8.0000000000000853
 31
0.0
  0
LINE
  5
1C15
  8
241
  6
CONTINUOUS
 10
0.9999999999997726
 20
10.7000000000000703
 30
0.0
 11
3.699999999999815
 21
8.0000000000000284
 31
0.0
  0
LINE
  5
1C16
  8
241
  6
CONTINUOUS
 10
19.0500000000000007
 20
-28.4999999999999609
 30
0.0
 11
19.0500000000000007
 21
-7.9999999999745874
 31
0.0
  0
LINE
  5
1C17
  8
250
  6
CONTINUOUS
 10
-35.4139049745202925
 20
-18.8136323989028291
 30
0.0
 11
-34.1249999989337169
 21
-17.2484374988922191
 31
0.0
  0
LINE
  5
1C18
  8
250
  6
CONTINUOUS
 10
-34.8366036569175535
 20
-19.1470505044978907
 30
0.0
 11
-34.1249999989337169
 21
-17.2484374988922191
 31
0.0
  0
LINE
  5
1C19
  8
250
  6
CONTINUOUS
 10
-34.1249999989337169
 20
-17.2484374988922191
 30
0.0
 11
-35.1252543157189194
 21
-18.9803414517003901
 31
0.0
  0
TEXT
  5
1C1A
  8
250
  6
CONTINUOUS
 10
-57.0361743287984382
 20
-27.0700727109799608
 30
0.0
 40
2.799999999999998
  1
BCV40Y
  7
YOKO
1001
ITEMNAME
1000
LNSP3
  0
LINE
  5
1C1B
  8
250
  6
CONTINUOUS
 10
-40.3862186589337213
 20
-28.0895097788922214
 30
0.0
 11
-58.3862186589337071
 21
-28.0895097788922214
 31
0.0
1001
ITEMNAME
1000
LNSP2
  0
LINE
  5
1C1C
  8
250
  6
CONTINUOUS
 10
-35.4139049745202925
 20
-18.8136323989028291
 30
0.0
 11
-34.1249999989337169
 21
-17.2484374988922085
 31
0.0
  0
LINE
  5
1C1D
  8
250
  6
CONTINUOUS
 10
-34.8366036569175535
 20
-19.1470505044978907
 30
0.0
 11
-34.1249999989337169
 21
-17.2484374988922085
 31
0.0
  0
LINE
  5
1C1E
  8
250
  6
CONTINUOUS
 10
-34.1249999989337169
 20
-17.2484374988922085
 30
0.0
 11
-35.1252543157189194
 21
-18.9803414517003688
 31
0.0
  0
LINE
  5
1C1F
  8
250
  6
CONTINUOUS
 10
-35.1252543157189194
 20
-18.9803414517003688
 30
0.0
 11
-40.3862186589337213
 21
-28.0895097788922214
 31
0.0
1001
ACAD
1000
DSTYLE
1002
{
1070
     6
1000
OPEN
1070
    41
1040
2.0
1070
    42
1040
2.0
1070
    44
1040
2.0
1070
   140
1040
4.0
1070
   343
1005
0
1002
}
  0
LINE
  5
1CC3
  8
240
  6
CONTINUOUS
 10
34.8471358441385206
 20
28.7633738806971984
 30
0.0
 11
95.2495867624257926
 21
23.4788441761640492
 31
0.0
  0
LINE
  5
1CC8
  8
245
  6
CENTER2
 10
124.0439999999986043
 20
-20.4993043394096617
 30
0.0
 11
46.587498436370133
 21
-20.499304339410461
 31
0.0
  0
LINE
  5
1CCC
  8
241
  6
CONTINUOUS
 10
34.99999999999892
 20
0.0000000000000568
 30
0.0
 11
34.9999999999987423
 21
-29.1999999999999886
 31
0.0
  0
ARC
  5
1CCD
  8
241
  6
CONTINUOUS
 10
19.0999848011986089
 20
0.0000000000188152
 30
0.0
 40
8.0000000000332516
 50
270.0001088533975917
 51
89.9997479070921003
  0
LINE
  5
1CCE
  8
240
  6
CONTINUOUS
 10
19.0500000000000007
 20
-28.4999999999999396
 30
0.0
 11
34.2999999999986471
 21
-28.4999999999999396
 31
0.0
  0
LINE
  5
1CCF
  8
240
  6
CONTINUOUS
 10
34.9999999999983302
 20
-33.0
 30
0.0
 11
34.9999999999986784
 21
-29.1999999999999886
 31
0.0
  0
ARC
  5
1CD1
  8
240
  6
CONTINUOUS
 10
34.2999999999986471
 20
-29.1999999999999886
 30
0.0
 40
0.7
 50
0.0
 51
90.0
  0
LINE
  5
1CD6
  8
241
  6
CONTINUOUS
 10
34.9999999999986429
 20
0.0000000000000568
 30
0.0
 11
34.9999999999983515
 21
28.7500000000000604
 31
0.0
  0
LINE
  5
1CD7
  8
240
  6
CONTINUOUS
 10
19.0500000000000007
 20
28.5000000000000604
 30
0.0
 11
34.2999999999986969
 21
28.4999999999999396
 31
0.0
  0
ARC
  5
1CD8
  8
240
  6
CONTINUOUS
 10
34.2999999999986969
 20
29.2000000000000988
 30
0.0
 40
0.7
 50
270.0
 51
321.4093833101463815
  0
LINE
  5
1CE0
  8
240
  6
CONTINUOUS
 10
127.000000000000199
 20
-33.0
 30
0.0
 11
127.000000000000199
 21
-4.1423218109812847
 31
0.0
  0
ARC
  5
1CF6
  8
240
  6
CONTINUOUS
 10
93.0706432387253102
 20
-1.426108447476337
 30
0.0
 40
25.00008920113304
 50
45.0000744075896009
 51
84.999925592413959
  0
LINE
  5
1CF9
  8
240
  6
CONTINUOUS
 10
110.748352885782694
 20
16.2516471142159311
 30
0.0
 11
124.070936157596293
 21
2.9290638424021722
 31
0.0
  0
ARC
  5
1D03
  8
240
  6
CONTINUOUS
 10
116.9995505042122943
 20
-4.142321810981854
 30
0.0
 40
10.0004494975195097
 50
0.0000176000957
 51
45.0000176000969816
  0
LINE
  5
1E0B
  8
241
  6
CONTINUOUS
 10
19.0500000000000007
 20
8.0000000000000853
 30
0.0
 11
19.0500000000000007
 21
28.5000000000000284
 31
0.0
  0
LINE
  5
2633
  8
246
  6
PHANTOM2
 10
277.0099999999940223
 20
-8.0000000000017586
 30
0.0
 11
282.7256000755007221
 21
-8.0000000000017568
 31
0.0
  0
LINE
  5
2635
  8
246
  6
PHANTOM2
 10
277.0099999999940223
 20
8.0000000000001208
 30
0.0
 11
282.7256000755011769
 21
8.0000000000001208
 31
0.0
  0
LINE
  5
2636
  8
246
  6
PHANTOM2
 10
229.3999999999944066
 20
8.0000000000001101
 30
0.0
 11
224.3854657833900035
 21
8.0000000000001101
 31
0.0
  0
LINE
  5
2637
  8
246
  6
PHANTOM2
 10
277.0099999999940223
 20
-8.0000000000017533
 30
0.0
 11
277.0099999999940223
 21
8.0000000000001261
 31
0.0
  0
LINE
  5
2638
  8
246
  6
PHANTOM2
 10
229.3999999999944066
 20
-8.0000000000017693
 30
0.0
 11
229.3999999999944066
 21
8.0000000000001101
 31
0.0
  0
ARC
  5
2639
  8
246
  6
PHANTOM2
 10
251.999999999994003
 20
0.0000000000001137
 30
0.0
 40
31.7500000000000107
 50
194.5940287352485996
 51
227.6856671595242858
  0
ARC
  5
263A
  8
246
  6
PHANTOM2
 10
251.999999999994003
 20
0.0000000000001137
 30
0.0
 40
31.7500000000000107
 50
64.8923038483166437
 51
165.4059712647514004
  0
LINE
  5
263B
  8
246
  6
PHANTOM2
 10
224.3854657833900035
 20
8.0000000000001101
 30
0.0
 11
221.2743999244869997
 21
8.0000000000001084
 31
0.0
  0
LINE
  5
263C
  8
246
  6
PHANTOM2
 10
221.2743999244869997
 20
-7.999999999999778
 30
0.0
 11
229.3999999999944066
 21
-7.9999999999997771
 31
0.0
  0
ARC
  5
263D
  8
246
  6
PHANTOM2
 10
251.999999999994003
 20
0.0000000000001137
 30
0.0
 40
31.7500000000000107
 50
227.6856671595238026
 51
345.405971264751372
  0
ARC
  5
263E
  8
246
  6
PHANTOM2
 10
251.999999999994003
 20
0.0000000000001137
 30
0.0
 40
31.7500000000000107
 50
14.5940287352482496
 51
64.8923038483166437
  0
LINE
  5
2B5C
  8
241
  6
CONTINUOUS
 10
251.999999999994202
 20
-32.9999999999992966
 30
0.0
 11
251.999999999994202
 21
-7.6000000000001391
 31
0.0
  0
LINE
  5
2BE0
  8
243
  6
HIDDEN2
 10
38.0999999999997669
 20
-32.9993043394096688
 30
0.0
 11
38.0999999999997669
 21
-7.6000000000001391
 31
0.0
  0
LINE
  5
2BE1
  8
243
  6
HIDDEN2
 10
38.0999999999997669
 20
-7.6000000000001391
 30
0.0
 11
127.000000000000199
 21
-7.6000000000001391
 31
0.0
  0
LINE
  5
2BF2
  8
241
  6
CONTINUOUS
 10
117.9999999999989058
 20
-18.76725352940975
 30
0.0
 11
117.9999999999989058
 21
-22.231355149409751
 31
0.0
  0
LINE
  5
2BF3
  8
241
  6
CONTINUOUS
 10
111.9999999999989058
 20
-22.231355149409751
 30
0.0
 11
111.9999999999989058
 21
-18.76725352940975
 31
0.0
  0
CIRCLE
  5
2BF4
  8
242
  6
CONTINUOUS
 10
114.9999999999989058
 20
-20.4993043394097292
 30
0.0
 40
5.125
  0
CIRCLE
  5
2BF5
  8
241
  6
CONTINUOUS
 10
114.9999999999989058
 20
-20.4993043394097292
 30
0.0
 40
6.0
  0
LINE
  5
2BF6
  8
245
  6
CENTER2
 10
114.9999999999989058
 20
-27.4993043394097612
 30
0.0
 11
114.9999999999989058
 21
-13.4993043394097594
 31
0.0
  0
LINE
  5
2BF7
  8
241
  6
CONTINUOUS
 10
114.9999999999989058
 20
-17.0352027194097388
 30
0.0
 11
117.9999999999989058
 21
-18.76725352940975
 31
0.0
  0
LINE
  5
2BF8
  8
241
  6
CONTINUOUS
 10
111.9999999999989058
 20
-18.76725352940975
 30
0.0
 11
114.9999999999989058
 21
-17.0352027194097388
 31
0.0
  0
LINE
  5
2BF9
  8
241
  6
CONTINUOUS
 10
117.9999999999989058
 20
-22.231355149409751
 30
0.0
 11
114.9999999999989058
 21
-23.9634059494097507
 31
0.0
  0
LINE
  5
2BFA
  8
241
  6
CONTINUOUS
 10
114.9999999999989058
 20
-23.9634059494097507
 30
0.0
 11
111.9999999999989058
 21
-22.231355149409751
 31
0.0
  0
LINE
  5
2C0B
  8
241
  6
CONTINUOUS
 10
88.9999999999983515
 20
-18.7672535294100484
 30
0.0
 11
88.9999999999983515
 21
-22.2313551494100494
 31
0.0
  0
LINE
  5
2C0C
  8
241
  6
CONTINUOUS
 10
82.9999999999983515
 20
-22.2313551494100494
 30
0.0
 11
82.9999999999983515
 21
-18.7672535294100484
 31
0.0
  0
CIRCLE
  5
2C0D
  8
242
  6
CONTINUOUS
 10
85.9999999999983658
 20
-20.4993043394100383
 30
0.0
 40
5.125
  0
CIRCLE
  5
2C0E
  8
241
  6
CONTINUOUS
 10
85.9999999999983658
 20
-20.4993043394100383
 30
0.0
 40
6.0
  0
LINE
  5
2C0F
  8
245
  6
CENTER2
 10
85.9999999999983658
 20
-27.4993043394100489
 30
0.0
 11
85.9999999999983658
 21
-13.4993043394100596
 31
0.0
  0
LINE
  5
2C10
  8
241
  6
CONTINUOUS
 10
85.9999999999983658
 20
-17.0352027194100515
 30
0.0
 11
88.9999999999983515
 21
-18.7672535294100484
 31
0.0
  0
LINE
  5
2C11
  8
241
  6
CONTINUOUS
 10
82.9999999999983515
 20
-18.7672535294100484
 30
0.0
 11
85.9999999999983658
 21
-17.0352027194100515
 31
0.0
  0
LINE
  5
2C12
  8
241
  6
CONTINUOUS
 10
88.9999999999983515
 20
-22.2313551494100494
 30
0.0
 11
85.9999999999983658
 21
-23.9634059494100384
 31
0.0
  0
LINE
  5
2C13
  8
241
  6
CONTINUOUS
 10
85.9999999999983658
 20
-23.9634059494100384
 30
0.0
 11
82.9999999999983515
 21
-22.2313551494100494
 31
0.0
  0
LINE
  5
2C24
  8
241
  6
CONTINUOUS
 10
59.9999999999985718
 20
-18.7672535294103504
 30
0.0
 11
59.9999999999985718
 21
-22.2313551494103514
 31
0.0
  0
LINE
  5
2C25
  8
241
  6
CONTINUOUS
 10
53.9999999999985789
 20
-22.2313551494103514
 30
0.0
 11
53.9999999999985789
 21
-18.7672535294103504
 31
0.0
  0
CIRCLE
  5
2C26
  8
242
  6
CONTINUOUS
 10
56.9999999999985789
 20
-20.4993043394103402
 30
0.0
 40
5.125
  0
CIRCLE
  5
2C27
  8
241
  6
CONTINUOUS
 10
56.9999999999985789
 20
-20.4993043394103402
 30
0.0
 40
6.0
  0
LINE
  5
2C28
  8
245
  6
CENTER2
 10
56.9999999999985789
 20
-27.4993043394103509
 30
0.0
 11
56.9999999999985789
 21
-13.4993043394103598
 31
0.0
  0
LINE
  5
2C29
  8
241
  6
CONTINUOUS
 10
56.9999999999985789
 20
-17.0352027194103499
 30
0.0
 11
59.9999999999985718
 21
-18.7672535294103504
 31
0.0
  0
LINE
  5
2C2A
  8
241
  6
CONTINUOUS
 10
53.9999999999985789
 20
-18.7672535294103504
 30
0.0
 11
56.9999999999985789
 21
-17.0352027194103499
 31
0.0
  0
LINE
  5
2C2B
  8
241
  6
CONTINUOUS
 10
59.9999999999985718
 20
-22.2313551494103514
 30
0.0
 11
56.9999999999985789
 21
-23.9634059494103404
 31
0.0
  0
LINE
  5
2C2C
  8
241
  6
CONTINUOUS
 10
56.9999999999985789
 20
-23.9634059494103404
 30
0.0
 11
53.9999999999985789
 21
-22.2313551494103514
 31
0.0
  0
TEXT
  5
2C35
  8
241
  6
CONTINUOUS
 10
-70.0
 20
77.0
 30
0.0
 40
5.0
  1
BCV40Y-180-BH1.000L-5
  7
YOKO
  0
LINE
  5
2C6D
  8
246
  6
PHANTOM2
 10
39.9999999999998224
 20
47.5
 30
0.0
 11
121.9999999999997016
 21
47.5
 31
0.0
  0
ARC
  5
2C6E
  8
246
  6
PHANTOM2
 10
121.9999999999997016
 20
42.5
 30
0.0
 40
5.0
 50
0.0
 51
90.0
  0
LINE
  5
2C70
  8
246
  6
PHANTOM2
 10
34.9999999999997513
 20
42.4999999999997726
 30
0.0
 11
39.9999999999998082
 21
47.5
 31
0.0
  0
LINE
  5
2C77
  8
246
  6
PHANTOM2
 10
40.0009499908203168
 20
-47.4992199916326925
 30
0.0
 11
123.1397722862552939
 21
-47.4975572176010132
 31
0.0
  0
LINE
  5
2C79
  8
246
  6
PHANTOM2
 10
35.0008499919654525
 20
-42.49931999248723
 30
0.0
 11
40.0009499908203026
 21
-47.4992199916326925
 31
0.0
  0
ARC
  5
2C82
  8
246
  6
PHANTOM2
 10
122.9999999999997016
 20
-43.4999999999998792
 30
0.0
 40
4.0
 50
270.0
 51
0.0
  0
LINE
  5
3180
  8
250
  6
CONTINUOUS
 10
0.0
 20
22.7250000000000014
 30
0.0
 11
0.0000000000000026
 21
64.0
 31
0.0
  0
LINE
  5
3181
  8
250
  6
CONTINUOUS
 10
127.000000000000199
 20
-3.642321810981286
 30
0.0
 11
127.000000000000199
 21
64.0
 31
0.0
  0
LINE
  5
3182
  8
250
  6
CONTINUOUS
 10
2.2300000000000022
 20
63.0
 30
0.0
 11
124.7700000000000955
 21
63.0
 31
0.0
  0
LINE
  5
3186
  8
250
  6
CONTINUOUS
 10
124.7700000000000955
 20
63.3716666666666626
 30
0.0
 11
127.000000000000199
 21
63.0
 31
0.0
  0
LINE
  5
3187
  8
250
  6
CONTINUOUS
 10
124.7700000000000955
 20
62.6283333333333303
 30
0.0
 11
127.000000000000199
 21
63.0
 31
0.0
  0
LINE
  5
3188
  8
250
  6
CONTINUOUS
 10
127.000000000000199
 20
63.0
 30
0.0
 11
124.7700000000000955
 21
63.0
 31
0.0
  0
LINE
  5
3189
  8
250
  6
CONTINUOUS
 10
2.2300000000000022
 20
62.6283333333333303
 30
0.0
 11
0.0000000000000025
 21
63.0
 31
0.0
  0
LINE
  5
318A
  8
250
  6
CONTINUOUS
 10
2.2300000000000022
 20
63.3716666666666626
 30
0.0
 11
0.0000000000000025
 21
63.0
 31
0.0
  0
LINE
  5
318B
  8
250
  6
CONTINUOUS
 10
0.0000000000000025
 20
63.0
 30
0.0
 11
2.2300000000000022
 21
63.0
 31
0.0
  0
TEXT
  5
318C
  8
250
  6
CONTINUOUS
 10
58.8333333333334281
 20
64.0000000000000142
 30
0.0
 40
2.799999999999998
  1
5.00
  0
LINE
  5
31AA
  8
250
  6
CONTINUOUS
 10
252.000008831408195
 20
-33.49999999999865
 30
0.0
 11
252.000008831408195
 21
-58.0924613419339266
 31
0.0
  0
LINE
  5
31AB
  8
250
  6
CONTINUOUS
 10
277.3999999999941792
 20
-33.2999999999997272
 30
0.0
 11
277.3999999999941792
 21
-58.0924613419339266
 31
0.0
  0
LINE
  5
31AC
  8
250
  6
CONTINUOUS
 10
254.2300088314082132
 20
-57.0924613419339195
 30
0.0
 11
275.1699999999942179
 21
-57.0924613419339195
 31
0.0
  0
TEXT
  5
31B0
  8
250
  6
CONTINUOUS
 10
257.1000044157012212
 20
-56.0924613419339266
 30
0.0
 40
2.799999999999998
  1
üá
  0
TEXT
  5
31B1
  8
250
  6
CONTINUOUS
 10
260.4333377490344787
 20
-56.0924613419339266
 30
0.0
 40
2.799999999999998
  1
1.000
  0
LINE
  5
31B2
  8
250
  6
CONTINUOUS
 10
275.1699999999942179
 20
-56.7207946752672427
 30
0.0
 11
277.3999999999941792
 21
-57.0924613419339195
 31
0.0
  0
LINE
  5
31B3
  8
250
  6
CONTINUOUS
 10
275.1699999999942179
 20
-57.4641280086006034
 30
0.0
 11
277.3999999999941792
 21
-57.0924613419339195
 31
0.0
  0
LINE
  5
31B4
  8
250
  6
CONTINUOUS
 10
277.3999999999941792
 20
-57.0924613419339195
 30
0.0
 11
275.1699999999942179
 21
-57.0924613419339195
 31
0.0
  0
LINE
  5
31B5
  8
250
  6
CONTINUOUS
 10
254.2300088314082132
 20
-57.4641280086006034
 30
0.0
 11
252.000008831408195
 21
-57.0924613419339195
 31
0.0
  0
LINE
  5
31B6
  8
250
  6
CONTINUOUS
 10
254.2300088314082132
 20
-56.7207946752672427
 30
0.0
 11
252.000008831408195
 21
-57.0924613419339195
 31
0.0
  0
LINE
  5
31B7
  8
250
  6
CONTINUOUS
 10
252.000008831408195
 20
-57.0924613419339195
 30
0.0
 11
254.2300088314082132
 21
-57.0924613419339195
 31
0.0
  0
LINE
  5
31B8
  8
250
  6
CONTINUOUS
 10
287.4405531008715116
 20
-28.1662936131804003
 30
0.0
 11
216.5594468991164945
 21
28.1662936131804393
 31
0.0
  0
LINE
  5
31BC
  8
250
  6
CONTINUOUS
 10
216.328201649291799
 20
27.8753266983178811
 30
0.0
 11
214.8136454099415005
 21
29.5537651121287617
 31
0.0
  0
LINE
  5
31BD
  8
250
  6
CONTINUOUS
 10
216.7906921489413037
 20
28.4572605280429087
 30
0.0
 11
214.8136454099415005
 21
29.5537651121287617
 31
0.0
  0
LINE
  5
31BE
  8
250
  6
CONTINUOUS
 10
214.8136454099415005
 20
29.5537651121287617
 30
0.0
 11
216.5594468991164945
 21
28.1662936131804003
 31
0.0
  0
LINE
  5
31BF
  8
250
  6
CONTINUOUS
 10
287.6717983506961218
 20
-27.8753266983178705
 30
0.0
 11
289.1863545900466193
 21
-29.5537651121287404
 31
0.0
  0
LINE
  5
31C0
  8
250
  6
CONTINUOUS
 10
287.2093078510466739
 20
-28.4572605280429016
 30
0.0
 11
289.1863545900466193
 21
-29.5537651121287404
 31
0.0
  0
LINE
  5
31C1
  8
250
  6
CONTINUOUS
 10
289.1863545900466193
 20
-29.5537651121287404
 30
0.0
 11
287.4405531008715116
 21
-28.1662936131803789
 31
0.0
  0
TEXT
  5
31C2
  8
250
  6
CONTINUOUS
 10
236.2018102511642894
 20
15.3657435726868403
 30
0.0
 40
2.799999999999998
  1
(\U+22053.74)
 50
321.524163588706017
  0
LINE
  5
3368
  8
240
  6
CONTINUOUS
 10
127.000000000000199
 20
-33.0
 30
0.0
 11
34.9999999999983302
 21
-33.0
 31
0.0
  0
LINE
  5
33EB
  8
250
  6
CONTINUOUS
 10
127.500000000000199
 20
0.0000000000000001
 30
0.0
 11
140.0000000000009095
 21
0.0000000000000021
 31
0.0
  0
LINE
  5
33EC
  8
250
  6
CONTINUOUS
 10
127.500000000000199
 20
-33.0000000000000213
 30
0.0
 11
140.0000000000009095
 21
-33.0000000000000213
 31
0.0
  0
LINE
  5
33ED
  8
250
  6
CONTINUOUS
 10
139.0000000000009095
 20
-2.2299999999999982
 30
0.0
 11
139.0000000000009095
 21
-30.7700000000000102
 31
0.0
  0
LINE
  5
33F1
  8
250
  6
CONTINUOUS
 10
138.6283333333342114
 20
-2.2299999999999982
 30
0.0
 11
139.0000000000009095
 21
0.0000000000000019
 31
0.0
  0
LINE
  5
33F2
  8
250
  6
CONTINUOUS
 10
139.3716666666676076
 20
-2.2299999999999982
 30
0.0
 11
139.0000000000009095
 21
0.0000000000000019
 31
0.0
  0
LINE
  5
33F3
  8
250
  6
CONTINUOUS
 10
139.0000000000009095
 20
0.0000000000000019
 30
0.0
 11
139.0000000000009095
 21
-2.2299999999999982
 31
0.0
  0
LINE
  5
33F4
  8
250
  6
CONTINUOUS
 10
139.3716666666676076
 20
-30.7700000000000209
 30
0.0
 11
139.0000000000009095
 21
-33.0000000000000213
 31
0.0
  0
LINE
  5
33F5
  8
250
  6
CONTINUOUS
 10
138.6283333333342114
 20
-30.7700000000000209
 30
0.0
 11
139.0000000000009095
 21
-33.0000000000000213
 31
0.0
  0
LINE
  5
33F6
  8
250
  6
CONTINUOUS
 10
139.0000000000009095
 20
-33.0000000000000213
 30
0.0
 11
139.0000000000009095
 21
-30.7700000000000209
 31
0.0
  0
TEXT
  5
33F7
  8
250
  6
CONTINUOUS
 10
138.0000000000009095
 20
-22.6333333333333684
 30
0.0
 40
2.799999999999998
  1
1.299
 50
90.0
  0
LINE
  5
3DD0
  8
241
 10
223.2549999999999955
 20
-0.0000000000017977
 30
0.0
 11
299.499999999994202
 21
-0.0000000000017977
 31
0.0
  0
LINE
  5
3DD3
  8
241
 10
234.3388190497342976
 20
22.6857926342055904
 30
0.0
 11
292.4163279417675199
 21
22.6857926342055904
 31
0.0
  0
VIEWPORT
  5
22
 67
     1
  8
0
 10
261.517699115044195
 20
148.5
 30
0.0
 40
523.0353982300885036
 41
297.0
 68
     1
 69
     1
1001
ACAD
1000
MVIEW
1002
{
1070
    16
1010
0.0
1020
0.0
1030
0.0
1010
0.0
1020
0.0
1030
1.0
1040
0.0
1040
297.0
1040
261.517699115044195
1040
148.5
1040
50.0
1040
0.0
1040
0.0
1070
     0
1070
   100
1070
     1
1070
     1
1070
     0
1070
     0
1070
     0
1070
     0
1040
0.0
1040
0.0
1040
0.0
1040
1.0
1040
1.0
1040
10.0
1040
10.0
1070
     0
1002
{
1002
}
1002
}
1001
GENIUS_GENODEF_13
1002
{
1000
HIER
1070
     0
1002
}
1002
{
1000
MANEDIT
1070
     0
1002
}
1002
{
1000
NOSEL
1070
     0
1002
}
1002
{
1000
BEHIND
1070
     0
1002
}
1002
{
1000
OTHER
1070
     0
1002
}
1002
{
1000
REACTOR
1002
}
1001
GENIUS_GENOBJ-N-SDF_13
1002
{
1000
OWNER
1000
GEN
1002
}
1001
GENIUS_GENSCREG_15
1000
PF
1040
1.0
1000
DF
1040
1.0
1000
MIN
1011
0.0
1021
0.0
1031
0.0
1021
0.0
1031
0.0
1000
MAX
1011
523.0353982300885036
1021
0.0
1031
0.0
1021
297.0
1031
0.0
1000
FLAGS
1070
     4
  0
ENDSEC
  0
EOF
