  0
SECTION
  2
HEADER
  9
$ACADVER
  1
AC1009
  9
$INSBASE
 10
0.0
 20
0.0
 30
0.0
  9
$EXTMIN
 10
-71.745351725821806
 20
-31.75000000000006
 30
0.0
  9
$EXTMAX
 10
167.40000000000001
 20
68.0
 30
0.0
  9
$LIMMIN
 10
0.0
 20
0.0
  9
$LIMMAX
 10
297.0
 20
210.0
  9
$ORTHOMODE
 70
     0
  9
$REGENMODE
 70
     1
  9
$FILLMODE
 70
     1
  9
$QTEXTMODE
 70
     0
  9
$MIRRTEXT
 70
     1
  9
$DRAGMODE
 70
     2
  9
$LTSCALE
 40
10.0
  9
$OSMODE
 70
    37
  9
$ATTMODE
 70
     1
  9
$TEXTSIZE
 40
3.0
  9
$TRACEWID
 40
1.0
  9
$TEXTSTYLE
  7
YOKO
  9
$CLAYER
  8
240
  9
$CELTYPE
  6
BYLAYER
  9
$CECOLOR
 62
   256
  9
$DIMSCALE
 40
1.0
  9
$DIMASZ
 40
2.2299999999999991
  9
$DIMEXO
 40
0.5
  9
$DIMDLI
 40
7.0
  9
$DIMRND
 40
0.0
  9
$DIMDLE
 40
0.0
  9
$DIMEXE
 40
1.0
  9
$DIMTP
 40
0.0
  9
$DIMTM
 40
0.01
  9
$DIMTXT
 40
2.799999999999998
  9
$DIMCEN
 40
0.0
  9
$DIMTSZ
 40
0.0
  9
$DIMTOL
 70
     0
  9
$DIMLIM
 70
     0
  9
$DIMTIH
 70
     0
  9
$DIMTOH
 70
     0
  9
$DIMSE1
 70
     0
  9
$DIMSE2
 70
     0
  9
$DIMTAD
 70
     3
  9
$DIMZIN
 70
     9
  9
$DIMBLK
  1
OPEN
  9
$DIMASO
 70
     1
  9
$DIMSHO
 70
     1
  9
$DIMPOST
  1

  9
$DIMAPOST
  1

  9
$DIMALT
 70
     0
  9
$DIMALTD
 70
     2
  9
$DIMALTF
 40
25.399999999999999
  9
$DIMLFAC
 40
1.0
  9
$DIMTOFL
 70
     1
  9
$DIMTVP
 40
0.0
  9
$DIMTIX
 70
     1
  9
$DIMSOXD
 70
     0
  9
$DIMSAH
 70
     0
  9
$DIMBLK1
  1

  9
$DIMBLK2
  1

  9
$DIMSTYLE
  2
BIGT
  9
$DIMCLRD
 70
   256
  9
$DIMCLRE
 70
   256
  9
$DIMCLRT
 70
    40
  9
$DIMTFAC
 40
1.0
  9
$DIMGAP
 40
1.0
  9
$LUNITS
 70
     2
  9
$LUPREC
 70
     3
  9
$SKETCHINC
 40
1.0
  9
$FILLETRAD
 40
0.0
  9
$AUNITS
 70
     0
  9
$AUPREC
 70
     3
  9
$MENU
  1
.
  9
$ELEVATION
 40
0.0
  9
$PELEVATION
 40
0.0
  9
$THICKNESS
 40
0.0
  9
$LIMCHECK
 70
     0
  9
$BLIPMODE
 70
     0
  9
$CHAMFERA
 40
0.25
  9
$CHAMFERB
 40
0.25
  9
$SKPOLY
 70
     0
  9
$TDCREATE
 40
2458138.6386921299
  9
$TDUPDATE
 40
2458148.627213866
  9
$TDINDWG
 40
0.0117372685
  9
$TDUSRTIMER
 40
0.0117372569
  9
$USRTIMER
 70
     1
  9
$ANGBASE
 50
0.0
  9
$ANGDIR
 70
     0
  9
$PDMODE
 70
     1
  9
$PDSIZE
 40
0.0
  9
$PLINEWID
 40
0.0
  9
$COORDS
 70
     1
  9
$SPLFRAME
 70
     0
  9
$SPLINETYPE
 70
     6
  9
$SPLINESEGS
 70
     4
  9
$ATTDIA
 70
     1
  9
$ATTREQ
 70
     1
  9
$HANDLING
 70
     1
  9
$HANDSEED
  5
187F
  9
$SURFTAB1
 70
     6
  9
$SURFTAB2
 70
     6
  9
$SURFTYPE
 70
     6
  9
$SURFU
 70
     6
  9
$SURFV
 70
     6
  9
$UCSNAME
  2

  9
$UCSORG
 10
0.0
 20
0.0
 30
0.0
  9
$UCSXDIR
 10
1.0
 20
0.0
 30
0.0
  9
$UCSYDIR
 10
0.0
 20
1.0
 30
0.0
  9
$PUCSNAME
  2

  9
$PUCSORG
 10
0.0
 20
0.0
 30
0.0
  9
$PUCSXDIR
 10
1.0
 20
0.0
 30
0.0
  9
$PUCSYDIR
 10
0.0
 20
1.0
 30
0.0
  9
$USERI1
 70
     1
  9
$USERI2
 70
     0
  9
$USERI3
 70
     0
  9
$USERI4
 70
     0
  9
$USERI5
 70
     0
  9
$USERR1
 40
0.0
  9
$USERR2
 40
0.0
  9
$USERR3
 40
0.0
  9
$USERR4
 40
0.0
  9
$USERR5
 40
0.0
  9
$WORLDVIEW
 70
     1
  9
$SHADEDGE
 70
     3
  9
$SHADEDIF
 70
    70
  9
$TILEMODE
 70
     1
  9
$MAXACTVP
 70
    16
  9
$PLIMCHECK
 70
     0
  9
$PEXTMIN
 10
1.0000000000000000E+020
 20
1.0000000000000000E+020
 30
1.0000000000000000E+020
  9
$PEXTMAX
 10
-1.0000000000000000E+020
 20
-1.0000000000000000E+020
 30
-1.0000000000000000E+020
  9
$PLIMMIN
 10
0.0
 20
0.0
  9
$PLIMMAX
 10
420.0
 20
297.0
  9
$UNITMODE
 70
     0
  9
$VISRETAIN
 70
     1
  9
$PLINEGEN
 70
     0
  9
$PSLTSCALE
 70
     1
  0
ENDSEC
  0
SECTION
  2
TABLES
  0
TABLE
  2
VPORT
 70
     1
  0
VPORT
  2
*ACTIVE
 70
     0
 10
0.0
 20
0.0
 11
1.0
 21
1.0
 12
48.347745491898159
 22
35.161451534205348
 13
0.0
 23
0.0
 14
7.0
 24
7.0
 15
7.0
 25
7.0
 16
0.0
 26
0.0
 36
1.0
 17
0.0
 27
0.0
 37
0.0
 40
191.7785432447493
 41
1.5986159169550169
 42
50.0
 43
0.0
 44
0.0
 50
0.0
 51
0.0
 71
     0
 72
  2000
 73
     1
 74
     0
 75
     1
 76
     1
 77
     0
 78
     0
  0
ENDTAB
  0
TABLE
  2
LTYPE
 70
    21
  0
LTYPE
  2
CONTINUOUS
 70
     0
  3
Solid line
 72
    65
 73
     0
 40
0.0
  0
LTYPE
  2
CENTER2
 70
     0
  3
___ _ ___ _ ___ _ ___ _ ___ _ ___ _ ___ _ ___ _
 72
    65
 73
     4
 40
1.125
 49
0.75
 49
-0.125
 49
0.125
 49
-0.125
  0
LTYPE
  2
HIDDEN2
 70
     0
  3
_ _ _ _ _ _ _ _ _ _ _ _ _ _ _ _ _ _ _ _ _ _ _ _
 72
    65
 73
     2
 40
0.1875
 49
0.125
 49
-0.0625
  0
LTYPE
  2
PHANTOM2
 70
     0
  3
___ _ _ ___ _ _ ___ _ _ ___ _ _ ___ _ _ ___ _ _
 72
    65
 73
     6
 40
1.25
 49
0.625
 49
-0.125
 49
0.125
 49
-0.125
 49
0.125
 49
-0.125
  0
LTYPE
  2
CENTER
 70
     0
  3
____ _ ____ _ ____ _ ____ _ ____ _ ____ _ ____ 
 72
    65
 73
     4
 40
2.0
 49
1.25
 49
-0.25
 49
0.25
 49
-0.25
  0
LTYPE
  2
AMCONSTR
 70
     0
  3
_______________________
 72
    65
 73
     2
 40
9999.0
 49
9999.0
 49
0.0
  0
LTYPE
  2
HIDDEN
 70
     0
  3
Hidden __ __ __ __ __ __ __ __ __ __ __ __ __ _
 72
    65
 73
     2
 40
9.5249999999999986
 49
6.3499999999999979
 49
-3.174999999999998
  0
LTYPE
  2
AMZIGZAG2
 70
     0
  3
/\/-/\/-/\/-/\/-/\/-/\/
 72
    65
 73
     2
 40
0.4401
 49
0.0001
 49
-0.4400000000000002
  0
LTYPE
  2
ACANSTGB
 70
     0
  3
__ . . __ . .
 72
    65
 73
     6
 40
0.35433070866
 49
0.15748031496
 49
-0.03937007874
 49
0.03937007874
 49
-0.03937007874
 49
0.03937007874
 49
-0.03937007874
  0
LTYPE
  2
ACANSTGL
 70
     0
  3
_ _ _ _ _
 72
    65
 73
     2
 40
0.11811023622
 49
0.07874015748
 49
-0.03937007874
  0
ENDTAB
  0
TABLE
  2
LAYER
 70
    10
  0
LAYER
  2
0
 70
     0
 62
     7
  6
CONTINUOUS
  0
LAYER
  2
240
 70
     0
 62
     4
  6
CONTINUOUS
  0
LAYER
  2
DEFPOINTS
 70
     0
 62
     7
  6
CONTINUOUS
  0
LAYER
  2
245
 70
     0
 62
     2
  6
CENTER2
  0
LAYER
  2
241
 70
     0
 62
   211
  6
CONTINUOUS
  0
LAYER
  2
242
 70
     0
 62
     3
  6
CONTINUOUS
  0
LAYER
  2
243
 70
     0
 62
   211
  6
HIDDEN2
  0
LAYER
  2
246
 70
     0
 62
     3
  6
PHANTOM2
  0
LAYER
  2
247
 70
     0
 62
    60
  6
CONTINUOUS
  0
LAYER
  2
250
 70
     0
 62
     3
  6
CONTINUOUS
  0
ENDTAB
  0
TABLE
  2
STYLE
 70
    10
  0
STYLE
  2
STANDARD
 70
     0
 40
0.0
 41
1.0
 50
0.0
 71
     0
 42
3.0
  3
romans.shx
  4
extfont.shx
  0
STYLE
  2
YOKO
 70
     0
 40
0.0
 41
1.0
 50
0.0
 71
     0
 42
3.0
  3
romans.shx
  4
extfont.shx
  0
STYLE
  2
ACANSGDT
 70
     0
 40
0.0
 41
1.0
 50
0.0
 71
     0
 42
3.0
  3
amgdt.shx
  4

  0
ENDTAB
  0
TABLE
  2
VIEW
 70
     0
  0
ENDTAB
  0
TABLE
  2
UCS
 70
     0
  0
ENDTAB
  0
TABLE
  2
APPID
 70
    44
  0
APPID
  2
ACAD
 70
     0
  0
APPID
  2
ACADANNOTATIVE
 70
     0
  0
APPID
  2
GLOBAL
 70
     0
  0
APPID
  2
DETAIL
 70
     0
  0
APPID
  2
GRPNAME
 70
     0
  0
APPID
  2
GPARA
 70
     0
  0
APPID
  2
MCAD_NO_VIS
 70
     0
  0
APPID
  2
ACAD_TEMP_GRAPHIC
 70
     0
  0
APPID
  2
ACATTRIBSERVICES
 70
     0
  0
APPID
  2
GENIUS_GENSCREG_15
 70
     0
  0
APPID
  2
GENIUS_GENODEF_13
 70
     0
  0
APPID
  2
GENIUS_GENOBJ-N-SDF_13
 70
     0
  0
APPID
  2
GENIUS_GENREC_14
 70
     0
  0
APPID
  2
GENIUS_GENOBJ-N-REC_13
 70
     0
  0
APPID
  2
GENIUS_GENDIMSH_14
 70
     0
  0
APPID
  2
GENIUS_GENOBJ-N-DIM_13
 70
     0
  0
APPID
  2
GENIUS_GENDIM_13
 70
     0
  0
APPID
  2
GENIUS_GENDTOL_13
 70
     0
  0
APPID
  2
GENIUS_GENOLIS_13
 70
     0
  0
APPID
  2
GENIUS_GENOENT_13
 70
     0
  0
APPID
  2
GENIUS_GENOBJ-F-FEM_13
 70
     0
  0
APPID
  2
GENIUS_GENOREF_13
 70
     0
  0
APPID
  2
GENIUS_GEFFEM_13
 70
     0
  0
APPID
  2
GENIUS_GEFFEMP_13
 70
     0
  0
APPID
  2
AD_DRAW
 70
     0
  0
APPID
  2
DESIGNERASSEMBLIES
 70
     0
  0
APPID
  2
ACADM_DIM_EDIT
 70
     0
  0
APPID
  2
AMDT_DM_ADJ
 70
     0
  0
APPID
  2
ACAD_NAV_VCDISPLAY
 70
     0
  0
APPID
  2
ITEMNAME
 70
     0
  0
APPID
  2
GENIUS_GENOBJ-N-FIL_13
 70
     0
  0
APPID
  2
ACAD_DSTYLE_DIMJAG
 70
     0
  0
APPID
  2
ACAD_DSTYLE_DIMBREAK
 70
     0
  0
APPID
  2
ACAECLAYERSTANDARD
 70
     0
  0
APPID
  2
ACAD_EXEMPT_FROM_CAD_STANDARDS
 70
     0
  0
APPID
  2
ACAD_PSEXT
 70
     0
  0
APPID
  2
ACAD_DSTYLE_DIMTALN
 70
     0
  0
APPID
  2
ACAD_DSTYLE_DIMINSPECT
 70
     0
  0
APPID
  2
ACADANNOMONITORALERTICONDI
 70
     0
  0
APPID
  2
ACAD_MLEADERVER
 70
     0
  0
APPID
  2
ACAD_DSTYLE_DIMARC_LENGTH_
 70
     0
  0
APPID
  2
ACAD_DSTYLE_DIM_LINETYPE
 70
     0
  0
APPID
  2
ACAD_DSTYLE_DIM_EXT1_LINETYPE
 70
     0
  0
APPID
  2
ACAD_DSTYLE_DIM_EXT2_LINETYPE
 70
     0
  0
ENDTAB
  0
TABLE
  2
DIMSTYLE
 70
    31
  0
DIMSTYLE
  2
STANDARD
 70
     0
  3

  4

  5

  6

  7

 40
1.0
 41
0.18
 42
0.0625
 43
0.38
 44
0.18
 45
0.0
 46
0.0
 47
0.0
 48
0.0
140
0.18
141
0.09
142
0.0
143
25.399999999999999
144
1.0
145
0.0
146
1.0
147
0.09
 71
     0
 72
     0
 73
     1
 74
     1
 75
     0
 76
     0
 77
     0
 78
     0
170
     0
171
     2
172
     0
173
     0
174
     0
175
     0
176
     0
177
     0
178
     0
  0
DIMSTYLE
  2
BIGT
 70
     0
  3

  4

  5

  6

  7

 40
1.0
 41
2.2299999999999991
 42
0.5
 43
7.0
 44
1.0
 45
0.0
 46
0.0
 47
0.0
 48
0.01
140
2.799999999999998
141
0.0
142
0.0
143
25.399999999999999
144
1.0
145
0.0
146
1.0
147
1.0
 71
     0
 72
     0
 73
     0
 74
     0
 75
     0
 76
     0
 77
     3
 78
     9
170
     0
171
     2
172
     1
173
     0
174
     1
175
     0
176
   256
177
   256
178
    40
  0
DIMSTYLE
  2
AM_ANSI
 70
     0
  3

  4
mm
  5

  6

  7

 40
1.0
 41
0.12
 42
0.05
 43
0.5
 44
0.1
 45
0.0
 46
0.0
 47
0.1
 48
0.1
140
0.12
141
0.0
142
0.0
143
25.399999999999999
144
1.0
145
0.0
146
0.71
147
0.06
 71
     0
 72
     0
 73
     1
 74
     1
 75
     0
 76
     0
 77
     0
 78
     7
170
     0
171
     2
172
     0
173
     0
174
     0
175
     0
176
   256
177
   256
178
     3
  0
DIMSTYLE
  2
AM_ANSI$3
 70
     0
  3

  4
mm
  5

  6

  7

 40
1.0
 41
0.12
 42
0.05
 43
0.5
 44
0.1
 45
0.0
 46
0.0
 47
0.1
 48
0.1
140
0.12
141
0.0
142
0.0
143
25.399999999999999
144
1.0
145
0.0
146
0.71
147
0.06
 71
     0
 72
     0
 73
     1
 74
     1
 75
     0
 76
     0
 77
     0
 78
     7
170
     0
171
     2
172
     0
173
     0
174
     0
175
     0
176
   256
177
   256
178
     3
  0
DIMSTYLE
  2
AM_ANSI$4
 70
     0
  3

  4
mm
  5

  6

  7

 40
1.0
 41
0.12
 42
0.05
 43
0.5
 44
0.1
 45
0.0
 46
0.0
 47
0.1
 48
0.1
140
0.12
141
0.0
142
0.0
143
25.399999999999999
144
1.0
145
0.0
146
0.71
147
0.06
 71
     0
 72
     0
 73
     1
 74
     1
 75
     0
 76
     0
 77
     0
 78
     7
170
     0
171
     2
172
     0
173
     0
174
     0
175
     0
176
   256
177
   256
178
     3
  0
DIMSTYLE
  2
AM_ANSI$7
 70
     0
  3

  4
mm
  5

  6

  7

 40
1.0
 41
0.12
 42
0.05
 43
0.5
 44
0.1
 45
0.0
 46
0.0
 47
0.1
 48
0.1
140
0.12
141
0.0
142
0.0
143
25.399999999999999
144
1.0
145
0.0
146
0.71
147
0.06
 71
     0
 72
     0
 73
     1
 74
     1
 75
     0
 76
     0
 77
     0
 78
     7
170
     0
171
     2
172
     0
173
     0
174
     0
175
     0
176
   256
177
   256
178
     3
  0
DIMSTYLE
  2
AM_ANSI$SF
 70
     0
  3

  4
mm
  5

  6

  7

 40
1.0
 41
0.12
 42
0.05
 43
0.5
 44
0.1
 45
0.0
 46
0.0
 47
0.1
 48
0.1
140
0.12
141
0.0
142
0.0
143
25.399999999999999
144
1.0
145
0.0
146
0.71
147
0.06
 71
     0
 72
     0
 73
     1
 74
     1
 75
     1
 76
     1
 77
     0
 78
     7
170
     0
171
     2
172
     0
173
     0
174
     0
175
     0
176
   256
177
   256
178
     3
  0
DIMSTYLE
  2
AM_ANSI$SH
 70
     0
  3

  4
mm
  5

  6

  7

 40
1.0
 41
0.12
 42
0.05
 43
0.5
 44
0.1
 45
0.0
 46
0.0
 47
0.1
 48
0.1
140
0.12
141
0.0
142
0.0
143
25.399999999999999
144
1.0
145
0.0
146
0.71
147
0.06
 71
     0
 72
     0
 73
     1
 74
     1
 75
     1
 76
     1
 77
     0
 78
     7
170
     0
171
     2
172
     0
173
     1
174
     0
175
     0
176
   256
177
   256
178
     3
  0
ENDTAB
  0
ENDSEC
  0
SECTION
  2
BLOCKS
  0
BLOCK
  8
0
  2
$MODEL_SPACE
 70
     0
 10
0.0
 20
0.0
 30
0.0
  3
$MODEL_SPACE
  1

  0
ENDBLK
  5
172E
  8
0
  0
BLOCK
 67
     1
  8
0
  2
$PAPER_SPACE
 70
     0
 10
0.0
 20
0.0
 30
0.0
  3
$PAPER_SPACE
  1

  0
ENDBLK
  5
172A
 67
     1
  8
0
  0
BLOCK
  8
0
  2
_OPEN
 70
     0
 10
0.0
 20
0.0
 30
0.0
  3
_OPEN
  1

  0
LINE
  5
595
  8
0
  6
BYBLOCK
 62
     0
 10
-1.0
 20
0.1666666666666666
 30
0.0
 11
0.0
 21
0.0
 31
0.0
  0
LINE
  5
596
  8
0
  6
BYBLOCK
 62
     0
 10
-1.0
 20
-0.1666666666666666
 30
0.0
 11
0.0
 21
0.0
 31
0.0
  0
LINE
  5
597
  8
0
  6
BYBLOCK
 62
     0
 10
0.0
 20
0.0
 30
0.0
 11
-1.0
 21
0.0
 31
0.0
  0
ENDBLK
  5
599
  8
0
  0
BLOCK
  8
0
  2
_ACMFILLEDHALF
 70
     0
 10
0.0
 20
0.0
 30
0.0
  3
_ACMFILLEDHALF
  1

  0
TRACE
  5
17FC
  8
240
 62
     0
 10
-0.8
 20
0.0
 30
0.0
 11
-1.0
 21
0.166666666
 31
0.0
 12
0.0
 22
0.0
 32
0.0
 13
0.0
 23
0.0
 33
0.0
  0
LINE
  5
17FD
  8
240
 62
     0
 10
-1.0
 20
0.0
 30
0.0
 11
-0.8
 21
0.0
 31
0.0
  0
ENDBLK
  5
17FB
  8
0
  0
ENDSEC
  0
SECTION
  2
ENTITIES
  0
LINE
  5
143B
  8
240
  6
CONTINUOUS
 10
9.1999999999998181
 20
-28.18000000000001
 30
0.0
 11
13.03999999999985
 21
-28.18000000000001
 31
0.0
  0
LINE
  5
143C
  8
240
  6
CONTINUOUS
 10
9.1999999999998181
 20
28.17999999999995
 30
0.0
 11
13.03999999999985
 21
28.17999999999995
 31
0.0
  0
LINE
  5
143D
  8
240
  6
CONTINUOUS
 10
-68.250000000000171
 20
-12.27187500000008
 30
0.0
 11
-0.0000000000001137
 21
-22.22500000000008
 31
0.0
  0
LINE
  5
143E
  8
240
  6
CONTINUOUS
 10
-68.250000000000171
 20
-12.27187500000008
 30
0.0
 11
-68.250000000000171
 21
12.271874999999961
 31
0.0
  0
LINE
  5
143F
  8
240
  6
CONTINUOUS
 10
-68.250000000000171
 20
12.271874999999961
 30
0.0
 11
-0.0000000000001137
 21
22.224999999999969
 31
0.0
  0
LINE
  5
1440
  8
240
  6
CONTINUOUS
 10
9.1999999999998181
 20
28.96755845385206
 30
0.0
 11
9.1999999999998181
 21
28.17999999999995
 31
0.0
  0
LINE
  5
1441
  8
240
  6
CONTINUOUS
 10
13.03999999999985
 20
28.96755845385195
 30
0.0
 11
13.03999999999985
 21
28.17999999999995
 31
0.0
  0
LINE
  5
1442
  8
240
  6
CONTINUOUS
 10
13.03999999999985
 20
-28.18000000000001
 30
0.0
 11
13.03999999999985
 21
-28.96755845385206
 31
0.0
  0
LINE
  5
1443
  8
240
  6
CONTINUOUS
 10
9.1999999999998181
 20
-28.18000000000001
 30
0.0
 11
9.1999999999998181
 21
-28.96755845385206
 31
0.0
  0
LINE
  5
1444
  8
240
  6
CONTINUOUS
 10
7.5935566243268759
 20
31.74999999999994
 30
0.0
 11
9.1999999999998181
 21
28.96755845385206
 31
0.0
  0
LINE
  5
1445
  8
240
  6
CONTINUOUS
 10
14.64644337567279
 20
31.74999999999994
 30
0.0
 11
13.03999999999985
 21
28.96755845385195
 31
0.0
  0
LINE
  5
1446
  8
240
  6
CONTINUOUS
 10
7.5935566243268759
 20
-31.75000000000006
 30
0.0
 11
9.1999999999998181
 21
-28.96755845385206
 31
0.0
  0
LINE
  5
1447
  8
240
  6
CONTINUOUS
 10
13.03999999999985
 20
-28.96755845385206
 30
0.0
 11
14.64644337567279
 21
-31.75000000000006
 31
0.0
  0
LINE
  5
144A
  8
240
  6
CONTINUOUS
 10
14.64644337567279
 20
31.74999999999994
 30
0.0
 11
19.049999999999841
 21
31.74999999999994
 31
0.0
  0
LINE
  5
144B
  8
240
  6
CONTINUOUS
 10
19.049999999999841
 20
31.74999999999994
 30
0.0
 11
19.049999999999841
 21
22.224999999999969
 31
0.0
  0
LINE
  5
144C
  8
240
  6
CONTINUOUS
 10
19.049999999999841
 20
-31.75000000000006
 30
0.0
 11
19.049999999999841
 21
-22.22500000000008
 31
0.0
  0
LINE
  5
144D
  8
240
  6
CONTINUOUS
 10
14.64644337567279
 20
-31.75000000000006
 30
0.0
 11
19.049999999999841
 21
-31.75000000000006
 31
0.0
  0
LINE
  5
144E
  8
240
  6
CONTINUOUS
 10
0.9999999999986355
 20
31.74999999999994
 30
0.0
 11
7.5935566243268759
 21
31.74999999999994
 31
0.0
  0
LINE
  5
144F
  8
240
  6
CONTINUOUS
 10
0.9999999999986355
 20
-31.75000000000006
 30
0.0
 11
0.9999999999986355
 21
-22.22500000000008
 31
0.0
  0
LINE
  5
1450
  8
240
  6
CONTINUOUS
 10
0.9999999999986355
 20
-31.75000000000006
 30
0.0
 11
7.5935566243268759
 21
-31.75000000000006
 31
0.0
  0
LINE
  5
1451
  8
240
  6
CONTINUOUS
 10
0.9999999999986355
 20
31.74999999999994
 30
0.0
 11
0.9999999999986355
 21
22.224999999999969
 31
0.0
  0
LINE
  5
1452
  8
241
  6
CONTINUOUS
 10
19.049999999999841
 20
-22.22500000000008
 30
0.0
 11
19.049999999999841
 21
22.224999999999969
 31
0.0
  0
LINE
  5
1453
  8
241
  6
CONTINUOUS
 10
9.1999999999998181
 20
28.17999999999989
 30
0.0
 11
9.1999999999998181
 21
-28.18000000000001
 31
0.0
  0
LINE
  5
1454
  8
241
  6
CONTINUOUS
 10
13.03999999999985
 20
28.17999999999989
 30
0.0
 11
13.03999999999985
 21
-28.18000000000001
 31
0.0
  0
LINE
  5
1455
  8
241
  6
CONTINUOUS
 10
14.644999999999859
 20
-31.747500000000048
 30
0.0
 11
14.644999999999859
 21
31.747499999999949
 31
0.0
  0
LINE
  5
1456
  8
241
  6
CONTINUOUS
 10
-0.0000000000001137
 20
22.224999999999969
 30
0.0
 11
0.0000000000001137
 21
-22.22500000000008
 31
0.0
  0
LINE
  5
1457
  8
241
  6
CONTINUOUS
 10
0.9999999999986355
 20
22.224999999999969
 30
0.0
 11
0.9999999999986355
 21
-22.22500000000008
 31
0.0
  0
LINE
  5
1458
  8
241
  6
CONTINUOUS
 10
7.5949999999999109
 20
31.747499999999949
 30
0.0
 11
7.5949999999999109
 21
-31.747500000000048
 31
0.0
  0
LINE
  5
1459
  8
243
  6
HIDDEN2
 10
19.049999999999841
 20
-22.57000000000005
 30
0.0
 11
0.9999999999987208
 21
-22.56999999999999
 31
0.0
  0
LINE
  5
145A
  8
243
  6
HIDDEN2
 10
0.9999999999986355
 20
24.979999999999961
 30
0.0
 11
19.049999999999841
 21
24.979999999999961
 31
0.0
  0
LINE
  5
145B
  8
245
  6
CENTER2
 10
-71.745351725821806
 20
-0.0000000000000568
 30
0.0
 11
154.71515729477721
 21
-0.0000000000000551
 31
0.0
  0
LINE
  5
145C
  8
240
  6
CONTINUOUS
 10
-0.0000000000001137
 20
22.224999999999969
 30
0.0
 11
0.9999999999986355
 21
22.224999999999969
 31
0.0
  0
LINE
  5
145D
  8
240
  6
CONTINUOUS
 10
-0.0000000000001137
 20
-22.22500000000008
 30
0.0
 11
0.9999999999986355
 21
-22.22500000000008
 31
0.0
  0
TEXT
  5
145E
  8
250
  6
CONTINUOUS
 10
-56.119551992267219
 20
-27.08950977889225
 30
0.0
 40
2.799999999999998
  1
BCV40
  7
YOKO
1001
ITEMNAME
1000
LNSP3
  0
LINE
  5
145F
  8
250
  6
CONTINUOUS
 10
-40.386218658933892
 20
-28.08950977889225
 30
0.0
 11
-58.386218658933899
 21
-28.08950977889225
 31
0.0
1001
ITEMNAME
1000
LNSP2
  0
LINE
  5
1460
  8
250
  6
CONTINUOUS
 10
-35.41390497452047
 20
-18.813632398902879
 30
0.0
 11
-34.124999998933909
 21
-17.248437498892262
 31
0.0
  0
LINE
  5
1461
  8
250
  6
CONTINUOUS
 10
-34.836603656917731
 20
-19.14705050449794
 30
0.0
 11
-34.124999998933909
 21
-17.248437498892262
 31
0.0
  0
LINE
  5
1462
  8
250
  6
CONTINUOUS
 10
-34.124999998933909
 20
-17.248437498892262
 30
0.0
 11
-35.125254315719111
 21
-18.98034145170044
 31
0.0
  0
LINE
  5
1463
  8
250
  6
CONTINUOUS
 10
-35.125254315719111
 20
-18.98034145170044
 30
0.0
 11
-40.386218658933892
 21
-28.08950977889225
 31
0.0
1001
ACAD
1000
DSTYLE
1002
{
1070
     6
1000
OPEN
1070
    41
1040
2.0
1070
    42
1040
2.0
1070
    44
1040
2.0
1070
   140
1040
4.0
1070
   343
1005
0
1002
}
  0
LINE
  5
1464
  8
247
  6
CONTINUOUS
 10
5.4999999999999432
 20
-18.75
 30
0.0
 11
5.5
 21
-14.115384615670051
 31
0.0
  0
LINE
  5
1465
  8
247
  6
CONTINUOUS
 10
3.0
 20
-17.954893499987971
 30
0.0
 11
5.0999999999160082
 21
-18.557058810057342
 31
0.0
  0
LINE
  5
1466
  8
247
  6
CONTINUOUS
 10
3.996153846113998
 20
-17.32515140351904
 30
0.0
 11
3.996153846113998
 21
-18.240536018867019
 31
0.0
  0
ARC
  5
1467
  8
247
  6
CONTINUOUS
 10
3.3847190672940992
 20
-17.08726340194681
 30
0.0
 40
0.3876715809326743
 50
72.9978896752922
 51
172.92416621851359
  0
ARC
  5
1468
  8
247
  6
CONTINUOUS
 10
3.305223131028014
 20
-17.38247755680413
 30
0.0
 40
0.693304796535877
 50
4.7429368522022122
 51
73.849226273266751
1001
GENIUS_GENOBJ-N-FIL_13
1002
{
1000
OWNER
1000
GEN
1002
}
1001
GENIUS_GENODEF_13
1002
{
1000
HIER
1070
     0
1002
}
1002
{
1000
MANEDIT
1070
     0
1002
}
1002
{
1000
NOSEL
1070
     0
1002
}
1002
{
1000
BEHIND
1070
     0
1002
}
1002
{
1000
OTHER
1070
     0
1002
}
1002
{
1000
REACTOR
1002
}
  0
LINE
  5
1469
  8
247
  6
CONTINUOUS
 10
5.0999999999160082
 20
-17.64167419470936
 30
0.0
 11
5.0999999999160082
 21
-18.557058810057342
 31
0.0
  0
LINE
  5
146A
  8
247
  6
CONTINUOUS
 10
3.0
 20
-17.954893499987971
 30
0.0
 11
3.0
 21
-17.039508884639979
 31
0.0
  0
ARC
  5
146B
  8
247
  6
CONTINUOUS
 10
4.3874169627678707
 20
-17.378306476266861
 30
0.0
 40
0.394857301075386
 50
65.990941652528889
 51
172.26344345906909
  0
ARC
  5
146C
  8
247
  6
CONTINUOUS
 10
4.3912003273325659
 20
-17.71244661042692
 30
0.0
 40
0.7123241612361686
 50
5.701985164259705
 51
77.277338436822006
1001
GENIUS_GENOBJ-N-FIL_13
1002
{
1000
OWNER
1000
GEN
1002
}
1001
GENIUS_GENODEF_13
1002
{
1000
HIER
1070
     0
1002
}
1002
{
1000
MANEDIT
1070
     0
1002
}
1002
{
1000
NOSEL
1070
     0
1002
}
1002
{
1000
BEHIND
1070
     0
1002
}
1002
{
1000
OTHER
1070
     0
1002
}
1002
{
1000
REACTOR
1002
}
  0
LINE
  5
146D
  8
247
  6
CONTINUOUS
 10
5.0999999999160082
 20
-16.683981887063378
 30
0.0
 11
3.0
 21
-16.081816576994012
 31
0.0
  0
LINE
  5
146E
  8
247
  6
CONTINUOUS
 10
3.0
 20
-14.58566273090798
 30
0.0
 11
3.0
 21
-14.981678364303599
 31
0.0
  0
LINE
  5
146F
  8
247
  6
CONTINUOUS
 10
5.0999999999160082
 20
-15.60873965394398
 30
0.0
 11
5.0999999999160082
 21
-15.17797042319199
 31
0.0
  0
ARC
  5
1470
  8
247
  6
CONTINUOUS
 10
4.458299595083357
 20
-14.381816577069969
 30
0.0
 40
1.576855057639547
 50
202.35948814152911
 51
254.99324854284649
  0
ARC
  5
1471
  8
247
  6
CONTINUOUS
 10
3.5658188585381341
 20
-14.847511366133229
 30
0.0
 40
0.6234706797009447
 50
94.994589319075317
 51
155.1663289573039
1001
GENIUS_GENOBJ-N-FIL_13
1002
{
1000
OWNER
1000
GEN
1002
}
1001
GENIUS_GENODEF_13
1002
{
1000
HIER
1070
     0
1002
}
1002
{
1000
MANEDIT
1070
     0
1002
}
1002
{
1000
NOSEL
1070
     0
1002
}
1002
{
1000
BEHIND
1070
     0
1002
}
1002
{
1000
OTHER
1070
     0
1002
}
1002
{
1000
REACTOR
1002
}
  0
ARC
  5
1472
  8
247
  6
CONTINUOUS
 10
4.1621021219694381
 20
-15.44418395103281
 30
0.0
 40
0.9749472149106981
 50
15.8460965557808
 51
82.325137004169278
  0
ARC
  5
1473
  8
247
  6
CONTINUOUS
 10
4.3714704019710631
 20
-15.035211638772241
 30
0.0
 40
0.9271945638692009
 50
249.7136016704969
 51
321.78874565641138
1001
GENIUS_GENOBJ-N-FIL_13
1002
{
1000
OWNER
1000
GEN
1002
}
1001
GENIUS_GENODEF_13
1002
{
1000
HIER
1070
     0
1002
}
1002
{
1000
MANEDIT
1070
     0
1002
}
1002
{
1000
NOSEL
1070
     0
1002
}
1002
{
1000
BEHIND
1070
     0
1002
}
1002
{
1000
OTHER
1070
     0
1002
}
1002
{
1000
REACTOR
1002
}
  0
LINE
  5
1474
  8
247
  6
CONTINUOUS
 10
4.2923076922559744
 20
-14.962585807815961
 30
0.0
 11
4.2923076922559744
 21
-14.47797042321997
 31
0.0
  0
ARC
  5
1475
  8
247
  6
CONTINUOUS
 10
4.25
 20
-18.75
 30
0.0
 40
1.25
 50
180.0
 51
0.0
  0
LINE
  5
1476
  8
247
  6
CONTINUOUS
 10
3.0
 20
-18.75
 30
0.0
 11
3.0
 21
-18.303846153914041
 31
0.0
  0
ARC
  5
1477
  8
247
  6
CONTINUOUS
 10
4.25
 20
-14.115384615670051
 30
0.0
 40
1.25
 50
0.0
 51
180.0
  0
LINE
  5
1478
  8
240
  6
CONTINUOUS
 10
119.400157569404
 20
24.99999999999994
 30
0.0
 11
119.4001575694043
 21
20.499999999991161
 31
0.0
  0
LINE
  5
1479
  8
240
  6
CONTINUOUS
 10
141.40000000000009
 20
18.899999999999771
 30
0.0
 11
141.39999999999961
 21
-18.899999999999999
 31
0.0
  0
LINE
  5
147A
  8
240
  6
CONTINUOUS
 10
139.49474411167341
 20
-20.0
 30
0.0
 11
126.13109767707
 21
-19.999999999999961
 31
0.0
  0
LINE
  5
147B
  8
240
  6
CONTINUOUS
 10
119.4001575694042
 20
-20.499999999991029
 30
0.0
 11
125.611482434801
 21
-20.500000000001119
 31
0.0
  0
LINE
  5
147C
  8
241
  6
CONTINUOUS
 10
124.9001575694046
 20
-20.499999999999961
 30
0.0
 11
124.9001575694072
 21
20.500000000000082
 31
0.0
1001
GRPNAME
1000
PASTMD0T
  0
LINE
  5
147D
  8
241
  6
CONTINUOUS
 10
123.8001575694046
 20
-20.49999999999817
 30
0.0
 11
123.8001575694074
 21
20.499999999998291
 31
0.0
1001
GRPNAME
1000
PASTMD0T
  0
LINE
  5
147E
  8
242
  6
CONTINUOUS
 10
127.9001575694035
 20
-19.99999999999984
 30
0.0
 11
127.90015756940581
 21
20.000000000000082
 31
0.0
  0
LINE
  5
147F
  8
240
  6
CONTINUOUS
 10
125.7846875155562
 20
-20.1999999999999
 30
0.0
 11
125.611482434801
 21
-20.500000000001119
 31
0.0
  0
ARC
  5
1480
  8
240
  6
CONTINUOUS
 10
126.13109767707
 20
-20.399999999999942
 30
0.0
 40
0.4
 50
90.0
 51
149.9999999999996
  0
LINE
  5
1481
  8
241
  6
CONTINUOUS
 10
125.9001575693942
 20
-20.073401367628811
 30
0.0
 11
125.9001575693942
 21
20.073401367630481
 31
0.0
  0
LINE
  5
1482
  8
241
  6
CONTINUOUS
 10
125.6114824347992
 20
-20.500000000001119
 30
0.0
 11
125.6114824348
 21
20.500000000001229
 31
0.0
  0
LINE
  5
1483
  8
242
  6
CONTINUOUS
 10
127.9001575694012
 20
-19.249999999999911
 30
0.0
 11
140.79378221735189
 21
-19.249999999999758
 31
0.0
  0
LINE
  5
1484
  8
240
  6
CONTINUOUS
 10
141.39999999999961
 20
-18.899999999999999
 30
0.0
 11
139.49474411167341
 21
-20.0
 31
0.0
  0
LINE
  5
1485
  8
241
  6
CONTINUOUS
 10
139.49474411167421
 20
-20.000000000000149
 30
0.0
 11
139.49474411167441
 21
20.00000000000011
 31
0.0
  0
LINE
  5
1486
  8
241
  6
CONTINUOUS
 10
119.4001575694042
 20
-20.499999999991029
 30
0.0
 11
119.4001575694042
 21
20.499999999991161
 31
0.0
  0
LINE
  5
1487
  8
240
  6
CONTINUOUS
 10
139.49474411167341
 20
20.000000000000121
 30
0.0
 11
126.13109767707
 21
20.000000000000082
 31
0.0
  0
LINE
  5
1488
  8
240
  6
CONTINUOUS
 10
119.4001575694043
 20
20.499999999991161
 30
0.0
 11
125.611482434801
 21
20.500000000001229
 31
0.0
  0
LINE
  5
1489
  8
240
  6
CONTINUOUS
 10
125.7846875155562
 20
20.200000000000031
 30
0.0
 11
125.611482434801
 21
20.500000000001229
 31
0.0
  0
ARC
  5
148A
  8
240
  6
CONTINUOUS
 10
126.13109767707
 20
20.400000000000059
 30
0.0
 40
0.4
 50
210.0000000000004
 51
270.0
  0
LINE
  5
148B
  8
242
  6
CONTINUOUS
 10
127.9001575694012
 20
19.250000000000021
 30
0.0
 11
140.79378221735189
 21
19.249999999999879
 31
0.0
  0
LINE
  5
148C
  8
240
  6
CONTINUOUS
 10
141.40000000000009
 20
18.899999999999771
 30
0.0
 11
139.49474411167341
 21
20.000000000000121
 31
0.0
  0
LINE
  5
148D
  8
246
  6
PHANTOM2
 10
152.40000000000001
 20
-24.99999999999995
 30
0.0
 11
152.40000000000001
 21
25.00000000000006
 31
0.0
1001
GRPNAME
1000
PASTMD01
  0
LINE
  5
148E
  8
246
  6
PHANTOM2
 10
152.40000000000001
 20
25.00000000000006
 30
0.0
 11
122.2
 21
25.00000000000006
 31
0.0
  0
LINE
  5
148F
  8
250
  6
CONTINUOUS
 10
152.90000000000001
 20
-24.99999999999995
 30
0.0
 11
167.40000000000001
 21
-24.99999999999995
 31
0.0
  0
LINE
  5
1490
  8
250
  6
CONTINUOUS
 10
152.90000000000001
 20
25.00000000000006
 30
0.0
 11
167.40000000000001
 21
25.00000000000006
 31
0.0
  0
LINE
  5
1491
  8
250
  6
CONTINUOUS
 10
166.40000000000001
 20
-22.99999999999994
 30
0.0
 11
166.40000000000001
 21
23.00000000000006
 31
0.0
  0
INSERT
  5
1492
  8
250
  6
CONTINUOUS
  2
_OPEN
 10
166.40000000000001
 20
-24.99999999999995
 30
0.0
 41
2.0
 42
2.0
 43
2.0
 50
270.0
  0
INSERT
  5
1493
  8
250
  6
CONTINUOUS
  2
_OPEN
 10
166.40000000000001
 20
25.00000000000006
 30
0.0
 41
2.0
 42
2.0
 43
2.0
 50
90.0
  0
LINE
  5
1494
  8
246
  6
PHANTOM2
 10
152.40000000000001
 20
-24.99999999999995
 30
0.0
 11
122.2
 21
-24.99999999999995
 31
0.0
  0
LINE
  5
1495
  8
243
  6
HIDDEN2
 10
112.40000000000001
 20
12.174337938566129
 30
0.0
 11
141.40000000000001
 21
16.250022144935588
 31
0.0
  0
LINE
  5
1496
  8
243
  6
HIDDEN2
 10
112.40000000000001
 20
-12.17433793856601
 30
0.0
 11
141.40000000000001
 21
-16.250022144935478
 31
0.0
  0
LINE
  5
1497
  8
240
  6
CONTINUOUS
 10
119.4001575694041
 20
-25.00000000000016
 30
0.0
 11
119.4001575694044
 21
-20.499999999991079
 31
0.0
  0
TEXT
  5
1498
  8
241
  6
CONTINUOUS
 10
-70.0
 20
63.0
 30
0.0
 40
5.0
  1
BCV40-MEGAER32-6NL
  7
YOKO
 11
-70.0
 21
63.0
 31
0.0
 73
     1
  0
TEXT
  5
14AD
  8
250
  6
CONTINUOUS
 10
165.40000000000001
 20
-7.4309340242434061
 30
0.0
 40
2.799999999999998
  1
\U+2205
 50
90.0
  0
TEXT
  5
14AE
  8
250
  6
CONTINUOUS
 10
165.40000000000001
 20
-4.8976006909100729
 30
0.0
 40
2.799999999999998
  1
1.969
 50
90.0
  0
LINE
  5
14E3
  8
240
  6
CONTINUOUS
 10
35.000000000000348
 20
-22.225000000000001
 30
0.0
 11
19.049999999999841
 21
-22.225000000000051
 31
0.0
  0
LINE
  5
14E4
  8
240
  6
CONTINUOUS
 10
35.000000000000213
 20
22.224999999999881
 30
0.0
 11
19.049999999999841
 21
22.224999999999849
 31
0.0
  0
LINE
  5
14E6
  8
240
  6
CONTINUOUS
 10
39.806440991003903
 20
24.999999999999911
 30
0.0
 11
119.400157569404
 21
24.99999999999994
 31
0.0
  0
LINE
  5
14E7
  8
240
  6
CONTINUOUS
 10
39.806440991004358
 20
-24.999999999999961
 30
0.0
 11
119.4001575694041
 21
-25.00000000000016
 31
0.0
  0
LINE
  5
14E8
  8
240
  6
CONTINUOUS
 10
39.80644099100391
 20
24.999999999999911
 30
0.0
 11
35.000000000000199
 21
22.224999999999891
 31
0.0
  0
LINE
  5
14E9
  8
240
  6
CONTINUOUS
 10
39.806440991004372
 20
-24.999999999999972
 30
0.0
 11
35.000000000000348
 21
-22.225000000000001
 31
0.0
  0
LINE
  5
14F3
  8
241
  6
CONTINUOUS
 10
34.99999999999995
 20
-22.225000000000009
 30
0.0
 11
34.999999999999559
 21
22.224999999999881
 31
0.0
  0
LINE
  5
14F4
  8
241
  6
CONTINUOUS
 10
39.806440991004372
 20
-24.92686608800453
 30
0.0
 11
39.806440991004187
 21
24.999999999999911
 31
0.0
  0
LINE
  5
155E
  8
250
  6
CONTINUOUS
 10
152.40000000000001
 20
25.50000000000006
 30
0.0
 11
152.40000000000001
 21
50.0
 31
0.0
  0
LINE
  5
155F
  8
250
  6
CONTINUOUS
 10
-0.0000000000001137
 20
22.724999999999969
 30
0.0
 11
-0.000000000000112
 21
50.0
 31
0.0
  0
LINE
  5
1560
  8
250
  6
CONTINUOUS
 10
150.16999999999999
 20
49.0
 30
0.0
 11
2.2299999999998881
 21
49.0
 31
0.0
  0
LINE
  5
1564
  8
250
  6
CONTINUOUS
 10
152.40000000000001
 20
25.50000000000006
 30
0.0
 11
152.40000000000001
 21
43.000000000000028
 31
0.0
  0
LINE
  5
1565
  8
250
  6
CONTINUOUS
 10
46.400000000000063
 20
10.64999999999972
 30
0.0
 11
46.400000000000063
 21
43.000000000000028
 31
0.0
  0
LINE
  5
1566
  8
250
  6
CONTINUOUS
 10
150.16999999999999
 20
42.000000000000021
 30
0.0
 11
48.630000000000059
 21
42.000000000000021
 31
0.0
  0
LINE
  5
156A
  8
250
  6
CONTINUOUS
 10
150.16999999999999
 20
49.371666666666663
 30
0.0
 11
152.40000000000001
 21
49.0
 31
0.0
  0
LINE
  5
156B
  8
250
  6
CONTINUOUS
 10
150.16999999999999
 20
48.628333333333323
 30
0.0
 11
152.40000000000001
 21
49.0
 31
0.0
  0
LINE
  5
156C
  8
250
  6
CONTINUOUS
 10
152.40000000000001
 20
49.0
 30
0.0
 11
150.16999999999999
 21
49.0
 31
0.0
  0
LINE
  5
156D
  8
250
  6
CONTINUOUS
 10
150.16999999999999
 20
42.371666666666691
 30
0.0
 11
152.40000000000001
 21
42.000000000000021
 31
0.0
  0
LINE
  5
156E
  8
250
  6
CONTINUOUS
 10
150.16999999999999
 20
41.628333333333359
 30
0.0
 11
152.40000000000001
 21
42.000000000000021
 31
0.0
  0
LINE
  5
156F
  8
250
  6
CONTINUOUS
 10
152.40000000000001
 20
42.000000000000021
 30
0.0
 11
150.16999999999999
 21
42.000000000000021
 31
0.0
  0
LINE
  5
1570
  8
250
  6
CONTINUOUS
 10
2.2299999999998881
 20
48.628333333333323
 30
0.0
 11
-0.0000000000001121
 21
49.0
 31
0.0
  0
LINE
  5
1571
  8
250
  6
CONTINUOUS
 10
2.2299999999998881
 20
49.371666666666663
 30
0.0
 11
-0.0000000000001121
 21
49.0
 31
0.0
  0
LINE
  5
1572
  8
250
  6
CONTINUOUS
 10
-0.0000000000001121
 20
49.0
 30
0.0
 11
2.2299999999998881
 21
49.0
 31
0.0
  0
LINE
  5
1573
  8
250
  6
CONTINUOUS
 10
48.630000000000059
 20
41.628333333333359
 30
0.0
 11
46.400000000000063
 21
42.000000000000021
 31
0.0
  0
LINE
  5
1574
  8
250
  6
CONTINUOUS
 10
48.630000000000059
 20
42.371666666666691
 30
0.0
 11
46.400000000000063
 21
42.000000000000021
 31
0.0
  0
LINE
  5
1575
  8
250
  6
CONTINUOUS
 10
46.400000000000063
 20
42.000000000000021
 30
0.0
 11
48.630000000000059
 21
42.000000000000021
 31
0.0
  0
TEXT
  5
181A
  8
250
 10
71.466666666666612
 20
50.0
 30
0.0
 40
2.799999999999998
  1
6.00
  0
TEXT
  5
181D
  8
250
 10
87.800000000000054
 20
43.466666666666697
 30
0.0
 40
2.799999999999998
  1
(max.4.17)
  0
VIEWPORT
  5
22
 67
     1
  8
0
 10
261.51769911504419
 20
148.5
 30
0.0
 40
523.0353982300885
 41
297.0
 68
     1
 69
     1
1001
ACAD
1000
MVIEW
1002
{
1070
    16
1010
0.0
1020
0.0
1030
0.0
1010
0.0
1020
0.0
1030
1.0
1040
0.0
1040
297.0
1040
261.51769911504419
1040
148.5
1040
50.0
1040
0.0
1040
0.0
1070
     0
1070
   100
1070
     1
1070
     1
1070
     0
1070
     0
1070
     0
1070
     0
1040
0.0
1040
0.0
1040
0.0
1040
1.0
1040
1.0
1040
10.0
1040
10.0
1070
     0
1002
{
1002
}
1002
}
1001
GENIUS_GENODEF_13
1002
{
1000
HIER
1070
     0
1002
}
1002
{
1000
MANEDIT
1070
     0
1002
}
1002
{
1000
NOSEL
1070
     0
1002
}
1002
{
1000
BEHIND
1070
     0
1002
}
1002
{
1000
OTHER
1070
     0
1002
}
1002
{
1000
REACTOR
1002
}
1001
GENIUS_GENOBJ-N-SDF_13
1002
{
1000
OWNER
1000
GEN
1002
}
1001
GENIUS_GENSCREG_15
1000
PF
1040
1.0
1000
DF
1040
1.0
1000
MIN
1011
0.0
1021
0.0
1031
0.0
1021
0.0
1031
0.0
1000
MAX
1011
523.0353982300885
1021
0.0
1031
0.0
1021
297.0
1031
0.0
1000
FLAGS
1070
     4
  0
ENDSEC
  0
EOF
