  0
SECTION
  2
HEADER
  9
$ACADVER
  1
AC1009
  9
$DWGCODEPAGE
  3
ansi_932
  9
$INSBASE
 10
0.0
 20
0.0
 30
0.0
  9
$EXTMIN
 10
-69.26917935493077
 20
-31.75379821999241
 30
-0.0000000349181948
  9
$EXTMAX
 10
358.0206928544919
 20
68.00357172500873
 30
0.0000000814935746
  9
$LIMMIN
 10
0.0
 20
0.0
  9
$LIMMAX
 10
297.0
 20
210.0
  9
$ORTHOMODE
 70
     0
  9
$REGENMODE
 70
     1
  9
$FILLMODE
 70
     1
  9
$QTEXTMODE
 70
     0
  9
$MIRRTEXT
 70
     1
  9
$DRAGMODE
 70
     2
  9
$LTSCALE
 40
10.0
  9
$OSMODE
 70
   511
  9
$ATTMODE
 70
     1
  9
$TEXTSIZE
 40
3.0
  9
$TRACEWID
 40
1.0
  9
$TEXTSTYLE
  7
YOKO
  9
$CLAYER
  8
245
  9
$CELTYPE
  6
BYLAYER
  9
$CECOLOR
 62
   256
  9
$DIMSCALE
 40
1.0
  9
$DIMASZ
 40
2.0
  9
$DIMEXO
 40
0.5
  9
$DIMDLI
 40
2.5
  9
$DIMRND
 40
0.0
  9
$DIMDLE
 40
0.0
  9
$DIMEXE
 40
1.0
  9
$DIMTP
 40
0.0
  9
$DIMTM
 40
0.0
  9
$DIMTXT
 40
2.799999999999999
  9
$DIMCEN
 40
0.0
  9
$DIMTSZ
 40
0.0
  9
$DIMTOL
 70
     0
  9
$DIMLIM
 70
     0
  9
$DIMTIH
 70
     0
  9
$DIMTOH
 70
     0
  9
$DIMSE1
 70
     0
  9
$DIMSE2
 70
     0
  9
$DIMTAD
 70
     3
  9
$DIMZIN
 70
     8
  9
$DIMBLK
  1

  9
$DIMASO
 70
     1
  9
$DIMSHO
 70
     1
  9
$DIMPOST
  1

  9
$DIMAPOST
  1

  9
$DIMALT
 70
     0
  9
$DIMALTD
 70
     2
  9
$DIMALTF
 40
25.4
  9
$DIMLFAC
 40
1.0
  9
$DIMTOFL
 70
     1
  9
$DIMTVP
 40
0.0
  9
$DIMTIX
 70
     1
  9
$DIMSOXD
 70
     0
  9
$DIMSAH
 70
     1
  9
$DIMBLK1
  1
OPEN
  9
$DIMBLK2
  1
OPEN
  9
$DIMSTYLE
  2
BIGT
  9
$DIMCLRD
 70
     3
  9
$DIMCLRE
 70
     3
  9
$DIMCLRT
 70
    40
  9
$DIMTFAC
 40
1.0
  9
$DIMGAP
 40
1.0
  9
$LUNITS
 70
     2
  9
$LUPREC
 70
     3
  9
$SKETCHINC
 40
1.0
  9
$FILLETRAD
 40
1.0
  9
$AUNITS
 70
     0
  9
$AUPREC
 70
     3
  9
$MENU
  1
.
  9
$ELEVATION
 40
0.0
  9
$PELEVATION
 40
0.0
  9
$THICKNESS
 40
0.0
  9
$LIMCHECK
 70
     0
  9
$CHAMFERA
 40
10.0
  9
$CHAMFERB
 40
10.0
  9
$SKPOLY
 70
     0
  9
$TDCREATE
 40
2457744.096669387
  9
$TDUPDATE
 40
2457744.103238391
  9
$TDINDWG
 40
0.0065699306
  9
$TDUSRTIMER
 40
2458339.798367349
  9
$USRTIMER
 70
     1
  9
$ANGBASE
 50
0.0
  9
$ANGDIR
 70
     0
  9
$PDMODE
 70
    35
  9
$PDSIZE
 40
-5.0
  9
$PLINEWID
 40
0.0
  9
$COORDS
 70
     1
  9
$SPLFRAME
 70
     0
  9
$SPLINETYPE
 70
     6
  9
$SPLINESEGS
 70
     8
  9
$ATTDIA
 70
     0
  9
$ATTREQ
 70
     1
  9
$HANDLING
 70
     1
  9
$HANDSEED
  5
D68
  9
$SURFTAB1
 70
     6
  9
$SURFTAB2
 70
     6
  9
$SURFTYPE
 70
     6
  9
$SURFU
 70
     6
  9
$SURFV
 70
     6
  9
$UCSNAME
  2

  9
$UCSORG
 10
0.0
 20
0.0
 30
0.0
  9
$UCSXDIR
 10
1.0
 20
0.0
 30
0.0
  9
$UCSYDIR
 10
0.0
 20
1.0
 30
0.0
  9
$PUCSNAME
  2

  9
$PUCSORG
 10
0.0
 20
0.0
 30
0.0
  9
$PUCSXDIR
 10
1.0
 20
0.0
 30
0.0
  9
$PUCSYDIR
 10
0.0
 20
1.0
 30
0.0
  9
$USERI1
 70
     1
  9
$USERI2
 70
     0
  9
$USERI3
 70
     0
  9
$USERI4
 70
     0
  9
$USERI5
 70
     0
  9
$USERR1
 40
0.0
  9
$USERR2
 40
0.0
  9
$USERR3
 40
0.0
  9
$USERR4
 40
0.0
  9
$USERR5
 40
0.0
  9
$WORLDVIEW
 70
     1
  9
$SHADEDGE
 70
     3
  9
$SHADEDIF
 70
    70
  9
$TILEMODE
 70
     1
  9
$MAXACTVP
 70
    16
  9
$PLIMCHECK
 70
     0
  9
$PEXTMIN
 10
1.000000000000000E+20
 20
1.000000000000000E+20
 30
1.000000000000000E+20
  9
$PEXTMAX
 10
-1.000000000000000E+20
 20
-1.000000000000000E+20
 30
-1.000000000000000E+20
  9
$PLIMMIN
 10
0.0
 20
0.0
  9
$PLIMMAX
 10
420.0
 20
297.0
  9
$UNITMODE
 70
     0
  9
$VISRETAIN
 70
     0
  9
$PLINEGEN
 70
     0
  9
$PSLTSCALE
 70
     1
  0
ENDSEC
  0
SECTION
  2
TABLES
  0
TABLE
  2
VPORT
 70
     1
  0
VPORT
  2
*ACTIVE
 70
     0
 10
0.0
 20
0.0
 11
1.0
 21
1.0
 12
144.3757567497805
 22
18.12488675250816
 13
0.0
 23
0.0
 14
7.0
 24
7.0
 15
7.0
 25
7.0
 16
0.0
 26
0.0
 36
1.0
 17
0.0
 27
0.0
 37
0.0
 40
223.9626289961185
 41
1.914539400665926
 42
50.0
 43
0.0
 44
0.0
 50
0.0
 51
0.0
 71
     0
 72
 20000
 73
     1
 74
     0
 75
     0
 76
     0
 77
     0
 78
     0
  0
ENDTAB
  0
TABLE
  2
LTYPE
 70
     2
  0
LTYPE
  2
CONTINUOUS
 70
     0
  3
Solid line
 72
    65
 73
     0
 40
0.0
  0
LTYPE
  2
CENTER2
 70
     0
  3
___ _ ___ _ ___ _ ___ _ ___ _ ___ _ ___ _ ___ _
 72
    65
 73
     4
 40
1.125
 49
0.75
 49
-0.125
 49
0.125
 49
-0.125
  0
ENDTAB
  0
TABLE
  2
LAYER
 70
     6
  0
LAYER
  2
0
 70
     0
 62
     7
  6
CONTINUOUS
  0
LAYER
  2
240
 70
     0
 62
     4
  6
CONTINUOUS
  0
LAYER
  2
241
 70
     0
 62
   211
  6
CONTINUOUS
  0
LAYER
  2
245
 70
     0
 62
     2
  6
CENTER2
  0
LAYER
  2
247
 70
     0
 62
    60
  6
CONTINUOUS
  0
LAYER
  2
250
 70
     0
 62
     3
  6
CONTINUOUS
  0
ENDTAB
  0
TABLE
  2
STYLE
 70
     2
  0
STYLE
  2
STANDARD
 70
     0
 40
0.0
 41
1.0
 50
0.0
 71
     0
 42
3.0
  3
romans.shx
  4
BIGFONT.SHX
  0
STYLE
  2
YOKO
 70
     0
 40
0.0
 41
1.0
 50
0.0
 71
     0
 42
3.0
  3
romans.shx
  4
extfont.shx
  0
ENDTAB
  0
TABLE
  2
VIEW
 70
     0
  0
ENDTAB
  0
TABLE
  2
UCS
 70
     0
  0
ENDTAB
  0
TABLE
  2
APPID
 70
    20
  0
APPID
  2
ACAD
 70
     0
  0
APPID
  2
GLOBAL
 70
     0
  0
APPID
  2
DETAIL
 70
     0
  0
APPID
  2
GRPNAME
 70
     0
  0
APPID
  2
GPARA
 70
     0
  0
APPID
  2
DCO15
 70
     0
  0
APPID
  2
ITEMNAME
 70
     0
  0
APPID
  2
GRADE_0
 70
     0
  0
APPID
  2
ACAD_DSTYLE_DIMJAG
 70
     0
  0
APPID
  2
ACAD_DSTYLE_DIMTALN
 70
     0
  0
APPID
  2
ACAD_NAV_VCDISPLAY
 70
     0
  0
APPID
  2
ACAD_MLEADERVER
 70
     0
  0
APPID
  2
ACAD_DSTYLE_DIMBREAK
 70
     0
  0
APPID
  2
GENIUS_GENODEF_13
 70
     0
  0
APPID
  2
GENIUS_GENOBJ-N-FIL_13
 70
     0
  0
APPID
  2
ACAD_DSTYLE_DIMINSPECT
 70
     0
  0
APPID
  2
ACAD_PSEXT
 70
     0
  0
APPID
  2
LAYER_SCALE
 70
     0
  0
APPID
  2
ASK_MEN_XD
 70
     0
  0
APPID
  2
ACAD_EXEMPT_FROM_CAD_STAND
 70
     0
  0
ENDTAB
  0
TABLE
  2
DIMSTYLE
 70
     1
  0
DIMSTYLE
  2
BIGT
 70
     0
  3

  4

  5

  6
OPEN
  7
OPEN
 40
1.0
 41
2.0
 42
0.5
 43
2.5
 44
1.0
 45
0.0
 46
0.0
 47
0.0
 48
0.0
140
2.799999999999999
141
0.0
142
0.0
143
25.4
144
1.0
145
0.0
146
1.0
147
1.0
 71
     0
 72
     0
 73
     0
 74
     0
 75
     0
 76
     0
 77
     3
 78
     8
170
     0
171
     2
172
     1
173
     1
174
     1
175
     0
176
     3
177
     3
178
    40
  0
ENDTAB
  0
ENDSEC
  0
SECTION
  2
BLOCKS
  0
BLOCK
  8
0
  2
$MODEL_SPACE
 70
     0
 10
0.0
 20
0.0
 30
0.0
  3
$MODEL_SPACE
  1

  0
ENDBLK
  5
1C
  8
0
  0
BLOCK
 67
     1
  8
0
  2
$PAPER_SPACE
 70
     0
 10
0.0
 20
0.0
 30
0.0
  3
$PAPER_SPACE
  1

  0
ENDBLK
  5
19
 67
     1
  8
0
  0
BLOCK
  8
0
  2
_OPEN
 70
     0
 10
0.0
 20
0.0
 30
0.0
  3
_OPEN
  1

  0
LINE
  5
595
  8
0
  6
BYBLOCK
 62
     0
 10
-1.0
 20
0.1666666666666666
 30
0.0
 11
0.0
 21
0.0
 31
0.0
  0
LINE
  5
596
  8
0
  6
BYBLOCK
 62
     0
 10
-1.0
 20
-0.1666666666666666
 30
0.0
 11
0.0
 21
0.0
 31
0.0
  0
LINE
  5
597
  8
0
  6
BYBLOCK
 62
     0
 10
0.0
 20
0.0
 30
0.0
 11
-1.0
 21
0.0
 31
0.0
  0
ENDBLK
  5
599
  8
0
  0
BLOCK
  8
0
  2
矢印なし
 70
     0
 10
0.0
 20
0.0
 30
0.0
  3
矢印なし
  1

  0
ENDBLK
  5
6E5
  8
0
  0
BLOCK
  8
0
  2
*X2
 70
     1
 10
0.0
 20
0.0
 30
0.0
  3
*X2
  1

  0
TEXT
  5
D63
  8
250
  6
CONTINUOUS
 10
356.0000000000001
 20
-7.341620590849516
 30
0.0
 40
2.8
  1
\U+00F8
 50
90.0
  0
TEXT
  5
D64
  8
250
  6
CONTINUOUS
 10
356.0000000000001
 20
-4.67495392418283
 30
0.0
 40
2.799999999999999
  1
2.000
 50
90.0
  0
ENDBLK
  5
D66
  8
0
  0
ENDSEC
  0
SECTION
  2
ENTITIES
  0
INSERT
  5
6E6
  8
245
  2
矢印なし
 10
175.6238269664377
 20
90.55123571690598
 30
0.0
  0
TEXT
  5
B71
  8
250
  6
CONTINUOUS
 10
-56.11955199226706
 20
-27.0895097788922
 30
0.0
 40
2.799999999999998
  1
BCV40
  7
YOKO
1001
ITEMNAME
1000
LNSP3
  0
LINE
  5
B72
  8
250
  6
CONTINUOUS
 10
-40.38621865893372
 20
-28.0895097788922
 30
0.0
 11
-58.38621865893372
 21
-28.0895097788922
 31
0.0
1001
ITEMNAME
1000
LNSP2
  0
LINE
  5
B73
  8
250
  6
CONTINUOUS
 10
-35.41390497452028
 20
-18.81363239890282
 30
0.0
 11
-34.12499999893372
 21
-17.2484374988922
 31
0.0
  0
LINE
  5
B74
  8
250
  6
CONTINUOUS
 10
-34.83660365691755
 20
-19.14705050449788
 30
0.0
 11
-34.12499999893372
 21
-17.2484374988922
 31
0.0
  0
LINE
  5
B75
  8
250
  6
CONTINUOUS
 10
-34.12499999893372
 20
-17.2484374988922
 30
0.0
 11
-35.12525431571892
 21
-18.98034145170038
 31
0.0
  0
LINE
  5
B76
  8
250
  6
CONTINUOUS
 10
-35.12525431571892
 20
-18.98034145170038
 30
0.0
 11
-40.38621865893372
 21
-28.0895097788922
 31
0.0
1001
ACAD
1000
DSTYLE
1002
{
1070
     6
1000
OPEN
1070
    41
1040
2.0
1070
    42
1040
2.0
1070
    44
1040
2.0
1070
   140
1040
4.0
1070
   343
1005
594
1002
}
  0
LINE
  5
B79
  8
245
  6
CENTER2
 10
-69.25
 20
0.0
 30
0.0
 11
343.9
 21
0.0
 31
0.0
  0
LINE
  5
B7A
  8
240
  6
CONTINUOUS
 10
19.04999999999999
 20
25.38585715714424
 30
0.0
 11
19.05
 21
31.75
 31
0.0
  0
LINE
  5
B7B
  8
240
  6
CONTINUOUS
 10
13.03999999999999
 20
28.95591318999999
 30
0.0
 11
14.65316677
 21
31.75
 31
0.0
  0
LINE
  5
B7C
  8
241
  6
CONTINUOUS
 10
14.64616677000001
 20
31.75
 30
0.0
 11
14.64616677000001
 21
8.189999999999998
 31
0.0
  0
LINE
  5
B7D
  8
240
  6
CONTINUOUS
 10
9.200000000000003
 20
28.98016190999999
 30
0.0
 11
7.600833230000006
 21
31.75
 31
0.0
  0
LINE
  5
B7E
  8
240
  6
CONTINUOUS
 10
1.0
 20
22.22500000000002
 30
0.0
 11
1.0
 21
31.75
 31
0.0
  0
LINE
  5
B7F
  8
241
  6
CONTINUOUS
 10
7.593833230000001
 20
31.75
 30
0.0
 11
7.593833230000001
 21
8.189999999999998
 31
0.0
  0
LINE
  5
B80
  8
240
  6
CONTINUOUS
 10
0.0
 20
22.22500000000002
 30
0.0
 11
-68.25
 21
12.27187500147687
 31
0.0
  0
LINE
  5
B81
  8
240
  6
CONTINUOUS
 10
0.0
 20
-22.22500000000002
 30
0.0
 11
-68.25
 21
-12.27187500147687
 31
0.0
  0
LINE
  5
B82
  8
240
  6
CONTINUOUS
 10
-68.25
 20
-12.27187500147681
 30
0.0
 11
-68.25
 21
12.27187500147687
 31
0.0
  0
LINE
  5
B83
  8
241
  6
CONTINUOUS
 10
19.05
 20
-25.38585715714424
 30
0.0
 11
19.05
 21
-8.190000000000026
 31
0.0
  0
LINE
  5
B84
  8
241
  6
CONTINUOUS
 10
1.0
 20
-22.22500000000002
 30
0.0
 11
1.0
 21
22.22500000000002
 31
0.0
  0
LINE
  5
B85
  8
241
  6
CONTINUOUS
 10
0.0
 20
-22.22500000000002
 30
0.0
 11
0.0
 21
22.22500000000002
 31
0.0
  0
LINE
  5
B86
  8
241
  6
CONTINUOUS
 10
14.64616677000001
 20
-31.75
 30
0.0
 11
14.64616677000001
 21
-8.189999999999998
 31
0.0
  0
LINE
  5
B87
  8
241
  6
CONTINUOUS
 10
7.593833230000001
 20
-31.75
 30
0.0
 11
7.593833230000001
 21
-8.189999999999998
 31
0.0
  0
LINE
  5
B88
  8
241
  6
CONTINUOUS
 10
9.200000000000003
 20
-8.189999999999998
 30
0.0
 11
9.200000000000003
 21
-28.18000000000001
 31
0.0
  0
LINE
  5
B89
  8
241
  6
CONTINUOUS
 10
13.03999999999999
 20
-8.189999999999998
 30
0.0
 11
13.03999999999999
 21
-28.18000000000001
 31
0.0
  0
LINE
  5
B8A
  8
240
  6
CONTINUOUS
 10
1.0
 20
-31.75
 30
0.0
 11
7.593833230000001
 21
-31.75
 31
0.0
  0
LINE
  5
B8B
  8
240
  6
CONTINUOUS
 10
1.0
 20
-22.22500000000002
 30
0.0
 11
1.0
 21
-31.75
 31
0.0
  0
LINE
  5
B8C
  8
240
  6
CONTINUOUS
 10
0.0
 20
-22.22500000000002
 30
0.0
 11
1.0
 21
-22.22500000000002
 31
0.0
  0
LINE
  5
B8D
  8
240
  6
CONTINUOUS
 10
9.200000000000003
 20
-28.18000000000001
 30
0.0
 11
13.03999999999999
 21
-28.18000000000001
 31
0.0
  0
LINE
  5
B8E
  8
240
  6
CONTINUOUS
 10
7.593833230000001
 20
-31.75
 30
0.0
 11
9.200000000000003
 21
-28.96803755000002
 31
0.0
  0
LINE
  5
B8F
  8
240
  6
CONTINUOUS
 10
9.200000000000003
 20
-28.96803755000002
 30
0.0
 11
9.200000000000003
 21
-28.18000000000001
 31
0.0
  0
LINE
  5
B90
  8
240
  6
CONTINUOUS
 10
19.04999999999999
 20
-25.38585715714424
 30
0.0
 11
19.05
 21
-31.75
 31
0.0
  0
LINE
  5
B91
  8
240
  6
CONTINUOUS
 10
14.64616677000001
 20
-31.75
 30
0.0
 11
19.05
 21
-31.75
 31
0.0
  0
LINE
  5
B92
  8
240
  6
CONTINUOUS
 10
13.03999999999999
 20
-28.96803755000002
 30
0.0
 11
13.03999999999999
 21
-28.18000000000001
 31
0.0
  0
LINE
  5
B93
  8
240
  6
CONTINUOUS
 10
14.64616677000001
 20
-31.75
 30
0.0
 11
13.03999999999999
 21
-28.96803755000002
 31
0.0
  0
LINE
  5
B97
  8
240
  6
CONTINUOUS
 10
0.0
 20
22.22500000000002
 30
0.0
 11
1.0
 21
22.22500000000002
 31
0.0
  0
LINE
  5
B98
  8
241
  6
CONTINUOUS
 10
13.03999999999999
 20
8.189999999999998
 30
0.0
 11
13.03999999999999
 21
28.18000000000001
 31
0.0
  0
LINE
  5
B99
  8
241
  6
CONTINUOUS
 10
9.200000000000003
 20
8.189999999999998
 30
0.0
 11
9.200000000000003
 21
28.18000000000001
 31
0.0
  0
LINE
  5
B9B
  8
240
  6
CONTINUOUS
 10
9.200000000000003
 20
28.18000000000001
 30
0.0
 11
13.03999999999999
 21
28.18000000000001
 31
0.0
  0
LINE
  5
B9C
  8
240
  6
CONTINUOUS
 10
9.200000000000003
 20
28.96803755000002
 30
0.0
 11
9.200000000000003
 21
28.18000000000001
 31
0.0
  0
LINE
  5
B9D
  8
240
  6
CONTINUOUS
 10
13.03999999999999
 20
28.96803755000002
 30
0.0
 11
13.03999999999999
 21
28.18000000000001
 31
0.0
  0
LINE
  5
B9E
  8
240
  6
CONTINUOUS
 10
1.0
 20
31.75
 30
0.0
 11
7.600833230000006
 21
31.75
 31
0.0
  0
LINE
  5
B9F
  8
240
  6
CONTINUOUS
 10
14.65316677
 20
31.75
 30
0.0
 11
19.05
 21
31.75
 31
0.0
  0
LINE
  5
BA0
  8
247
  6
CONTINUOUS
 10
5.499999999999943
 20
-18.75
 30
0.0
 11
5.5
 21
-14.11538461567005
 31
0.0
  0
LINE
  5
BA1
  8
247
  6
CONTINUOUS
 10
3.0
 20
-17.95489349998797
 30
0.0
 11
5.099999999916008
 21
-18.55705881005735
 31
0.0
  0
LINE
  5
BA2
  8
247
  6
CONTINUOUS
 10
3.996153846113998
 20
-17.32515140351904
 30
0.0
 11
3.996153846113998
 21
-18.24053601886703
 31
0.0
  0
ARC
  5
BA3
  8
247
  6
CONTINUOUS
 10
3.384719067294099
 20
-17.08726340194681
 30
0.0
 40
0.3876715809326743
 50
72.99788967529224
 51
172.9241662185136
  0
ARC
  5
BA4
  8
247
  6
CONTINUOUS
 10
3.305223131028014
 20
-17.38247755680413
 30
0.0
 40
0.6933047965358766
 50
4.742936852202212
 51
73.84922627326677
1001
GENIUS_GENOBJ-N-FIL_13
1002
{
1000
OWNER
1000
GEN
1002
}
1001
GENIUS_GENODEF_13
1002
{
1000
HIER
1070
     0
1002
}
1002
{
1000
MANEDIT
1070
     0
1002
}
1002
{
1000
NOSEL
1070
     0
1002
}
1002
{
1000
BEHIND
1070
     0
1002
}
1002
{
1000
OTHER
1070
     0
1002
}
1002
{
1000
REACTOR
1002
}
  0
LINE
  5
BA5
  8
247
  6
CONTINUOUS
 10
5.099999999916008
 20
-17.64167419470936
 30
0.0
 11
5.099999999916008
 21
-18.55705881005735
 31
0.0
  0
LINE
  5
BA6
  8
247
  6
CONTINUOUS
 10
3.0
 20
-17.95489349998797
 30
0.0
 11
3.0
 21
-17.03950888463998
 31
0.0
  0
ARC
  5
BA7
  8
247
  6
CONTINUOUS
 10
4.387416962767872
 20
-17.37830647626686
 30
0.0
 40
0.394857301075386
 50
65.99094165252887
 51
172.2634434590691
  0
ARC
  5
BA8
  8
247
  6
CONTINUOUS
 10
4.391200327332569
 20
-17.71244661042692
 30
0.0
 40
0.7123241612361686
 50
5.701985164259785
 51
77.277338436822
1001
GENIUS_GENOBJ-N-FIL_13
1002
{
1000
OWNER
1000
GEN
1002
}
1001
GENIUS_GENODEF_13
1002
{
1000
HIER
1070
     0
1002
}
1002
{
1000
MANEDIT
1070
     0
1002
}
1002
{
1000
NOSEL
1070
     0
1002
}
1002
{
1000
BEHIND
1070
     0
1002
}
1002
{
1000
OTHER
1070
     0
1002
}
1002
{
1000
REACTOR
1002
}
  0
LINE
  5
BA9
  8
247
  6
CONTINUOUS
 10
5.099999999916008
 20
-16.68398188706339
 30
0.0
 11
3.0
 21
-16.08181657699401
 31
0.0
  0
LINE
  5
BAA
  8
247
  6
CONTINUOUS
 10
3.0
 20
-14.58566273090798
 30
0.0
 11
3.0
 21
-14.9816783643036
 31
0.0
  0
LINE
  5
BAB
  8
247
  6
CONTINUOUS
 10
5.099999999916008
 20
-15.60873965394398
 30
0.0
 11
5.099999999916008
 21
-15.17797042319199
 31
0.0
  0
ARC
  5
BAC
  8
247
  6
CONTINUOUS
 10
4.45829959508336
 20
-14.38181657706997
 30
0.0
 40
1.576855057639548
 50
202.3594881415292
 51
254.9932485428465
  0
ARC
  5
BAD
  8
247
  6
CONTINUOUS
 10
3.565818858538136
 20
-14.84751136613323
 30
0.0
 40
0.6234706797009447
 50
94.99458931907526
 51
155.1663289573039
1001
GENIUS_GENOBJ-N-FIL_13
1002
{
1000
OWNER
1000
GEN
1002
}
1001
GENIUS_GENODEF_13
1002
{
1000
HIER
1070
     0
1002
}
1002
{
1000
MANEDIT
1070
     0
1002
}
1002
{
1000
NOSEL
1070
     0
1002
}
1002
{
1000
BEHIND
1070
     0
1002
}
1002
{
1000
OTHER
1070
     0
1002
}
1002
{
1000
REACTOR
1002
}
  0
ARC
  5
BAE
  8
247
  6
CONTINUOUS
 10
4.162102121969439
 20
-15.44418395103281
 30
0.0
 40
0.9749472149106982
 50
15.8460965557808
 51
82.32513700416929
  0
ARC
  5
BAF
  8
247
  6
CONTINUOUS
 10
4.371470401971066
 20
-15.03521163877224
 30
0.0
 40
0.9271945638692008
 50
249.7136016704969
 51
321.788745656411
1001
GENIUS_GENOBJ-N-FIL_13
1002
{
1000
OWNER
1000
GEN
1002
}
1001
GENIUS_GENODEF_13
1002
{
1000
HIER
1070
     0
1002
}
1002
{
1000
MANEDIT
1070
     0
1002
}
1002
{
1000
NOSEL
1070
     0
1002
}
1002
{
1000
BEHIND
1070
     0
1002
}
1002
{
1000
OTHER
1070
     0
1002
}
1002
{
1000
REACTOR
1002
}
  0
LINE
  5
BB0
  8
247
  6
CONTINUOUS
 10
4.292307692255974
 20
-14.96258580781597
 30
0.0
 11
4.292307692255974
 21
-14.47797042321997
 31
0.0
  0
ARC
  5
BB1
  8
247
  6
CONTINUOUS
 10
4.25
 20
-18.75
 30
0.0
 40
1.25
 50
180.0
 51
0.0
  0
LINE
  5
BB2
  8
247
  6
CONTINUOUS
 10
3.0
 20
-18.75
 30
0.0
 11
3.0
 21
-18.30384615391404
 31
0.0
  0
ARC
  5
BB3
  8
247
  6
CONTINUOUS
 10
4.25
 20
-14.11538461567005
 30
0.0
 40
1.25
 50
0.0
 51
180.0
  0
LINE
  5
C0A
  8
241
  6
CONTINUOUS
 10
3.675000000000039
 20
8.189999999999998
 30
0.0
 11
19.05000000000001
 21
8.189999999999998
 31
0.0
  0
LINE
  5
C0B
  8
241
  6
CONTINUOUS
 10
3.675000000000039
 20
-8.189999999999998
 30
0.0
 11
19.05000000000001
 21
-8.190000000000026
 31
0.0
  0
LINE
  5
C0C
  8
241
  6
CONTINUOUS
 10
3.675000000000039
 20
-8.189999999999998
 30
0.0
 11
1.0
 21
-10.86500000000004
 31
0.0
  0
LINE
  5
C0D
  8
241
  6
CONTINUOUS
 10
3.675000000000039
 20
8.189999999999998
 30
0.0
 11
1.000000000000028
 21
10.86500000000001
 31
0.0
  0
ARC
  5
C0E
  8
241
  6
CONTINUOUS
 10
19.05000000000001
 20
-0.0000000000000568
 30
0.0
 40
8.19
 50
270.0
 51
90.0
  0
LINE
  5
C12
  8
241
  6
CONTINUOUS
 10
19.05
 20
25.38585715714424
 30
0.0
 11
19.05
 21
8.190000000000026
 31
0.0
  0
LINE
  5
C22
  8
240
  6
CONTINUOUS
 10
28.04995745928551
 20
-25.39997543910589
 30
0.0
 11
341.9000002153599
 21
-25.39990784836572
 31
0.0
  0
LINE
  5
C23
  8
240
  6
CONTINUOUS
 10
19.74999999999988
 20
-25.09999999999866
 30
0.0
 11
27.5303847577288
 21
-25.09999999999855
 31
0.0
  0
ARC
  5
C24
  8
240
  6
CONTINUOUS
 10
19.74999999999986
 20
-26.09999999999866
 30
0.0
 40
1.0
 50
89.99999999999837
 51
134.4270040007931
1001
ASK_MEN_XD
1005
0
1070
     1
1005
0
1070
     1
  0
LINE
  5
C25
  8
240
  6
CONTINUOUS
 10
27.53038475772911
 20
-25.09999999999872
 30
0.0
 11
28.04999999999978
 21
-25.3999999999987
 31
0.0
  0
LINE
  5
C27
  8
241
  6
CONTINUOUS
 10
27.5303847577288
 20
-25.09999999999855
 30
0.0
 11
27.53038475772877
 21
25.09999999999855
 31
0.0
  0
LINE
  5
C2E
  8
240
  6
CONTINUOUS
 10
342.9
 20
24.4
 30
0.0
 11
342.9
 21
-24.39990784836576
 31
0.0
  0
TEXT
  5
C37
  8
241
  6
CONTINUOUS
 10
-68.25
 20
64.66666666666667
 30
0.0
 40
5.0
  1
BCV40-2.000-L13.5SD
  7
YOKO
 11
-68.25
 21
63.0
 31
0.0
 73
     1
  0
LINE
  5
C3A
  8
240
  6
CONTINUOUS
 10
28.05000000000183
 20
25.39999999999999
 30
0.0
 11
341.9
 21
25.4
 31
0.0
  0
ARC
  5
C3E
  8
240
  6
CONTINUOUS
 10
341.9
 20
-24.39990784836574
 30
0.0
 40
1.0
 50
270.0000123392182
 51
0.0
  0
ARC
  5
C42
  8
240
  6
CONTINUOUS
 10
341.9
 20
24.4
 30
0.0
 40
1.0
 50
0.0
 51
90.0
  0
LINE
  5
C45
  8
240
  6
CONTINUOUS
 10
19.74999999999988
 20
25.09999999999866
 30
0.0
 11
27.5303847577288
 21
25.09999999999855
 31
0.0
  0
ARC
  5
C46
  8
240
  6
CONTINUOUS
 10
19.74999999999986
 20
26.09999999999866
 30
0.0
 40
1.0
 50
225.5729959992069
 51
270.0000000000017
1001
ASK_MEN_XD
1005
0
1070
     1
1005
0
1070
     1
  0
LINE
  5
C47
  8
240
  6
CONTINUOUS
 10
27.53038475772911
 20
25.09999999999872
 30
0.0
 11
28.05000000000183
 21
25.39999999999999
 31
0.0
  0
LINE
  5
C94
  8
250
  6
CONTINUOUS
 10
0.0
 20
22.72500000000002
 30
0.0
 11
0.0000000000000017
 21
50.0
 31
0.0
  0
LINE
  5
C95
  8
250
  6
CONTINUOUS
 10
342.9
 20
24.9
 30
0.0
 11
342.9
 21
50.0
 31
0.0
  0
LINE
  5
C96
  8
250
  6
CONTINUOUS
 10
2.230000000000001
 20
49.0
 30
0.0
 11
340.67
 21
49.0
 31
0.0
  0
INSERT
  5
C97
  8
250
  6
CONTINUOUS
  2
_OPEN
 10
0.0000000000000016
 20
49.0
 30
0.0
 41
2.229999999999999
 42
2.229999999999999
 43
2.229999999999999
 50
180.0
  0
INSERT
  5
C98
  8
250
  6
CONTINUOUS
  2
_OPEN
 10
342.9
 20
49.0
 30
0.0
 41
2.229999999999999
 42
2.229999999999999
 43
2.229999999999999
  0
TEXT
  5
C99
  8
250
  6
CONTINUOUS
 10
165.2520833333333
 20
50.0
 30
0.0
 40
2.799999999999999
  1
13.50
  0
LINE
  5
C9A
  8
250
  6
CONTINUOUS
 10
342.4000002153599
 20
-25.39990784836572
 30
0.0
 11
358.0
 21
-25.39990784836572
 31
0.0
  0
LINE
  5
C9B
  8
250
  6
CONTINUOUS
 10
342.4
 20
25.4
 30
0.0
 11
358.0
 21
25.4
 31
0.0
  0
LINE
  5
C9C
  8
250
  6
CONTINUOUS
 10
357.0
 20
-23.16990784836572
 30
0.0
 11
357.0
 21
23.17
 31
0.0
  0
INSERT
  5
C9D
  8
250
  6
CONTINUOUS
  2
_OPEN
 10
357.0
 20
-25.39990784836572
 30
0.0
 41
2.229999999999999
 42
2.229999999999999
 43
2.229999999999999
 50
270.0
  0
INSERT
  5
C9E
  8
250
  6
CONTINUOUS
  2
_OPEN
 10
357.0
 20
25.4
 30
0.0
 41
2.229999999999999
 42
2.229999999999999
 43
2.229999999999999
 50
90.0
  0
INSERT
  5
C9F
  8
250
  6
CONTINUOUS
  2
*X2
 10
0.0
 20
0.0
 30
0.0
  0
VIEWPORT
  5
22
 67
     1
  8
0
 10
261.5176991150442
 20
148.5
 30
0.0
 40
523.0353982300885
 41
297.0
 68
     1
 69
    -1
1001
ACAD
1000
MVIEW
1002
{
1070
    16
1010
0.0
1020
0.0
1030
0.0
1020
0.0
1030
0.0
1010
0.0
1020
0.0
1030
1.0
1020
0.0
1030
1.0
1040
0.0
1040
297.0
1040
261.5176991150442
1040
148.5
1040
50.0
1040
0.0
1040
0.0
1070
     0
1070
   100
1070
     0
1070
     1
1070
     0
1070
     0
1070
     0
1070
     0
1040
0.0
1040
0.0
1040
0.0
1040
1.0
1040
1.0
1040
10.0
1040
10.0
1070
     0
1002
{
1002
}
1002
}
  0
ENDSEC
  0
EOF
