  0
SECTION
  2
HEADER
  9
$ACADVER
  1
AC1009
  9
$INSBASE
 10
0.0
 20
0.0
 30
0.0
  9
$EXTMIN
 10
-102.7999999999999
 20
-50.0
 30
0.0
  9
$EXTMAX
 10
165.5
 20
89.0
 30
0.0
  9
$LIMMIN
 10
0.0
 20
0.0
  9
$LIMMAX
 10
297.0
 20
210.0
  9
$ORTHOMODE
 70
     1
  9
$REGENMODE
 70
     1
  9
$FILLMODE
 70
     1
  9
$QTEXTMODE
 70
     0
  9
$MIRRTEXT
 70
     1
  9
$DRAGMODE
 70
     2
  9
$LTSCALE
 40
10.0
  9
$OSMODE
 70
    45
  9
$ATTMODE
 70
     1
  9
$TEXTSIZE
 40
3.0
  9
$TRACEWID
 40
1.0
  9
$TEXTSTYLE
  7
YOKO
  9
$CLAYER
  8
240
  9
$CELTYPE
  6
BYLAYER
  9
$CECOLOR
 62
   256
  9
$DIMSCALE
 40
1.0
  9
$DIMASZ
 40
2.2299999999999991
  9
$DIMEXO
 40
0.5
  9
$DIMDLI
 40
7.0
  9
$DIMRND
 40
0.0
  9
$DIMDLE
 40
0.0
  9
$DIMEXE
 40
1.0
  9
$DIMTP
 40
0.0
  9
$DIMTM
 40
0.01
  9
$DIMTXT
 40
2.7999999999999989
  9
$DIMCEN
 40
0.0
  9
$DIMTSZ
 40
0.0
  9
$DIMTOL
 70
     0
  9
$DIMLIM
 70
     0
  9
$DIMTIH
 70
     0
  9
$DIMTOH
 70
     0
  9
$DIMSE1
 70
     0
  9
$DIMSE2
 70
     0
  9
$DIMTAD
 70
     3
  9
$DIMZIN
 70
     9
  9
$DIMBLK
  1
OPEN
  9
$DIMASO
 70
     1
  9
$DIMSHO
 70
     1
  9
$DIMPOST
  1

  9
$DIMAPOST
  1

  9
$DIMALT
 70
     0
  9
$DIMALTD
 70
     2
  9
$DIMALTF
 40
25.399999999999999
  9
$DIMLFAC
 40
1.0
  9
$DIMTOFL
 70
     1
  9
$DIMTVP
 40
0.0
  9
$DIMTIX
 70
     1
  9
$DIMSOXD
 70
     0
  9
$DIMSAH
 70
     0
  9
$DIMBLK1
  1

  9
$DIMBLK2
  1

  9
$DIMSTYLE
  2
BIGT
  9
$DIMCLRD
 70
   256
  9
$DIMCLRE
 70
   256
  9
$DIMCLRT
 70
    40
  9
$DIMTFAC
 40
1.0
  9
$DIMGAP
 40
1.0
  9
$LUNITS
 70
     2
  9
$LUPREC
 70
     6
  9
$SKETCHINC
 40
1.0
  9
$FILLETRAD
 40
0.0
  9
$AUNITS
 70
     0
  9
$AUPREC
 70
     6
  9
$MENU
  1
.
  9
$ELEVATION
 40
0.0
  9
$PELEVATION
 40
0.0
  9
$THICKNESS
 40
0.0
  9
$LIMCHECK
 70
     0
  9
$BLIPMODE
 70
     0
  9
$CHAMFERA
 40
0.2
  9
$CHAMFERB
 40
0.2
  9
$SKPOLY
 70
     0
  9
$TDCREATE
 40
2457864.6016882071
  9
$TDUPDATE
 40
2457864.6182544101
  9
$TDINDWG
 40
0.0127284144
  9
$TDUSRTIMER
 40
0.0127283912
  9
$USRTIMER
 70
     1
  9
$ANGBASE
 50
0.0
  9
$ANGDIR
 70
     0
  9
$PDMODE
 70
     1
  9
$PDSIZE
 40
0.0
  9
$PLINEWID
 40
0.0
  9
$COORDS
 70
     1
  9
$SPLFRAME
 70
     0
  9
$SPLINETYPE
 70
     6
  9
$SPLINESEGS
 70
     4
  9
$ATTDIA
 70
     1
  9
$ATTREQ
 70
     1
  9
$HANDLING
 70
     1
  9
$HANDSEED
  5
4520
  9
$SURFTAB1
 70
     6
  9
$SURFTAB2
 70
     6
  9
$SURFTYPE
 70
     6
  9
$SURFU
 70
     6
  9
$SURFV
 70
     6
  9
$UCSNAME
  2

  9
$UCSORG
 10
0.0
 20
0.0
 30
0.0
  9
$UCSXDIR
 10
1.0
 20
0.0
 30
0.0
  9
$UCSYDIR
 10
0.0
 20
1.0
 30
0.0
  9
$PUCSNAME
  2

  9
$PUCSORG
 10
0.0
 20
0.0
 30
0.0
  9
$PUCSXDIR
 10
1.0
 20
0.0
 30
0.0
  9
$PUCSYDIR
 10
0.0
 20
1.0
 30
0.0
  9
$USERI1
 70
     1
  9
$USERI2
 70
     0
  9
$USERI3
 70
     0
  9
$USERI4
 70
     0
  9
$USERI5
 70
     0
  9
$USERR1
 40
0.0
  9
$USERR2
 40
0.0
  9
$USERR3
 40
0.0
  9
$USERR4
 40
0.0
  9
$USERR5
 40
0.0
  9
$WORLDVIEW
 70
     1
  9
$SHADEDGE
 70
     3
  9
$SHADEDIF
 70
    70
  9
$TILEMODE
 70
     1
  9
$MAXACTVP
 70
    16
  9
$PLIMCHECK
 70
     0
  9
$PEXTMIN
 10
1.0000000000000000E+020
 20
1.0000000000000000E+020
 30
1.0000000000000000E+020
  9
$PEXTMAX
 10
-1.0000000000000000E+020
 20
-1.0000000000000000E+020
 30
-1.0000000000000000E+020
  9
$PLIMMIN
 10
0.0
 20
0.0
  9
$PLIMMAX
 10
420.0
 20
297.0
  9
$UNITMODE
 70
     0
  9
$VISRETAIN
 70
     1
  9
$PLINEGEN
 70
     0
  9
$PSLTSCALE
 70
     1
  0
ENDSEC
  0
SECTION
  2
TABLES
  0
TABLE
  2
VPORT
 70
     1
  0
VPORT
  2
*ACTIVE
 70
     0
 10
0.0
 20
0.0
 11
1.0
 21
1.0
 12
24.394277236776819
 22
26.456090813646028
 13
0.0
 23
0.0
 14
7.0
 24
7.0
 15
7.0
 25
7.0
 16
0.0
 26
0.0
 36
1.0
 17
0.0
 27
0.0
 37
0.0
 40
270.6858784400431
 41
1.5701357466063339
 42
50.0
 43
0.0
 44
0.0
 50
0.0
 51
0.0
 71
     0
 72
  2000
 73
     1
 74
     0
 75
     0
 76
     1
 77
     0
 78
     0
  0
ENDTAB
  0
TABLE
  2
LTYPE
 70
    21
  0
LTYPE
  2
CONTINUOUS
 70
     0
  3
Solid line
 72
    65
 73
     0
 40
0.0
  0
LTYPE
  2
CENTER2
 70
     0
  3
___ _ ___ _ ___ _ ___ _ ___ _ ___ _ ___ _ ___ _
 72
    65
 73
     4
 40
1.125
 49
0.75
 49
-0.125
 49
0.125
 49
-0.125
  0
LTYPE
  2
HIDDEN2
 70
     0
  3
_ _ _ _ _ _ _ _ _ _ _ _ _ _ _ _ _ _ _ _ _ _ _ _
 72
    65
 73
     2
 40
0.1875
 49
0.125
 49
-0.0625
  0
LTYPE
  2
AM_ISO02W050
 70
     0
  3
__ __ __ __ __ __ __ __ __ __ __ __ __ __ __
 72
    65
 73
     2
 40
7.5
 49
6.0
 49
-1.5
  0
LTYPE
  2
AMCONSTR
 70
     0
  3
_______________________
 72
    65
 73
     2
 40
9999.0
 49
9999.0
 49
0.0
  0
LTYPE
  2
ACISOWELD
 70
     0
  3
_ _ _ _ _
 72
    65
 73
     2
 40
2.0
 49
2.0
 49
-1.0
  0
LTYPE
  2
ACISOTGB
 70
     0
  3
__ . . __ . .
 72
    65
 73
     6
 40
9.0
 49
4.0
 49
-1.0
 49
1.0
 49
-1.0
 49
1.0
 49
-1.0
  0
LTYPE
  2
ACISOTGL
 70
     0
  3
_ _ _ _ _
 72
    65
 73
     2
 40
3.0
 49
2.0
 49
-1.0
  0
LTYPE
  2
AM_ISO08W050
 70
     0
  3
____ . ____ . ____ . ____ . ____ . ____ . ____
 72
    65
 73
     4
 40
18.0
 49
12.0
 49
-1.5
 49
3.0
 49
-1.5
  0
LTYPE
  2
AM_ISO09W050
 70
     0
  3
_____ . . _____ . . _____ . . ____ .. ____
 72
    65
 73
     6
 40
22.5
 49
12.0
 49
-1.5
 49
3.0
 49
-1.5
 49
3.0
 49
-1.5
  0
LTYPE
  2
AM_ISO08W050X2
 70
     0
  3
__ . __ . __ . __ . __ . __
 72
    65
 73
     4
 40
9.0
 49
6.0
 49
-0.75
 49
1.5
 49
-0.75
  0
LTYPE
  2
AM_ISO02W050X2
 70
     0
  3
 _ _ _ _ _ _ _ _ _ _ _ _
 72
    65
 73
     2
 40
3.75
 49
3.0
 49
-0.75
  0
LTYPE
  2
AMZIGZAG
 70
     0
  3
/\/-/\/-/\/-/\/-/\/-/\/
 72
    65
 73
     2
 40
11.0001
 49
0.0001
 49
-11.0
  0
ENDTAB
  0
TABLE
  2
LAYER
 70
     9
  0
LAYER
  2
0
 70
     0
 62
     7
  6
CONTINUOUS
  0
LAYER
  2
DEFPOINTS
 70
     0
 62
     7
  6
CONTINUOUS
  0
LAYER
  2
245
 70
     0
 62
     2
  6
CENTER2
  0
LAYER
  2
240
 70
     0
 62
     4
  6
CONTINUOUS
  0
LAYER
  2
241
 70
     0
 62
   211
  6
CONTINUOUS
  0
LAYER
  2
242
 70
     0
 62
     3
  6
CONTINUOUS
  0
LAYER
  2
243
 70
     0
 62
   211
  6
HIDDEN2
  0
LAYER
  2
247
 70
     0
 62
    60
  6
CONTINUOUS
  0
LAYER
  2
250
 70
     0
 62
     3
  6
CONTINUOUS
  0
ENDTAB
  0
TABLE
  2
STYLE
 70
     8
  0
STYLE
  2
STANDARD
 70
     0
 40
0.0
 41
1.0
 50
0.0
 71
     0
 42
3.0
  3
romans.shx
  4
extfont.shx
  0
STYLE
  2
ACISOGDT
 70
     0
 40
0.0
 41
1.0
 50
0.0
 71
     0
 42
3.0
  3
amgdt.shx
  4
extfont.shx
  0
STYLE
  2
YOKO
 70
     0
 40
0.0
 41
1.0
 50
0.0
 71
     0
 42
3.0
  3
romans.shx
  4
extfont.shx
  0
STYLE
  2

 70
     1
 40
0.0
 41
1.0
 50
0.0
 71
     0
 42
3.0
  3
genltshp.shx
  4

  0
ENDTAB
  0
TABLE
  2
VIEW
 70
     0
  0
ENDTAB
  0
TABLE
  2
UCS
 70
     0
  0
ENDTAB
  0
TABLE
  2
APPID
 70
    37
  0
APPID
  2
ACAD
 70
     0
  0
APPID
  2
GLOBAL
 70
     0
  0
APPID
  2
DETAIL
 70
     0
  0
APPID
  2
GRPNAME
 70
     0
  0
APPID
  2
GPARA
 70
     0
  0
APPID
  2
MCAD_NO_VIS
 70
     0
  0
APPID
  2
ACAD_TEMP_GRAPHIC
 70
     0
  0
APPID
  2
ACATTRIBSERVICES
 70
     0
  0
APPID
  2
GENIUS_GENSCREG_15
 70
     0
  0
APPID
  2
GENIUS_GENODEF_13
 70
     0
  0
APPID
  2
GENIUS_GENOBJ-N-SDF_13
 70
     0
  0
APPID
  2
GENIUS_GENREC_14
 70
     0
  0
APPID
  2
GENIUS_GENOBJ-N-REC_13
 70
     0
  0
APPID
  2
GENIUS_GENDIMSH_14
 70
     0
  0
APPID
  2
GENIUS_GENOBJ-N-DIM_13
 70
     0
  0
APPID
  2
GENIUS_GENDIM_13
 70
     0
  0
APPID
  2
GENIUS_GENDTOL_13
 70
     0
  0
APPID
  2
GENIUS_GENOLIS_13
 70
     0
  0
APPID
  2
GENIUS_GENOENT_13
 70
     0
  0
APPID
  2
GENIUS_GENOBJ-F-FEM_13
 70
     0
  0
APPID
  2
GENIUS_GENOREF_13
 70
     0
  0
APPID
  2
GENIUS_GEFFEM_13
 70
     0
  0
APPID
  2
GENIUS_GEFFEMP_13
 70
     0
  0
APPID
  2
AD_DRAW
 70
     0
  0
APPID
  2
DESIGNERASSEMBLIES
 70
     0
  0
APPID
  2
ACADM_DIM_EDIT
 70
     0
  0
APPID
  2
AMDT_DM_ADJ
 70
     0
  0
APPID
  2
ITEMNAME
 70
     0
  0
APPID
  2
GENIUS_GENOBJ-N-FIL_13
 70
     0
  0
APPID
  2
GENIUS_GENFIL_13
 70
     0
  0
APPID
  2
GENIUS_GENOBJ-N-CHA_13
 70
     0
  0
APPID
  2
ACAECLAYERSTANDARD
 70
     0
  0
APPID
  2
ACAD_NAV_VCDISPLAY
 70
     0
  0
APPID
  2
ACAD_EXEMPT_FROM_CAD_STANDARDS
 70
     0
  0
APPID
  2
ACAD_DSTYLE_DIMJAG
 70
     0
  0
APPID
  2
ACAD_DSTYLE_DIMBREAK
 70
     0
  0
APPID
  2
ACAD_MLEADERVER
 70
     0
  0
ENDTAB
  0
TABLE
  2
DIMSTYLE
 70
    29
  0
DIMSTYLE
  2
BIGT
 70
     0
  3

  4

  5
OPEN
  6

  7

 40
1.0
 41
2.2299999999999991
 42
0.5
 43
7.0
 44
1.0
 45
0.0
 46
0.0
 47
0.0
 48
0.01
140
2.7999999999999989
141
0.0
142
0.0
143
25.399999999999999
144
1.0
145
0.0
146
1.0
147
1.0
 71
     0
 72
     0
 73
     0
 74
     0
 75
     0
 76
     0
 77
     3
 78
     9
170
     0
171
     2
172
     1
173
     0
174
     1
175
     0
176
   256
177
   256
178
    40
  0
DIMSTYLE
  2
AM_ISO
 70
     0
  3

  4
"
  5

  6

  7

 40
1.0
 41
2.5
 42
1.0
 43
10.0
 44
1.0
 45
0.0
 46
0.0
 47
0.1
 48
0.1
140
3.5
141
0.0
142
0.0
143
0.0393701
144
1.0
145
0.0
146
0.71
147
1.5
 71
     0
 72
     0
 73
     0
 74
     0
 75
     0
 76
     0
 77
     1
 78
     8
170
     0
171
     2
172
     1
173
     0
174
     0
175
     0
176
   256
177
   256
178
     2
  0
DIMSTYLE
  2
AM_ISO$3
 70
     0
  3

  4
"
  5

  6

  7

 40
1.0
 41
2.5
 42
1.0
 43
10.0
 44
1.0
 45
0.0
 46
0.0
 47
0.1
 48
0.1
140
3.5
141
0.0
142
0.0
143
0.0393701
144
1.0
145
0.0
146
0.71
147
1.5
 71
     0
 72
     0
 73
     0
 74
     1
 75
     0
 76
     0
 77
     1
 78
     8
170
     0
171
     2
172
     0
173
     0
174
     0
175
     0
176
   256
177
   256
178
     2
  0
DIMSTYLE
  2
AM_ISO$4
 70
     0
  3

  4
"
  5

  6

  7

 40
1.0
 41
2.5
 42
1.0
 43
10.0
 44
1.0
 45
0.0
 46
0.0
 47
0.1
 48
0.1
140
3.5
141
0.0
142
0.0
143
0.0393701
144
1.0
145
0.0
146
0.71
147
1.5
 71
     0
 72
     0
 73
     0
 74
     1
 75
     0
 76
     0
 77
     1
 78
     8
170
     0
171
     2
172
     0
173
     0
174
     0
175
     0
176
   256
177
   256
178
     2
  0
DIMSTYLE
  2
AM_ISO$6
 70
     0
  3

  4
"
  5

  6

  7

 40
1.0
 41
2.5
 42
1.0
 43
10.0
 44
1.0
 45
0.0
 46
0.0
 47
0.1
 48
0.1
140
3.5
141
0.0
142
0.0
143
0.0393701
144
1.0
145
0.0
146
0.71
147
1.5
 71
     0
 72
     0
 73
     0
 74
     0
 75
     0
 76
     0
 77
     0
 78
     8
170
     0
171
     2
172
     1
173
     0
174
     0
175
     0
176
   256
177
   256
178
     2
  0
DIMSTYLE
  2
AM_ISO$7
 70
     0
  3

  4
"
  5

  6

  7

 40
1.0
 41
2.5
 42
1.0
 43
10.0
 44
1.0
 45
0.0
 46
0.0
 47
0.1
 48
0.1
140
5.0
141
0.0
142
0.0
143
0.0393701
144
1.0
145
0.0
146
0.71
147
1.5
 71
     0
 72
     0
 73
     0
 74
     0
 75
     0
 76
     0
 77
     1
 78
     8
170
     0
171
     2
172
     1
173
     0
174
     0
175
     0
176
   256
177
   256
178
     2
  0
DIMSTYLE
  2
AM_ISO$SF
 70
     0
  3

  4
"
  5

  6

  7

 40
1.0
 41
2.5
 42
1.0
 43
10.0
 44
1.0
 45
0.0
 46
0.0
 47
0.1
 48
0.1
140
3.5
141
0.0
142
0.0
143
0.0393701
144
1.0
145
0.0
146
0.71
147
1.5
 71
     0
 72
     0
 73
     0
 74
     0
 75
     1
 76
     1
 77
     1
 78
     8
170
     0
171
     2
172
     1
173
     0
174
     0
175
     0
176
   256
177
   256
178
     2
  0
DIMSTYLE
  2
AM_ISO$SH
 70
     0
  3

  4
"
  5

  6
GENAXEH
  7

 40
1.0
 41
2.5
 42
1.0
 43
10.0
 44
1.0
 45
0.0
 46
0.0
 47
0.1
 48
0.1
140
3.5
141
0.0
142
0.0
143
0.0393701
144
2.0
145
0.0
146
0.71
147
1.5
 71
     0
 72
     0
 73
     0
 74
     0
 75
     1
 76
     1
 77
     1
 78
     8
170
     0
171
     2
172
     1
173
     1
174
     0
175
     0
176
   256
177
   256
178
     2
  0
ENDTAB
  0
ENDSEC
  0
SECTION
  2
BLOCKS
  0
BLOCK
  8
0
  2
$MODEL_SPACE
 70
     0
 10
0.0
 20
0.0
 30
0.0
  3
$MODEL_SPACE
  1

  0
ENDBLK
  5
1C
  8
0
  0
BLOCK
 67
     1
  8
0
  2
$PAPER_SPACE
 70
     0
 10
0.0
 20
0.0
 30
0.0
  3
$PAPER_SPACE
  1

  0
ENDBLK
  5
19
 67
     1
  8
0
  0
BLOCK
  8
0
  2
_OPEN
 70
     0
 10
0.0
 20
0.0
 30
0.0
  3
_OPEN
  1

  0
LINE
  5
3E1A
  8
0
  6
BYBLOCK
 62
     0
 10
-1.0
 20
0.1666666666666666
 30
0.0
 11
0.0
 21
0.0
 31
0.0
  0
LINE
  5
3E1B
  8
0
  6
BYBLOCK
 62
     0
 10
-1.0
 20
-0.1666666666666666
 30
0.0
 11
0.0
 21
0.0
 31
0.0
  0
LINE
  5
3E1C
  8
0
  6
BYBLOCK
 62
     0
 10
0.0
 20
0.0
 30
0.0
 11
-1.0
 21
0.0
 31
0.0
  0
ENDBLK
  5
3E1D
  8
0
  0
BLOCK
  8
0
  2
GENAXEH
 70
     0
 10
0.0
 20
0.0
 30
0.0
  3
GENAXEH
  1

  0
LINE
  5
3E45
  8
0
 10
-1.0
 20
0.0
 30
0.0
 11
1.0
 21
0.0
 31
0.0
  0
ENDBLK
  5
3E46
  8
0
  0
ENDSEC
  0
SECTION
  2
ENTITIES
  0
LINE
  5
42C0
  8
240
  6
CONTINUOUS
 10
0.0
 20
-34.925000000000011
 30
0.0
 11
-101.7999999999999
 21
-20.079166665188438
 31
0.0
  0
LINE
  5
42C1
  8
245
  6
CENTER2
 10
-102.7999999999999
 20
0.0
 30
0.0
 11
149.3423404600955
 21
0.0
 31
0.0
  0
LINE
  5
42C2
  8
240
  6
CONTINUOUS
 10
0.0
 20
34.925000000000011
 30
0.0
 11
-101.7999999999999
 21
20.079166665188438
 31
0.0
  0
LINE
  5
42C3
  8
240
  6
CONTINUOUS
 10
-101.7999999999999
 20
20.079166665188438
 30
0.0
 11
-101.7999999999999
 21
-20.079166665188438
 31
0.0
  0
LINE
  5
42C4
  8
241
  6
CONTINUOUS
 10
30.70000000000006
 20
50.0
 30
0.0
 11
30.70000000000006
 21
8.5976741040817046
 31
0.0
  0
LINE
  5
42C5
  8
241
  6
CONTINUOUS
 10
26.369872979999968
 20
42.5
 30
0.0
 11
26.369872979999968
 21
11.74203670887902
 31
0.0
  0
LINE
  5
42C6
  8
241
  6
CONTINUOUS
 10
20.030127020000009
 20
42.5
 30
0.0
 11
20.030127020000009
 21
12.850000000000019
 31
0.0
  0
LINE
  5
42C7
  8
241
  6
CONTINUOUS
 10
15.70000000000004
 20
50.0
 30
0.0
 11
15.70000000000004
 21
12.850000000000019
 31
0.0
  0
LINE
  5
42C8
  8
241
  6
CONTINUOUS
 10
15.70000000000004
 20
-50.0
 30
0.0
 11
15.70000000000004
 21
-12.850000000000019
 31
0.0
  0
LINE
  5
42C9
  8
241
  6
CONTINUOUS
 10
20.030127020000009
 20
-42.5
 30
0.0
 11
20.030127020000009
 21
-12.850000000000019
 31
0.0
  0
LINE
  5
42CA
  8
241
  6
CONTINUOUS
 10
30.70000000000006
 20
-50.0
 30
0.0
 11
30.70000000000006
 21
-8.5976741040817046
 31
0.0
  0
LINE
  5
42CB
  8
241
  6
CONTINUOUS
 10
26.369872979999968
 20
-42.5
 30
0.0
 11
26.369872979999968
 21
-11.74203670887902
 31
0.0
  0
LINE
  5
42CC
  8
240
  6
CONTINUOUS
 10
1.5
 20
-50.0
 30
0.0
 11
1.5
 21
-34.925000000000011
 31
0.0
  0
LINE
  5
42CD
  8
241
  6
CONTINUOUS
 10
38.0
 20
-50.0
 30
0.0
 11
38.0
 21
50.0
 31
0.0
  0
LINE
  5
42CE
  8
240
  6
CONTINUOUS
 10
38.0
 20
-50.0
 30
0.0
 11
30.70000000000006
 21
-50.0
 31
0.0
  0
LINE
  5
42CF
  8
240
  6
CONTINUOUS
 10
1.5
 20
-50.0
 30
0.0
 11
15.70000000000004
 21
-50.0
 31
0.0
  0
LINE
  5
42D0
  8
240
  6
CONTINUOUS
 10
26.369872979999968
 20
-42.5
 30
0.0
 11
20.030127020000009
 21
-42.5
 31
0.0
  0
LINE
  5
42D1
  8
240
  6
CONTINUOUS
 10
20.030127020000009
 20
-42.5
 30
0.0
 11
15.70000000000004
 21
-50.0
 31
0.0
  0
LINE
  5
42D2
  8
240
  6
CONTINUOUS
 10
26.369872979999968
 20
-42.5
 30
0.0
 11
30.70000000000006
 21
-50.0
 31
0.0
  0
LINE
  5
42D3
  8
241
  6
CONTINUOUS
 10
1.5
 20
-34.925000000000011
 30
0.0
 11
1.5
 21
34.925000000000011
 31
0.0
  0
LINE
  5
42D4
  8
241
  6
CONTINUOUS
 10
0.0
 20
-34.925000000000011
 30
0.0
 11
0.0
 21
34.925000000000011
 31
0.0
  0
ARC
  5
42D5
  8
241
  6
CONTINUOUS
 10
21.149999999999981
 20
0.0
 30
0.0
 40
12.849999999999881
 50
270.0
 51
90.0
  0
LINE
  5
42D6
  8
241
  6
CONTINUOUS
 10
21.150001910000011
 20
-12.850000000000019
 30
0.0
 11
1.5
 21
-12.850000000000019
 31
0.0
  0
LINE
  5
42D7
  8
240
  6
CONTINUOUS
 10
0.0
 20
-34.925000000000011
 30
0.0
 11
1.5
 21
-34.925000000000011
 31
0.0
  0
LINE
  5
42D8
  8
241
  6
CONTINUOUS
 10
21.150001910000011
 20
12.850000000000019
 30
0.0
 11
1.5
 21
12.850000000000019
 31
0.0
  0
LINE
  5
42D9
  8
240
  6
CONTINUOUS
 10
30.70000000000006
 20
50.0
 30
0.0
 11
38.0
 21
50.0
 31
0.0
  0
LINE
  5
42DA
  8
240
  6
CONTINUOUS
 10
1.5
 20
50.0
 30
0.0
 11
1.5
 21
34.925000000000011
 31
0.0
  0
LINE
  5
42DB
  8
240
  6
CONTINUOUS
 10
0.0
 20
34.925000000000011
 30
0.0
 11
1.5
 21
34.925000000000011
 31
0.0
  0
LINE
  5
42DC
  8
240
  6
CONTINUOUS
 10
15.70000000000004
 20
50.0
 30
0.0
 11
1.5
 21
50.0
 31
0.0
  0
LINE
  5
42DD
  8
240
  6
CONTINUOUS
 10
26.369872979999968
 20
42.5
 30
0.0
 11
20.030127020000009
 21
42.5
 31
0.0
  0
LINE
  5
42DE
  8
240
  6
CONTINUOUS
 10
20.030127020000009
 20
42.5
 30
0.0
 11
15.70000000000004
 21
50.0
 31
0.0
  0
LINE
  5
42DF
  8
240
  6
CONTINUOUS
 10
26.369872979999968
 20
42.5
 30
0.0
 11
30.70000000000006
 21
50.0
 31
0.0
  0
LINE
  5
42E0
  8
247
  6
CONTINUOUS
 10
10.5
 20
-26.250000000070042
 30
0.0
 11
10.5
 21
-19.557692308030031
 31
0.0
  0
ARC
  5
42E1
  8
247
  6
CONTINUOUS
 10
8.7500000000700311
 20
-26.250000000070042
 30
0.0
 40
1.7499999999299991
 50
180.0
 51
0.0
  0
ARC
  5
42E2
  8
247
  6
CONTINUOUS
 10
8.7500000000700311
 20
-19.557692308030031
 30
0.0
 40
1.7499999999299991
 50
0.0
 51
180.0
  0
LINE
  5
42E3
  8
247
  6
CONTINUOUS
 10
7.0000000001400622
 20
-25.384615384720011
 30
0.0
 11
10.000000000020011
 21
-26.244851541962021
 31
0.0
  0
LINE
  5
42E4
  8
247
  6
CONTINUOUS
 10
8.4230769231600071
 20
-24.48498381833582
 30
0.0
 11
8.4230769231600071
 21
-25.792676125975849
 31
0.0
  0
ARC
  5
42E5
  8
247
  6
CONTINUOUS
 10
7.5495986677029769
 20
-24.145143816089789
 30
0.0
 40
0.5538165441895349
 50
72.99788967529534
 51
172.92416621851359
  0
ARC
  5
42E6
  8
247
  6
CONTINUOUS
 10
7.4360330444658302
 20
-24.566878323028789
 30
0.0
 40
0.9904354236226808
 50
4.7429368522022122
 51
73.849226273266538
1001
GENIUS_GENOBJ-N-FIL_13
1002
{
1000
OWNER
1000
GEN
1002
}
1001
GENIUS_GENODEF_13
1002
{
1000
HIER
1070
     0
1002
}
1002
{
1000
MANEDIT
1070
     0
1002
}
1002
{
1000
NOSEL
1070
     0
1002
}
1002
{
1000
BEHIND
1070
     0
1002
}
1002
{
1000
OTHER
1070
     0
1002
}
1002
{
1000
REACTOR
1002
}
  0
LINE
  5
42E7
  8
247
  6
CONTINUOUS
 10
10.000000000020011
 20
-24.937159234321999
 30
0.0
 11
10.000000000020011
 21
-26.244851541962021
 31
0.0
  0
LINE
  5
42E8
  8
247
  6
CONTINUOUS
 10
7.0000000001400622
 20
-25.384615384720011
 30
0.0
 11
7.0000000001400622
 21
-24.076923077079989
 31
0.0
  0
ARC
  5
42E9
  8
247
  6
CONTINUOUS
 10
8.9820242326655944
 20
-24.560919636546942
 30
0.0
 40
0.5640818586791229
 50
65.990941652528889
 51
172.26344345906909
  0
ARC
  5
42EA
  8
247
  6
CONTINUOUS
 10
8.9874290391866225
 20
-25.038262685347089
 30
0.0
 40
1.0176059446230981
 50
5.7019851642564632
 51
77.277338436822191
1001
GENIUS_GENOBJ-N-FIL_13
1002
{
1000
OWNER
1000
GEN
1002
}
1001
GENIUS_GENODEF_13
1002
{
1000
HIER
1070
     0
1002
}
1002
{
1000
MANEDIT
1070
     0
1002
}
1002
{
1000
NOSEL
1070
     0
1002
}
1002
{
1000
BEHIND
1070
     0
1002
}
1002
{
1000
OTHER
1070
     0
1002
}
1002
{
1000
REACTOR
1002
}
  0
LINE
  5
42EB
  8
247
  6
CONTINUOUS
 10
10.000000000020011
 20
-23.28331308054203
 30
0.0
 11
7.0000000001400622
 21
-22.42307692330002
 31
0.0
  0
LINE
  5
42EC
  8
247
  6
CONTINUOUS
 10
7.0000000001400622
 20
-20.000000000319972
 30
0.0
 11
7.0000000001400622
 21
-20.565736619456569
 31
0.0
  0
LINE
  5
42ED
  8
247
  6
CONTINUOUS
 10
10.000000000020011
 20
-21.461538461799989
 30
0.0
 11
10.000000000020011
 21
-20.846153846440021
 31
0.0
  0
ARC
  5
42EE
  8
247
  6
CONTINUOUS
 10
9.0832851359733677
 20
-19.708791209122861
 30
0.0
 40
2.2526500823422122
 50
202.35948814152621
 51
254.99324854284609
  0
ARC
  5
42EF
  8
247
  6
CONTINUOUS
 10
7.8083126551945261
 20
-20.37406947921323
 30
0.0
 40
0.8906723995727782
 50
94.994589319075374
 51
155.1663289573039
1001
GENIUS_GENOBJ-N-FIL_13
1002
{
1000
OWNER
1000
GEN
1002
}
1001
GENIUS_GENODEF_13
1002
{
1000
HIER
1070
     0
1002
}
1002
{
1000
MANEDIT
1070
     0
1002
}
1002
{
1000
NOSEL
1070
     0
1002
}
1002
{
1000
BEHIND
1070
     0
1002
}
1002
{
1000
OTHER
1070
     0
1002
}
1002
{
1000
REACTOR
1002
}
  0
ARC
  5
42F0
  8
247
  6
CONTINUOUS
 10
8.6601458886677847
 20
-21.22645888621258
 30
0.0
 40
1.392781735586712
 50
15.8460965557808
 51
82.325137004169065
  0
ARC
  5
42F1
  8
247
  6
CONTINUOUS
 10
8.9592434315272822
 20
-20.642212725840348
 30
0.0
 40
1.324563662670287
 50
249.7136016704969
 51
321.78874565640598
1001
GENIUS_GENOBJ-N-FIL_13
1002
{
1000
OWNER
1000
GEN
1002
}
1001
GENIUS_GENODEF_13
1002
{
1000
HIER
1070
     0
1002
}
1002
{
1000
MANEDIT
1070
     0
1002
}
1002
{
1000
NOSEL
1070
     0
1002
}
1002
{
1000
BEHIND
1070
     0
1002
}
1002
{
1000
OTHER
1070
     0
1002
}
1002
{
1000
REACTOR
1002
}
  0
LINE
  5
42F2
  8
247
  6
CONTINUOUS
 10
8.8461538462199751
 20
-20.538461538759979
 30
0.0
 11
8.8461538462199751
 21
-19.846153846479961
 31
0.0
  0
LINE
  5
42F3
  8
247
  6
CONTINUOUS
 10
7.0000000001400622
 20
-26.250000000070042
 30
0.0
 11
7.0000000001400622
 21
-25.576923077020069
 31
0.0
  0
LINE
  5
42F4
  8
250
  6
CONTINUOUS
 10
-52.781569849999919
 20
-37.791071780000038
 30
0.0
 11
-70.514903179999976
 21
-37.791071780000038
 31
0.0
1001
ITEMNAME
1000
LNSP2
  0
TEXT
  5
42F5
  8
250
  6
CONTINUOUS
 10
-68.248236513333268
 20
-36.791071780000038
 30
0.0
 40
2.799999999999998
  1
BBT50
  7
YOKO
1001
ITEMNAME
1000
LNSP3
  0
LINE
  5
42F6
  8
250
  6
CONTINUOUS
 10
-48.367434494225343
 20
-29.478898401206319
 30
0.0
 11
-47.078759359999928
 21
-27.913514259999999
 31
0.0
  0
LINE
  5
42F7
  8
250
  6
CONTINUOUS
 10
-47.790084224956992
 20
-29.812231734403451
 30
0.0
 11
-47.078759359999928
 21
-27.913514259999999
 31
0.0
  0
LINE
  5
42F8
  8
250
  6
CONTINUOUS
 10
-47.078759359999928
 20
-27.913514259999999
 30
0.0
 11
-48.078759359591167
 21
-29.64556506780491
 31
0.0
  0
LINE
  5
42F9
  8
250
  6
CONTINUOUS
 10
-48.078759359591167
 20
-29.64556506780491
 30
0.0
 11
-52.781569849999919
 21
-37.791071780000038
 31
0.0
1001
ACAD
1000
DSTYLE
1002
{
1070
     6
1000
OPEN
1070
    41
1040
2.0
1070
   343
1005
0
1002
}
  0
TEXT
  5
4393
  8
241
  6
CONTINUOUS
 10
-101.8
 20
84.0
 30
0.0
 40
5.0
  1
BBT50M-BSL50-145
  7
YOKO
  0
LINE
  5
4394
  8
250
  6
CONTINUOUS
 10
30.0
 20
25.5
 30
0.0
 11
30.0
 21
64.0
 31
0.0
  0
LINE
  5
4395
  8
250
  6
CONTINUOUS
 10
145.0
 20
28.0
 30
0.0
 11
145.0
 21
64.0
 31
0.0
  0
LINE
  5
4396
  8
250
  6
CONTINUOUS
 10
32.229999999999997
 20
63.0
 30
0.0
 11
142.77000000000001
 21
63.0
 31
0.0
  0
LINE
  5
4397
  8
250
  6
CONTINUOUS
 10
32.229999999999997
 20
62.628333325900002
 30
0.0
 11
30.0
 21
63.0
 31
0.0
  0
LINE
  5
4398
  8
250
  6
CONTINUOUS
 10
32.229999999999997
 20
63.371666674099998
 30
0.0
 11
30.0
 21
63.0
 31
0.0
  0
LINE
  5
4399
  8
250
  6
CONTINUOUS
 10
30.0
 20
63.0
 30
0.0
 11
32.229999999999997
 21
63.0
 31
0.0
  0
LINE
  5
439A
  8
250
  6
CONTINUOUS
 10
142.77000000000001
 20
63.371666674099998
 30
0.0
 11
145.0
 21
63.0
 31
0.0
  0
LINE
  5
439B
  8
250
  6
CONTINUOUS
 10
142.77000000000001
 20
62.628333325900002
 30
0.0
 11
145.0
 21
63.0
 31
0.0
  0
LINE
  5
439C
  8
250
  6
CONTINUOUS
 10
145.0
 20
63.0
 30
0.0
 11
142.77000000000001
 21
63.0
 31
0.0
  0
TEXT
  5
439D
  8
250
  6
CONTINUOUS
 10
75.539999999999992
 20
64.000000000000014
 30
0.0
 40
2.7999999999999989
  1
üimax.115üj
1001
ACAD
1000
MTEXTBEGIN
1070
    73
1070
     1
1070
    44
1040
1.0
1070
    74
1070
     0
1000
MTEXTEND
1000
MTEXTBEGIN
1070
    73
1070
     1
1070
    44
1040
1.0
1070
    74
1070
     0
1000
MTEXTEND
1000
MTEXTBEGIN
1070
    73
1070
     1
1070
    44
1040
1.0
1070
    74
1070
     0
1000
MTEXTEND
  0
LINE
  5
439E
  8
250
  6
CONTINUOUS
 10
0.0
 20
35.424999999999997
 30
0.0
 11
0.0
 21
71.0
 31
0.0
  0
LINE
  5
439F
  8
250
  6
CONTINUOUS
 10
145.0
 20
28.0
 30
0.0
 11
145.0
 21
71.0
 31
0.0
  0
LINE
  5
43A0
  8
250
  6
CONTINUOUS
 10
2.2299999999999991
 20
70.0
 30
0.0
 11
142.77000000000001
 21
70.0
 31
0.0
  0
LINE
  5
43A1
  8
250
  6
CONTINUOUS
 10
2.2299999999999991
 20
69.628333325900002
 30
0.0
 11
0.0
 21
70.0
 31
0.0
  0
LINE
  5
43A2
  8
250
  6
CONTINUOUS
 10
2.2299999999999991
 20
70.371666674099998
 30
0.0
 11
0.0
 21
70.0
 31
0.0
  0
LINE
  5
43A3
  8
250
  6
CONTINUOUS
 10
0.0
 20
70.0
 30
0.0
 11
2.2299999999999991
 21
70.0
 31
0.0
  0
LINE
  5
43A4
  8
250
  6
CONTINUOUS
 10
142.77000000000001
 20
70.371666674099998
 30
0.0
 11
145.0
 21
70.0
 31
0.0
  0
LINE
  5
43A5
  8
250
  6
CONTINUOUS
 10
142.77000000000001
 20
69.628333325900002
 30
0.0
 11
145.0
 21
70.0
 31
0.0
  0
LINE
  5
43A6
  8
250
  6
CONTINUOUS
 10
145.0
 20
70.0
 30
0.0
 11
142.77000000000001
 21
70.0
 31
0.0
  0
TEXT
  5
43A7
  8
250
  6
CONTINUOUS
 10
68.299999999999997
 20
71.000000000000014
 30
0.0
 40
2.7999999999999989
  1
145
1001
ACAD
1000
MTEXTBEGIN
1070
    73
1070
     1
1070
    44
1040
1.0
1070
    74
1070
     0
1000
MTEXTEND
1000
MTEXTBEGIN
1070
    73
1070
     1
1070
    44
1040
1.0
1070
    74
1070
     0
1000
MTEXTEND
1000
MTEXTBEGIN
1070
    73
1070
     1
1070
    44
1040
1.0
1070
    74
1070
     0
1000
MTEXTEND
1000
MTEXTBEGIN
1070
    73
1070
     1
1070
    44
1040
1.0
1070
    74
1070
     0
1000
MTEXTEND
1000
MTEXTBEGIN
1070
    73
1070
     1
1070
    44
1040
1.0
1070
    74
1070
     0
1000
MTEXTEND
  0
LINE
  5
43A8
  8
250
  6
CONTINUOUS
 10
145.5
 20
25.0
 30
0.0
 11
158.5
 21
25.0
 31
0.0
  0
LINE
  5
43A9
  8
250
  6
CONTINUOUS
 10
157.5
 20
-22.77
 30
0.0
 11
157.5
 21
22.77
 31
0.0
  0
LINE
  5
43AA
  8
250
  6
CONTINUOUS
 10
157.1283333259
 20
22.77
 30
0.0
 11
157.5
 21
25.0
 31
0.0
  0
LINE
  5
43AB
  8
250
  6
CONTINUOUS
 10
157.8716666741
 20
22.77
 30
0.0
 11
157.5
 21
25.0
 31
0.0
  0
LINE
  5
43AC
  8
250
  6
CONTINUOUS
 10
157.5
 20
25.0
 30
0.0
 11
157.5
 21
22.77
 31
0.0
  0
TEXT
  5
43AD
  8
250
  6
CONTINUOUS
 10
156.5
 20
-3.9333333333333331
 30
0.0
 40
2.7999999999999989
  1
\U+220550
 50
90.0
1001
ACAD
1000
MTEXTBEGIN
1070
    73
1070
     1
1070
    44
1040
1.0
1070
    74
1070
     0
1000
MTEXTEND
1000
MTEXTBEGIN
1070
    73
1070
     1
1070
    44
1040
1.0
1070
    74
1070
     0
1000
MTEXTEND
1000
MTEXTBEGIN
1070
    73
1070
     1
1070
    44
1040
1.0
1070
    74
1070
     0
1000
MTEXTEND
  0
LINE
  5
43AE
  8
250
  6
CONTINUOUS
 10
139.27623516
 20
-45.0
 30
0.0
 11
165.5
 21
-45.0
 31
0.0
  0
LINE
  5
43AF
  8
250
  6
CONTINUOUS
 10
139.27623516
 20
45.0
 30
0.0
 11
165.5
 21
45.0
 31
0.0
  0
LINE
  5
43B0
  8
250
  6
CONTINUOUS
 10
164.5
 20
-42.770000000000003
 30
0.0
 11
164.5
 21
42.770000000000003
 31
0.0
  0
LINE
  5
43B1
  8
250
  6
CONTINUOUS
 10
164.8716666741
 20
-42.770000000000003
 30
0.0
 11
164.5
 21
-45.0
 31
0.0
  0
LINE
  5
43B2
  8
250
  6
CONTINUOUS
 10
164.1283333259
 20
-42.770000000000003
 30
0.0
 11
164.5
 21
-45.0
 31
0.0
  0
LINE
  5
43B3
  8
250
  6
CONTINUOUS
 10
164.5
 20
-45.0
 30
0.0
 11
164.5
 21
-42.770000000000003
 31
0.0
  0
LINE
  5
43B4
  8
250
  6
CONTINUOUS
 10
164.1283333259
 20
42.770000000000003
 30
0.0
 11
164.5
 21
45.0
 31
0.0
  0
LINE
  5
43B5
  8
250
  6
CONTINUOUS
 10
164.8716666741
 20
42.770000000000003
 30
0.0
 11
164.5
 21
45.0
 31
0.0
  0
LINE
  5
43B6
  8
250
  6
CONTINUOUS
 10
164.5
 20
45.0
 30
0.0
 11
164.5
 21
42.770000000000003
 31
0.0
  0
TEXT
  5
43B7
  8
250
  6
CONTINUOUS
 10
163.5
 20
-3.9333333333333331
 30
0.0
 40
2.7999999999999989
  1
\U+220590
 50
90.0
1001
ACAD
1000
MTEXTBEGIN
1070
    73
1070
     1
1070
    44
1040
1.0
1070
    74
1070
     0
1000
MTEXTEND
1000
MTEXTBEGIN
1070
    73
1070
     1
1070
    44
1040
1.0
1070
    74
1070
     0
1000
MTEXTEND
1000
MTEXTBEGIN
1070
    73
1070
     1
1070
    44
1040
1.0
1070
    74
1070
     0
1000
MTEXTEND
  0
LINE
  5
43C4
  8
241
  6
CONTINUOUS
 10
69.633974599999988
 20
-45.0
 30
0.0
 11
69.633974599999988
 21
45.0
 31
0.0
  0
LINE
  5
43C5
  8
241
  6
CONTINUOUS
 10
71.366025400000012
 20
-45.0
 30
0.0
 11
71.366025400000012
 21
45.0
 31
0.0
  0
LINE
  5
43C6
  8
241
  6
CONTINUOUS
 10
74.633974599999988
 20
-45.0
 30
0.0
 11
74.633974599999988
 21
45.0
 31
0.0
  0
LINE
  5
43C7
  8
241
  6
CONTINUOUS
 10
76.366025400000012
 20
-45.0
 30
0.0
 11
76.366025400000012
 21
45.0
 31
0.0
  0
LINE
  5
43C8
  8
241
  6
CONTINUOUS
 10
43.0
 20
-45.0
 30
0.0
 11
43.0
 21
45.0
 31
0.0
  0
LINE
  5
43C9
  8
240
  6
CONTINUOUS
 10
43.0
 20
-45.0
 30
0.0
 11
140.31088913340531
 21
-45.0
 31
0.0
  0
LINE
  5
43CA
  8
240
  6
CONTINUOUS
 10
38.0
 20
-50.0
 30
0.0
 11
43.0
 21
-45.0
 31
0.0
  0
CIRCLE
  5
43D3
  8
242
  6
CONTINUOUS
 10
55.0
 20
0.0
 30
0.0
 40
7.25
  0
CIRCLE
  5
43D4
  8
241
  6
CONTINUOUS
 10
55.0
 20
0.0
 30
0.0
 40
8.0
  0
LINE
  5
43D5
  8
241
  6
CONTINUOUS
 10
55.0
 20
-4.6188021499999987
 30
0.0
 11
59.0
 21
-2.3094010800000002
 31
0.0
  0
LINE
  5
43D6
  8
241
  6
CONTINUOUS
 10
59.0
 20
2.3094010800000002
 30
0.0
 11
55.0
 21
4.6188021499999987
 31
0.0
  0
LINE
  5
43D7
  8
241
  6
CONTINUOUS
 10
51.0
 20
2.3094010800000002
 30
0.0
 11
51.0
 21
-2.3094010800000002
 31
0.0
  0
LINE
  5
43D8
  8
245
  6
CENTER2
 10
55.0
 20
9.0
 30
0.0
 11
55.0
 21
-9.0
 31
0.0
  0
LINE
  5
43D9
  8
241
  6
CONTINUOUS
 10
51.0
 20
-2.3094010800000002
 30
0.0
 11
55.0
 21
-4.6188021499999987
 31
0.0
  0
LINE
  5
43DA
  8
241
  6
CONTINUOUS
 10
55.0
 20
4.6188021499999987
 30
0.0
 11
51.0
 21
2.3094010800000002
 31
0.0
  0
LINE
  5
43DB
  8
241
  6
CONTINUOUS
 10
59.0
 20
-2.3094010800000002
 30
0.0
 11
59.0
 21
2.3094010800000002
 31
0.0
  0
LINE
  5
43DC
  8
241
  6
CONTINUOUS
 10
105.6339746
 20
-45.0
 30
0.0
 11
105.6339746
 21
45.0
 31
0.0
  0
LINE
  5
43DD
  8
241
  6
CONTINUOUS
 10
107.3660254
 20
-45.0
 30
0.0
 11
107.3660254
 21
45.0
 31
0.0
  0
LINE
  5
43DE
  8
241
  6
CONTINUOUS
 10
110.6339746
 20
-45.0
 30
0.0
 11
110.6339746
 21
45.0
 31
0.0
  0
LINE
  5
43DF
  8
241
  6
CONTINUOUS
 10
112.3660254
 20
-45.0
 30
0.0
 11
112.3660254
 21
45.0
 31
0.0
  0
LINE
  5
43E0
  8
241
  6
CONTINUOUS
 10
140.31088912999999
 20
-45.0
 30
0.0
 11
140.31088912999991
 21
44.999999999999993
 31
0.0
  0
LINE
  5
43E1
  8
240
  6
CONTINUOUS
 10
145.0
 20
-27.5
 30
0.0
 11
140.31088913340531
 21
-45.0
 31
0.0
  0
CIRCLE
  5
43EC
  8
242
  6
CONTINUOUS
 10
91.0
 20
0.0
 30
0.0
 40
7.25
  0
CIRCLE
  5
43ED
  8
241
  6
CONTINUOUS
 10
91.0
 20
0.0
 30
0.0
 40
8.0
  0
LINE
  5
43EE
  8
241
  6
CONTINUOUS
 10
95.0
 20
-2.3094010800000002
 30
0.0
 11
95.0
 21
2.3094010800000002
 31
0.0
  0
LINE
  5
43EF
  8
241
  6
CONTINUOUS
 10
87.0
 20
2.3094010800000002
 30
0.0
 11
87.0
 21
-2.3094010800000002
 31
0.0
  0
LINE
  5
43F0
  8
245
  6
CENTER2
 10
91.0
 20
9.0
 30
0.0
 11
91.0
 21
-9.0
 31
0.0
  0
LINE
  5
43F1
  8
241
  6
CONTINUOUS
 10
87.0
 20
-2.3094010800000002
 30
0.0
 11
91.0
 21
-4.6188021499999987
 31
0.0
  0
LINE
  5
43F2
  8
241
  6
CONTINUOUS
 10
91.0
 20
-4.6188021499999987
 30
0.0
 11
95.0
 21
-2.3094010800000002
 31
0.0
  0
LINE
  5
43F3
  8
241
  6
CONTINUOUS
 10
91.0
 20
4.6188021499999987
 30
0.0
 11
87.0
 21
2.3094010800000002
 31
0.0
  0
LINE
  5
43F4
  8
241
  6
CONTINUOUS
 10
95.0
 20
2.3094010800000002
 30
0.0
 11
91.0
 21
4.6188021499999987
 31
0.0
  0
LINE
  5
43F5
  8
240
  6
CONTINUOUS
 10
145.0
 20
-27.5
 30
0.0
 11
145.0
 21
27.5
 31
0.0
  0
LINE
  5
43F6
  8
241
  6
CONTINUOUS
 10
131.0
 20
-2.3094010800000002
 30
0.0
 11
131.0
 21
2.3094010800000002
 31
0.0
  0
LINE
  5
43F7
  8
241
  6
CONTINUOUS
 10
123.0
 20
2.3094010800000002
 30
0.0
 11
123.0
 21
-2.3094010800000002
 31
0.0
  0
CIRCLE
  5
43F8
  8
241
  6
CONTINUOUS
 10
127.0
 20
0.0
 30
0.0
 40
8.0
  0
CIRCLE
  5
43F9
  8
242
  6
CONTINUOUS
 10
127.0
 20
0.0
 30
0.0
 40
7.25
  0
LINE
  5
43FA
  8
245
  6
CENTER2
 10
127.0
 20
9.0
 30
0.0
 11
127.0
 21
-9.0
 31
0.0
  0
LINE
  5
43FB
  8
241
  6
CONTINUOUS
 10
127.0
 20
-4.6188021499999987
 30
0.0
 11
131.0
 21
-2.3094010800000002
 31
0.0
  0
LINE
  5
43FC
  8
241
  6
CONTINUOUS
 10
123.0
 20
-2.3094010800000002
 30
0.0
 11
127.0
 21
-4.6188021499999987
 31
0.0
  0
LINE
  5
43FD
  8
241
  6
CONTINUOUS
 10
131.0
 20
2.3094010800000002
 30
0.0
 11
127.0
 21
4.6188021499999987
 31
0.0
  0
LINE
  5
43FE
  8
241
  6
CONTINUOUS
 10
127.0
 20
4.6188021499999987
 30
0.0
 11
123.0
 21
2.3094010800000002
 31
0.0
  0
LINE
  5
43FF
  8
243
  6
HIDDEN2
 10
35.0
 20
25.0
 30
0.0
 11
145.0
 21
25.0
 31
0.0
  0
LINE
  5
4401
  8
240
  6
CONTINUOUS
 10
43.0
 20
45.0
 30
0.0
 11
140.31088913340531
 21
45.0
 31
0.0
  0
LINE
  5
4402
  8
240
  6
CONTINUOUS
 10
38.0
 20
50.0
 30
0.0
 11
43.0
 21
45.0
 31
0.0
  0
LINE
  5
4414
  8
240
  6
CONTINUOUS
 10
145.0
 20
27.5
 30
0.0
 11
140.31088913340531
 21
45.0
 31
0.0
  0
LINE
  5
4416
  8
250
  6
CONTINUOUS
 10
145.5
 20
-25.0
 30
0.0
 11
158.5
 21
-25.0
 31
0.0
  0
LINE
  5
4417
  8
250
  6
CONTINUOUS
 10
157.1283333259
 20
-22.77
 30
0.0
 11
157.5
 21
-25.0
 31
0.0
  0
LINE
  5
4418
  8
250
  6
CONTINUOUS
 10
157.8716666741
 20
-22.77
 30
0.0
 11
157.5
 21
-25.0
 31
0.0
  0
LINE
  5
4419
  8
250
  6
CONTINUOUS
 10
157.5
 20
-25.0
 30
0.0
 11
157.5
 21
-22.77
 31
0.0
  0
LINE
  5
441A
  8
243
  6
HIDDEN2
 10
35.0
 20
-25.0
 30
0.0
 11
145.0
 21
-25.0
 31
0.0
  0
VIEWPORT
  5
22
 67
     1
  8
0
 10
261.51769911504419
 20
148.5
 30
0.0
 40
523.0353982300885
 41
297.0
 68
     1
 69
     1
1001
ACAD
1000
MVIEW
1002
{
1070
    16
1010
0.0
1020
0.0
1030
0.0
1010
0.0
1020
0.0
1030
1.0
1040
0.0
1040
297.0
1040
261.51769911504419
1040
148.5
1040
50.0
1040
0.0
1040
0.0
1070
     0
1070
   100
1070
     1
1070
     1
1070
     0
1070
     0
1070
     0
1070
     0
1040
0.0
1040
0.0
1040
0.0
1040
1.0
1040
1.0
1040
10.0
1040
10.0
1070
     0
1002
{
1002
}
1002
}
1001
GENIUS_GENODEF_13
1002
{
1000
HIER
1070
     0
1002
}
1002
{
1000
MANEDIT
1070
     0
1002
}
1002
{
1000
NOSEL
1070
     0
1002
}
1002
{
1000
BEHIND
1070
     0
1002
}
1002
{
1000
OTHER
1070
     0
1002
}
1002
{
1000
REACTOR
1002
}
1001
GENIUS_GENOBJ-N-SDF_13
1002
{
1000
OWNER
1000
GEN
1002
}
1001
GENIUS_GENSCREG_15
1000
PF
1040
1.0
1000
DF
1040
1.0
1000
MIN
1011
0.0
1021
0.0
1031
0.0
1021
0.0
1031
0.0
1000
MAX
1011
523.0353982300885
1021
0.0
1031
0.0
1021
297.0
1031
0.0
1000
FLAGS
1070
     4
  0
ENDSEC
  0
EOF
