  0
SECTION
  2
HEADER
  9
$ACADVER
  1
AC1009
  9
$INSBASE
 10
0.0
 20
0.0
 30
0.0
  9
$EXTMIN
 10
-102.7999999999999
 20
-50.0
 30
0.0
  9
$EXTMAX
 10
125.00000000000171
 20
82.0
 30
0.0
  9
$LIMMIN
 10
0.0
 20
0.0
  9
$LIMMAX
 10
297.0
 20
210.0
  9
$ORTHOMODE
 70
     0
  9
$REGENMODE
 70
     1
  9
$FILLMODE
 70
     1
  9
$QTEXTMODE
 70
     0
  9
$MIRRTEXT
 70
     1
  9
$DRAGMODE
 70
     2
  9
$LTSCALE
 40
10.0
  9
$OSMODE
 70
    45
  9
$ATTMODE
 70
     1
  9
$TEXTSIZE
 40
3.0
  9
$TRACEWID
 40
1.0
  9
$TEXTSTYLE
  7
YOKO
  9
$CLAYER
  8
240
  9
$CELTYPE
  6
BYLAYER
  9
$CECOLOR
 62
   256
  9
$DIMSCALE
 40
1.0
  9
$DIMASZ
 40
2.2299999999999991
  9
$DIMEXO
 40
0.5
  9
$DIMDLI
 40
7.0
  9
$DIMRND
 40
0.0
  9
$DIMDLE
 40
0.0
  9
$DIMEXE
 40
1.0
  9
$DIMTP
 40
0.0
  9
$DIMTM
 40
0.01
  9
$DIMTXT
 40
2.7999999999999989
  9
$DIMCEN
 40
0.0
  9
$DIMTSZ
 40
0.0
  9
$DIMTOL
 70
     0
  9
$DIMLIM
 70
     0
  9
$DIMTIH
 70
     0
  9
$DIMTOH
 70
     0
  9
$DIMSE1
 70
     0
  9
$DIMSE2
 70
     0
  9
$DIMTAD
 70
     3
  9
$DIMZIN
 70
     9
  9
$DIMBLK
  1
OPEN
  9
$DIMASO
 70
     1
  9
$DIMSHO
 70
     1
  9
$DIMPOST
  1

  9
$DIMAPOST
  1

  9
$DIMALT
 70
     0
  9
$DIMALTD
 70
     2
  9
$DIMALTF
 40
25.399999999999999
  9
$DIMLFAC
 40
1.0
  9
$DIMTOFL
 70
     1
  9
$DIMTVP
 40
0.0
  9
$DIMTIX
 70
     1
  9
$DIMSOXD
 70
     0
  9
$DIMSAH
 70
     0
  9
$DIMBLK1
  1

  9
$DIMBLK2
  1

  9
$DIMSTYLE
  2
BIGT
  9
$DIMCLRD
 70
   256
  9
$DIMCLRE
 70
   256
  9
$DIMCLRT
 70
    40
  9
$DIMTFAC
 40
1.0
  9
$DIMGAP
 40
1.0
  9
$LUNITS
 70
     2
  9
$LUPREC
 70
     6
  9
$SKETCHINC
 40
1.0
  9
$FILLETRAD
 40
0.0
  9
$AUNITS
 70
     0
  9
$AUPREC
 70
     6
  9
$MENU
  1
.
  9
$ELEVATION
 40
0.0
  9
$PELEVATION
 40
0.0
  9
$THICKNESS
 40
0.0
  9
$LIMCHECK
 70
     0
  9
$BLIPMODE
 70
     0
  9
$CHAMFERA
 40
0.2
  9
$CHAMFERB
 40
0.2
  9
$SKPOLY
 70
     0
  9
$TDCREATE
 40
2457883.5886353361
  9
$TDUPDATE
 40
2457883.609659005
  9
$TDINDWG
 40
0.010929919
  9
$TDUSRTIMER
 40
0.0109298958
  9
$USRTIMER
 70
     1
  9
$ANGBASE
 50
0.0
  9
$ANGDIR
 70
     0
  9
$PDMODE
 70
     1
  9
$PDSIZE
 40
0.0
  9
$PLINEWID
 40
0.0
  9
$COORDS
 70
     1
  9
$SPLFRAME
 70
     0
  9
$SPLINETYPE
 70
     6
  9
$SPLINESEGS
 70
     4
  9
$ATTDIA
 70
     1
  9
$ATTREQ
 70
     1
  9
$HANDLING
 70
     1
  9
$HANDSEED
  5
45CC
  9
$SURFTAB1
 70
     6
  9
$SURFTAB2
 70
     6
  9
$SURFTYPE
 70
     6
  9
$SURFU
 70
     6
  9
$SURFV
 70
     6
  9
$UCSNAME
  2

  9
$UCSORG
 10
0.0
 20
0.0
 30
0.0
  9
$UCSXDIR
 10
1.0
 20
0.0
 30
0.0
  9
$UCSYDIR
 10
0.0
 20
1.0
 30
0.0
  9
$PUCSNAME
  2

  9
$PUCSORG
 10
0.0
 20
0.0
 30
0.0
  9
$PUCSXDIR
 10
1.0
 20
0.0
 30
0.0
  9
$PUCSYDIR
 10
0.0
 20
1.0
 30
0.0
  9
$USERI1
 70
     1
  9
$USERI2
 70
     0
  9
$USERI3
 70
     0
  9
$USERI4
 70
     0
  9
$USERI5
 70
     0
  9
$USERR1
 40
0.0
  9
$USERR2
 40
0.0
  9
$USERR3
 40
0.0
  9
$USERR4
 40
0.0
  9
$USERR5
 40
0.0
  9
$WORLDVIEW
 70
     1
  9
$SHADEDGE
 70
     3
  9
$SHADEDIF
 70
    70
  9
$TILEMODE
 70
     1
  9
$MAXACTVP
 70
    16
  9
$PLIMCHECK
 70
     0
  9
$PEXTMIN
 10
1.0000000000000000E+020
 20
1.0000000000000000E+020
 30
1.0000000000000000E+020
  9
$PEXTMAX
 10
-1.0000000000000000E+020
 20
-1.0000000000000000E+020
 30
-1.0000000000000000E+020
  9
$PLIMMIN
 10
0.0
 20
0.0
  9
$PLIMMAX
 10
420.0
 20
297.0
  9
$UNITMODE
 70
     0
  9
$VISRETAIN
 70
     1
  9
$PLINEGEN
 70
     0
  9
$PSLTSCALE
 70
     1
  0
ENDSEC
  0
SECTION
  2
TABLES
  0
TABLE
  2
VPORT
 70
     1
  0
VPORT
  2
*ACTIVE
 70
     0
 10
0.0
 20
0.0
 11
1.0
 21
1.0
 12
21.580138671952401
 22
29.646939933502569
 13
0.0
 23
0.0
 14
7.0
 24
7.0
 15
7.0
 25
7.0
 16
0.0
 26
0.0
 36
1.0
 17
0.0
 27
0.0
 37
0.0
 40
213.15055152792411
 41
1.7346938775510199
 42
50.0
 43
0.0
 44
0.0
 50
0.0
 51
0.0
 71
     0
 72
  2000
 73
     1
 74
     0
 75
     0
 76
     1
 77
     0
 78
     0
  0
ENDTAB
  0
TABLE
  2
LTYPE
 70
    21
  0
LTYPE
  2
CONTINUOUS
 70
     0
  3
Solid line
 72
    65
 73
     0
 40
0.0
  0
LTYPE
  2
CENTER2
 70
     0
  3
___ _ ___ _ ___ _ ___ _ ___ _ ___ _ ___ _ ___ _
 72
    65
 73
     4
 40
1.125
 49
0.75
 49
-0.125
 49
0.125
 49
-0.125
  0
LTYPE
  2
HIDDEN2
 70
     0
  3
_ _ _ _ _ _ _ _ _ _ _ _ _ _ _ _ _ _ _ _ _ _ _ _
 72
    65
 73
     2
 40
0.1875
 49
0.125
 49
-0.0625
  0
LTYPE
  2
AM_ISO02W050
 70
     0
  3
__ __ __ __ __ __ __ __ __ __ __ __ __ __ __
 72
    65
 73
     2
 40
7.5
 49
6.0
 49
-1.5
  0
LTYPE
  2
AMCONSTR
 70
     0
  3
_______________________
 72
    65
 73
     2
 40
9999.0
 49
9999.0
 49
0.0
  0
LTYPE
  2
ACISOWELD
 70
     0
  3
_ _ _ _ _
 72
    65
 73
     2
 40
2.0
 49
2.0
 49
-1.0
  0
LTYPE
  2
ACISOTGB
 70
     0
  3
__ . . __ . .
 72
    65
 73
     6
 40
9.0
 49
4.0
 49
-1.0
 49
1.0
 49
-1.0
 49
1.0
 49
-1.0
  0
LTYPE
  2
ACISOTGL
 70
     0
  3
_ _ _ _ _
 72
    65
 73
     2
 40
3.0
 49
2.0
 49
-1.0
  0
LTYPE
  2
AM_ISO08W050
 70
     0
  3
____ . ____ . ____ . ____ . ____ . ____ . ____
 72
    65
 73
     4
 40
18.0
 49
12.0
 49
-1.5
 49
3.0
 49
-1.5
  0
LTYPE
  2
AM_ISO09W050
 70
     0
  3
_____ . . _____ . . _____ . . ____ .. ____
 72
    65
 73
     6
 40
22.5
 49
12.0
 49
-1.5
 49
3.0
 49
-1.5
 49
3.0
 49
-1.5
  0
LTYPE
  2
AM_ISO08W050X2
 70
     0
  3
__ . __ . __ . __ . __ . __
 72
    65
 73
     4
 40
9.0
 49
6.0
 49
-0.75
 49
1.5
 49
-0.75
  0
LTYPE
  2
AM_ISO02W050X2
 70
     0
  3
 _ _ _ _ _ _ _ _ _ _ _ _
 72
    65
 73
     2
 40
3.75
 49
3.0
 49
-0.75
  0
LTYPE
  2
AMZIGZAG
 70
     0
  3
/\/-/\/-/\/-/\/-/\/-/\/
 72
    65
 73
     2
 40
11.0001
 49
0.0001
 49
-11.0
  0
ENDTAB
  0
TABLE
  2
LAYER
 70
     9
  0
LAYER
  2
0
 70
     0
 62
     7
  6
CONTINUOUS
  0
LAYER
  2
DEFPOINTS
 70
     0
 62
     7
  6
CONTINUOUS
  0
LAYER
  2
245
 70
     0
 62
     2
  6
CENTER2
  0
LAYER
  2
240
 70
     0
 62
     4
  6
CONTINUOUS
  0
LAYER
  2
241
 70
     0
 62
   211
  6
CONTINUOUS
  0
LAYER
  2
242
 70
     0
 62
     3
  6
CONTINUOUS
  0
LAYER
  2
243
 70
     0
 62
   211
  6
HIDDEN2
  0
LAYER
  2
247
 70
     0
 62
    60
  6
CONTINUOUS
  0
LAYER
  2
250
 70
     0
 62
     3
  6
CONTINUOUS
  0
ENDTAB
  0
TABLE
  2
STYLE
 70
     8
  0
STYLE
  2
STANDARD
 70
     0
 40
0.0
 41
1.0
 50
0.0
 71
     0
 42
3.0
  3
romans.shx
  4
extfont.shx
  0
STYLE
  2
ACISOGDT
 70
     0
 40
0.0
 41
1.0
 50
0.0
 71
     0
 42
3.0
  3
amgdt.shx
  4
extfont.shx
  0
STYLE
  2
YOKO
 70
     0
 40
0.0
 41
1.0
 50
0.0
 71
     0
 42
3.0
  3
romans.shx
  4
extfont.shx
  0
STYLE
  2

 70
     1
 40
0.0
 41
1.0
 50
0.0
 71
     0
 42
3.0
  3
genltshp.shx
  4

  0
ENDTAB
  0
TABLE
  2
VIEW
 70
     0
  0
ENDTAB
  0
TABLE
  2
UCS
 70
     0
  0
ENDTAB
  0
TABLE
  2
APPID
 70
    43
  0
APPID
  2
ACAD
 70
     0
  0
APPID
  2
GLOBAL
 70
     0
  0
APPID
  2
DETAIL
 70
     0
  0
APPID
  2
GRPNAME
 70
     0
  0
APPID
  2
GPARA
 70
     0
  0
APPID
  2
MCAD_NO_VIS
 70
     0
  0
APPID
  2
ACAD_TEMP_GRAPHIC
 70
     0
  0
APPID
  2
ACATTRIBSERVICES
 70
     0
  0
APPID
  2
GENIUS_GENSCREG_15
 70
     0
  0
APPID
  2
GENIUS_GENODEF_13
 70
     0
  0
APPID
  2
GENIUS_GENOBJ-N-SDF_13
 70
     0
  0
APPID
  2
GENIUS_GENREC_14
 70
     0
  0
APPID
  2
GENIUS_GENOBJ-N-REC_13
 70
     0
  0
APPID
  2
GENIUS_GENDIMSH_14
 70
     0
  0
APPID
  2
GENIUS_GENOBJ-N-DIM_13
 70
     0
  0
APPID
  2
GENIUS_GENDIM_13
 70
     0
  0
APPID
  2
GENIUS_GENDTOL_13
 70
     0
  0
APPID
  2
GENIUS_GENOLIS_13
 70
     0
  0
APPID
  2
GENIUS_GENOENT_13
 70
     0
  0
APPID
  2
GENIUS_GENOBJ-F-FEM_13
 70
     0
  0
APPID
  2
GENIUS_GENOREF_13
 70
     0
  0
APPID
  2
GENIUS_GEFFEM_13
 70
     0
  0
APPID
  2
GENIUS_GEFFEMP_13
 70
     0
  0
APPID
  2
AD_DRAW
 70
     0
  0
APPID
  2
DESIGNERASSEMBLIES
 70
     0
  0
APPID
  2
ACADM_DIM_EDIT
 70
     0
  0
APPID
  2
AMDT_DM_ADJ
 70
     0
  0
APPID
  2
ITEMNAME
 70
     0
  0
APPID
  2
GENIUS_GENOBJ-N-FIL_13
 70
     0
  0
APPID
  2
GENIUS_GENFIL_13
 70
     0
  0
APPID
  2
GENIUS_GENOBJ-N-CHA_13
 70
     0
  0
APPID
  2
ACAECLAYERSTANDARD
 70
     0
  0
APPID
  2
ACAD_NAV_VCDISPLAY
 70
     0
  0
APPID
  2
ACAD_DSTYLE_DIMJAG
 70
     0
  0
APPID
  2
ACAD_DSTYLE_DIMBREAK
 70
     0
  0
APPID
  2
ACAD_PSEXT
 70
     0
  0
APPID
  2
ACAD_DSTYLE_DIMTALN
 70
     0
  0
APPID
  2
ACAD_EXEMPT_FROM_CAD_STANDARDS
 70
     0
  0
APPID
  2
ACAD_MLEADERVER
 70
     0
  0
APPID
  2
ACAD_DSTYLE_DIMARC_LENGTH_
 70
     0
  0
APPID
  2
ACAD_DSTYLE_DIM_LINETYPE
 70
     0
  0
APPID
  2
ACAD_DSTYLE_DIM_EXT1_LINETYPE
 70
     0
  0
APPID
  2
ACAD_DSTYLE_DIM_EXT2_LINETYPE
 70
     0
  0
ENDTAB
  0
TABLE
  2
DIMSTYLE
 70
    29
  0
DIMSTYLE
  2
BIGT
 70
     0
  3

  4

  5
OPEN
  6

  7

 40
1.0
 41
2.2299999999999991
 42
0.5
 43
7.0
 44
1.0
 45
0.0
 46
0.0
 47
0.0
 48
0.01
140
2.7999999999999989
141
0.0
142
0.0
143
25.399999999999999
144
1.0
145
0.0
146
1.0
147
1.0
 71
     0
 72
     0
 73
     0
 74
     0
 75
     0
 76
     0
 77
     3
 78
     9
170
     0
171
     2
172
     1
173
     0
174
     1
175
     0
176
   256
177
   256
178
    40
  0
DIMSTYLE
  2
AM_ISO
 70
     0
  3

  4
"
  5

  6

  7

 40
1.0
 41
2.5
 42
1.0
 43
10.0
 44
1.0
 45
0.0
 46
0.0
 47
0.1
 48
0.1
140
3.5
141
0.0
142
0.0
143
0.0393701
144
1.0
145
0.0
146
0.71
147
1.5
 71
     0
 72
     0
 73
     0
 74
     0
 75
     0
 76
     0
 77
     1
 78
     8
170
     0
171
     2
172
     1
173
     0
174
     0
175
     0
176
   256
177
   256
178
     2
  0
DIMSTYLE
  2
AM_ISO$3
 70
     0
  3

  4
"
  5

  6

  7

 40
1.0
 41
2.5
 42
1.0
 43
10.0
 44
1.0
 45
0.0
 46
0.0
 47
0.1
 48
0.1
140
3.5
141
0.0
142
0.0
143
0.0393701
144
1.0
145
0.0
146
0.71
147
1.5
 71
     0
 72
     0
 73
     0
 74
     1
 75
     0
 76
     0
 77
     1
 78
     8
170
     0
171
     2
172
     0
173
     0
174
     0
175
     0
176
   256
177
   256
178
     2
  0
DIMSTYLE
  2
AM_ISO$4
 70
     0
  3

  4
"
  5

  6

  7

 40
1.0
 41
2.5
 42
1.0
 43
10.0
 44
1.0
 45
0.0
 46
0.0
 47
0.1
 48
0.1
140
3.5
141
0.0
142
0.0
143
0.0393701
144
1.0
145
0.0
146
0.71
147
1.5
 71
     0
 72
     0
 73
     0
 74
     1
 75
     0
 76
     0
 77
     1
 78
     8
170
     0
171
     2
172
     0
173
     0
174
     0
175
     0
176
   256
177
   256
178
     2
  0
DIMSTYLE
  2
AM_ISO$6
 70
     0
  3

  4
"
  5

  6

  7

 40
1.0
 41
2.5
 42
1.0
 43
10.0
 44
1.0
 45
0.0
 46
0.0
 47
0.1
 48
0.1
140
3.5
141
0.0
142
0.0
143
0.0393701
144
1.0
145
0.0
146
0.71
147
1.5
 71
     0
 72
     0
 73
     0
 74
     0
 75
     0
 76
     0
 77
     0
 78
     8
170
     0
171
     2
172
     1
173
     0
174
     0
175
     0
176
   256
177
   256
178
     2
  0
DIMSTYLE
  2
AM_ISO$7
 70
     0
  3

  4
"
  5

  6

  7

 40
1.0
 41
2.5
 42
1.0
 43
10.0
 44
1.0
 45
0.0
 46
0.0
 47
0.1
 48
0.1
140
5.0
141
0.0
142
0.0
143
0.0393701
144
1.0
145
0.0
146
0.71
147
1.5
 71
     0
 72
     0
 73
     0
 74
     0
 75
     0
 76
     0
 77
     1
 78
     8
170
     0
171
     2
172
     1
173
     0
174
     0
175
     0
176
   256
177
   256
178
     2
  0
DIMSTYLE
  2
AM_ISO$SF
 70
     0
  3

  4
"
  5

  6

  7

 40
1.0
 41
2.5
 42
1.0
 43
10.0
 44
1.0
 45
0.0
 46
0.0
 47
0.1
 48
0.1
140
3.5
141
0.0
142
0.0
143
0.0393701
144
1.0
145
0.0
146
0.71
147
1.5
 71
     0
 72
     0
 73
     0
 74
     0
 75
     1
 76
     1
 77
     1
 78
     8
170
     0
171
     2
172
     1
173
     0
174
     0
175
     0
176
   256
177
   256
178
     2
  0
DIMSTYLE
  2
AM_ISO$SH
 70
     0
  3

  4
"
  5

  6
GENAXEH
  7

 40
1.0
 41
2.5
 42
1.0
 43
10.0
 44
1.0
 45
0.0
 46
0.0
 47
0.1
 48
0.1
140
3.5
141
0.0
142
0.0
143
0.0393701
144
2.0
145
0.0
146
0.71
147
1.5
 71
     0
 72
     0
 73
     0
 74
     0
 75
     1
 76
     1
 77
     1
 78
     8
170
     0
171
     2
172
     1
173
     1
174
     0
175
     0
176
   256
177
   256
178
     2
  0
ENDTAB
  0
ENDSEC
  0
SECTION
  2
BLOCKS
  0
BLOCK
  8
0
  2
$MODEL_SPACE
 70
     0
 10
0.0
 20
0.0
 30
0.0
  3
$MODEL_SPACE
  1

  0
ENDBLK
  5
1C
  8
0
  0
BLOCK
 67
     1
  8
0
  2
$PAPER_SPACE
 70
     0
 10
0.0
 20
0.0
 30
0.0
  3
$PAPER_SPACE
  1

  0
ENDBLK
  5
19
 67
     1
  8
0
  0
BLOCK
  8
0
  2
_OPEN
 70
     0
 10
0.0
 20
0.0
 30
0.0
  3
_OPEN
  1

  0
LINE
  5
3E1A
  8
0
  6
BYBLOCK
 62
     0
 10
-1.0
 20
0.1666666666666666
 30
0.0
 11
0.0
 21
0.0
 31
0.0
  0
LINE
  5
3E1B
  8
0
  6
BYBLOCK
 62
     0
 10
-1.0
 20
-0.1666666666666666
 30
0.0
 11
0.0
 21
0.0
 31
0.0
  0
LINE
  5
3E1C
  8
0
  6
BYBLOCK
 62
     0
 10
0.0
 20
0.0
 30
0.0
 11
-1.0
 21
0.0
 31
0.0
  0
ENDBLK
  5
3E1D
  8
0
  0
BLOCK
  8
0
  2
GENAXEH
 70
     0
 10
0.0
 20
0.0
 30
0.0
  3
GENAXEH
  1

  0
LINE
  5
3E45
  8
0
 10
-1.0
 20
0.0
 30
0.0
 11
1.0
 21
0.0
 31
0.0
  0
ENDBLK
  5
3E46
  8
0
  0
ENDSEC
  0
SECTION
  2
ENTITIES
  0
LINE
  5
4301
  8
240
  6
CONTINUOUS
 10
0.0
 20
-34.925000000000011
 30
0.0
 11
-101.7999999999999
 21
-20.079166665188438
 31
0.0
  0
LINE
  5
4302
  8
245
  6
CENTER2
 10
-102.7999999999999
 20
0.0
 30
0.0
 11
107.1146211763858
 21
0.0
 31
0.0
  0
LINE
  5
4303
  8
240
  6
CONTINUOUS
 10
0.0
 20
34.925000000000011
 30
0.0
 11
-101.7999999999999
 21
20.079166665188438
 31
0.0
  0
LINE
  5
4304
  8
240
  6
CONTINUOUS
 10
-101.7999999999999
 20
20.079166665188438
 30
0.0
 11
-101.7999999999999
 21
-20.079166665188438
 31
0.0
  0
LINE
  5
4305
  8
241
  6
CONTINUOUS
 10
30.70000000000006
 20
50.0
 30
0.0
 11
30.70000000000006
 21
8.5976741040817046
 31
0.0
  0
LINE
  5
4306
  8
241
  6
CONTINUOUS
 10
26.369872979999968
 20
42.5
 30
0.0
 11
26.369872979999968
 21
11.74203670887902
 31
0.0
  0
LINE
  5
4307
  8
241
  6
CONTINUOUS
 10
20.030127020000009
 20
42.5
 30
0.0
 11
20.030127020000009
 21
12.850000000000019
 31
0.0
  0
LINE
  5
4308
  8
241
  6
CONTINUOUS
 10
15.70000000000004
 20
50.0
 30
0.0
 11
15.70000000000004
 21
12.850000000000019
 31
0.0
  0
LINE
  5
4309
  8
241
  6
CONTINUOUS
 10
15.70000000000004
 20
-50.0
 30
0.0
 11
15.70000000000004
 21
-12.850000000000019
 31
0.0
  0
LINE
  5
430A
  8
241
  6
CONTINUOUS
 10
20.030127020000009
 20
-42.5
 30
0.0
 11
20.030127020000009
 21
-12.850000000000019
 31
0.0
  0
LINE
  5
430B
  8
241
  6
CONTINUOUS
 10
30.70000000000006
 20
-50.0
 30
0.0
 11
30.70000000000006
 21
-8.5976741040817046
 31
0.0
  0
LINE
  5
430C
  8
241
  6
CONTINUOUS
 10
26.369872979999968
 20
-42.5
 30
0.0
 11
26.369872979999968
 21
-11.74203670887902
 31
0.0
  0
LINE
  5
430D
  8
240
  6
CONTINUOUS
 10
1.5
 20
-50.0
 30
0.0
 11
1.5
 21
-34.925000000000011
 31
0.0
  0
LINE
  5
430E
  8
240
  6
CONTINUOUS
 10
38.0
 20
-50.0
 30
0.0
 11
38.0
 21
-25.49999999998667
 31
0.0
  0
LINE
  5
430F
  8
240
  6
CONTINUOUS
 10
38.0
 20
-50.0
 30
0.0
 11
30.70000000000006
 21
-50.0
 31
0.0
  0
LINE
  5
4310
  8
240
  6
CONTINUOUS
 10
1.5
 20
-50.0
 30
0.0
 11
15.70000000000004
 21
-50.0
 31
0.0
  0
LINE
  5
4311
  8
240
  6
CONTINUOUS
 10
26.369872979999968
 20
-42.5
 30
0.0
 11
20.030127020000009
 21
-42.5
 31
0.0
  0
LINE
  5
4312
  8
240
  6
CONTINUOUS
 10
20.030127020000009
 20
-42.5
 30
0.0
 11
15.70000000000004
 21
-50.0
 31
0.0
  0
LINE
  5
4313
  8
240
  6
CONTINUOUS
 10
26.369872979999968
 20
-42.5
 30
0.0
 11
30.70000000000006
 21
-50.0
 31
0.0
  0
LINE
  5
4314
  8
241
  6
CONTINUOUS
 10
1.5
 20
-34.925000000000011
 30
0.0
 11
1.5
 21
34.925000000000011
 31
0.0
  0
LINE
  5
4315
  8
241
  6
CONTINUOUS
 10
0.0
 20
-34.925000000000011
 30
0.0
 11
0.0
 21
34.925000000000011
 31
0.0
  0
ARC
  5
4316
  8
241
  6
CONTINUOUS
 10
21.149999999999981
 20
0.0
 30
0.0
 40
12.849999999999881
 50
270.0
 51
90.0
  0
LINE
  5
4317
  8
241
  6
CONTINUOUS
 10
21.150001910000011
 20
-12.850000000000019
 30
0.0
 11
1.5
 21
-12.850000000000019
 31
0.0
  0
LINE
  5
4318
  8
240
  6
CONTINUOUS
 10
0.0
 20
-34.925000000000011
 30
0.0
 11
1.5
 21
-34.925000000000011
 31
0.0
  0
LINE
  5
4319
  8
241
  6
CONTINUOUS
 10
21.150001910000011
 20
12.850000000000019
 30
0.0
 11
1.5
 21
12.850000000000019
 31
0.0
  0
LINE
  5
431A
  8
240
  6
CONTINUOUS
 10
30.70000000000006
 20
50.0
 30
0.0
 11
38.0
 21
50.0
 31
0.0
  0
LINE
  5
431B
  8
240
  6
CONTINUOUS
 10
1.5
 20
50.0
 30
0.0
 11
1.5
 21
34.925000000000011
 31
0.0
  0
LINE
  5
431C
  8
240
  6
CONTINUOUS
 10
0.0
 20
34.925000000000011
 30
0.0
 11
1.5
 21
34.925000000000011
 31
0.0
  0
LINE
  5
431D
  8
240
  6
CONTINUOUS
 10
15.70000000000004
 20
50.0
 30
0.0
 11
1.5
 21
50.0
 31
0.0
  0
LINE
  5
431E
  8
240
  6
CONTINUOUS
 10
26.369872979999968
 20
42.5
 30
0.0
 11
20.030127020000009
 21
42.5
 31
0.0
  0
LINE
  5
431F
  8
240
  6
CONTINUOUS
 10
20.030127020000009
 20
42.5
 30
0.0
 11
15.70000000000004
 21
50.0
 31
0.0
  0
LINE
  5
4320
  8
240
  6
CONTINUOUS
 10
26.369872979999968
 20
42.5
 30
0.0
 11
30.70000000000006
 21
50.0
 31
0.0
  0
LINE
  5
4321
  8
247
  6
CONTINUOUS
 10
10.5
 20
-26.250000000070042
 30
0.0
 11
10.5
 21
-19.557692308030031
 31
0.0
  0
ARC
  5
4322
  8
247
  6
CONTINUOUS
 10
8.7500000000700311
 20
-26.250000000070042
 30
0.0
 40
1.7499999999299991
 50
180.0
 51
0.0
  0
ARC
  5
4323
  8
247
  6
CONTINUOUS
 10
8.7500000000700311
 20
-19.557692308030031
 30
0.0
 40
1.7499999999299991
 50
0.0
 51
180.0
  0
LINE
  5
4324
  8
247
  6
CONTINUOUS
 10
7.0000000001400622
 20
-25.384615384720011
 30
0.0
 11
10.000000000020011
 21
-26.244851541962021
 31
0.0
  0
LINE
  5
4325
  8
247
  6
CONTINUOUS
 10
8.4230769231600071
 20
-24.48498381833582
 30
0.0
 11
8.4230769231600071
 21
-25.792676125975849
 31
0.0
  0
ARC
  5
4326
  8
247
  6
CONTINUOUS
 10
7.5495986677029769
 20
-24.145143816089789
 30
0.0
 40
0.5538165441895349
 50
72.99788967529534
 51
172.92416621851359
  0
ARC
  5
4327
  8
247
  6
CONTINUOUS
 10
7.4360330444658302
 20
-24.566878323028789
 30
0.0
 40
0.9904354236226808
 50
4.7429368522022122
 51
73.849226273266538
1001
GENIUS_GENOBJ-N-FIL_13
1002
{
1000
OWNER
1000
GEN
1002
}
1001
GENIUS_GENODEF_13
1002
{
1000
HIER
1070
     0
1002
}
1002
{
1000
MANEDIT
1070
     0
1002
}
1002
{
1000
NOSEL
1070
     0
1002
}
1002
{
1000
BEHIND
1070
     0
1002
}
1002
{
1000
OTHER
1070
     0
1002
}
1002
{
1000
REACTOR
1002
}
  0
LINE
  5
4328
  8
247
  6
CONTINUOUS
 10
10.000000000020011
 20
-24.937159234321999
 30
0.0
 11
10.000000000020011
 21
-26.244851541962021
 31
0.0
  0
LINE
  5
4329
  8
247
  6
CONTINUOUS
 10
7.0000000001400622
 20
-25.384615384720011
 30
0.0
 11
7.0000000001400622
 21
-24.076923077079989
 31
0.0
  0
ARC
  5
432A
  8
247
  6
CONTINUOUS
 10
8.9820242326655944
 20
-24.560919636546942
 30
0.0
 40
0.5640818586791229
 50
65.990941652528889
 51
172.26344345906909
  0
ARC
  5
432B
  8
247
  6
CONTINUOUS
 10
8.9874290391866225
 20
-25.038262685347089
 30
0.0
 40
1.0176059446230981
 50
5.7019851642564632
 51
77.277338436822191
1001
GENIUS_GENOBJ-N-FIL_13
1002
{
1000
OWNER
1000
GEN
1002
}
1001
GENIUS_GENODEF_13
1002
{
1000
HIER
1070
     0
1002
}
1002
{
1000
MANEDIT
1070
     0
1002
}
1002
{
1000
NOSEL
1070
     0
1002
}
1002
{
1000
BEHIND
1070
     0
1002
}
1002
{
1000
OTHER
1070
     0
1002
}
1002
{
1000
REACTOR
1002
}
  0
LINE
  5
432C
  8
247
  6
CONTINUOUS
 10
10.000000000020011
 20
-23.28331308054203
 30
0.0
 11
7.0000000001400622
 21
-22.42307692330002
 31
0.0
  0
LINE
  5
432D
  8
247
  6
CONTINUOUS
 10
7.0000000001400622
 20
-20.000000000319972
 30
0.0
 11
7.0000000001400622
 21
-20.565736619456569
 31
0.0
  0
LINE
  5
432E
  8
247
  6
CONTINUOUS
 10
10.000000000020011
 20
-21.461538461799989
 30
0.0
 11
10.000000000020011
 21
-20.846153846440021
 31
0.0
  0
ARC
  5
432F
  8
247
  6
CONTINUOUS
 10
9.0832851359733677
 20
-19.708791209122861
 30
0.0
 40
2.2526500823422122
 50
202.35948814152621
 51
254.99324854284609
  0
ARC
  5
4330
  8
247
  6
CONTINUOUS
 10
7.8083126551945261
 20
-20.37406947921323
 30
0.0
 40
0.8906723995727782
 50
94.994589319075374
 51
155.1663289573039
1001
GENIUS_GENOBJ-N-FIL_13
1002
{
1000
OWNER
1000
GEN
1002
}
1001
GENIUS_GENODEF_13
1002
{
1000
HIER
1070
     0
1002
}
1002
{
1000
MANEDIT
1070
     0
1002
}
1002
{
1000
NOSEL
1070
     0
1002
}
1002
{
1000
BEHIND
1070
     0
1002
}
1002
{
1000
OTHER
1070
     0
1002
}
1002
{
1000
REACTOR
1002
}
  0
ARC
  5
4331
  8
247
  6
CONTINUOUS
 10
8.6601458886677847
 20
-21.22645888621258
 30
0.0
 40
1.392781735586712
 50
15.8460965557808
 51
82.325137004169065
  0
ARC
  5
4332
  8
247
  6
CONTINUOUS
 10
8.9592434315272822
 20
-20.642212725840348
 30
0.0
 40
1.324563662670287
 50
249.7136016704969
 51
321.78874565640598
1001
GENIUS_GENOBJ-N-FIL_13
1002
{
1000
OWNER
1000
GEN
1002
}
1001
GENIUS_GENODEF_13
1002
{
1000
HIER
1070
     0
1002
}
1002
{
1000
MANEDIT
1070
     0
1002
}
1002
{
1000
NOSEL
1070
     0
1002
}
1002
{
1000
BEHIND
1070
     0
1002
}
1002
{
1000
OTHER
1070
     0
1002
}
1002
{
1000
REACTOR
1002
}
  0
LINE
  5
4333
  8
247
  6
CONTINUOUS
 10
8.8461538462199751
 20
-20.538461538759979
 30
0.0
 11
8.8461538462199751
 21
-19.846153846479961
 31
0.0
  0
LINE
  5
4334
  8
247
  6
CONTINUOUS
 10
7.0000000001400622
 20
-26.250000000070042
 30
0.0
 11
7.0000000001400622
 21
-25.576923077020069
 31
0.0
  0
LINE
  5
4335
  8
250
  6
CONTINUOUS
 10
-52.781569849999919
 20
-37.791071780000038
 30
0.0
 11
-70.514903179999976
 21
-37.791071780000038
 31
0.0
1001
ITEMNAME
1000
LNSP2
  0
TEXT
  5
4336
  8
250
  6
CONTINUOUS
 10
-69.43839584946079
 20
-36.791071780000038
 30
0.0
 40
2.799999999999998
  1
BBT50M
  7
YOKO
1001
ITEMNAME
1000
LNSP3
  0
LINE
  5
4337
  8
250
  6
CONTINUOUS
 10
-48.367434494225343
 20
-29.478898401206319
 30
0.0
 11
-47.078759359999928
 21
-27.913514259999999
 31
0.0
  0
LINE
  5
4338
  8
250
  6
CONTINUOUS
 10
-47.790084224956992
 20
-29.812231734403451
 30
0.0
 11
-47.078759359999928
 21
-27.913514259999999
 31
0.0
  0
LINE
  5
4339
  8
250
  6
CONTINUOUS
 10
-47.078759359999928
 20
-27.913514259999999
 30
0.0
 11
-48.078759359591167
 21
-29.64556506780491
 31
0.0
  0
LINE
  5
433A
  8
250
  6
CONTINUOUS
 10
-48.078759359591167
 20
-29.64556506780491
 30
0.0
 11
-52.781569849999919
 21
-37.791071780000038
 31
0.0
1001
ACAD
1000
DSTYLE
1002
{
1070
     6
1000
OPEN
1070
    41
1040
2.0
1070
   343
1005
0
1002
}
  0
TEXT
  5
433B
  8
241
  6
CONTINUOUS
 10
-101.8
 20
77.0
 30
0.0
 40
5.0
  1
BBT50M-BSL16-105
  7
YOKO
  0
LINE
  5
433C
  8
250
  6
CONTINUOUS
 10
37.000000000001791
 20
13.00000000000284
 30
0.0
 11
37.000000000001791
 21
57.000000000002842
 31
0.0
  0
LINE
  5
433D
  8
250
  6
CONTINUOUS
 10
105.00000000000171
 20
15.0
 30
0.0
 11
105.00000000000171
 21
57.0
 31
0.0
  0
LINE
  5
433E
  8
250
  6
CONTINUOUS
 10
39.230000000001787
 20
56.000000000002842
 30
0.0
 11
102.7700000000017
 21
56.0
 31
0.0
  0
LINE
  5
433F
  8
250
  6
CONTINUOUS
 10
39.230000000001787
 20
55.628333325902837
 30
0.0
 11
37.000000000001791
 21
56.000000000002842
 31
0.0
  0
LINE
  5
4340
  8
250
  6
CONTINUOUS
 10
39.230000000001787
 20
56.37166667410284
 30
0.0
 11
37.000000000001791
 21
56.000000000002842
 31
0.0
  0
LINE
  5
4341
  8
250
  6
CONTINUOUS
 10
37.000000000001791
 20
56.000000000002842
 30
0.0
 11
39.230000000001787
 21
56.000000000002842
 31
0.0
  0
LINE
  5
4342
  8
250
  6
CONTINUOUS
 10
102.7700000000017
 20
56.371666674099991
 30
0.0
 11
105.00000000000171
 21
56.0
 31
0.0
  0
LINE
  5
4343
  8
250
  6
CONTINUOUS
 10
102.7700000000017
 20
55.628333325900002
 30
0.0
 11
105.00000000000171
 21
56.0
 31
0.0
  0
LINE
  5
4344
  8
250
  6
CONTINUOUS
 10
105.00000000000171
 20
56.0
 30
0.0
 11
102.7700000000017
 21
56.0
 31
0.0
  0
TEXT
  5
4345
  8
250
  6
CONTINUOUS
 10
60.387594667927146
 20
57.0
 30
0.0
 40
2.799999999999998
  1
üimax.68üj
1001
ACAD
1000
MTEXTBEGIN
1070
    73
1070
     1
1070
    44
1040
1.0
1070
    74
1070
     0
1000
MTEXTEND
1000
MTEXTBEGIN
1070
    73
1070
     1
1070
    44
1040
1.0
1070
    74
1070
     0
1000
MTEXTEND
  0
LINE
  5
4346
  8
250
  6
CONTINUOUS
 10
0.0
 20
35.424999999999997
 30
0.0
 11
0.0
 21
64.0
 31
0.0
  0
LINE
  5
4347
  8
250
  6
CONTINUOUS
 10
105.00000000000171
 20
11.931851652583619
 30
0.0
 11
105.00000000000171
 21
64.0
 31
0.0
  0
LINE
  5
4348
  8
250
  6
CONTINUOUS
 10
2.2299999999999991
 20
63.0
 30
0.0
 11
102.7700000000017
 21
63.0
 31
0.0
  0
LINE
  5
4349
  8
250
  6
CONTINUOUS
 10
2.2299999999999991
 20
62.628333325900002
 30
0.0
 11
0.0
 21
63.0
 31
0.0
  0
LINE
  5
434A
  8
250
  6
CONTINUOUS
 10
2.2299999999999991
 20
63.371666674099998
 30
0.0
 11
0.0
 21
63.0
 31
0.0
  0
LINE
  5
434B
  8
250
  6
CONTINUOUS
 10
0.0
 20
63.0
 30
0.0
 11
2.2299999999999991
 21
63.0
 31
0.0
  0
LINE
  5
434C
  8
250
  6
CONTINUOUS
 10
102.7700000000017
 20
63.371666674099998
 30
0.0
 11
105.00000000000171
 21
63.0
 31
0.0
  0
LINE
  5
434D
  8
250
  6
CONTINUOUS
 10
102.7700000000017
 20
62.628333325900002
 30
0.0
 11
105.00000000000171
 21
63.0
 31
0.0
  0
LINE
  5
434E
  8
250
  6
CONTINUOUS
 10
105.00000000000171
 20
63.0
 30
0.0
 11
102.7700000000017
 21
63.0
 31
0.0
  0
TEXT
  5
434F
  8
250
  6
CONTINUOUS
 10
48.19366568776892
 20
64.000000000000014
 30
0.0
 40
2.799999999999998
  1
105
1001
ACAD
1000
MTEXTBEGIN
1070
    73
1070
     1
1070
    44
1040
1.0
1070
    74
1070
     0
1000
MTEXTEND
1000
MTEXTBEGIN
1070
    73
1070
     1
1070
    44
1040
1.0
1070
    74
1070
     0
1000
MTEXTEND
1000
MTEXTBEGIN
1070
    73
1070
     1
1070
    44
1040
1.0
1070
    74
1070
     0
1000
MTEXTEND
  0
LINE
  5
4392
  8
240
  6
CONTINUOUS
 10
38.0
 20
25.499999999990521
 30
0.0
 11
38.0
 21
50.0
 31
0.0
  0
LINE
  5
4393
  8
241
  6
CONTINUOUS
 10
38.0
 20
-25.49999999998667
 30
0.0
 11
38.0
 21
25.499999999990521
 31
0.0
  0
LINE
  5
43BE
  8
243
  6
HIDDEN2
 10
105.00000000000171
 20
8.0000000000129603
 30
0.0
 11
41.999999999998863
 21
8.0000000000032401
 31
0.0
  0
LINE
  5
43BF
  8
240
  6
CONTINUOUS
 10
43.499999999993427
 20
-19.999999999993388
 30
0.0
 11
38.0
 21
-25.49999999998667
 31
0.0
  0
LINE
  5
43C0
  8
240
  6
CONTINUOUS
 10
43.499999999990102
 20
20.0000000000014
 30
0.0
 11
38.0
 21
25.499999999990521
 31
0.0
  0
LINE
  5
43C2
  8
240
  6
CONTINUOUS
 10
43.499999999993427
 20
-19.999999999993388
 30
0.0
 11
102.3205080756905
 21
-19.999999999994451
 31
0.0
  0
LINE
  5
43C3
  8
241
  6
CONTINUOUS
 10
43.499999999992262
 20
20.0000000000014
 30
0.0
 11
43.499999999993399
 21
-19.999999999992841
 31
0.0
  0
LINE
  5
43C5
  8
241
  6
CONTINUOUS
 10
64.366025403833873
 20
-19.999999999995111
 30
0.0
 11
64.366025403833419
 21
20.000000000002782
 31
0.0
  0
LINE
  5
43C6
  8
241
  6
CONTINUOUS
 10
83.633974596240805
 20
-19.999999999990681
 30
0.0
 11
83.633974596234907
 21
20.000000000004061
 31
0.0
  0
LINE
  5
43C7
  8
241
  6
CONTINUOUS
 10
62.633974596268217
 20
-19.999999999991591
 30
0.0
 11
62.633974596262078
 21
20.000000000002672
 31
0.0
  0
LINE
  5
43C9
  8
241
  6
CONTINUOUS
 10
85.366025403806589
 20
-19.999999999994198
 30
0.0
 11
85.366025403806148
 21
20.000000000004182
 31
0.0
  0
LINE
  5
43CA
  8
240
  6
CONTINUOUS
 10
105.00000000000171
 20
10.00000000000543
 30
0.0
 11
105.00000000000171
 21
-9.9999999999943476
 31
0.0
  0
LINE
  5
43CB
  8
241
  6
CONTINUOUS
 10
102.3205080756904
 20
-19.999999999994451
 30
0.0
 11
102.3205080756906
 21
20.000000000005301
 31
0.0
  0
LINE
  5
43CD
  8
240
  6
CONTINUOUS
 10
105.00000000000171
 20
-9.9999999999943476
 30
0.0
 11
102.3205080756905
 21
-19.999999999994451
 31
0.0
  0
LINE
  5
43CE
  8
240
  6
CONTINUOUS
 10
43.499999999990102
 20
20.0000000000014
 30
0.0
 11
102.3205080756906
 21
20.000000000005311
 31
0.0
  0
LINE
  5
43CF
  8
240
  6
CONTINUOUS
 10
105.00000000000171
 20
10.00000000000543
 30
0.0
 11
102.3205080756906
 21
20.000000000005311
 31
0.0
  0
LINE
  5
43DA
  8
243
  6
HIDDEN2
 10
105.00000000000171
 20
-8.0000000000129603
 30
0.0
 11
41.999999999998863
 21
-8.0000000000032401
 31
0.0
  0
CIRCLE
  5
43EC
  8
241
  6
CONTINUOUS
 10
95.000000000001705
 20
0.0
 30
0.0
 40
5.0
  0
CIRCLE
  5
43ED
  8
242
  6
CONTINUOUS
 10
95.000000000001705
 20
0.0
 30
0.0
 40
4.375
  0
LINE
  5
43EE
  8
245
  6
CENTER2
 10
95.000000000001705
 20
6.0
 30
0.0
 11
95.000000000001705
 21
-6.0
 31
0.0
  0
LINE
  5
43EF
  8
241
  6
CONTINUOUS
 10
97.500000000001705
 20
1.443375669999998
 30
0.0
 11
95.000000000001705
 21
2.8867513499999991
 31
0.0
  0
LINE
  5
43F0
  8
241
  6
CONTINUOUS
 10
95.000000000001705
 20
-2.8867513499999991
 30
0.0
 11
97.500000000001705
 21
-1.443375669999998
 31
0.0
  0
LINE
  5
43F1
  8
241
  6
CONTINUOUS
 10
92.500000000001705
 20
-1.443375669999998
 30
0.0
 11
95.000000000001705
 21
-2.8867513499999991
 31
0.0
  0
LINE
  5
43F2
  8
241
  6
CONTINUOUS
 10
95.000000000001705
 20
2.8867513499999991
 30
0.0
 11
92.500000000001705
 21
1.443375669999998
 31
0.0
  0
LINE
  5
43F3
  8
241
  6
CONTINUOUS
 10
92.500000000001705
 20
1.443375669999998
 30
0.0
 11
92.500000000001705
 21
-1.443375669999998
 31
0.0
  0
LINE
  5
43F4
  8
241
  6
CONTINUOUS
 10
97.500000000001705
 20
-1.443375669999998
 30
0.0
 11
97.500000000001705
 21
1.443375669999998
 31
0.0
  0
CIRCLE
  5
4403
  8
241
  6
CONTINUOUS
 10
74.000000000001705
 20
0.0
 30
0.0
 40
5.0
  0
CIRCLE
  5
4404
  8
242
  6
CONTINUOUS
 10
74.000000000001705
 20
0.0
 30
0.0
 40
4.375
  0
LINE
  5
4405
  8
245
  6
CENTER2
 10
74.000000000001705
 20
6.0
 30
0.0
 11
74.000000000001705
 21
-6.0
 31
0.0
  0
LINE
  5
4406
  8
241
  6
CONTINUOUS
 10
76.500000000001705
 20
1.443375669999998
 30
0.0
 11
74.000000000001705
 21
2.8867513499999991
 31
0.0
  0
LINE
  5
4407
  8
241
  6
CONTINUOUS
 10
74.000000000001705
 20
-2.8867513499999991
 30
0.0
 11
76.500000000001705
 21
-1.443375669999998
 31
0.0
  0
LINE
  5
4408
  8
241
  6
CONTINUOUS
 10
71.500000000001705
 20
-1.443375669999998
 30
0.0
 11
74.000000000001705
 21
-2.8867513499999991
 31
0.0
  0
LINE
  5
4409
  8
241
  6
CONTINUOUS
 10
74.000000000001705
 20
2.8867513499999991
 30
0.0
 11
71.500000000001705
 21
1.443375669999998
 31
0.0
  0
LINE
  5
440A
  8
241
  6
CONTINUOUS
 10
71.500000000001705
 20
1.443375669999998
 30
0.0
 11
71.500000000001705
 21
-1.443375669999998
 31
0.0
  0
LINE
  5
440B
  8
241
  6
CONTINUOUS
 10
76.500000000001705
 20
-1.443375669999998
 30
0.0
 11
76.500000000001705
 21
1.443375669999998
 31
0.0
  0
CIRCLE
  5
441A
  8
241
  6
CONTINUOUS
 10
53.000000000001712
 20
0.0
 30
0.0
 40
5.0
  0
CIRCLE
  5
441B
  8
242
  6
CONTINUOUS
 10
53.000000000001712
 20
0.0
 30
0.0
 40
4.375
  0
LINE
  5
441C
  8
245
  6
CENTER2
 10
53.000000000001712
 20
6.0
 30
0.0
 11
53.000000000001712
 21
-6.0
 31
0.0
  0
LINE
  5
441D
  8
241
  6
CONTINUOUS
 10
55.500000000001712
 20
1.443375669999998
 30
0.0
 11
53.000000000001712
 21
2.8867513499999991
 31
0.0
  0
LINE
  5
441E
  8
241
  6
CONTINUOUS
 10
53.000000000001712
 20
-2.8867513499999991
 30
0.0
 11
55.500000000001712
 21
-1.443375669999998
 31
0.0
  0
LINE
  5
441F
  8
241
  6
CONTINUOUS
 10
50.500000000001712
 20
-1.443375669999998
 30
0.0
 11
53.000000000001712
 21
-2.8867513499999991
 31
0.0
  0
LINE
  5
4420
  8
241
  6
CONTINUOUS
 10
53.000000000001712
 20
2.8867513499999991
 30
0.0
 11
50.500000000001712
 21
1.443375669999998
 31
0.0
  0
LINE
  5
4421
  8
241
  6
CONTINUOUS
 10
50.500000000001712
 20
1.443375669999998
 30
0.0
 11
50.500000000001712
 21
-1.443375669999998
 31
0.0
  0
LINE
  5
4422
  8
241
  6
CONTINUOUS
 10
55.500000000001712
 20
-1.443375669999998
 30
0.0
 11
55.500000000001712
 21
1.443375669999998
 31
0.0
  0
LINE
  5
44B0
  8
250
  6
CONTINUOUS
 10
105.50000000000171
 20
8.0000000000000266
 30
0.0
 11
118.00000000000171
 21
8.0000000000000266
 31
0.0
  0
LINE
  5
44B1
  8
250
  6
CONTINUOUS
 10
117.00000000000171
 20
-5.769999999999972
 30
0.0
 11
117.00000000000171
 21
5.7700000000000262
 31
0.0
  0
LINE
  5
44B2
  8
250
  6
CONTINUOUS
 10
116.62833332590171
 20
5.7700000000000262
 30
0.0
 11
117.00000000000171
 21
8.0000000000000266
 31
0.0
  0
LINE
  5
44B3
  8
250
  6
CONTINUOUS
 10
117.3716666741017
 20
5.7700000000000262
 30
0.0
 11
117.00000000000171
 21
8.0000000000000266
 31
0.0
  0
LINE
  5
44B4
  8
250
  6
CONTINUOUS
 10
117.00000000000171
 20
8.0000000000000266
 30
0.0
 11
117.00000000000171
 21
5.7700000000000262
 31
0.0
  0
TEXT
  5
44B5
  8
250
  6
CONTINUOUS
 10
116.00000000000171
 20
-3.933333333333306
 30
0.0
 40
2.799999999999998
  1
\U+220516
 50
90.0
1001
ACAD
1000
MTEXTBEGIN
1070
    73
1070
     1
1070
    44
1040
1.0
1070
    74
1070
     0
1000
MTEXTEND
1000
MTEXTBEGIN
1070
    73
1070
     1
1070
    44
1040
1.0
1070
    74
1070
     0
1000
MTEXTEND
1000
MTEXTBEGIN
1070
    73
1070
     1
1070
    44
1040
1.0
1070
    74
1070
     0
1000
MTEXTEND
  0
LINE
  5
44B6
  8
250
  6
CONTINUOUS
 10
102.8381461631561
 20
-19.999999999999972
 30
0.0
 11
125.00000000000171
 21
-19.999999999999972
 31
0.0
  0
LINE
  5
44B7
  8
250
  6
CONTINUOUS
 10
102.8381461631561
 20
20.000000000000028
 30
0.0
 11
125.00000000000171
 21
20.000000000000028
 31
0.0
  0
LINE
  5
44B8
  8
250
  6
CONTINUOUS
 10
124.00000000000171
 20
-17.769999999999971
 30
0.0
 11
124.00000000000171
 21
17.770000000000021
 31
0.0
  0
LINE
  5
44B9
  8
250
  6
CONTINUOUS
 10
124.3716666741017
 20
-17.769999999999971
 30
0.0
 11
124.00000000000171
 21
-19.999999999999972
 31
0.0
  0
LINE
  5
44BA
  8
250
  6
CONTINUOUS
 10
123.62833332590171
 20
-17.769999999999971
 30
0.0
 11
124.00000000000171
 21
-19.999999999999972
 31
0.0
  0
LINE
  5
44BB
  8
250
  6
CONTINUOUS
 10
124.00000000000171
 20
-19.999999999999972
 30
0.0
 11
124.00000000000171
 21
-17.769999999999971
 31
0.0
  0
LINE
  5
44BC
  8
250
  6
CONTINUOUS
 10
123.62833332590171
 20
17.770000000000021
 30
0.0
 11
124.00000000000171
 21
20.000000000000028
 31
0.0
  0
LINE
  5
44BD
  8
250
  6
CONTINUOUS
 10
124.3716666741017
 20
17.770000000000021
 30
0.0
 11
124.00000000000171
 21
20.000000000000028
 31
0.0
  0
LINE
  5
44BE
  8
250
  6
CONTINUOUS
 10
124.00000000000171
 20
20.000000000000028
 30
0.0
 11
124.00000000000171
 21
17.770000000000021
 31
0.0
  0
TEXT
  5
44BF
  8
250
  6
CONTINUOUS
 10
123.00000000000171
 20
-3.9333333333333051
 30
0.0
 40
2.799999999999998
  1
\U+220540
 50
90.0
1001
ACAD
1000
MTEXTBEGIN
1070
    73
1070
     1
1070
    44
1040
1.0
1070
    74
1070
     0
1000
MTEXTEND
1000
MTEXTBEGIN
1070
    73
1070
     1
1070
    44
1040
1.0
1070
    74
1070
     0
1000
MTEXTEND
1000
MTEXTBEGIN
1070
    73
1070
     1
1070
    44
1040
1.0
1070
    74
1070
     0
1000
MTEXTEND
1000
MTEXTBEGIN
1070
    73
1070
     1
1070
    44
1040
1.0
1070
    74
1070
     0
1000
MTEXTEND
  0
LINE
  5
44C0
  8
250
  6
CONTINUOUS
 10
105.50000000000171
 20
-8.0000000000000266
 30
0.0
 11
118.00000000000171
 21
-8.0000000000000515
 31
0.0
  0
LINE
  5
44C1
  8
250
  6
CONTINUOUS
 10
116.62833332590171
 20
-5.7700000000000484
 30
0.0
 11
117.00000000000171
 21
-8.0000000000000497
 31
0.0
  0
LINE
  5
44C2
  8
250
  6
CONTINUOUS
 10
117.3716666741017
 20
-5.7700000000000493
 30
0.0
 11
117.00000000000171
 21
-8.0000000000000497
 31
0.0
  0
LINE
  5
44C3
  8
250
  6
CONTINUOUS
 10
117.00000000000171
 20
-8.0000000000000497
 30
0.0
 11
117.00000000000171
 21
-5.7700000000000484
 31
0.0
  0
VIEWPORT
  5
22
 67
     1
  8
0
 10
261.51769911504419
 20
148.5
 30
0.0
 40
523.0353982300885
 41
297.0
 68
     1
 69
     1
1001
ACAD
1000
MVIEW
1002
{
1070
    16
1010
0.0
1020
0.0
1030
0.0
1010
0.0
1020
0.0
1030
1.0
1040
0.0
1040
297.0
1040
261.51769911504419
1040
148.5
1040
50.0
1040
0.0
1040
0.0
1070
     0
1070
   100
1070
     1
1070
     1
1070
     0
1070
     0
1070
     0
1070
     0
1040
0.0
1040
0.0
1040
0.0
1040
1.0
1040
1.0
1040
10.0
1040
10.0
1070
     0
1002
{
1002
}
1002
}
1001
GENIUS_GENODEF_13
1002
{
1000
HIER
1070
     0
1002
}
1002
{
1000
MANEDIT
1070
     0
1002
}
1002
{
1000
NOSEL
1070
     0
1002
}
1002
{
1000
BEHIND
1070
     0
1002
}
1002
{
1000
OTHER
1070
     0
1002
}
1002
{
1000
REACTOR
1002
}
1001
GENIUS_GENOBJ-N-SDF_13
1002
{
1000
OWNER
1000
GEN
1002
}
1001
GENIUS_GENSCREG_15
1000
PF
1040
1.0
1000
DF
1040
1.0
1000
MIN
1011
0.0
1021
0.0
1031
0.0
1021
0.0
1031
0.0
1000
MAX
1011
523.0353982300885
1021
0.0
1031
0.0
1021
297.0
1031
0.0
1000
FLAGS
1070
     4
  0
ENDSEC
  0
EOF
