  0
SECTION
  2
HEADER
  9
$ACADVER
  1
AC1015
  9
$ACADMAINTVER
 70
    20
  9
$DWGCODEPAGE
  3
ANSI_932
  9
$INSBASE
 10
0.0
 20
0.0
 30
0.0
  9
$EXTMIN
 10
-102.8159533726236
 20
-78.01144321869537
 30
-0.0015258207003583
  9
$EXTMAX
 10
307.0175731071943
 20
89.0150763145823
 30
0.0000000349246037
  9
$LIMMIN
 10
0.0
 20
0.0
  9
$LIMMAX
 10
420.0
 20
297.0
  9
$ORTHOMODE
 70
     0
  9
$REGENMODE
 70
     1
  9
$FILLMODE
 70
     1
  9
$QTEXTMODE
 70
     0
  9
$MIRRTEXT
 70
     1
  9
$LTSCALE
 40
10.0
  9
$ATTMODE
 70
     1
  9
$TEXTSIZE
 40
3.0
  9
$TRACEWID
 40
1.0
  9
$TEXTSTYLE
  7
YOKO
  9
$CLAYER
  8
245
  9
$CELTYPE
  6
BYLAYER
  9
$CECOLOR
 62
   256
  9
$CELTSCALE
 40
1.0
  9
$DISPSILH
 70
     0
  9
$DIMSCALE
 40
1.0
  9
$DIMASZ
 40
2.0
  9
$DIMEXO
 40
0.5
  9
$DIMDLI
 40
2.5
  9
$DIMRND
 40
0.0
  9
$DIMDLE
 40
0.0
  9
$DIMEXE
 40
1.0
  9
$DIMTP
 40
0.0
  9
$DIMTM
 40
0.0
  9
$DIMTXT
 40
2.799999999999999
  9
$DIMCEN
 40
0.0
  9
$DIMTSZ
 40
0.0
  9
$DIMTOL
 70
     0
  9
$DIMLIM
 70
     0
  9
$DIMTIH
 70
     0
  9
$DIMTOH
 70
     0
  9
$DIMSE1
 70
     0
  9
$DIMSE2
 70
     0
  9
$DIMTAD
 70
     3
  9
$DIMZIN
 70
     8
  9
$DIMBLK
  1

  9
$DIMASO
 70
     1
  9
$DIMSHO
 70
     1
  9
$DIMPOST
  1

  9
$DIMAPOST
  1

  9
$DIMALT
 70
     0
  9
$DIMALTD
 70
     2
  9
$DIMALTF
 40
25.4
  9
$DIMLFAC
 40
1.0
  9
$DIMTOFL
 70
     1
  9
$DIMTVP
 40
0.0
  9
$DIMTIX
 70
     1
  9
$DIMSOXD
 70
     0
  9
$DIMSAH
 70
     1
  9
$DIMBLK1
  1
OPEN
  9
$DIMBLK2
  1
OPEN
  9
$DIMSTYLE
  2
BIGT
  9
$DIMCLRD
 70
   256
  9
$DIMCLRE
 70
   256
  9
$DIMCLRT
 70
    40
  9
$DIMTFAC
 40
1.0
  9
$DIMGAP
 40
1.0
  9
$DIMJUST
 70
     0
  9
$DIMSD1
 70
     0
  9
$DIMSD2
 70
     0
  9
$DIMTOLJ
 70
     1
  9
$DIMTZIN
 70
     8
  9
$DIMALTZ
 70
     0
  9
$DIMALTTZ
 70
     0
  9
$DIMUPT
 70
     0
  9
$DIMDEC
 70
     3
  9
$DIMTDEC
 70
     3
  9
$DIMALTU
 70
     2
  9
$DIMALTTD
 70
     2
  9
$DIMTXSTY
  7
STANDARD
  9
$DIMAUNIT
 70
     0
  9
$DIMADEC
 70
     3
  9
$DIMALTRND
 40
0.0
  9
$DIMAZIN
 70
     2
  9
$DIMDSEP
 70
    46
  9
$DIMATFIT
 70
     3
  9
$DIMFRAC
 70
     0
  9
$DIMLDRBLK
  1
OPEN
  9
$DIMLUNIT
 70
     2
  9
$DIMLWD
 70
    -1
  9
$DIMLWE
 70
    -1
  9
$DIMTMOVE
 70
     0
  9
$LUNITS
 70
     2
  9
$LUPREC
 70
     3
  9
$SKETCHINC
 40
1.0
  9
$FILLETRAD
 40
5.0
  9
$AUNITS
 70
     0
  9
$AUPREC
 70
     3
  9
$MENU
  1
.
  9
$ELEVATION
 40
0.0
  9
$PELEVATION
 40
0.0
  9
$THICKNESS
 40
0.0
  9
$LIMCHECK
 70
     0
  9
$CHAMFERA
 40
0.2
  9
$CHAMFERB
 40
0.2
  9
$CHAMFERC
 40
0.0
  9
$CHAMFERD
 40
0.0
  9
$SKPOLY
 70
     0
  9
$TDCREATE
 40
2455107.554141886
  9
$TDUCREATE
 40
2455107.179141887
  9
$TDUPDATE
 40
2457869.574200659
  9
$TDUUPDATE
 40
2457869.199200660
  9
$TDINDWG
 40
0.0347047222
  9
$TDUSRTIMER
 40
0.0347045023
  9
$USRTIMER
 70
     1
  9
$ANGBASE
 50
0.0
  9
$ANGDIR
 70
     0
  9
$PDMODE
 70
     0
  9
$PDSIZE
 40
-5.0
  9
$PLINEWID
 40
0.0
  9
$SPLFRAME
 70
     0
  9
$SPLINETYPE
 70
     6
  9
$SPLINESEGS
 70
     8
  9
$HANDSEED
  5
31EF
  9
$SURFTAB1
 70
     6
  9
$SURFTAB2
 70
     6
  9
$SURFTYPE
 70
     6
  9
$SURFU
 70
     6
  9
$SURFV
 70
     6
  9
$UCSBASE
  2

  9
$UCSNAME
  2

  9
$UCSORG
 10
0.0
 20
0.0
 30
0.0
  9
$UCSXDIR
 10
1.0
 20
0.0
 30
0.0
  9
$UCSYDIR
 10
0.0
 20
1.0
 30
0.0
  9
$UCSORTHOREF
  2

  9
$UCSORTHOVIEW
 70
     0
  9
$UCSORGTOP
 10
0.0
 20
0.0
 30
0.0
  9
$UCSORGBOTTOM
 10
0.0
 20
0.0
 30
0.0
  9
$UCSORGLEFT
 10
0.0
 20
0.0
 30
0.0
  9
$UCSORGRIGHT
 10
0.0
 20
0.0
 30
0.0
  9
$UCSORGFRONT
 10
0.0
 20
0.0
 30
0.0
  9
$UCSORGBACK
 10
0.0
 20
0.0
 30
0.0
  9
$PUCSBASE
  2

  9
$PUCSNAME
  2

  9
$PUCSORG
 10
0.0
 20
0.0
 30
0.0
  9
$PUCSXDIR
 10
1.0
 20
0.0
 30
0.0
  9
$PUCSYDIR
 10
0.0
 20
1.0
 30
0.0
  9
$PUCSORTHOREF
  2

  9
$PUCSORTHOVIEW
 70
     0
  9
$PUCSORGTOP
 10
0.0
 20
0.0
 30
0.0
  9
$PUCSORGBOTTOM
 10
0.0
 20
0.0
 30
0.0
  9
$PUCSORGLEFT
 10
0.0
 20
0.0
 30
0.0
  9
$PUCSORGRIGHT
 10
0.0
 20
0.0
 30
0.0
  9
$PUCSORGFRONT
 10
0.0
 20
0.0
 30
0.0
  9
$PUCSORGBACK
 10
0.0
 20
0.0
 30
0.0
  9
$USERI1
 70
     1
  9
$USERI2
 70
     0
  9
$USERI3
 70
     0
  9
$USERI4
 70
     0
  9
$USERI5
 70
     0
  9
$USERR1
 40
0.0
  9
$USERR2
 40
0.0
  9
$USERR3
 40
0.0
  9
$USERR4
 40
0.0
  9
$USERR5
 40
0.0
  9
$WORLDVIEW
 70
     1
  9
$SHADEDGE
 70
     3
  9
$SHADEDIF
 70
    70
  9
$TILEMODE
 70
     1
  9
$MAXACTVP
 70
    16
  9
$PINSBASE
 10
0.0
 20
0.0
 30
0.0
  9
$PLIMCHECK
 70
     0
  9
$PEXTMIN
 10
1.000000000000000E+20
 20
1.000000000000000E+20
 30
1.000000000000000E+20
  9
$PEXTMAX
 10
-1.000000000000000E+20
 20
-1.000000000000000E+20
 30
-1.000000000000000E+20
  9
$PLIMMIN
 10
0.0
 20
0.0
  9
$PLIMMAX
 10
420.0
 20
297.0
  9
$UNITMODE
 70
     0
  9
$VISRETAIN
 70
     0
  9
$PLINEGEN
 70
     0
  9
$PSLTSCALE
 70
     1
  9
$TREEDEPTH
 70
  3020
  9
$CMLSTYLE
  2
STANDARD
  9
$CMLJUST
 70
     0
  9
$CMLSCALE
 40
1.0
  9
$PROXYGRAPHICS
 70
     1
  9
$MEASUREMENT
 70
     1
  9
$CELWEIGHT
370
    -1
  9
$ENDCAPS
280
     0
  9
$JOINSTYLE
280
     0
  9
$LWDISPLAY
290
     0
  9
$INSUNITS
 70
     0
  9
$HYPERLINKBASE
  1

  9
$STYLESHEET
  1
BIG.CTB
  9
$XEDIT
290
     1
  9
$CEPSNTYPE
380
     0
  9
$PSTYLEMODE
290
     1
  9
$FINGERPRINTGUID
  2
{51294030-9CB4-11D3-8E18-00A0C925D94D}
  9
$VERSIONGUID
  2
{248BF74D-37A6-41D1-B7E3-4B9A363CD9FF}
  9
$EXTNAMES
290
     1
  9
$PSVPSCALE
 40
0.0
  9
$OLESTARTUP
290
     0
  0
ENDSEC
  0
SECTION
  2
CLASSES
  0
CLASS
  1
ACDBDICTIONARYWDFLT
  2
AcDbDictionaryWithDefault
  3
ObjectDBX Classes
 90
        0
280
     0
281
     0
  0
CLASS
  1
ACDBPLACEHOLDER
  2
AcDbPlaceHolder
  3
ObjectDBX Classes
 90
        0
280
     0
281
     0
  0
CLASS
  1
LAYOUT
  2
AcDbLayout
  3
ObjectDBX Classes
 90
        0
280
     0
281
     0
  0
CLASS
  1
PLOTSETTINGS
  2
AcDbPlotSettings
  3
ObjectDBX Classes
 90
        0
280
     0
281
     0
  0
CLASS
  1
MATERIAL
  2
AcDbMaterial
  3
ObjectDBX Classes
 90
     1153
280
     0
281
     0
  0
CLASS
  1
VISUALSTYLE
  2
AcDbVisualStyle
  3
ObjectDBX Classes
 90
     4095
280
     0
281
     0
  0
CLASS
  1
TABLESTYLE
  2
AcDbTableStyle
  3
ObjectDBX Classes
 90
     4095
280
     0
281
     0
  0
CLASS
  1
SCALE
  2
AcDbScale
  3
ObjectDBX Classes
 90
     1153
280
     0
281
     0
  0
CLASS
  1
MLEADERSTYLE
  2
AcDbMLeaderStyle
  3
ACDB_MLEADERSTYLE_CLASS
 90
     4095
280
     0
281
     0
  0
CLASS
  1
ACDBSECTIONVIEWSTYLE
  2
AcDbSectionViewStyle
  3
ObjectDBX Classes
 90
     1025
280
     0
281
     0
  0
CLASS
  1
ACDBDETAILVIEWSTYLE
  2
AcDbDetailViewStyle
  3
ObjectDBX Classes
 90
     1025
280
     0
281
     0
  0
CLASS
  1
SORTENTSTABLE
  2
AcDbSortentsTable
  3
ObjectDBX Classes
 90
        0
280
     0
281
     0
  0
CLASS
  1
DICTIONARYVAR
  2
AcDbDictionaryVar
  3
ObjectDBX Classes
 90
        0
280
     0
281
     0
  0
CLASS
  1
CELLSTYLEMAP
  2
AcDbCellStyleMap
  3
ObjectDBX Classes
 90
     1152
280
     0
281
     0
  0
ENDSEC
  0
SECTION
  2
TABLES
  0
TABLE
  2
VPORT
  5
8
330
0
100
AcDbSymbolTable
 70
     1
  0
VPORT
  5
2861
330
8
100
AcDbSymbolTableRecord
100
AcDbViewportTableRecord
  2
*ACTIVE
 70
     0
 10
0.0
 20
0.0
 11
1.0
 21
1.0
 12
102.1008098672853
 22
5.501816547943462
 13
0.0
 23
0.0
 14
7.0
 24
7.0
 15
7.0
 25
7.0
 16
0.0
 26
0.0
 36
1.0
 17
0.0
 27
0.0
 37
0.0
 40
214.8075165594628
 41
1.914539400665926
 42
50.0
 43
0.0
 44
0.0
 50
0.0
 51
0.0
 71
     0
 72
  2000
 73
     1
 74
     0
 75
     0
 76
     0
 77
     0
 78
     0
281
     0
 65
     1
110
0.0
120
0.0
130
0.0
111
1.0
121
0.0
131
0.0
112
0.0
122
1.0
132
0.0
 79
     0
146
0.0
1001
ACAD_NAV_VCDISPLAY
1070
     3
  0
ENDTAB
  0
TABLE
  2
LTYPE
  5
5
330
0
100
AcDbSymbolTable
 70
     4
  0
LTYPE
  5
14
330
5
100
AcDbSymbolTableRecord
100
AcDbLinetypeTableRecord
  2
BYBLOCK
 70
     0
  3

 72
    65
 73
     0
 40
0.0
  0
LTYPE
  5
15
330
5
100
AcDbSymbolTableRecord
100
AcDbLinetypeTableRecord
  2
BYLAYER
 70
     0
  3

 72
    65
 73
     0
 40
0.0
  0
LTYPE
  5
16
330
5
100
AcDbSymbolTableRecord
100
AcDbLinetypeTableRecord
  2
CONTINUOUS
 70
     0
  3
Solid line
 72
    65
 73
     0
 40
0.0
  0
LTYPE
  5
258
330
5
100
AcDbSymbolTableRecord
100
AcDbLinetypeTableRecord
  2
CENTER2
 70
     0
  3
___ _ ___ _ ___ _ ___ _ ___ _ ___ _ ___ _ ___ _
 72
    65
 73
     4
 40
1.125
 49
0.75
 74
     0
 49
-0.125
 74
     0
 49
0.125
 74
     0
 49
-0.125
 74
     0
  0
LTYPE
  5
25C
330
5
100
AcDbSymbolTableRecord
100
AcDbLinetypeTableRecord
  2
HIDDEN2
 70
     0
  3
_ _ _ _ _ _ _ _ _ _ _ _ _ _ _ _ _ _ _ _ _ _ _ _
 72
    65
 73
     2
 40
0.1875
 49
0.125
 74
     0
 49
-0.0625
 74
     0
  0
LTYPE
  5
25D
330
5
100
AcDbSymbolTableRecord
100
AcDbLinetypeTableRecord
  2
PHANTOM2
 70
     0
  3
___ _ _ ___ _ _ ___ _ _ ___ _ _ ___ _ _ ___ _ _
 72
    65
 73
     6
 40
1.25
 49
0.625
 74
     0
 49
-0.125
 74
     0
 49
0.125
 74
     0
 49
-0.125
 74
     0
 49
0.125
 74
     0
 49
-0.125
 74
     0
  0
ENDTAB
  0
TABLE
  2
LAYER
  5
2
102
{ACAD_XDICTIONARY
360
2F22
102
}
330
0
100
AcDbSymbolTable
 70
     8
  0
LAYER
  5
F
102
{ACAD_XDICTIONARY
360
2FEA
102
}
330
2
100
AcDbSymbolTableRecord
100
AcDbLayerTableRecord
  2
0
 70
     0
 62
     7
  6
CONTINUOUS
370
    -3
390
564
  0
LAYER
  5
1AA
102
{ACAD_XDICTIONARY
360
2FEC
102
}
330
2
100
AcDbSymbolTableRecord
100
AcDbLayerTableRecord
  2
240
 70
     0
 62
     4
  6
CONTINUOUS
370
    -3
390
564
  0
LAYER
  5
1AB
102
{ACAD_XDICTIONARY
360
2FEE
102
}
330
2
100
AcDbSymbolTableRecord
100
AcDbLayerTableRecord
  2
241
 70
     0
 62
   211
  6
CONTINUOUS
370
    -3
390
564
  0
LAYER
  5
1AC
102
{ACAD_XDICTIONARY
360
2FF0
102
}
330
2
100
AcDbSymbolTableRecord
100
AcDbLayerTableRecord
  2
242
 70
     0
 62
     3
  6
CONTINUOUS
370
    -3
390
564
  0
LAYER
  5
1AD
102
{ACAD_XDICTIONARY
360
2FF2
102
}
330
2
100
AcDbSymbolTableRecord
100
AcDbLayerTableRecord
  2
243
 70
     0
 62
   211
  6
HIDDEN2
370
    -3
390
564
  0
LAYER
  5
1AF
102
{ACAD_XDICTIONARY
360
2FF4
102
}
330
2
100
AcDbSymbolTableRecord
100
AcDbLayerTableRecord
  2
245
 70
     0
 62
     2
  6
CENTER2
370
    -3
390
564
  0
LAYER
  5
21E
102
{ACAD_XDICTIONARY
360
2FF6
102
}
330
2
100
AcDbSymbolTableRecord
100
AcDbLayerTableRecord
  2
250
 70
     0
 62
     3
  6
CONTINUOUS
370
    -3
390
564
  0
LAYER
  5
2EA1
102
{ACAD_XDICTIONARY
360
2FF8
102
}
330
2
100
AcDbSymbolTableRecord
100
AcDbLayerTableRecord
  2
247
 70
     0
 62
    60
  6
CONTINUOUS
370
    -3
390
564
  0
ENDTAB
  0
TABLE
  2
STYLE
  5
3
330
0
100
AcDbSymbolTable
 70
     2
  0
STYLE
  5
10
330
3
100
AcDbSymbolTableRecord
100
AcDbTextStyleTableRecord
  2
STANDARD
 70
     0
 40
0.0
 41
1.0
 50
0.0
 71
     0
 42
2.799999999999998
  3
romans.shx
  4
BIGFONT.SHX
  0
STYLE
  5
339
330
3
100
AcDbSymbolTableRecord
100
AcDbTextStyleTableRecord
  2
YOKO
 70
     0
 40
0.0
 41
1.0
 50
0.0
 71
     0
 42
3.0
  3
romans.shx
  4
extfont.shx
  0
ENDTAB
  0
TABLE
  2
VIEW
  5
6
330
0
100
AcDbSymbolTable
 70
     0
  0
ENDTAB
  0
TABLE
  2
UCS
  5
7
330
0
100
AcDbSymbolTable
 70
     0
  0
ENDTAB
  0
TABLE
  2
APPID
  5
9
330
0
100
AcDbSymbolTable
 70
    16
  0
APPID
  5
11
330
9
100
AcDbSymbolTableRecord
100
AcDbRegAppTableRecord
  2
ACAD
 70
     0
  0
APPID
  5
1B1
330
9
100
AcDbSymbolTableRecord
100
AcDbRegAppTableRecord
  2
GLOBAL
 70
     0
  0
APPID
  5
2A4
330
9
100
AcDbSymbolTableRecord
100
AcDbRegAppTableRecord
  2
DETAIL
 70
     0
  0
APPID
  5
5FD
330
9
100
AcDbSymbolTableRecord
100
AcDbRegAppTableRecord
  2
GRPNAME
 70
     0
  0
APPID
  5
5FE
330
9
100
AcDbSymbolTableRecord
100
AcDbRegAppTableRecord
  2
GPARA
 70
     0
  0
APPID
  5
6C4
330
9
100
AcDbSymbolTableRecord
100
AcDbRegAppTableRecord
  2
DCO15
 70
     0
  0
APPID
  5
6C5
330
9
100
AcDbSymbolTableRecord
100
AcDbRegAppTableRecord
  2
ITEMNAME
 70
     0
  0
APPID
  5
6C6
330
9
100
AcDbSymbolTableRecord
100
AcDbRegAppTableRecord
  2
GRADE_0
 70
     0
  0
APPID
  5
1C6E
330
9
100
AcDbSymbolTableRecord
100
AcDbRegAppTableRecord
  2
CONTENTBLOCKICON
 70
     0
  0
APPID
  5
2EA2
330
9
100
AcDbSymbolTableRecord
100
AcDbRegAppTableRecord
  2
GENIUS_GENODEF_13
 70
     0
  0
APPID
  5
2EA3
330
9
100
AcDbSymbolTableRecord
100
AcDbRegAppTableRecord
  2
GENIUS_GENOBJ-N-FIL_13
 70
     0
  0
APPID
  5
2EA4
330
9
100
AcDbSymbolTableRecord
100
AcDbRegAppTableRecord
  2
ACAD_NAV_VCDISPLAY
 70
     0
  0
APPID
  5
2F1F
330
9
100
AcDbSymbolTableRecord
100
AcDbRegAppTableRecord
  2
ACAD_PSEXT
 70
     0
  0
APPID
  5
2F20
330
9
100
AcDbSymbolTableRecord
100
AcDbRegAppTableRecord
  2
ACAD_DSTYLE_DIMJAG
 70
     0
  0
APPID
  5
2F21
330
9
100
AcDbSymbolTableRecord
100
AcDbRegAppTableRecord
  2
ACAD_DSTYLE_DIMTALN
 70
     0
  0
APPID
  5
304F
330
9
100
AcDbSymbolTableRecord
100
AcDbRegAppTableRecord
  2
ACAD_MLEADERVER
 70
     0
  0
ENDTAB
  0
TABLE
  2
DIMSTYLE
  5
A
330
0
100
AcDbSymbolTable
 70
     1
100
AcDbDimStyleTable
 71
     1
340
725
  0
DIMSTYLE
105
725
330
A
100
AcDbSymbolTableRecord
100
AcDbDimStyleTableRecord
  2
BIGT
 70
     0
 41
2.229999999999999
 42
0.5
 43
2.5
 44
1.0
 73
     0
 74
     0
 77
     3
 78
     8
140
2.799999999999998
141
0.0
147
1.0
172
     1
173
     1
174
     1
176
   256
177
   256
178
    40
271
     3
272
     3
284
     8
340
10
341
594
343
594
344
594
  0
ENDTAB
  0
TABLE
  2
BLOCK_RECORD
  5
1
330
0
100
AcDbSymbolTable
 70
     2
  0
BLOCK_RECORD
  5
1A
102
{ACAD_XDICTIONARY
360
1C6C
102
}
330
1
100
AcDbSymbolTableRecord
100
AcDbBlockTableRecord
  2
*MODEL_SPACE
340
28DF
  0
BLOCK_RECORD
  5
17
102
{ACAD_XDICTIONARY
360
1C6A
102
}
330
1
100
AcDbSymbolTableRecord
100
AcDbBlockTableRecord
  2
*PAPER_SPACE
340
28E0
  0
BLOCK_RECORD
  5
594
330
1
100
AcDbSymbolTableRecord
100
AcDbBlockTableRecord
  2
_OPEN
340
0
102
{BLKREFS
331
2FD0
331
2FD1
331
2FD4
331
2FD5
331
2FC4
331
2FC5
331
2FCA
331
2FCB
102
}
  0
BLOCK_RECORD
  5
6E3
330
1
100
AcDbSymbolTableRecord
100
AcDbBlockTableRecord
  2
矢印なし
340
0
102
{BLKREFS
331
6E6
102
}
  0
ENDTAB
  0
ENDSEC
  0
SECTION
  2
BLOCKS
  0
BLOCK
  5
1B
330
1A
100
AcDbEntity
  8
0
100
AcDbBlockBegin
  2
*MODEL_SPACE
 70
     0
 10
0.0
 20
0.0
 30
0.0
  3
*MODEL_SPACE
  1

  0
ENDBLK
  5
1C
330
1A
100
AcDbEntity
  8
0
100
AcDbBlockEnd
  0
BLOCK
  5
18
330
17
100
AcDbEntity
 67
     1
  8
0
100
AcDbBlockBegin
  2
*PAPER_SPACE
 70
     0
 10
0.0
 20
0.0
 30
0.0
  3
*PAPER_SPACE
  1

  0
ENDBLK
  5
19
330
17
100
AcDbEntity
 67
     1
  8
0
100
AcDbBlockEnd
  0
BLOCK
  5
598
330
594
100
AcDbEntity
  8
0
100
AcDbBlockBegin
  2
_OPEN
 70
     0
 10
0.0
 20
0.0
 30
0.0
  3
_OPEN
  1

  0
LINE
  5
595
330
594
100
AcDbEntity
  8
0
  6
ByBlock
 62
     0
100
AcDbLine
 10
-1.0
 20
0.16666667
 30
0.0
 11
0.0
 21
0.0
 31
0.0
  0
LINE
  5
596
330
594
100
AcDbEntity
  8
0
  6
ByBlock
 62
     0
100
AcDbLine
 10
-1.0
 20
-0.16666667
 30
0.0
 11
0.0
 21
0.0
 31
0.0
  0
LINE
  5
597
330
594
100
AcDbEntity
  8
0
  6
ByBlock
 62
     0
100
AcDbLine
 10
0.0
 20
0.0
 30
0.0
 11
-1.0
 21
0.0
 31
0.0
  0
ENDBLK
  5
599
330
594
100
AcDbEntity
  8
0
100
AcDbBlockEnd
  0
BLOCK
  5
6E4
330
6E3
100
AcDbEntity
  8
0
100
AcDbBlockBegin
  2
矢印なし
 70
     0
 10
0.0
 20
0.0
 30
0.0
  3
矢印なし
  1

  0
ENDBLK
  5
6E5
330
6E3
100
AcDbEntity
  8
0
100
AcDbBlockEnd
  0
ENDSEC
  0
SECTION
  2
ENTITIES
  0
INSERT
  5
6E6
330
1A
100
AcDbEntity
  8
245
100
AcDbBlockReference
  2
矢印なし
 10
175.62382697
 20
90.55123571999999
 30
0.0
  0
TEXT
  5
9BB
330
1A
100
AcDbEntity
  8
241
  6
Continuous
100
AcDbText
 10
-101.8
 20
84.0
 30
0.0
 40
5.0
  1
BBT50M-180-BH25R-140
  7
YOKO
100
AcDbText
  0
LINE
  5
28E6
330
1A
100
AcDbEntity
  8
245
  6
CENTER2
100
AcDbLine
 10
-102.8
 20
0.0
 30
0.0
 11
127.0
 21
0.0
 31
0.0
  0
LINE
  5
28F0
330
1A
100
AcDbEntity
  8
240
  6
Continuous
100
AcDbLine
 10
95.57680848
 20
-29.42319152
 30
0.0
 11
136.48528137
 21
11.48528137
 31
0.0
  0
LINE
  5
28F1
330
1A
100
AcDbEntity
  8
240
  6
Continuous
100
AcDbLine
 10
80.97334295999997
 20
-38.72662511
 30
0.0
 11
50.0
 21
-50.0
 31
0.0
  0
LINE
  5
28F2
330
1A
100
AcDbEntity
  8
240
  6
Continuous
100
AcDbLine
 10
30.7
 20
-50.0
 30
0.0
 11
50.0
 21
-50.0
 31
0.0
  0
ARC
  5
2904
330
1A
100
AcDbEntity
  8
240
  6
Continuous
100
AcDbCircle
 10
67.29253722999999
 20
-1.13892027
 30
0.0
 40
40.0
100
AcDbArc
 50
290.0
 51
315.0
  0
LINE
  5
2905
330
1A
100
AcDbEntity
  8
240
  6
Continuous
100
AcDbLine
 10
139.999999952893
 20
50.0
 30
0.0
 11
30.7
 21
50.0
 31
0.0
  0
LINE
  5
2906
330
1A
100
AcDbEntity
  8
245
  6
CENTER2
100
AcDbLine
 10
63.0
 20
37.49937506
 30
0.0
 11
133.0
 21
37.49937506
 31
0.0
  0
LINE
  5
2907
330
1A
100
AcDbEntity
  8
243
  6
HIDDEN2
100
AcDbLine
 10
50.0
 20
24.999375
 30
0.0
 11
139.99999999
 21
24.99937516
 31
0.0
  0
CIRCLE
  5
2915
330
1A
100
AcDbEntity
  8
241
  6
Continuous
100
AcDbCircle
 10
70.0
 20
37.49937506
 30
0.0
 40
6.0
  0
CIRCLE
  5
2916
330
1A
100
AcDbEntity
  8
242
  6
Continuous
100
AcDbCircle
 10
70.0
 20
37.49937506
 30
0.0
 40
5.125
  0
LINE
  5
2917
330
1A
100
AcDbEntity
  8
245
  6
CENTER2
100
AcDbLine
 10
70.0
 20
44.49937506
 30
0.0
 11
70.0
 21
30.49937506
 31
0.0
  0
LINE
  5
2918
330
1A
100
AcDbEntity
  8
243
  6
HIDDEN2
100
AcDbLine
 10
50.0
 20
24.999375
 30
0.0
 11
50.0
 21
50.0
 31
0.0
  0
LINE
  5
2919
330
1A
100
AcDbEntity
  8
241
  6
Continuous
100
AcDbLine
 10
67.0
 20
39.23142587
 30
0.0
 11
70.0
 21
40.96347667999999
 31
0.0
  0
LINE
  5
291A
330
1A
100
AcDbEntity
  8
241
  6
Continuous
100
AcDbLine
 10
70.0
 20
40.96347667999999
 30
0.0
 11
73.0
 21
39.23142587
 31
0.0
  0
LINE
  5
291B
330
1A
100
AcDbEntity
  8
241
  6
Continuous
100
AcDbLine
 10
73.0
 20
35.76732425
 30
0.0
 11
70.0
 21
34.03527345
 31
0.0
  0
LINE
  5
291C
330
1A
100
AcDbEntity
  8
241
  6
Continuous
100
AcDbLine
 10
67.0
 20
35.76732425
 30
0.0
 11
67.0
 21
39.23142587
 31
0.0
  0
LINE
  5
291D
330
1A
100
AcDbEntity
  8
241
  6
Continuous
100
AcDbLine
 10
70.0
 20
34.03527345
 30
0.0
 11
67.0
 21
35.76732425
 31
0.0
  0
LINE
  5
291E
330
1A
100
AcDbEntity
  8
241
  6
Continuous
100
AcDbLine
 10
73.0
 20
39.23142587
 30
0.0
 11
73.0
 21
35.76732425
 31
0.0
  0
LINE
  5
291F
330
1A
100
AcDbEntity
  8
245
  6
CENTER2
100
AcDbLine
 10
98.0
 20
44.49937506
 30
0.0
 11
98.0
 21
30.49937506
 31
0.0
  0
CIRCLE
  5
2920
330
1A
100
AcDbEntity
  8
242
  6
Continuous
100
AcDbCircle
 10
98.0
 20
37.49937506
 30
0.0
 40
5.125
  0
CIRCLE
  5
2921
330
1A
100
AcDbEntity
  8
241
  6
Continuous
100
AcDbCircle
 10
98.0
 20
37.49937506
 30
0.0
 40
6.0
  0
LINE
  5
2922
330
1A
100
AcDbEntity
  8
241
  6
Continuous
100
AcDbLine
 10
98.0
 20
34.03527345
 30
0.0
 11
95.0
 21
35.76732425
 31
0.0
  0
LINE
  5
2923
330
1A
100
AcDbEntity
  8
241
  6
Continuous
100
AcDbLine
 10
95.0
 20
39.23142587
 30
0.0
 11
98.0
 21
40.96347667999999
 31
0.0
  0
LINE
  5
2924
330
1A
100
AcDbEntity
  8
241
  6
Continuous
100
AcDbLine
 10
95.0
 20
35.76732425
 30
0.0
 11
95.0
 21
39.23142587
 31
0.0
  0
LINE
  5
2925
330
1A
100
AcDbEntity
  8
241
  6
Continuous
100
AcDbLine
 10
98.0
 20
40.96347667999999
 30
0.0
 11
101.0
 21
39.23142587
 31
0.0
  0
LINE
  5
2926
330
1A
100
AcDbEntity
  8
241
  6
Continuous
100
AcDbLine
 10
101.0
 20
39.23142587
 30
0.0
 11
101.0
 21
35.76732425
 31
0.0
  0
LINE
  5
2927
330
1A
100
AcDbEntity
  8
241
  6
Continuous
100
AcDbLine
 10
101.0
 20
35.76732425
 30
0.0
 11
98.0
 21
34.03527345
 31
0.0
  0
LINE
  5
2928
330
1A
100
AcDbEntity
  8
245
  6
CENTER2
100
AcDbLine
 10
126.0
 20
44.49937506
 30
0.0
 11
126.0
 21
30.49937506
 31
0.0
  0
CIRCLE
  5
2929
330
1A
100
AcDbEntity
  8
242
  6
Continuous
100
AcDbCircle
 10
126.0
 20
37.49937506
 30
0.0
 40
5.125
  0
CIRCLE
  5
292A
330
1A
100
AcDbEntity
  8
241
  6
Continuous
100
AcDbCircle
 10
126.0
 20
37.49937506
 30
0.0
 40
6.0
  0
LINE
  5
292B
330
1A
100
AcDbEntity
  8
240
  6
Continuous
100
AcDbLine
 10
139.999999952893
 20
50.0
 30
0.0
 11
140.0
 21
19.97056275
 31
0.0
  0
ARC
  5
292C
330
1A
100
AcDbEntity
  8
240
  6
Continuous
100
AcDbCircle
 10
128.0
 20
19.97056275
 30
0.0
 40
12.0
100
AcDbArc
 50
315.0
 51
0.0
  0
LINE
  5
292D
330
1A
100
AcDbEntity
  8
241
  6
Continuous
100
AcDbLine
 10
129.0
 20
35.76732425
 30
0.0
 11
126.0
 21
34.03527345
 31
0.0
  0
LINE
  5
292E
330
1A
100
AcDbEntity
  8
241
  6
Continuous
100
AcDbLine
 10
126.0
 20
40.96347667999999
 30
0.0
 11
129.0
 21
39.23142587
 31
0.0
  0
LINE
  5
292F
330
1A
100
AcDbEntity
  8
241
  6
Continuous
100
AcDbLine
 10
123.0
 20
39.23142587
 30
0.0
 11
126.0
 21
40.96347667999999
 31
0.0
  0
LINE
  5
2930
330
1A
100
AcDbEntity
  8
241
  6
Continuous
100
AcDbLine
 10
123.0
 20
35.76732425
 30
0.0
 11
123.0
 21
39.23142587
 31
0.0
  0
LINE
  5
2931
330
1A
100
AcDbEntity
  8
241
  6
Continuous
100
AcDbLine
 10
126.0
 20
34.03527345
 30
0.0
 11
123.0
 21
35.76732425
 31
0.0
  0
LINE
  5
2932
330
1A
100
AcDbEntity
  8
241
  6
Continuous
100
AcDbLine
 10
129.0
 20
39.23142587
 30
0.0
 11
129.0
 21
35.76732425
 31
0.0
  0
LINE
  5
2935
330
1A
100
AcDbEntity
  8
241
  6
Continuous
100
AcDbLine
 10
213.0
 20
-18.00000000000001
 30
0.0
 11
213.0
 21
17.99999999999998
 31
0.0
  0
ARC
  5
2936
330
1A
100
AcDbEntity
  8
240
  6
Continuous
100
AcDbCircle
 10
245.0
 20
6.999999999999985
 30
0.0
 40
57.0
100
AcDbArc
 50
270.0
 51
359.9999824
  0
LINE
  5
2937
330
1A
100
AcDbEntity
  8
245
  6
CENTER2
100
AcDbLine
 10
245.0
 20
61.99999999999999
 30
0.0
 11
245.0
 21
-62.00000000000001
 31
0.0
  0
CIRCLE
  5
2938
330
1A
100
AcDbEntity
  8
242
  6
PHANTOM2
100
AcDbCircle
 10
245.0
 20
-0.0000000000000142
 30
0.0
 40
60.0
  0
LINE
  5
2939
330
1A
100
AcDbEntity
  8
245
  6
CENTER2
100
AcDbLine
 10
183.0
 20
-0.0000000000000142
 30
0.0
 11
307.0
 21
-0.0000000000000142
 31
0.0
  0
ARC
  5
293D
330
1A
100
AcDbEntity
  8
241
  6
Continuous
100
AcDbCircle
 10
245.0
 20
-18.00000000000001
 30
0.0
 40
32.0
100
AcDbArc
 50
180.0
 51
270.0
  0
LINE
  5
293E
330
1A
100
AcDbEntity
  8
241
  6
Continuous
100
AcDbLine
 10
270.0
 20
24.99999999999998
 30
0.0
 11
245.0
 21
25.0
 31
0.0
  0
LINE
  5
293F
330
1A
100
AcDbEntity
  8
241
  6
Continuous
100
AcDbLine
 10
213.0
 20
15.00000000779729
 30
0.0
 11
302.0
 21
15.00000000779726
 31
0.0
  0
LINE
  5
2940
330
1A
100
AcDbEntity
  8
240
  6
Continuous
100
AcDbLine
 10
275.00000014
 20
49.99999990999999
 30
0.0
 11
245.00000015
 21
49.99999999999996
 31
0.0
  0
ARC
  5
2A05
330
1A
100
AcDbEntity
  8
241
  6
Continuous
100
AcDbCircle
 10
245.0
 20
17.99999999999998
 30
0.0
 40
31.99999999999999
100
AcDbArc
 50
90.0
 51
180.0
  0
POLYLINE
  5
2A07
330
1A
100
AcDbEntity
  8
241
  6
Continuous
100
AcDb3dPolyline
 66
     1
 10
0.0
 20
0.0
 30
0.0
 70
     8
  0
VERTEX
  5
2A08
330
2A07
100
AcDbEntity
  8
241
  6
Continuous
100
AcDbVertex
100
AcDb3dPolylineVertex
 10
235.53185
 20
31.59999999999999
 30
0.0
 70
    32
  0
VERTEX
  5
2A09
330
2A07
100
AcDbEntity
  8
241
  6
Continuous
100
AcDbVertex
100
AcDb3dPolylineVertex
 10
235.50581
 20
31.68269999999999
 30
0.0
 70
    32
  0
VERTEX
  5
2A0A
330
2A07
100
AcDbEntity
  8
241
  6
Continuous
100
AcDbVertex
100
AcDb3dPolylineVertex
 10
235.4791
 20
31.76519999999999
 30
0.0
 70
    32
  0
VERTEX
  5
2A0B
330
2A07
100
AcDbEntity
  8
241
  6
Continuous
100
AcDbVertex
100
AcDb3dPolylineVertex
 10
235.45171
 20
31.84729999999999
 30
0.0
 70
    32
  0
VERTEX
  5
2A0C
330
2A07
100
AcDbEntity
  8
241
  6
Continuous
100
AcDbVertex
100
AcDb3dPolylineVertex
 10
235.42364
 20
31.92909999999999
 30
0.0
 70
    32
  0
VERTEX
  5
2A0D
330
2A07
100
AcDbEntity
  8
241
  6
Continuous
100
AcDbVertex
100
AcDb3dPolylineVertex
 10
235.39489
 20
32.01059999999998
 30
0.0
 70
    32
  0
VERTEX
  5
2A0E
330
2A07
100
AcDbEntity
  8
241
  6
Continuous
100
AcDbVertex
100
AcDb3dPolylineVertex
 10
235.36548
 20
32.09179999999999
 30
0.0
 70
    32
  0
VERTEX
  5
2A0F
330
2A07
100
AcDbEntity
  8
241
  6
Continuous
100
AcDbVertex
100
AcDb3dPolylineVertex
 10
235.33539
 20
32.17269999999999
 30
0.0
 70
    32
  0
VERTEX
  5
2A10
330
2A07
100
AcDbEntity
  8
241
  6
Continuous
100
AcDbVertex
100
AcDb3dPolylineVertex
 10
235.30464
 20
32.25319999999999
 30
0.0
 70
    32
  0
VERTEX
  5
2A11
330
2A07
100
AcDbEntity
  8
241
  6
Continuous
100
AcDbVertex
100
AcDb3dPolylineVertex
 10
235.27323
 20
32.33339999999998
 30
0.0
 70
    32
  0
VERTEX
  5
2A12
330
2A07
100
AcDbEntity
  8
241
  6
Continuous
100
AcDbVertex
100
AcDb3dPolylineVertex
 10
235.24116
 20
32.4133
 30
0.0
 70
    32
  0
VERTEX
  5
2A13
330
2A07
100
AcDbEntity
  8
241
  6
Continuous
100
AcDbVertex
100
AcDb3dPolylineVertex
 10
235.20843
 20
32.49269999999999
 30
0.0
 70
    32
  0
VERTEX
  5
2A14
330
2A07
100
AcDbEntity
  8
241
  6
Continuous
100
AcDbVertex
100
AcDb3dPolylineVertex
 10
235.17504
 20
32.5719
 30
0.0
 70
    32
  0
VERTEX
  5
2A15
330
2A07
100
AcDbEntity
  8
241
  6
Continuous
100
AcDbVertex
100
AcDb3dPolylineVertex
 10
235.14101
 20
32.65059999999998
 30
0.0
 70
    32
  0
VERTEX
  5
2A16
330
2A07
100
AcDbEntity
  8
241
  6
Continuous
100
AcDbVertex
100
AcDb3dPolylineVertex
 10
235.10632
 20
32.72899999999999
 30
0.0
 70
    32
  0
VERTEX
  5
2A17
330
2A07
100
AcDbEntity
  8
241
  6
Continuous
100
AcDbVertex
100
AcDb3dPolylineVertex
 10
235.07099
 20
32.80699999999998
 30
0.0
 70
    32
  0
VERTEX
  5
2A18
330
2A07
100
AcDbEntity
  8
241
  6
Continuous
100
AcDbVertex
100
AcDb3dPolylineVertex
 10
235.03502
 20
32.88459999999999
 30
0.0
 70
    32
  0
VERTEX
  5
2A19
330
2A07
100
AcDbEntity
  8
241
  6
Continuous
100
AcDbVertex
100
AcDb3dPolylineVertex
 10
234.9984
 20
32.96179999999998
 30
0.0
 70
    32
  0
VERTEX
  5
2A1A
330
2A07
100
AcDbEntity
  8
241
  6
Continuous
100
AcDbVertex
100
AcDb3dPolylineVertex
 10
234.9612
 20
33.03859999999999
 30
0.0
 70
    32
  0
VERTEX
  5
2A1B
330
2A07
100
AcDbEntity
  8
241
  6
Continuous
100
AcDbVertex
100
AcDb3dPolylineVertex
 10
234.9233
 20
33.11489999999999
 30
0.0
 70
    32
  0
VERTEX
  5
2A1C
330
2A07
100
AcDbEntity
  8
241
  6
Continuous
100
AcDbVertex
100
AcDb3dPolylineVertex
 10
234.8848
 20
33.19089999999999
 30
0.0
 70
    32
  0
VERTEX
  5
2A1D
330
2A07
100
AcDbEntity
  8
241
  6
Continuous
100
AcDbVertex
100
AcDb3dPolylineVertex
 10
234.8457
 20
33.26639999999998
 30
0.0
 70
    32
  0
VERTEX
  5
2A1E
330
2A07
100
AcDbEntity
  8
241
  6
Continuous
100
AcDbVertex
100
AcDb3dPolylineVertex
 10
234.8059
 20
33.34149999999999
 30
0.0
 70
    32
  0
VERTEX
  5
2A1F
330
2A07
100
AcDbEntity
  8
241
  6
Continuous
100
AcDbVertex
100
AcDb3dPolylineVertex
 10
234.7655
 20
33.41619999999999
 30
0.0
 70
    32
  0
VERTEX
  5
2A20
330
2A07
100
AcDbEntity
  8
241
  6
Continuous
100
AcDbVertex
100
AcDb3dPolylineVertex
 10
234.7245
 20
33.4904
 30
0.0
 70
    32
  0
VERTEX
  5
2A21
330
2A07
100
AcDbEntity
  8
241
  6
Continuous
100
AcDbVertex
100
AcDb3dPolylineVertex
 10
234.683
 20
33.56409999999999
 30
0.0
 70
    32
  0
VERTEX
  5
2A22
330
2A07
100
AcDbEntity
  8
241
  6
Continuous
100
AcDbVertex
100
AcDb3dPolylineVertex
 10
234.6408
 20
33.63739999999999
 30
0.0
 70
    32
  0
VERTEX
  5
2A23
330
2A07
100
AcDbEntity
  8
241
  6
Continuous
100
AcDbVertex
100
AcDb3dPolylineVertex
 10
234.598
 20
33.7102
 30
0.0
 70
    32
  0
VERTEX
  5
2A24
330
2A07
100
AcDbEntity
  8
241
  6
Continuous
100
AcDbVertex
100
AcDb3dPolylineVertex
 10
234.5545
 20
33.78259999999999
 30
0.0
 70
    32
  0
VERTEX
  5
2A25
330
2A07
100
AcDbEntity
  8
241
  6
Continuous
100
AcDbVertex
100
AcDb3dPolylineVertex
 10
234.5106
 20
33.85449999999999
 30
0.0
 70
    32
  0
VERTEX
  5
2A26
330
2A07
100
AcDbEntity
  8
241
  6
Continuous
100
AcDbVertex
100
AcDb3dPolylineVertex
 10
234.466
 20
33.92579999999999
 30
0.0
 70
    32
  0
VERTEX
  5
2A27
330
2A07
100
AcDbEntity
  8
241
  6
Continuous
100
AcDbVertex
100
AcDb3dPolylineVertex
 10
234.4208
 20
33.99669999999999
 30
0.0
 70
    32
  0
VERTEX
  5
2A28
330
2A07
100
AcDbEntity
  8
241
  6
Continuous
100
AcDbVertex
100
AcDb3dPolylineVertex
 10
234.375
 20
34.06709999999999
 30
0.0
 70
    32
  0
VERTEX
  5
2A29
330
2A07
100
AcDbEntity
  8
241
  6
Continuous
100
AcDbVertex
100
AcDb3dPolylineVertex
 10
234.3287
 20
34.13699999999999
 30
0.0
 70
    32
  0
VERTEX
  5
2A2A
330
2A07
100
AcDbEntity
  8
241
  6
Continuous
100
AcDbVertex
100
AcDb3dPolylineVertex
 10
234.2818
 20
34.20639999999999
 30
0.0
 70
    32
  0
VERTEX
  5
2A2B
330
2A07
100
AcDbEntity
  8
241
  6
Continuous
100
AcDbVertex
100
AcDb3dPolylineVertex
 10
234.2343
 20
34.27519999999999
 30
0.0
 70
    32
  0
VERTEX
  5
2A2C
330
2A07
100
AcDbEntity
  8
241
  6
Continuous
100
AcDbVertex
100
AcDb3dPolylineVertex
 10
234.1862
 20
34.34349999999998
 30
0.0
 70
    32
  0
VERTEX
  5
2A2D
330
2A07
100
AcDbEntity
  8
241
  6
Continuous
100
AcDbVertex
100
AcDb3dPolylineVertex
 10
234.1376
 20
34.41129999999998
 30
0.0
 70
    32
  0
VERTEX
  5
2A2E
330
2A07
100
AcDbEntity
  8
241
  6
Continuous
100
AcDbVertex
100
AcDb3dPolylineVertex
 10
234.0885
 20
34.47859999999999
 30
0.0
 70
    32
  0
VERTEX
  5
2A2F
330
2A07
100
AcDbEntity
  8
241
  6
Continuous
100
AcDbVertex
100
AcDb3dPolylineVertex
 10
234.0388
 20
34.54529999999998
 30
0.0
 70
    32
  0
VERTEX
  5
2A30
330
2A07
100
AcDbEntity
  8
241
  6
Continuous
100
AcDbVertex
100
AcDb3dPolylineVertex
 10
233.9885
 20
34.61149999999999
 30
0.0
 70
    32
  0
VERTEX
  5
2A31
330
2A07
100
AcDbEntity
  8
241
  6
Continuous
100
AcDbVertex
100
AcDb3dPolylineVertex
 10
233.9377
 20
34.67709999999999
 30
0.0
 70
    32
  0
VERTEX
  5
2A32
330
2A07
100
AcDbEntity
  8
241
  6
Continuous
100
AcDbVertex
100
AcDb3dPolylineVertex
 10
233.8863
 20
34.74209999999999
 30
0.0
 70
    32
  0
VERTEX
  5
2A33
330
2A07
100
AcDbEntity
  8
241
  6
Continuous
100
AcDbVertex
100
AcDb3dPolylineVertex
 10
233.8344
 20
34.80659999999999
 30
0.0
 70
    32
  0
VERTEX
  5
2A34
330
2A07
100
AcDbEntity
  8
241
  6
Continuous
100
AcDbVertex
100
AcDb3dPolylineVertex
 10
233.782
 20
34.87049999999999
 30
0.0
 70
    32
  0
VERTEX
  5
2A35
330
2A07
100
AcDbEntity
  8
241
  6
Continuous
100
AcDbVertex
100
AcDb3dPolylineVertex
 10
233.7291
 20
34.93379999999998
 30
0.0
 70
    32
  0
VERTEX
  5
2A36
330
2A07
100
AcDbEntity
  8
241
  6
Continuous
100
AcDbVertex
100
AcDb3dPolylineVertex
 10
233.6756
 20
34.99649999999999
 30
0.0
 70
    32
  0
VERTEX
  5
2A37
330
2A07
100
AcDbEntity
  8
241
  6
Continuous
100
AcDbVertex
100
AcDb3dPolylineVertex
 10
233.6217
 20
35.05869999999999
 30
0.0
 70
    32
  0
VERTEX
  5
2A38
330
2A07
100
AcDbEntity
  8
241
  6
Continuous
100
AcDbVertex
100
AcDb3dPolylineVertex
 10
233.5672
 20
35.12019999999998
 30
0.0
 70
    32
  0
VERTEX
  5
2A39
330
2A07
100
AcDbEntity
  8
241
  6
Continuous
100
AcDbVertex
100
AcDb3dPolylineVertex
 10
233.5122
 20
35.18119999999998
 30
0.0
 70
    32
  0
VERTEX
  5
2A3A
330
2A07
100
AcDbEntity
  8
241
  6
Continuous
100
AcDbVertex
100
AcDb3dPolylineVertex
 10
233.4567
 20
35.24149999999999
 30
0.0
 70
    32
  0
VERTEX
  5
2A3B
330
2A07
100
AcDbEntity
  8
241
  6
Continuous
100
AcDbVertex
100
AcDb3dPolylineVertex
 10
233.4007
 20
35.30119999999999
 30
0.0
 70
    32
  0
VERTEX
  5
2A3C
330
2A07
100
AcDbEntity
  8
241
  6
Continuous
100
AcDbVertex
100
AcDb3dPolylineVertex
 10
233.3442
 20
35.36029999999999
 30
0.0
 70
    32
  0
VERTEX
  5
2A3D
330
2A07
100
AcDbEntity
  8
241
  6
Continuous
100
AcDbVertex
100
AcDb3dPolylineVertex
 10
233.2873
 20
35.41879999999999
 30
0.0
 70
    32
  0
VERTEX
  5
2A3E
330
2A07
100
AcDbEntity
  8
241
  6
Continuous
100
AcDbVertex
100
AcDb3dPolylineVertex
 10
233.2298
 20
35.4767
 30
0.0
 70
    32
  0
VERTEX
  5
2A3F
330
2A07
100
AcDbEntity
  8
241
  6
Continuous
100
AcDbVertex
100
AcDb3dPolylineVertex
 10
233.1719
 20
35.53389999999999
 30
0.0
 70
    32
  0
VERTEX
  5
2A40
330
2A07
100
AcDbEntity
  8
241
  6
Continuous
100
AcDbVertex
100
AcDb3dPolylineVertex
 10
233.1135
 20
35.59049999999999
 30
0.0
 70
    32
  0
VERTEX
  5
2A41
330
2A07
100
AcDbEntity
  8
241
  6
Continuous
100
AcDbVertex
100
AcDb3dPolylineVertex
 10
233.0547
 20
35.64639999999999
 30
0.0
 70
    32
  0
VERTEX
  5
2A42
330
2A07
100
AcDbEntity
  8
241
  6
Continuous
100
AcDbVertex
100
AcDb3dPolylineVertex
 10
232.9954
 20
35.70169999999999
 30
0.0
 70
    32
  0
VERTEX
  5
2A43
330
2A07
100
AcDbEntity
  8
241
  6
Continuous
100
AcDbVertex
100
AcDb3dPolylineVertex
 10
232.9356
 20
35.75629999999999
 30
0.0
 70
    32
  0
VERTEX
  5
2A44
330
2A07
100
AcDbEntity
  8
241
  6
Continuous
100
AcDbVertex
100
AcDb3dPolylineVertex
 10
232.8754
 20
35.81029999999998
 30
0.0
 70
    32
  0
VERTEX
  5
2A45
330
2A07
100
AcDbEntity
  8
241
  6
Continuous
100
AcDbVertex
100
AcDb3dPolylineVertex
 10
232.8147
 20
35.86359999999999
 30
0.0
 70
    32
  0
VERTEX
  5
2A46
330
2A07
100
AcDbEntity
  8
241
  6
Continuous
100
AcDbVertex
100
AcDb3dPolylineVertex
 10
232.7537
 20
35.91619999999999
 30
0.0
 70
    32
  0
VERTEX
  5
2A47
330
2A07
100
AcDbEntity
  8
241
  6
Continuous
100
AcDbVertex
100
AcDb3dPolylineVertex
 10
232.6921
 20
35.96819999999999
 30
0.0
 70
    32
  0
VERTEX
  5
2A48
330
2A07
100
AcDbEntity
  8
241
  6
Continuous
100
AcDbVertex
100
AcDb3dPolylineVertex
 10
232.6302
 20
36.01949999999999
 30
0.0
 70
    32
  0
VERTEX
  5
2A49
330
2A07
100
AcDbEntity
  8
241
  6
Continuous
100
AcDbVertex
100
AcDb3dPolylineVertex
 10
232.5678
 20
36.07009999999998
 30
0.0
 70
    32
  0
VERTEX
  5
2A4A
330
2A07
100
AcDbEntity
  8
241
  6
Continuous
100
AcDbVertex
100
AcDb3dPolylineVertex
 10
232.505
 20
36.11999999999998
 30
0.0
 70
    32
  0
VERTEX
  5
2A4B
330
2A07
100
AcDbEntity
  8
241
  6
Continuous
100
AcDbVertex
100
AcDb3dPolylineVertex
 10
232.4418
 20
36.16919999999999
 30
0.0
 70
    32
  0
VERTEX
  5
2A4C
330
2A07
100
AcDbEntity
  8
241
  6
Continuous
100
AcDbVertex
100
AcDb3dPolylineVertex
 10
232.3783
 20
36.2177
 30
0.0
 70
    32
  0
VERTEX
  5
2A4D
330
2A07
100
AcDbEntity
  8
241
  6
Continuous
100
AcDbVertex
100
AcDb3dPolylineVertex
 10
232.3143
 20
36.26549999999999
 30
0.0
 70
    32
  0
VERTEX
  5
2A4E
330
2A07
100
AcDbEntity
  8
241
  6
Continuous
100
AcDbVertex
100
AcDb3dPolylineVertex
 10
232.2499
 20
36.31259999999999
 30
0.0
 70
    32
  0
VERTEX
  5
2A4F
330
2A07
100
AcDbEntity
  8
241
  6
Continuous
100
AcDbVertex
100
AcDb3dPolylineVertex
 10
232.1851
 20
36.35899999999999
 30
0.0
 70
    32
  0
VERTEX
  5
2A50
330
2A07
100
AcDbEntity
  8
241
  6
Continuous
100
AcDbVertex
100
AcDb3dPolylineVertex
 10
232.12
 20
36.40469999999999
 30
0.0
 70
    32
  0
VERTEX
  5
2A51
330
2A07
100
AcDbEntity
  8
241
  6
Continuous
100
AcDbVertex
100
AcDb3dPolylineVertex
 10
232.0544
 20
36.44969999999999
 30
0.0
 70
    32
  0
VERTEX
  5
2A52
330
2A07
100
AcDbEntity
  8
241
  6
Continuous
100
AcDbVertex
100
AcDb3dPolylineVertex
 10
231.9885
 20
36.49389999999999
 30
0.0
 70
    32
  0
VERTEX
  5
2A53
330
2A07
100
AcDbEntity
  8
241
  6
Continuous
100
AcDbVertex
100
AcDb3dPolylineVertex
 10
231.9223
 20
36.53749999999999
 30
0.0
 70
    32
  0
VERTEX
  5
2A54
330
2A07
100
AcDbEntity
  8
241
  6
Continuous
100
AcDbVertex
100
AcDb3dPolylineVertex
 10
231.8557
 20
36.58019999999999
 30
0.0
 70
    32
  0
VERTEX
  5
2A55
330
2A07
100
AcDbEntity
  8
241
  6
Continuous
100
AcDbVertex
100
AcDb3dPolylineVertex
 10
231.7887
 20
36.62229999999999
 30
0.0
 70
    32
  0
VERTEX
  5
2A56
330
2A07
100
AcDbEntity
  8
241
  6
Continuous
100
AcDbVertex
100
AcDb3dPolylineVertex
 10
231.7214
 20
36.66359999999999
 30
0.0
 70
    32
  0
VERTEX
  5
2A57
330
2A07
100
AcDbEntity
  8
241
  6
Continuous
100
AcDbVertex
100
AcDb3dPolylineVertex
 10
231.6538
 20
36.7042
 30
0.0
 70
    32
  0
VERTEX
  5
2A58
330
2A07
100
AcDbEntity
  8
241
  6
Continuous
100
AcDbVertex
100
AcDb3dPolylineVertex
 10
231.5858
 20
36.74399999999999
 30
0.0
 70
    32
  0
VERTEX
  5
2A59
330
2A07
100
AcDbEntity
  8
241
  6
Continuous
100
AcDbVertex
100
AcDb3dPolylineVertex
 10
231.5175
 20
36.78309999999998
 30
0.0
 70
    32
  0
VERTEX
  5
2A5A
330
2A07
100
AcDbEntity
  8
241
  6
Continuous
100
AcDbVertex
100
AcDb3dPolylineVertex
 10
231.4489
 20
36.82139999999999
 30
0.0
 70
    32
  0
VERTEX
  5
2A5B
330
2A07
100
AcDbEntity
  8
241
  6
Continuous
100
AcDbVertex
100
AcDb3dPolylineVertex
 10
231.38
 20
36.85899999999999
 30
0.0
 70
    32
  0
VERTEX
  5
2A5C
330
2A07
100
AcDbEntity
  8
241
  6
Continuous
100
AcDbVertex
100
AcDb3dPolylineVertex
 10
231.3107
 20
36.89579999999999
 30
0.0
 70
    32
  0
VERTEX
  5
2A5D
330
2A07
100
AcDbEntity
  8
241
  6
Continuous
100
AcDbVertex
100
AcDb3dPolylineVertex
 10
231.2412
 20
36.93179999999999
 30
0.0
 70
    32
  0
VERTEX
  5
2A5E
330
2A07
100
AcDbEntity
  8
241
  6
Continuous
100
AcDbVertex
100
AcDb3dPolylineVertex
 10
231.1714
 20
36.96709999999999
 30
0.0
 70
    32
  0
VERTEX
  5
2A5F
330
2A07
100
AcDbEntity
  8
241
  6
Continuous
100
AcDbVertex
100
AcDb3dPolylineVertex
 10
231.1012
 20
37.00159999999999
 30
0.0
 70
    32
  0
VERTEX
  5
2A60
330
2A07
100
AcDbEntity
  8
241
  6
Continuous
100
AcDbVertex
100
AcDb3dPolylineVertex
 10
231.0308
 20
37.03529999999999
 30
0.0
 70
    32
  0
VERTEX
  5
2A61
330
2A07
100
AcDbEntity
  8
241
  6
Continuous
100
AcDbVertex
100
AcDb3dPolylineVertex
 10
230.9602
 20
37.0683
 30
0.0
 70
    32
  0
VERTEX
  5
2A62
330
2A07
100
AcDbEntity
  8
241
  6
Continuous
100
AcDbVertex
100
AcDb3dPolylineVertex
 10
230.8892
 20
37.10039999999999
 30
0.0
 70
    32
  0
VERTEX
  5
2A63
330
2A07
100
AcDbEntity
  8
241
  6
Continuous
100
AcDbVertex
100
AcDb3dPolylineVertex
 10
230.818
 20
37.13179999999999
 30
0.0
 70
    32
  0
VERTEX
  5
2A64
330
2A07
100
AcDbEntity
  8
241
  6
Continuous
100
AcDbVertex
100
AcDb3dPolylineVertex
 10
230.7465
 20
37.16239999999999
 30
0.0
 70
    32
  0
VERTEX
  5
2A65
330
2A07
100
AcDbEntity
  8
241
  6
Continuous
100
AcDbVertex
100
AcDb3dPolylineVertex
 10
230.6748
 20
37.19229999999999
 30
0.0
 70
    32
  0
VERTEX
  5
2A66
330
2A07
100
AcDbEntity
  8
241
  6
Continuous
100
AcDbVertex
100
AcDb3dPolylineVertex
 10
230.6029
 20
37.22129999999999
 30
0.0
 70
    32
  0
VERTEX
  5
2A67
330
2A07
100
AcDbEntity
  8
241
  6
Continuous
100
AcDbVertex
100
AcDb3dPolylineVertex
 10
230.5307
 20
37.24949999999998
 30
0.0
 70
    32
  0
VERTEX
  5
2A68
330
2A07
100
AcDbEntity
  8
241
  6
Continuous
100
AcDbVertex
100
AcDb3dPolylineVertex
 10
230.4583
 20
37.277
 30
0.0
 70
    32
  0
VERTEX
  5
2A69
330
2A07
100
AcDbEntity
  8
241
  6
Continuous
100
AcDbVertex
100
AcDb3dPolylineVertex
 10
230.3856
 20
37.30359999999999
 30
0.0
 70
    32
  0
VERTEX
  5
2A6A
330
2A07
100
AcDbEntity
  8
241
  6
Continuous
100
AcDbVertex
100
AcDb3dPolylineVertex
 10
230.3128
 20
37.32949999999999
 30
0.0
 70
    32
  0
VERTEX
  5
2A6B
330
2A07
100
AcDbEntity
  8
241
  6
Continuous
100
AcDbVertex
100
AcDb3dPolylineVertex
 10
230.2397
 20
37.35449999999999
 30
0.0
 70
    32
  0
VERTEX
  5
2A6C
330
2A07
100
AcDbEntity
  8
241
  6
Continuous
100
AcDbVertex
100
AcDb3dPolylineVertex
 10
230.1664
 20
37.37879999999999
 30
0.0
 70
    32
  0
VERTEX
  5
2A6D
330
2A07
100
AcDbEntity
  8
241
  6
Continuous
100
AcDbVertex
100
AcDb3dPolylineVertex
 10
230.0929
 20
37.40219999999999
 30
0.0
 70
    32
  0
VERTEX
  5
2A6E
330
2A07
100
AcDbEntity
  8
241
  6
Continuous
100
AcDbVertex
100
AcDb3dPolylineVertex
 10
230.0193
 20
37.42479999999999
 30
0.0
 70
    32
  0
VERTEX
  5
2A6F
330
2A07
100
AcDbEntity
  8
241
  6
Continuous
100
AcDbVertex
100
AcDb3dPolylineVertex
 10
229.9454
 20
37.44659999999998
 30
0.0
 70
    32
  0
VERTEX
  5
2A70
330
2A07
100
AcDbEntity
  8
241
  6
Continuous
100
AcDbVertex
100
AcDb3dPolylineVertex
 10
229.8714
 20
37.46759999999998
 30
0.0
 70
    32
  0
VERTEX
  5
2A71
330
2A07
100
AcDbEntity
  8
241
  6
Continuous
100
AcDbVertex
100
AcDb3dPolylineVertex
 10
229.7972
 20
37.4878
 30
0.0
 70
    32
  0
VERTEX
  5
2A72
330
2A07
100
AcDbEntity
  8
241
  6
Continuous
100
AcDbVertex
100
AcDb3dPolylineVertex
 10
229.7229
 20
37.50719999999998
 30
0.0
 70
    32
  0
VERTEX
  5
2A73
330
2A07
100
AcDbEntity
  8
241
  6
Continuous
100
AcDbVertex
100
AcDb3dPolylineVertex
 10
229.6484
 20
37.52569999999999
 30
0.0
 70
    32
  0
VERTEX
  5
2A74
330
2A07
100
AcDbEntity
  8
241
  6
Continuous
100
AcDbVertex
100
AcDb3dPolylineVertex
 10
229.5737
 20
37.54339999999999
 30
0.0
 70
    32
  0
VERTEX
  5
2A75
330
2A07
100
AcDbEntity
  8
241
  6
Continuous
100
AcDbVertex
100
AcDb3dPolylineVertex
 10
229.4989
 20
37.56029999999999
 30
0.0
 70
    32
  0
VERTEX
  5
2A76
330
2A07
100
AcDbEntity
  8
241
  6
Continuous
100
AcDbVertex
100
AcDb3dPolylineVertex
 10
229.424
 20
37.57639999999998
 30
0.0
 70
    32
  0
VERTEX
  5
2A77
330
2A07
100
AcDbEntity
  8
241
  6
Continuous
100
AcDbVertex
100
AcDb3dPolylineVertex
 10
229.3489
 20
37.59169999999999
 30
0.0
 70
    32
  0
VERTEX
  5
2A78
330
2A07
100
AcDbEntity
  8
241
  6
Continuous
100
AcDbVertex
100
AcDb3dPolylineVertex
 10
229.2737
 20
37.60609999999998
 30
0.0
 70
    32
  0
VERTEX
  5
2A79
330
2A07
100
AcDbEntity
  8
241
  6
Continuous
100
AcDbVertex
100
AcDb3dPolylineVertex
 10
229.1984
 20
37.61969999999999
 30
0.0
 70
    32
  0
VERTEX
  5
2A7A
330
2A07
100
AcDbEntity
  8
241
  6
Continuous
100
AcDbVertex
100
AcDb3dPolylineVertex
 10
229.123
 20
37.63249999999999
 30
0.0
 70
    32
  0
VERTEX
  5
2A7B
330
2A07
100
AcDbEntity
  8
241
  6
Continuous
100
AcDbVertex
100
AcDb3dPolylineVertex
 10
229.0475
 20
37.64439999999999
 30
0.0
 70
    32
  0
VERTEX
  5
2A7C
330
2A07
100
AcDbEntity
  8
241
  6
Continuous
100
AcDbVertex
100
AcDb3dPolylineVertex
 10
228.9719
 20
37.65549999999999
 30
0.0
 70
    32
  0
VERTEX
  5
2A7D
330
2A07
100
AcDbEntity
  8
241
  6
Continuous
100
AcDbVertex
100
AcDb3dPolylineVertex
 10
228.8962
 20
37.66579999999998
 30
0.0
 70
    32
  0
VERTEX
  5
2A7E
330
2A07
100
AcDbEntity
  8
241
  6
Continuous
100
AcDbVertex
100
AcDb3dPolylineVertex
 10
228.8204
 20
37.67519999999997
 30
0.0
 70
    32
  0
VERTEX
  5
2A7F
330
2A07
100
AcDbEntity
  8
241
  6
Continuous
100
AcDbVertex
100
AcDb3dPolylineVertex
 10
228.7445
 20
37.68379999999999
 30
0.0
 70
    32
  0
VERTEX
  5
2A80
330
2A07
100
AcDbEntity
  8
241
  6
Continuous
100
AcDbVertex
100
AcDb3dPolylineVertex
 10
228.6686
 20
37.69159999999999
 30
0.0
 70
    32
  0
VERTEX
  5
2A81
330
2A07
100
AcDbEntity
  8
241
  6
Continuous
100
AcDbVertex
100
AcDb3dPolylineVertex
 10
228.5926
 20
37.69849999999999
 30
0.0
 70
    32
  0
VERTEX
  5
2A82
330
2A07
100
AcDbEntity
  8
241
  6
Continuous
100
AcDbVertex
100
AcDb3dPolylineVertex
 10
228.5166
 20
37.70459999999999
 30
0.0
 70
    32
  0
VERTEX
  5
2A83
330
2A07
100
AcDbEntity
  8
241
  6
Continuous
100
AcDbVertex
100
AcDb3dPolylineVertex
 10
228.4405
 20
37.70989999999998
 30
0.0
 70
    32
  0
VERTEX
  5
2A84
330
2A07
100
AcDbEntity
  8
241
  6
Continuous
100
AcDbVertex
100
AcDb3dPolylineVertex
 10
228.3644
 20
37.71429999999999
 30
0.0
 70
    32
  0
VERTEX
  5
2A85
330
2A07
100
AcDbEntity
  8
241
  6
Continuous
100
AcDbVertex
100
AcDb3dPolylineVertex
 10
228.2882
 20
37.71789999999999
 30
0.0
 70
    32
  0
VERTEX
  5
2A86
330
2A07
100
AcDbEntity
  8
241
  6
Continuous
100
AcDbVertex
100
AcDb3dPolylineVertex
 10
228.212
 20
37.72069999999999
 30
0.0
 70
    32
  0
VERTEX
  5
2A87
330
2A07
100
AcDbEntity
  8
241
  6
Continuous
100
AcDbVertex
100
AcDb3dPolylineVertex
 10
228.1358
 20
37.72259999999999
 30
0.0
 70
    32
  0
VERTEX
  5
2A88
330
2A07
100
AcDbEntity
  8
241
  6
Continuous
100
AcDbVertex
100
AcDb3dPolylineVertex
 10
228.0596
 20
37.7237
 30
0.0
 70
    32
  0
SEQEND
  5
2A89
330
2A07
100
AcDbEntity
  8
241
  6
Continuous
  0
POLYLINE
  5
2A8A
330
1A
100
AcDbEntity
  8
241
  6
Continuous
100
AcDb3dPolyline
 66
     1
 10
0.0
 20
0.0
 30
0.0
 70
     8
  0
VERTEX
  5
2A8B
330
2A8A
100
AcDbEntity
  8
241
  6
Continuous
100
AcDbVertex
100
AcDb3dPolylineVertex
 10
220.785
 20
32.25779999999999
 30
0.0
 70
    32
  0
VERTEX
  5
2A8C
330
2A8A
100
AcDbEntity
  8
241
  6
Continuous
100
AcDbVertex
100
AcDb3dPolylineVertex
 10
220.7982
 20
32.28839999999999
 30
0.0
 70
    32
  0
VERTEX
  5
2A8D
330
2A8A
100
AcDbEntity
  8
241
  6
Continuous
100
AcDbVertex
100
AcDb3dPolylineVertex
 10
220.8114
 20
32.31889999999999
 30
0.0
 70
    32
  0
VERTEX
  5
2A8E
330
2A8A
100
AcDbEntity
  8
241
  6
Continuous
100
AcDbVertex
100
AcDb3dPolylineVertex
 10
220.8248
 20
32.34949999999999
 30
0.0
 70
    32
  0
VERTEX
  5
2A8F
330
2A8A
100
AcDbEntity
  8
241
  6
Continuous
100
AcDbVertex
100
AcDb3dPolylineVertex
 10
220.8382
 20
32.37989999999999
 30
0.0
 70
    32
  0
VERTEX
  5
2A90
330
2A8A
100
AcDbEntity
  8
241
  6
Continuous
100
AcDbVertex
100
AcDb3dPolylineVertex
 10
220.8518
 20
32.41039999999999
 30
0.0
 70
    32
  0
VERTEX
  5
2A91
330
2A8A
100
AcDbEntity
  8
241
  6
Continuous
100
AcDbVertex
100
AcDb3dPolylineVertex
 10
220.8654
 20
32.44079999999999
 30
0.0
 70
    32
  0
VERTEX
  5
2A92
330
2A8A
100
AcDbEntity
  8
241
  6
Continuous
100
AcDbVertex
100
AcDb3dPolylineVertex
 10
220.8792
 20
32.47109999999999
 30
0.0
 70
    32
  0
VERTEX
  5
2A93
330
2A8A
100
AcDbEntity
  8
241
  6
Continuous
100
AcDbVertex
100
AcDb3dPolylineVertex
 10
220.893
 20
32.50139999999998
 30
0.0
 70
    32
  0
VERTEX
  5
2A94
330
2A8A
100
AcDbEntity
  8
241
  6
Continuous
100
AcDbVertex
100
AcDb3dPolylineVertex
 10
220.907
 20
32.53159999999998
 30
0.0
 70
    32
  0
VERTEX
  5
2A95
330
2A8A
100
AcDbEntity
  8
241
  6
Continuous
100
AcDbVertex
100
AcDb3dPolylineVertex
 10
220.9211
 20
32.56179999999999
 30
0.0
 70
    32
  0
VERTEX
  5
2A96
330
2A8A
100
AcDbEntity
  8
241
  6
Continuous
100
AcDbVertex
100
AcDb3dPolylineVertex
 10
220.9352
 20
32.59199999999998
 30
0.0
 70
    32
  0
VERTEX
  5
2A97
330
2A8A
100
AcDbEntity
  8
241
  6
Continuous
100
AcDbVertex
100
AcDb3dPolylineVertex
 10
220.9495
 20
32.62209999999999
 30
0.0
 70
    32
  0
VERTEX
  5
2A98
330
2A8A
100
AcDbEntity
  8
241
  6
Continuous
100
AcDbVertex
100
AcDb3dPolylineVertex
 10
220.9638
 20
32.65209999999998
 30
0.0
 70
    32
  0
VERTEX
  5
2A99
330
2A8A
100
AcDbEntity
  8
241
  6
Continuous
100
AcDbVertex
100
AcDb3dPolylineVertex
 10
220.9783
 20
32.68219999999999
 30
0.0
 70
    32
  0
VERTEX
  5
2A9A
330
2A8A
100
AcDbEntity
  8
241
  6
Continuous
100
AcDbVertex
100
AcDb3dPolylineVertex
 10
220.9929
 20
32.71209999999999
 30
0.0
 70
    32
  0
VERTEX
  5
2A9B
330
2A8A
100
AcDbEntity
  8
241
  6
Continuous
100
AcDbVertex
100
AcDb3dPolylineVertex
 10
221.0075
 20
32.74199999999999
 30
0.0
 70
    32
  0
VERTEX
  5
2A9C
330
2A8A
100
AcDbEntity
  8
241
  6
Continuous
100
AcDbVertex
100
AcDb3dPolylineVertex
 10
221.0223
 20
32.77189999999999
 30
0.0
 70
    32
  0
VERTEX
  5
2A9D
330
2A8A
100
AcDbEntity
  8
241
  6
Continuous
100
AcDbVertex
100
AcDb3dPolylineVertex
 10
221.0372
 20
32.80169999999998
 30
0.0
 70
    32
  0
VERTEX
  5
2A9E
330
2A8A
100
AcDbEntity
  8
241
  6
Continuous
100
AcDbVertex
100
AcDb3dPolylineVertex
 10
221.0521
 20
32.83139999999999
 30
0.0
 70
    32
  0
VERTEX
  5
2A9F
330
2A8A
100
AcDbEntity
  8
241
  6
Continuous
100
AcDbVertex
100
AcDb3dPolylineVertex
 10
221.0672
 20
32.86109999999999
 30
0.0
 70
    32
  0
VERTEX
  5
2AA0
330
2A8A
100
AcDbEntity
  8
241
  6
Continuous
100
AcDbVertex
100
AcDb3dPolylineVertex
 10
221.0823
 20
32.89079999999998
 30
0.0
 70
    32
  0
VERTEX
  5
2AA1
330
2A8A
100
AcDbEntity
  8
241
  6
Continuous
100
AcDbVertex
100
AcDb3dPolylineVertex
 10
221.0976
 20
32.9204
 30
0.0
 70
    32
  0
VERTEX
  5
2AA2
330
2A8A
100
AcDbEntity
  8
241
  6
Continuous
100
AcDbVertex
100
AcDb3dPolylineVertex
 10
221.113
 20
32.94999999999999
 30
0.0
 70
    32
  0
VERTEX
  5
2AA3
330
2A8A
100
AcDbEntity
  8
241
  6
Continuous
100
AcDbVertex
100
AcDb3dPolylineVertex
 10
221.1284
 20
32.97949999999999
 30
0.0
 70
    32
  0
VERTEX
  5
2AA4
330
2A8A
100
AcDbEntity
  8
241
  6
Continuous
100
AcDbVertex
100
AcDb3dPolylineVertex
 10
221.144
 20
33.00889999999998
 30
0.0
 70
    32
  0
VERTEX
  5
2AA5
330
2A8A
100
AcDbEntity
  8
241
  6
Continuous
100
AcDbVertex
100
AcDb3dPolylineVertex
 10
221.1597
 20
33.0383
 30
0.0
 70
    32
  0
VERTEX
  5
2AA6
330
2A8A
100
AcDbEntity
  8
241
  6
Continuous
100
AcDbVertex
100
AcDb3dPolylineVertex
 10
221.1754
 20
33.06769999999999
 30
0.0
 70
    32
  0
VERTEX
  5
2AA7
330
2A8A
100
AcDbEntity
  8
241
  6
Continuous
100
AcDbVertex
100
AcDb3dPolylineVertex
 10
221.1913
 20
33.09689999999998
 30
0.0
 70
    32
  0
VERTEX
  5
2AA8
330
2A8A
100
AcDbEntity
  8
241
  6
Continuous
100
AcDbVertex
100
AcDb3dPolylineVertex
 10
221.2072
 20
33.12619999999999
 30
0.0
 70
    32
  0
VERTEX
  5
2AA9
330
2A8A
100
AcDbEntity
  8
241
  6
Continuous
100
AcDbVertex
100
AcDb3dPolylineVertex
 10
221.2233
 20
33.15539999999999
 30
0.0
 70
    32
  0
VERTEX
  5
2AAA
330
2A8A
100
AcDbEntity
  8
241
  6
Continuous
100
AcDbVertex
100
AcDb3dPolylineVertex
 10
221.2394
 20
33.18449999999999
 30
0.0
 70
    32
  0
VERTEX
  5
2AAB
330
2A8A
100
AcDbEntity
  8
241
  6
Continuous
100
AcDbVertex
100
AcDb3dPolylineVertex
 10
221.2557
 20
33.21359999999998
 30
0.0
 70
    32
  0
VERTEX
  5
2AAC
330
2A8A
100
AcDbEntity
  8
241
  6
Continuous
100
AcDbVertex
100
AcDb3dPolylineVertex
 10
221.272
 20
33.24259999999999
 30
0.0
 70
    32
  0
VERTEX
  5
2AAD
330
2A8A
100
AcDbEntity
  8
241
  6
Continuous
100
AcDbVertex
100
AcDb3dPolylineVertex
 10
221.2885
 20
33.27159999999999
 30
0.0
 70
    32
  0
VERTEX
  5
2AAE
330
2A8A
100
AcDbEntity
  8
241
  6
Continuous
100
AcDbVertex
100
AcDb3dPolylineVertex
 10
221.305
 20
33.30049999999999
 30
0.0
 70
    32
  0
VERTEX
  5
2AAF
330
2A8A
100
AcDbEntity
  8
241
  6
Continuous
100
AcDbVertex
100
AcDb3dPolylineVertex
 10
221.3216
 20
33.32939999999999
 30
0.0
 70
    32
  0
VERTEX
  5
2AB0
330
2A8A
100
AcDbEntity
  8
241
  6
Continuous
100
AcDbVertex
100
AcDb3dPolylineVertex
 10
221.3384
 20
33.35819999999998
 30
0.0
 70
    32
  0
VERTEX
  5
2AB1
330
2A8A
100
AcDbEntity
  8
241
  6
Continuous
100
AcDbVertex
100
AcDb3dPolylineVertex
 10
221.3552
 20
33.38689999999998
 30
0.0
 70
    32
  0
VERTEX
  5
2AB2
330
2A8A
100
AcDbEntity
  8
241
  6
Continuous
100
AcDbVertex
100
AcDb3dPolylineVertex
 10
221.3721
 20
33.41559999999998
 30
0.0
 70
    32
  0
VERTEX
  5
2AB3
330
2A8A
100
AcDbEntity
  8
241
  6
Continuous
100
AcDbVertex
100
AcDb3dPolylineVertex
 10
221.3892
 20
33.44429999999999
 30
0.0
 70
    32
  0
VERTEX
  5
2AB4
330
2A8A
100
AcDbEntity
  8
241
  6
Continuous
100
AcDbVertex
100
AcDb3dPolylineVertex
 10
221.4063
 20
33.47289999999999
 30
0.0
 70
    32
  0
VERTEX
  5
2AB5
330
2A8A
100
AcDbEntity
  8
241
  6
Continuous
100
AcDbVertex
100
AcDb3dPolylineVertex
 10
221.4235
 20
33.50139999999998
 30
0.0
 70
    32
  0
VERTEX
  5
2AB6
330
2A8A
100
AcDbEntity
  8
241
  6
Continuous
100
AcDbVertex
100
AcDb3dPolylineVertex
 10
221.4408
 20
33.52989999999998
 30
0.0
 70
    32
  0
VERTEX
  5
2AB7
330
2A8A
100
AcDbEntity
  8
241
  6
Continuous
100
AcDbVertex
100
AcDb3dPolylineVertex
 10
221.4582
 20
33.55829999999999
 30
0.0
 70
    32
  0
VERTEX
  5
2AB8
330
2A8A
100
AcDbEntity
  8
241
  6
Continuous
100
AcDbVertex
100
AcDb3dPolylineVertex
 10
221.4757
 20
33.58659999999999
 30
0.0
 70
    32
  0
VERTEX
  5
2AB9
330
2A8A
100
AcDbEntity
  8
241
  6
Continuous
100
AcDbVertex
100
AcDb3dPolylineVertex
 10
221.4933
 20
33.61489999999998
 30
0.0
 70
    32
  0
VERTEX
  5
2ABA
330
2A8A
100
AcDbEntity
  8
241
  6
Continuous
100
AcDbVertex
100
AcDb3dPolylineVertex
 10
221.511
 20
33.64319999999999
 30
0.0
 70
    32
  0
VERTEX
  5
2ABB
330
2A8A
100
AcDbEntity
  8
241
  6
Continuous
100
AcDbVertex
100
AcDb3dPolylineVertex
 10
221.5288
 20
33.67139999999999
 30
0.0
 70
    32
  0
VERTEX
  5
2ABC
330
2A8A
100
AcDbEntity
  8
241
  6
Continuous
100
AcDbVertex
100
AcDb3dPolylineVertex
 10
221.5467
 20
33.69949999999999
 30
0.0
 70
    32
  0
VERTEX
  5
2ABD
330
2A8A
100
AcDbEntity
  8
241
  6
Continuous
100
AcDbVertex
100
AcDb3dPolylineVertex
 10
221.5647
 20
33.72749999999999
 30
0.0
 70
    32
  0
VERTEX
  5
2ABE
330
2A8A
100
AcDbEntity
  8
241
  6
Continuous
100
AcDbVertex
100
AcDb3dPolylineVertex
 10
221.5828
 20
33.75559999999999
 30
0.0
 70
    32
  0
VERTEX
  5
2ABF
330
2A8A
100
AcDbEntity
  8
241
  6
Continuous
100
AcDbVertex
100
AcDb3dPolylineVertex
 10
221.6009
 20
33.78349999999998
 30
0.0
 70
    32
  0
VERTEX
  5
2AC0
330
2A8A
100
AcDbEntity
  8
241
  6
Continuous
100
AcDbVertex
100
AcDb3dPolylineVertex
 10
221.6192
 20
33.81139999999998
 30
0.0
 70
    32
  0
VERTEX
  5
2AC1
330
2A8A
100
AcDbEntity
  8
241
  6
Continuous
100
AcDbVertex
100
AcDb3dPolylineVertex
 10
221.6376
 20
33.83919999999998
 30
0.0
 70
    32
  0
VERTEX
  5
2AC2
330
2A8A
100
AcDbEntity
  8
241
  6
Continuous
100
AcDbVertex
100
AcDb3dPolylineVertex
 10
221.656
 20
33.86699999999998
 30
0.0
 70
    32
  0
VERTEX
  5
2AC3
330
2A8A
100
AcDbEntity
  8
241
  6
Continuous
100
AcDbVertex
100
AcDb3dPolylineVertex
 10
221.6746
 20
33.89469999999999
 30
0.0
 70
    32
  0
VERTEX
  5
2AC4
330
2A8A
100
AcDbEntity
  8
241
  6
Continuous
100
AcDbVertex
100
AcDb3dPolylineVertex
 10
221.6932
 20
33.9223
 30
0.0
 70
    32
  0
VERTEX
  5
2AC5
330
2A8A
100
AcDbEntity
  8
241
  6
Continuous
100
AcDbVertex
100
AcDb3dPolylineVertex
 10
221.712
 20
33.94989999999999
 30
0.0
 70
    32
  0
VERTEX
  5
2AC6
330
2A8A
100
AcDbEntity
  8
241
  6
Continuous
100
AcDbVertex
100
AcDb3dPolylineVertex
 10
221.7308
 20
33.97749999999998
 30
0.0
 70
    32
  0
VERTEX
  5
2AC7
330
2A8A
100
AcDbEntity
  8
241
  6
Continuous
100
AcDbVertex
100
AcDb3dPolylineVertex
 10
221.7497
 20
34.0049
 30
0.0
 70
    32
  0
VERTEX
  5
2AC8
330
2A8A
100
AcDbEntity
  8
241
  6
Continuous
100
AcDbVertex
100
AcDb3dPolylineVertex
 10
221.7688
 20
34.03229999999999
 30
0.0
 70
    32
  0
VERTEX
  5
2AC9
330
2A8A
100
AcDbEntity
  8
241
  6
Continuous
100
AcDbVertex
100
AcDb3dPolylineVertex
 10
221.7879
 20
34.05969999999999
 30
0.0
 70
    32
  0
VERTEX
  5
2ACA
330
2A8A
100
AcDbEntity
  8
241
  6
Continuous
100
AcDbVertex
100
AcDb3dPolylineVertex
 10
221.8071
 20
34.08699999999998
 30
0.0
 70
    32
  0
VERTEX
  5
2ACB
330
2A8A
100
AcDbEntity
  8
241
  6
Continuous
100
AcDbVertex
100
AcDb3dPolylineVertex
 10
221.8264
 20
34.11419999999998
 30
0.0
 70
    32
  0
VERTEX
  5
2ACC
330
2A8A
100
AcDbEntity
  8
241
  6
Continuous
100
AcDbVertex
100
AcDb3dPolylineVertex
 10
221.8458
 20
34.1413
 30
0.0
 70
    32
  0
VERTEX
  5
2ACD
330
2A8A
100
AcDbEntity
  8
241
  6
Continuous
100
AcDbVertex
100
AcDb3dPolylineVertex
 10
221.8652
 20
34.16839999999999
 30
0.0
 70
    32
  0
VERTEX
  5
2ACE
330
2A8A
100
AcDbEntity
  8
241
  6
Continuous
100
AcDbVertex
100
AcDb3dPolylineVertex
 10
221.8848
 20
34.1954
 30
0.0
 70
    32
  0
VERTEX
  5
2ACF
330
2A8A
100
AcDbEntity
  8
241
  6
Continuous
100
AcDbVertex
100
AcDb3dPolylineVertex
 10
221.9045
 20
34.22239999999999
 30
0.0
 70
    32
  0
VERTEX
  5
2AD0
330
2A8A
100
AcDbEntity
  8
241
  6
Continuous
100
AcDbVertex
100
AcDb3dPolylineVertex
 10
221.9243
 20
34.24929999999998
 30
0.0
 70
    32
  0
VERTEX
  5
2AD1
330
2A8A
100
AcDbEntity
  8
241
  6
Continuous
100
AcDbVertex
100
AcDb3dPolylineVertex
 10
221.9441
 20
34.2761
 30
0.0
 70
    32
  0
VERTEX
  5
2AD2
330
2A8A
100
AcDbEntity
  8
241
  6
Continuous
100
AcDbVertex
100
AcDb3dPolylineVertex
 10
221.9641
 20
34.30289999999999
 30
0.0
 70
    32
  0
VERTEX
  5
2AD3
330
2A8A
100
AcDbEntity
  8
241
  6
Continuous
100
AcDbVertex
100
AcDb3dPolylineVertex
 10
221.9841
 20
34.3296
 30
0.0
 70
    32
  0
VERTEX
  5
2AD4
330
2A8A
100
AcDbEntity
  8
241
  6
Continuous
100
AcDbVertex
100
AcDb3dPolylineVertex
 10
222.0042
 20
34.35619999999999
 30
0.0
 70
    32
  0
VERTEX
  5
2AD5
330
2A8A
100
AcDbEntity
  8
241
  6
Continuous
100
AcDbVertex
100
AcDb3dPolylineVertex
 10
222.0244
 20
34.38279999999999
 30
0.0
 70
    32
  0
VERTEX
  5
2AD6
330
2A8A
100
AcDbEntity
  8
241
  6
Continuous
100
AcDbVertex
100
AcDb3dPolylineVertex
 10
222.0447
 20
34.40919999999998
 30
0.0
 70
    32
  0
VERTEX
  5
2AD7
330
2A8A
100
AcDbEntity
  8
241
  6
Continuous
100
AcDbVertex
100
AcDb3dPolylineVertex
 10
222.065
 20
34.4356
 30
0.0
 70
    32
  0
VERTEX
  5
2AD8
330
2A8A
100
AcDbEntity
  8
241
  6
Continuous
100
AcDbVertex
100
AcDb3dPolylineVertex
 10
222.0854
 20
34.46179999999998
 30
0.0
 70
    32
  0
VERTEX
  5
2AD9
330
2A8A
100
AcDbEntity
  8
241
  6
Continuous
100
AcDbVertex
100
AcDb3dPolylineVertex
 10
222.1059
 20
34.48799999999998
 30
0.0
 70
    32
  0
VERTEX
  5
2ADA
330
2A8A
100
AcDbEntity
  8
241
  6
Continuous
100
AcDbVertex
100
AcDb3dPolylineVertex
 10
222.1264
 20
34.51409999999999
 30
0.0
 70
    32
  0
VERTEX
  5
2ADB
330
2A8A
100
AcDbEntity
  8
241
  6
Continuous
100
AcDbVertex
100
AcDb3dPolylineVertex
 10
222.147
 20
34.53999999999999
 30
0.0
 70
    32
  0
VERTEX
  5
2ADC
330
2A8A
100
AcDbEntity
  8
241
  6
Continuous
100
AcDbVertex
100
AcDb3dPolylineVertex
 10
222.1677
 20
34.56589999999998
 30
0.0
 70
    32
  0
VERTEX
  5
2ADD
330
2A8A
100
AcDbEntity
  8
241
  6
Continuous
100
AcDbVertex
100
AcDb3dPolylineVertex
 10
222.1884
 20
34.59169999999999
 30
0.0
 70
    32
  0
VERTEX
  5
2ADE
330
2A8A
100
AcDbEntity
  8
241
  6
Continuous
100
AcDbVertex
100
AcDb3dPolylineVertex
 10
222.2092
 20
34.61739999999999
 30
0.0
 70
    32
  0
VERTEX
  5
2ADF
330
2A8A
100
AcDbEntity
  8
241
  6
Continuous
100
AcDbVertex
100
AcDb3dPolylineVertex
 10
222.2301
 20
34.643
 30
0.0
 70
    32
  0
VERTEX
  5
2AE0
330
2A8A
100
AcDbEntity
  8
241
  6
Continuous
100
AcDbVertex
100
AcDb3dPolylineVertex
 10
222.251
 20
34.66849999999999
 30
0.0
 70
    32
  0
VERTEX
  5
2AE1
330
2A8A
100
AcDbEntity
  8
241
  6
Continuous
100
AcDbVertex
100
AcDb3dPolylineVertex
 10
222.272
 20
34.69389999999999
 30
0.0
 70
    32
  0
VERTEX
  5
2AE2
330
2A8A
100
AcDbEntity
  8
241
  6
Continuous
100
AcDbVertex
100
AcDb3dPolylineVertex
 10
222.2931
 20
34.71919999999999
 30
0.0
 70
    32
  0
VERTEX
  5
2AE3
330
2A8A
100
AcDbEntity
  8
241
  6
Continuous
100
AcDbVertex
100
AcDb3dPolylineVertex
 10
222.3142
 20
34.74439999999999
 30
0.0
 70
    32
  0
VERTEX
  5
2AE4
330
2A8A
100
AcDbEntity
  8
241
  6
Continuous
100
AcDbVertex
100
AcDb3dPolylineVertex
 10
222.3354
 20
34.76959999999998
 30
0.0
 70
    32
  0
VERTEX
  5
2AE5
330
2A8A
100
AcDbEntity
  8
241
  6
Continuous
100
AcDbVertex
100
AcDb3dPolylineVertex
 10
222.3567
 20
34.79459999999999
 30
0.0
 70
    32
  0
VERTEX
  5
2AE6
330
2A8A
100
AcDbEntity
  8
241
  6
Continuous
100
AcDbVertex
100
AcDb3dPolylineVertex
 10
222.378
 20
34.81949999999998
 30
0.0
 70
    32
  0
VERTEX
  5
2AE7
330
2A8A
100
AcDbEntity
  8
241
  6
Continuous
100
AcDbVertex
100
AcDb3dPolylineVertex
 10
222.3994
 20
34.84439999999999
 30
0.0
 70
    32
  0
VERTEX
  5
2AE8
330
2A8A
100
AcDbEntity
  8
241
  6
Continuous
100
AcDbVertex
100
AcDb3dPolylineVertex
 10
222.4208
 20
34.86909999999999
 30
0.0
 70
    32
  0
VERTEX
  5
2AE9
330
2A8A
100
AcDbEntity
  8
241
  6
Continuous
100
AcDbVertex
100
AcDb3dPolylineVertex
 10
222.4423
 20
34.89379999999999
 30
0.0
 70
    32
  0
VERTEX
  5
2AEA
330
2A8A
100
AcDbEntity
  8
241
  6
Continuous
100
AcDbVertex
100
AcDb3dPolylineVertex
 10
222.4639
 20
34.91829999999999
 30
0.0
 70
    32
  0
VERTEX
  5
2AEB
330
2A8A
100
AcDbEntity
  8
241
  6
Continuous
100
AcDbVertex
100
AcDb3dPolylineVertex
 10
222.4855
 20
34.94279999999998
 30
0.0
 70
    32
  0
VERTEX
  5
2AEC
330
2A8A
100
AcDbEntity
  8
241
  6
Continuous
100
AcDbVertex
100
AcDb3dPolylineVertex
 10
222.5072
 20
34.96709999999999
 30
0.0
 70
    32
  0
VERTEX
  5
2AED
330
2A8A
100
AcDbEntity
  8
241
  6
Continuous
100
AcDbVertex
100
AcDb3dPolylineVertex
 10
222.529
 20
34.99139999999999
 30
0.0
 70
    32
  0
VERTEX
  5
2AEE
330
2A8A
100
AcDbEntity
  8
241
  6
Continuous
100
AcDbVertex
100
AcDb3dPolylineVertex
 10
222.5508
 20
35.0156
 30
0.0
 70
    32
  0
VERTEX
  5
2AEF
330
2A8A
100
AcDbEntity
  8
241
  6
Continuous
100
AcDbVertex
100
AcDb3dPolylineVertex
 10
222.5727
 20
35.03959999999999
 30
0.0
 70
    32
  0
VERTEX
  5
2AF0
330
2A8A
100
AcDbEntity
  8
241
  6
Continuous
100
AcDbVertex
100
AcDb3dPolylineVertex
 10
222.5946
 20
35.06359999999999
 30
0.0
 70
    32
  0
VERTEX
  5
2AF1
330
2A8A
100
AcDbEntity
  8
241
  6
Continuous
100
AcDbVertex
100
AcDb3dPolylineVertex
 10
222.6166
 20
35.08749999999999
 30
0.0
 70
    32
  0
VERTEX
  5
2AF2
330
2A8A
100
AcDbEntity
  8
241
  6
Continuous
100
AcDbVertex
100
AcDb3dPolylineVertex
 10
222.6387
 20
35.1113
 30
0.0
 70
    32
  0
VERTEX
  5
2AF3
330
2A8A
100
AcDbEntity
  8
241
  6
Continuous
100
AcDbVertex
100
AcDb3dPolylineVertex
 10
222.6608
 20
35.13489999999999
 30
0.0
 70
    32
  0
VERTEX
  5
2AF4
330
2A8A
100
AcDbEntity
  8
241
  6
Continuous
100
AcDbVertex
100
AcDb3dPolylineVertex
 10
222.683
 20
35.15849999999999
 30
0.0
 70
    32
  0
VERTEX
  5
2AF5
330
2A8A
100
AcDbEntity
  8
241
  6
Continuous
100
AcDbVertex
100
AcDb3dPolylineVertex
 10
222.7052
 20
35.18199999999998
 30
0.0
 70
    32
  0
VERTEX
  5
2AF6
330
2A8A
100
AcDbEntity
  8
241
  6
Continuous
100
AcDbVertex
100
AcDb3dPolylineVertex
 10
222.7275
 20
35.20539999999999
 30
0.0
 70
    32
  0
VERTEX
  5
2AF7
330
2A8A
100
AcDbEntity
  8
241
  6
Continuous
100
AcDbVertex
100
AcDb3dPolylineVertex
 10
222.7498
 20
35.22869999999999
 30
0.0
 70
    32
  0
VERTEX
  5
2AF8
330
2A8A
100
AcDbEntity
  8
241
  6
Continuous
100
AcDbVertex
100
AcDb3dPolylineVertex
 10
222.7722
 20
35.25189999999998
 30
0.0
 70
    32
  0
VERTEX
  5
2AF9
330
2A8A
100
AcDbEntity
  8
241
  6
Continuous
100
AcDbVertex
100
AcDb3dPolylineVertex
 10
222.7947
 20
35.27499999999998
 30
0.0
 70
    32
  0
VERTEX
  5
2AFA
330
2A8A
100
AcDbEntity
  8
241
  6
Continuous
100
AcDbVertex
100
AcDb3dPolylineVertex
 10
222.8172
 20
35.29799999999999
 30
0.0
 70
    32
  0
VERTEX
  5
2AFB
330
2A8A
100
AcDbEntity
  8
241
  6
Continuous
100
AcDbVertex
100
AcDb3dPolylineVertex
 10
222.8398
 20
35.32089999999999
 30
0.0
 70
    32
  0
VERTEX
  5
2AFC
330
2A8A
100
AcDbEntity
  8
241
  6
Continuous
100
AcDbVertex
100
AcDb3dPolylineVertex
 10
222.8624
 20
35.34369999999999
 30
0.0
 70
    32
  0
VERTEX
  5
2AFD
330
2A8A
100
AcDbEntity
  8
241
  6
Continuous
100
AcDbVertex
100
AcDb3dPolylineVertex
 10
222.8851
 20
35.36639999999998
 30
0.0
 70
    32
  0
VERTEX
  5
2AFE
330
2A8A
100
AcDbEntity
  8
241
  6
Continuous
100
AcDbVertex
100
AcDb3dPolylineVertex
 10
222.9078
 20
35.38899999999999
 30
0.0
 70
    32
  0
VERTEX
  5
2AFF
330
2A8A
100
AcDbEntity
  8
241
  6
Continuous
100
AcDbVertex
100
AcDb3dPolylineVertex
 10
222.9306
 20
35.41149999999998
 30
0.0
 70
    32
  0
VERTEX
  5
2B00
330
2A8A
100
AcDbEntity
  8
241
  6
Continuous
100
AcDbVertex
100
AcDb3dPolylineVertex
 10
222.9535
 20
35.43389999999999
 30
0.0
 70
    32
  0
VERTEX
  5
2B01
330
2A8A
100
AcDbEntity
  8
241
  6
Continuous
100
AcDbVertex
100
AcDb3dPolylineVertex
 10
222.9763
 20
35.45619999999999
 30
0.0
 70
    32
  0
VERTEX
  5
2B02
330
2A8A
100
AcDbEntity
  8
241
  6
Continuous
100
AcDbVertex
100
AcDb3dPolylineVertex
 10
222.9993
 20
35.47839999999999
 30
0.0
 70
    32
  0
VERTEX
  5
2B03
330
2A8A
100
AcDbEntity
  8
241
  6
Continuous
100
AcDbVertex
100
AcDb3dPolylineVertex
 10
223.0223
 20
35.50049999999999
 30
0.0
 70
    32
  0
VERTEX
  5
2B04
330
2A8A
100
AcDbEntity
  8
241
  6
Continuous
100
AcDbVertex
100
AcDb3dPolylineVertex
 10
223.0454
 20
35.52249999999999
 30
0.0
 70
    32
  0
VERTEX
  5
2B05
330
2A8A
100
AcDbEntity
  8
241
  6
Continuous
100
AcDbVertex
100
AcDb3dPolylineVertex
 10
223.0685
 20
35.54439999999999
 30
0.0
 70
    32
  0
VERTEX
  5
2B06
330
2A8A
100
AcDbEntity
  8
241
  6
Continuous
100
AcDbVertex
100
AcDb3dPolylineVertex
 10
223.0916
 20
35.56619999999999
 30
0.0
 70
    32
  0
VERTEX
  5
2B07
330
2A8A
100
AcDbEntity
  8
241
  6
Continuous
100
AcDbVertex
100
AcDb3dPolylineVertex
 10
223.1148
 20
35.58789999999998
 30
0.0
 70
    32
  0
VERTEX
  5
2B08
330
2A8A
100
AcDbEntity
  8
241
  6
Continuous
100
AcDbVertex
100
AcDb3dPolylineVertex
 10
223.1381
 20
35.60949999999998
 30
0.0
 70
    32
  0
VERTEX
  5
2B09
330
2A8A
100
AcDbEntity
  8
241
  6
Continuous
100
AcDbVertex
100
AcDb3dPolylineVertex
 10
223.1614
 20
35.63099999999999
 30
0.0
 70
    32
  0
VERTEX
  5
2B0A
330
2A8A
100
AcDbEntity
  8
241
  6
Continuous
100
AcDbVertex
100
AcDb3dPolylineVertex
 10
223.1847
 20
35.65239999999999
 30
0.0
 70
    32
  0
VERTEX
  5
2B0B
330
2A8A
100
AcDbEntity
  8
241
  6
Continuous
100
AcDbVertex
100
AcDb3dPolylineVertex
 10
223.2082
 20
35.67369999999999
 30
0.0
 70
    32
  0
VERTEX
  5
2B0C
330
2A8A
100
AcDbEntity
  8
241
  6
Continuous
100
AcDbVertex
100
AcDb3dPolylineVertex
 10
223.2316
 20
35.69489999999998
 30
0.0
 70
    32
  0
VERTEX
  5
2B0D
330
2A8A
100
AcDbEntity
  8
241
  6
Continuous
100
AcDbVertex
100
AcDb3dPolylineVertex
 10
223.2551
 20
35.716
 30
0.0
 70
    32
  0
VERTEX
  5
2B0E
330
2A8A
100
AcDbEntity
  8
241
  6
Continuous
100
AcDbVertex
100
AcDb3dPolylineVertex
 10
223.2787
 20
35.73699999999997
 30
0.0
 70
    32
  0
VERTEX
  5
2B0F
330
2A8A
100
AcDbEntity
  8
241
  6
Continuous
100
AcDbVertex
100
AcDb3dPolylineVertex
 10
223.3023
 20
35.7579
 30
0.0
 70
    32
  0
VERTEX
  5
2B10
330
2A8A
100
AcDbEntity
  8
241
  6
Continuous
100
AcDbVertex
100
AcDb3dPolylineVertex
 10
223.3259
 20
35.77869999999999
 30
0.0
 70
    32
  0
VERTEX
  5
2B11
330
2A8A
100
AcDbEntity
  8
241
  6
Continuous
100
AcDbVertex
100
AcDb3dPolylineVertex
 10
223.3496
 20
35.79939999999999
 30
0.0
 70
    32
  0
VERTEX
  5
2B12
330
2A8A
100
AcDbEntity
  8
241
  6
Continuous
100
AcDbVertex
100
AcDb3dPolylineVertex
 10
223.3734
 20
35.81999999999999
 30
0.0
 70
    32
  0
VERTEX
  5
2B13
330
2A8A
100
AcDbEntity
  8
241
  6
Continuous
100
AcDbVertex
100
AcDb3dPolylineVertex
 10
223.3972
 20
35.84049999999999
 30
0.0
 70
    32
  0
VERTEX
  5
2B14
330
2A8A
100
AcDbEntity
  8
241
  6
Continuous
100
AcDbVertex
100
AcDb3dPolylineVertex
 10
223.421
 20
35.86089999999999
 30
0.0
 70
    32
  0
VERTEX
  5
2B15
330
2A8A
100
AcDbEntity
  8
241
  6
Continuous
100
AcDbVertex
100
AcDb3dPolylineVertex
 10
223.4449
 20
35.88119999999999
 30
0.0
 70
    32
  0
VERTEX
  5
2B16
330
2A8A
100
AcDbEntity
  8
241
  6
Continuous
100
AcDbVertex
100
AcDb3dPolylineVertex
 10
223.4688
 20
35.90129999999998
 30
0.0
 70
    32
  0
VERTEX
  5
2B17
330
2A8A
100
AcDbEntity
  8
241
  6
Continuous
100
AcDbVertex
100
AcDb3dPolylineVertex
 10
223.4928
 20
35.92139999999999
 30
0.0
 70
    32
  0
VERTEX
  5
2B18
330
2A8A
100
AcDbEntity
  8
241
  6
Continuous
100
AcDbVertex
100
AcDb3dPolylineVertex
 10
223.5168
 20
35.94139999999999
 30
0.0
 70
    32
  0
VERTEX
  5
2B19
330
2A8A
100
AcDbEntity
  8
241
  6
Continuous
100
AcDbVertex
100
AcDb3dPolylineVertex
 10
223.5409
 20
35.96129999999999
 30
0.0
 70
    32
  0
VERTEX
  5
2B1A
330
2A8A
100
AcDbEntity
  8
241
  6
Continuous
100
AcDbVertex
100
AcDb3dPolylineVertex
 10
223.565
 20
35.98099999999999
 30
0.0
 70
    32
  0
VERTEX
  5
2B1B
330
2A8A
100
AcDbEntity
  8
241
  6
Continuous
100
AcDbVertex
100
AcDb3dPolylineVertex
 10
223.5891
 20
36.00069999999999
 30
0.0
 70
    32
  0
VERTEX
  5
2B1C
330
2A8A
100
AcDbEntity
  8
241
  6
Continuous
100
AcDbVertex
100
AcDb3dPolylineVertex
 10
223.6133
 20
36.02029999999999
 30
0.0
 70
    32
  0
VERTEX
  5
2B1D
330
2A8A
100
AcDbEntity
  8
241
  6
Continuous
100
AcDbVertex
100
AcDb3dPolylineVertex
 10
223.6376
 20
36.03979999999999
 30
0.0
 70
    32
  0
VERTEX
  5
2B1E
330
2A8A
100
AcDbEntity
  8
241
  6
Continuous
100
AcDbVertex
100
AcDb3dPolylineVertex
 10
223.6618
 20
36.0591
 30
0.0
 70
    32
  0
VERTEX
  5
2B1F
330
2A8A
100
AcDbEntity
  8
241
  6
Continuous
100
AcDbVertex
100
AcDb3dPolylineVertex
 10
223.6862
 20
36.07839999999999
 30
0.0
 70
    32
  0
VERTEX
  5
2B20
330
2A8A
100
AcDbEntity
  8
241
  6
Continuous
100
AcDbVertex
100
AcDb3dPolylineVertex
 10
223.7105
 20
36.09749999999998
 30
0.0
 70
    32
  0
VERTEX
  5
2B21
330
2A8A
100
AcDbEntity
  8
241
  6
Continuous
100
AcDbVertex
100
AcDb3dPolylineVertex
 10
223.7349
 20
36.11659999999999
 30
0.0
 70
    32
  0
VERTEX
  5
2B22
330
2A8A
100
AcDbEntity
  8
241
  6
Continuous
100
AcDbVertex
100
AcDb3dPolylineVertex
 10
223.7594
 20
36.1355
 30
0.0
 70
    32
  0
VERTEX
  5
2B23
330
2A8A
100
AcDbEntity
  8
241
  6
Continuous
100
AcDbVertex
100
AcDb3dPolylineVertex
 10
223.7839
 20
36.15439999999999
 30
0.0
 70
    32
  0
VERTEX
  5
2B24
330
2A8A
100
AcDbEntity
  8
241
  6
Continuous
100
AcDbVertex
100
AcDb3dPolylineVertex
 10
223.8084
 20
36.17309999999998
 30
0.0
 70
    32
  0
VERTEX
  5
2B25
330
2A8A
100
AcDbEntity
  8
241
  6
Continuous
100
AcDbVertex
100
AcDb3dPolylineVertex
 10
223.8329
 20
36.19169999999999
 30
0.0
 70
    32
  0
VERTEX
  5
2B26
330
2A8A
100
AcDbEntity
  8
241
  6
Continuous
100
AcDbVertex
100
AcDb3dPolylineVertex
 10
223.8576
 20
36.21029999999997
 30
0.0
 70
    32
  0
VERTEX
  5
2B27
330
2A8A
100
AcDbEntity
  8
241
  6
Continuous
100
AcDbVertex
100
AcDb3dPolylineVertex
 10
223.8822
 20
36.22869999999999
 30
0.0
 70
    32
  0
VERTEX
  5
2B28
330
2A8A
100
AcDbEntity
  8
241
  6
Continuous
100
AcDbVertex
100
AcDb3dPolylineVertex
 10
223.9069
 20
36.24699999999999
 30
0.0
 70
    32
  0
VERTEX
  5
2B29
330
2A8A
100
AcDbEntity
  8
241
  6
Continuous
100
AcDbVertex
100
AcDb3dPolylineVertex
 10
223.9316
 20
36.26519999999999
 30
0.0
 70
    32
  0
VERTEX
  5
2B2A
330
2A8A
100
AcDbEntity
  8
241
  6
Continuous
100
AcDbVertex
100
AcDb3dPolylineVertex
 10
223.9564
 20
36.28329999999998
 30
0.0
 70
    32
  0
VERTEX
  5
2B2B
330
2A8A
100
AcDbEntity
  8
241
  6
Continuous
100
AcDbVertex
100
AcDb3dPolylineVertex
 10
223.9812
 20
36.30129999999998
 30
0.0
 70
    32
  0
VERTEX
  5
2B2C
330
2A8A
100
AcDbEntity
  8
241
  6
Continuous
100
AcDbVertex
100
AcDb3dPolylineVertex
 10
224.006
 20
36.31919999999999
 30
0.0
 70
    32
  0
VERTEX
  5
2B2D
330
2A8A
100
AcDbEntity
  8
241
  6
Continuous
100
AcDbVertex
100
AcDb3dPolylineVertex
 10
224.0309
 20
36.33699999999997
 30
0.0
 70
    32
  0
VERTEX
  5
2B2E
330
2A8A
100
AcDbEntity
  8
241
  6
Continuous
100
AcDbVertex
100
AcDb3dPolylineVertex
 10
224.0558
 20
36.35469999999999
 30
0.0
 70
    32
  0
VERTEX
  5
2B2F
330
2A8A
100
AcDbEntity
  8
241
  6
Continuous
100
AcDbVertex
100
AcDb3dPolylineVertex
 10
224.0807
 20
36.37229999999999
 30
0.0
 70
    32
  0
VERTEX
  5
2B30
330
2A8A
100
AcDbEntity
  8
241
  6
Continuous
100
AcDbVertex
100
AcDb3dPolylineVertex
 10
224.1057
 20
36.3898
 30
0.0
 70
    32
  0
VERTEX
  5
2B31
330
2A8A
100
AcDbEntity
  8
241
  6
Continuous
100
AcDbVertex
100
AcDb3dPolylineVertex
 10
224.1307
 20
36.40709999999999
 30
0.0
 70
    32
  0
VERTEX
  5
2B32
330
2A8A
100
AcDbEntity
  8
241
  6
Continuous
100
AcDbVertex
100
AcDb3dPolylineVertex
 10
224.1557
 20
36.42439999999999
 30
0.0
 70
    32
  0
VERTEX
  5
2B33
330
2A8A
100
AcDbEntity
  8
241
  6
Continuous
100
AcDbVertex
100
AcDb3dPolylineVertex
 10
224.1808
 20
36.44149999999998
 30
0.0
 70
    32
  0
VERTEX
  5
2B34
330
2A8A
100
AcDbEntity
  8
241
  6
Continuous
100
AcDbVertex
100
AcDb3dPolylineVertex
 10
224.2059
 20
36.45859999999998
 30
0.0
 70
    32
  0
VERTEX
  5
2B35
330
2A8A
100
AcDbEntity
  8
241
  6
Continuous
100
AcDbVertex
100
AcDb3dPolylineVertex
 10
224.2311
 20
36.47549999999998
 30
0.0
 70
    32
  0
VERTEX
  5
2B36
330
2A8A
100
AcDbEntity
  8
241
  6
Continuous
100
AcDbVertex
100
AcDb3dPolylineVertex
 10
224.2563
 20
36.49239999999999
 30
0.0
 70
    32
  0
VERTEX
  5
2B37
330
2A8A
100
AcDbEntity
  8
241
  6
Continuous
100
AcDbVertex
100
AcDb3dPolylineVertex
 10
224.2815
 20
36.50909999999998
 30
0.0
 70
    32
  0
VERTEX
  5
2B38
330
2A8A
100
AcDbEntity
  8
241
  6
Continuous
100
AcDbVertex
100
AcDb3dPolylineVertex
 10
224.3067
 20
36.52569999999999
 30
0.0
 70
    32
  0
VERTEX
  5
2B39
330
2A8A
100
AcDbEntity
  8
241
  6
Continuous
100
AcDbVertex
100
AcDb3dPolylineVertex
 10
224.332
 20
36.54219999999999
 30
0.0
 70
    32
  0
VERTEX
  5
2B3A
330
2A8A
100
AcDbEntity
  8
241
  6
Continuous
100
AcDbVertex
100
AcDb3dPolylineVertex
 10
224.3573
 20
36.55859999999999
 30
0.0
 70
    32
  0
VERTEX
  5
2B3B
330
2A8A
100
AcDbEntity
  8
241
  6
Continuous
100
AcDbVertex
100
AcDb3dPolylineVertex
 10
224.3827
 20
36.57489999999999
 30
0.0
 70
    32
  0
VERTEX
  5
2B3C
330
2A8A
100
AcDbEntity
  8
241
  6
Continuous
100
AcDbVertex
100
AcDb3dPolylineVertex
 10
224.4081
 20
36.59109999999998
 30
0.0
 70
    32
  0
VERTEX
  5
2B3D
330
2A8A
100
AcDbEntity
  8
241
  6
Continuous
100
AcDbVertex
100
AcDb3dPolylineVertex
 10
224.4335
 20
36.60719999999999
 30
0.0
 70
    32
  0
VERTEX
  5
2B3E
330
2A8A
100
AcDbEntity
  8
241
  6
Continuous
100
AcDbVertex
100
AcDb3dPolylineVertex
 10
224.4589
 20
36.62319999999998
 30
0.0
 70
    32
  0
VERTEX
  5
2B3F
330
2A8A
100
AcDbEntity
  8
241
  6
Continuous
100
AcDbVertex
100
AcDb3dPolylineVertex
 10
224.4844
 20
36.63899999999999
 30
0.0
 70
    32
  0
VERTEX
  5
2B40
330
2A8A
100
AcDbEntity
  8
241
  6
Continuous
100
AcDbVertex
100
AcDb3dPolylineVertex
 10
224.5099
 20
36.65479999999999
 30
0.0
 70
    32
  0
VERTEX
  5
2B41
330
2A8A
100
AcDbEntity
  8
241
  6
Continuous
100
AcDbVertex
100
AcDb3dPolylineVertex
 10
224.5354
 20
36.6704
 30
0.0
 70
    32
  0
VERTEX
  5
2B42
330
2A8A
100
AcDbEntity
  8
241
  6
Continuous
100
AcDbVertex
100
AcDb3dPolylineVertex
 10
224.5609
 20
36.686
 30
0.0
 70
    32
  0
VERTEX
  5
2B43
330
2A8A
100
AcDbEntity
  8
241
  6
Continuous
100
AcDbVertex
100
AcDb3dPolylineVertex
 10
224.5865
 20
36.70139999999999
 30
0.0
 70
    32
  0
VERTEX
  5
2B44
330
2A8A
100
AcDbEntity
  8
241
  6
Continuous
100
AcDbVertex
100
AcDb3dPolylineVertex
 10
224.6121
 20
36.71669999999999
 30
0.0
 70
    32
  0
VERTEX
  5
2B45
330
2A8A
100
AcDbEntity
  8
241
  6
Continuous
100
AcDbVertex
100
AcDb3dPolylineVertex
 10
224.6378
 20
36.732
 30
0.0
 70
    32
  0
VERTEX
  5
2B46
330
2A8A
100
AcDbEntity
  8
241
  6
Continuous
100
AcDbVertex
100
AcDb3dPolylineVertex
 10
224.6634
 20
36.74709999999999
 30
0.0
 70
    32
  0
VERTEX
  5
2B47
330
2A8A
100
AcDbEntity
  8
241
  6
Continuous
100
AcDbVertex
100
AcDb3dPolylineVertex
 10
224.6891
 20
36.762
 30
0.0
 70
    32
  0
VERTEX
  5
2B48
330
2A8A
100
AcDbEntity
  8
241
  6
Continuous
100
AcDbVertex
100
AcDb3dPolylineVertex
 10
224.7148
 20
36.77689999999998
 30
0.0
 70
    32
  0
VERTEX
  5
2B49
330
2A8A
100
AcDbEntity
  8
241
  6
Continuous
100
AcDbVertex
100
AcDb3dPolylineVertex
 10
224.7405
 20
36.79169999999999
 30
0.0
 70
    32
  0
VERTEX
  5
2B4A
330
2A8A
100
AcDbEntity
  8
241
  6
Continuous
100
AcDbVertex
100
AcDb3dPolylineVertex
 10
224.7662
 20
36.80629999999999
 30
0.0
 70
    32
  0
VERTEX
  5
2B4B
330
2A8A
100
AcDbEntity
  8
241
  6
Continuous
100
AcDbVertex
100
AcDb3dPolylineVertex
 10
224.792
 20
36.82079999999999
 30
0.0
 70
    32
  0
VERTEX
  5
2B4C
330
2A8A
100
AcDbEntity
  8
241
  6
Continuous
100
AcDbVertex
100
AcDb3dPolylineVertex
 10
224.8177
 20
36.8352
 30
0.0
 70
    32
  0
VERTEX
  5
2B4D
330
2A8A
100
AcDbEntity
  8
241
  6
Continuous
100
AcDbVertex
100
AcDb3dPolylineVertex
 10
224.8435
 20
36.84949999999999
 30
0.0
 70
    32
  0
VERTEX
  5
2B4E
330
2A8A
100
AcDbEntity
  8
241
  6
Continuous
100
AcDbVertex
100
AcDb3dPolylineVertex
 10
224.8693
 20
36.86369999999999
 30
0.0
 70
    32
  0
VERTEX
  5
2B4F
330
2A8A
100
AcDbEntity
  8
241
  6
Continuous
100
AcDbVertex
100
AcDb3dPolylineVertex
 10
224.8951
 20
36.87769999999999
 30
0.0
 70
    32
  0
VERTEX
  5
2B50
330
2A8A
100
AcDbEntity
  8
241
  6
Continuous
100
AcDbVertex
100
AcDb3dPolylineVertex
 10
224.9209
 20
36.89169999999999
 30
0.0
 70
    32
  0
VERTEX
  5
2B51
330
2A8A
100
AcDbEntity
  8
241
  6
Continuous
100
AcDbVertex
100
AcDb3dPolylineVertex
 10
224.9467
 20
36.90549999999999
 30
0.0
 70
    32
  0
VERTEX
  5
2B52
330
2A8A
100
AcDbEntity
  8
241
  6
Continuous
100
AcDbVertex
100
AcDb3dPolylineVertex
 10
224.9725
 20
36.91919999999998
 30
0.0
 70
    32
  0
VERTEX
  5
2B53
330
2A8A
100
AcDbEntity
  8
241
  6
Continuous
100
AcDbVertex
100
AcDb3dPolylineVertex
 10
224.9984
 20
36.9328
 30
0.0
 70
    32
  0
VERTEX
  5
2B54
330
2A8A
100
AcDbEntity
  8
241
  6
Continuous
100
AcDbVertex
100
AcDb3dPolylineVertex
 10
225.0242
 20
36.9463
 30
0.0
 70
    32
  0
VERTEX
  5
2B55
330
2A8A
100
AcDbEntity
  8
241
  6
Continuous
100
AcDbVertex
100
AcDb3dPolylineVertex
 10
225.0501
 20
36.95969999999999
 30
0.0
 70
    32
  0
VERTEX
  5
2B56
330
2A8A
100
AcDbEntity
  8
241
  6
Continuous
100
AcDbVertex
100
AcDb3dPolylineVertex
 10
225.076
 20
36.97289999999999
 30
0.0
 70
    32
  0
VERTEX
  5
2B57
330
2A8A
100
AcDbEntity
  8
241
  6
Continuous
100
AcDbVertex
100
AcDb3dPolylineVertex
 10
225.1019
 20
36.98609999999999
 30
0.0
 70
    32
  0
VERTEX
  5
2B58
330
2A8A
100
AcDbEntity
  8
241
  6
Continuous
100
AcDbVertex
100
AcDb3dPolylineVertex
 10
225.1278
 20
36.99909999999999
 30
0.0
 70
    32
  0
VERTEX
  5
2B59
330
2A8A
100
AcDbEntity
  8
241
  6
Continuous
100
AcDbVertex
100
AcDb3dPolylineVertex
 10
225.1537
 20
37.012
 30
0.0
 70
    32
  0
VERTEX
  5
2B5A
330
2A8A
100
AcDbEntity
  8
241
  6
Continuous
100
AcDbVertex
100
AcDb3dPolylineVertex
 10
225.1797
 20
37.02479999999999
 30
0.0
 70
    32
  0
VERTEX
  5
2B5B
330
2A8A
100
AcDbEntity
  8
241
  6
Continuous
100
AcDbVertex
100
AcDb3dPolylineVertex
 10
225.2056
 20
37.03739999999998
 30
0.0
 70
    32
  0
VERTEX
  5
2B5C
330
2A8A
100
AcDbEntity
  8
241
  6
Continuous
100
AcDbVertex
100
AcDb3dPolylineVertex
 10
225.2316
 20
37.04999999999998
 30
0.0
 70
    32
  0
VERTEX
  5
2B5D
330
2A8A
100
AcDbEntity
  8
241
  6
Continuous
100
AcDbVertex
100
AcDb3dPolylineVertex
 10
225.2575
 20
37.06239999999997
 30
0.0
 70
    32
  0
VERTEX
  5
2B5E
330
2A8A
100
AcDbEntity
  8
241
  6
Continuous
100
AcDbVertex
100
AcDb3dPolylineVertex
 10
225.2835
 20
37.07479999999999
 30
0.0
 70
    32
  0
VERTEX
  5
2B5F
330
2A8A
100
AcDbEntity
  8
241
  6
Continuous
100
AcDbVertex
100
AcDb3dPolylineVertex
 10
225.3095
 20
37.08699999999998
 30
0.0
 70
    32
  0
VERTEX
  5
2B60
330
2A8A
100
AcDbEntity
  8
241
  6
Continuous
100
AcDbVertex
100
AcDb3dPolylineVertex
 10
225.3355
 20
37.09909999999999
 30
0.0
 70
    32
  0
VERTEX
  5
2B61
330
2A8A
100
AcDbEntity
  8
241
  6
Continuous
100
AcDbVertex
100
AcDb3dPolylineVertex
 10
225.3615
 20
37.11099999999998
 30
0.0
 70
    32
  0
VERTEX
  5
2B62
330
2A8A
100
AcDbEntity
  8
241
  6
Continuous
100
AcDbVertex
100
AcDb3dPolylineVertex
 10
225.3875
 20
37.12289999999999
 30
0.0
 70
    32
  0
VERTEX
  5
2B63
330
2A8A
100
AcDbEntity
  8
241
  6
Continuous
100
AcDbVertex
100
AcDb3dPolylineVertex
 10
225.4135
 20
37.13459999999999
 30
0.0
 70
    32
  0
VERTEX
  5
2B64
330
2A8A
100
AcDbEntity
  8
241
  6
Continuous
100
AcDbVertex
100
AcDb3dPolylineVertex
 10
225.4395
 20
37.14629999999998
 30
0.0
 70
    32
  0
VERTEX
  5
2B65
330
2A8A
100
AcDbEntity
  8
241
  6
Continuous
100
AcDbVertex
100
AcDb3dPolylineVertex
 10
225.4655
 20
37.15779999999999
 30
0.0
 70
    32
  0
VERTEX
  5
2B66
330
2A8A
100
AcDbEntity
  8
241
  6
Continuous
100
AcDbVertex
100
AcDb3dPolylineVertex
 10
225.4916
 20
37.16919999999998
 30
0.0
 70
    32
  0
VERTEX
  5
2B67
330
2A8A
100
AcDbEntity
  8
241
  6
Continuous
100
AcDbVertex
100
AcDb3dPolylineVertex
 10
225.5176
 20
37.18049999999999
 30
0.0
 70
    32
  0
VERTEX
  5
2B68
330
2A8A
100
AcDbEntity
  8
241
  6
Continuous
100
AcDbVertex
100
AcDb3dPolylineVertex
 10
225.5436
 20
37.1916
 30
0.0
 70
    32
  0
VERTEX
  5
2B69
330
2A8A
100
AcDbEntity
  8
241
  6
Continuous
100
AcDbVertex
100
AcDb3dPolylineVertex
 10
225.5697
 20
37.20269999999999
 30
0.0
 70
    32
  0
VERTEX
  5
2B6A
330
2A8A
100
AcDbEntity
  8
241
  6
Continuous
100
AcDbVertex
100
AcDb3dPolylineVertex
 10
225.5957
 20
37.21359999999999
 30
0.0
 70
    32
  0
VERTEX
  5
2B6B
330
2A8A
100
AcDbEntity
  8
241
  6
Continuous
100
AcDbVertex
100
AcDb3dPolylineVertex
 10
225.6218
 20
37.22449999999998
 30
0.0
 70
    32
  0
VERTEX
  5
2B6C
330
2A8A
100
AcDbEntity
  8
241
  6
Continuous
100
AcDbVertex
100
AcDb3dPolylineVertex
 10
225.6479
 20
37.23519999999999
 30
0.0
 70
    32
  0
VERTEX
  5
2B6D
330
2A8A
100
AcDbEntity
  8
241
  6
Continuous
100
AcDbVertex
100
AcDb3dPolylineVertex
 10
225.6739
 20
37.24579999999999
 30
0.0
 70
    32
  0
VERTEX
  5
2B6E
330
2A8A
100
AcDbEntity
  8
241
  6
Continuous
100
AcDbVertex
100
AcDb3dPolylineVertex
 10
225.7
 20
37.25619999999999
 30
0.0
 70
    32
  0
VERTEX
  5
2B6F
330
2A8A
100
AcDbEntity
  8
241
  6
Continuous
100
AcDbVertex
100
AcDb3dPolylineVertex
 10
225.7261
 20
37.26659999999998
 30
0.0
 70
    32
  0
VERTEX
  5
2B70
330
2A8A
100
AcDbEntity
  8
241
  6
Continuous
100
AcDbVertex
100
AcDb3dPolylineVertex
 10
225.7522
 20
37.27679999999999
 30
0.0
 70
    32
  0
VERTEX
  5
2B71
330
2A8A
100
AcDbEntity
  8
241
  6
Continuous
100
AcDbVertex
100
AcDb3dPolylineVertex
 10
225.7782
 20
37.28699999999999
 30
0.0
 70
    32
  0
VERTEX
  5
2B72
330
2A8A
100
AcDbEntity
  8
241
  6
Continuous
100
AcDbVertex
100
AcDb3dPolylineVertex
 10
225.8043
 20
37.29699999999998
 30
0.0
 70
    32
  0
VERTEX
  5
2B73
330
2A8A
100
AcDbEntity
  8
241
  6
Continuous
100
AcDbVertex
100
AcDb3dPolylineVertex
 10
225.8304
 20
37.30689999999999
 30
0.0
 70
    32
  0
VERTEX
  5
2B74
330
2A8A
100
AcDbEntity
  8
241
  6
Continuous
100
AcDbVertex
100
AcDb3dPolylineVertex
 10
225.8565
 20
37.3166
 30
0.0
 70
    32
  0
VERTEX
  5
2B75
330
2A8A
100
AcDbEntity
  8
241
  6
Continuous
100
AcDbVertex
100
AcDb3dPolylineVertex
 10
225.8826
 20
37.32629999999999
 30
0.0
 70
    32
  0
VERTEX
  5
2B76
330
2A8A
100
AcDbEntity
  8
241
  6
Continuous
100
AcDbVertex
100
AcDb3dPolylineVertex
 10
225.9086
 20
37.33579999999999
 30
0.0
 70
    32
  0
VERTEX
  5
2B77
330
2A8A
100
AcDbEntity
  8
241
  6
Continuous
100
AcDbVertex
100
AcDb3dPolylineVertex
 10
225.9347
 20
37.34529999999999
 30
0.0
 70
    32
  0
VERTEX
  5
2B78
330
2A8A
100
AcDbEntity
  8
241
  6
Continuous
100
AcDbVertex
100
AcDb3dPolylineVertex
 10
225.9608
 20
37.35459999999998
 30
0.0
 70
    32
  0
VERTEX
  5
2B79
330
2A8A
100
AcDbEntity
  8
241
  6
Continuous
100
AcDbVertex
100
AcDb3dPolylineVertex
 10
225.9869
 20
37.36379999999999
 30
0.0
 70
    32
  0
VERTEX
  5
2B7A
330
2A8A
100
AcDbEntity
  8
241
  6
Continuous
100
AcDbVertex
100
AcDb3dPolylineVertex
 10
226.013
 20
37.37289999999999
 30
0.0
 70
    32
  0
VERTEX
  5
2B7B
330
2A8A
100
AcDbEntity
  8
241
  6
Continuous
100
AcDbVertex
100
AcDb3dPolylineVertex
 10
226.0391
 20
37.38179999999998
 30
0.0
 70
    32
  0
VERTEX
  5
2B7C
330
2A8A
100
AcDbEntity
  8
241
  6
Continuous
100
AcDbVertex
100
AcDb3dPolylineVertex
 10
226.0652
 20
37.39069999999999
 30
0.0
 70
    32
  0
VERTEX
  5
2B7D
330
2A8A
100
AcDbEntity
  8
241
  6
Continuous
100
AcDbVertex
100
AcDb3dPolylineVertex
 10
226.0912
 20
37.39939999999999
 30
0.0
 70
    32
  0
VERTEX
  5
2B7E
330
2A8A
100
AcDbEntity
  8
241
  6
Continuous
100
AcDbVertex
100
AcDb3dPolylineVertex
 10
226.1173
 20
37.40809999999998
 30
0.0
 70
    32
  0
VERTEX
  5
2B7F
330
2A8A
100
AcDbEntity
  8
241
  6
Continuous
100
AcDbVertex
100
AcDb3dPolylineVertex
 10
226.1434
 20
37.41659999999999
 30
0.0
 70
    32
  0
VERTEX
  5
2B80
330
2A8A
100
AcDbEntity
  8
241
  6
Continuous
100
AcDbVertex
100
AcDb3dPolylineVertex
 10
226.1695
 20
37.4249
 30
0.0
 70
    32
  0
VERTEX
  5
2B81
330
2A8A
100
AcDbEntity
  8
241
  6
Continuous
100
AcDbVertex
100
AcDb3dPolylineVertex
 10
226.1955
 20
37.43319999999999
 30
0.0
 70
    32
  0
VERTEX
  5
2B82
330
2A8A
100
AcDbEntity
  8
241
  6
Continuous
100
AcDbVertex
100
AcDb3dPolylineVertex
 10
226.2216
 20
37.44139999999999
 30
0.0
 70
    32
  0
VERTEX
  5
2B83
330
2A8A
100
AcDbEntity
  8
241
  6
Continuous
100
AcDbVertex
100
AcDb3dPolylineVertex
 10
226.2477
 20
37.44939999999998
 30
0.0
 70
    32
  0
VERTEX
  5
2B84
330
2A8A
100
AcDbEntity
  8
241
  6
Continuous
100
AcDbVertex
100
AcDb3dPolylineVertex
 10
226.2737
 20
37.45729999999998
 30
0.0
 70
    32
  0
VERTEX
  5
2B85
330
2A8A
100
AcDbEntity
  8
241
  6
Continuous
100
AcDbVertex
100
AcDb3dPolylineVertex
 10
226.2998
 20
37.46509999999999
 30
0.0
 70
    32
  0
VERTEX
  5
2B86
330
2A8A
100
AcDbEntity
  8
241
  6
Continuous
100
AcDbVertex
100
AcDb3dPolylineVertex
 10
226.3259
 20
37.47279999999999
 30
0.0
 70
    32
  0
VERTEX
  5
2B87
330
2A8A
100
AcDbEntity
  8
241
  6
Continuous
100
AcDbVertex
100
AcDb3dPolylineVertex
 10
226.3519
 20
37.48039999999999
 30
0.0
 70
    32
  0
VERTEX
  5
2B88
330
2A8A
100
AcDbEntity
  8
241
  6
Continuous
100
AcDbVertex
100
AcDb3dPolylineVertex
 10
226.3779
 20
37.48789999999999
 30
0.0
 70
    32
  0
VERTEX
  5
2B89
330
2A8A
100
AcDbEntity
  8
241
  6
Continuous
100
AcDbVertex
100
AcDb3dPolylineVertex
 10
226.404
 20
37.49519999999999
 30
0.0
 70
    32
  0
VERTEX
  5
2B8A
330
2A8A
100
AcDbEntity
  8
241
  6
Continuous
100
AcDbVertex
100
AcDb3dPolylineVertex
 10
226.43
 20
37.50239999999999
 30
0.0
 70
    32
  0
VERTEX
  5
2B8B
330
2A8A
100
AcDbEntity
  8
241
  6
Continuous
100
AcDbVertex
100
AcDb3dPolylineVertex
 10
226.456
 20
37.50959999999999
 30
0.0
 70
    32
  0
VERTEX
  5
2B8C
330
2A8A
100
AcDbEntity
  8
241
  6
Continuous
100
AcDbVertex
100
AcDb3dPolylineVertex
 10
226.482
 20
37.51659999999997
 30
0.0
 70
    32
  0
VERTEX
  5
2B8D
330
2A8A
100
AcDbEntity
  8
241
  6
Continuous
100
AcDbVertex
100
AcDb3dPolylineVertex
 10
226.5081
 20
37.52339999999999
 30
0.0
 70
    32
  0
VERTEX
  5
2B8E
330
2A8A
100
AcDbEntity
  8
241
  6
Continuous
100
AcDbVertex
100
AcDb3dPolylineVertex
 10
226.5341
 20
37.53019999999999
 30
0.0
 70
    32
  0
VERTEX
  5
2B8F
330
2A8A
100
AcDbEntity
  8
241
  6
Continuous
100
AcDbVertex
100
AcDb3dPolylineVertex
 10
226.56
 20
37.53679999999999
 30
0.0
 70
    32
  0
VERTEX
  5
2B90
330
2A8A
100
AcDbEntity
  8
241
  6
Continuous
100
AcDbVertex
100
AcDb3dPolylineVertex
 10
226.586
 20
37.54339999999999
 30
0.0
 70
    32
  0
VERTEX
  5
2B91
330
2A8A
100
AcDbEntity
  8
241
  6
Continuous
100
AcDbVertex
100
AcDb3dPolylineVertex
 10
226.612
 20
37.54979999999998
 30
0.0
 70
    32
  0
VERTEX
  5
2B92
330
2A8A
100
AcDbEntity
  8
241
  6
Continuous
100
AcDbVertex
100
AcDb3dPolylineVertex
 10
226.638
 20
37.55609999999999
 30
0.0
 70
    32
  0
VERTEX
  5
2B93
330
2A8A
100
AcDbEntity
  8
241
  6
Continuous
100
AcDbVertex
100
AcDb3dPolylineVertex
 10
226.6639
 20
37.56229999999999
 30
0.0
 70
    32
  0
VERTEX
  5
2B94
330
2A8A
100
AcDbEntity
  8
241
  6
Continuous
100
AcDbVertex
100
AcDb3dPolylineVertex
 10
226.6899
 20
37.56829999999999
 30
0.0
 70
    32
  0
VERTEX
  5
2B95
330
2A8A
100
AcDbEntity
  8
241
  6
Continuous
100
AcDbVertex
100
AcDb3dPolylineVertex
 10
226.7158
 20
37.57429999999999
 30
0.0
 70
    32
  0
VERTEX
  5
2B96
330
2A8A
100
AcDbEntity
  8
241
  6
Continuous
100
AcDbVertex
100
AcDb3dPolylineVertex
 10
226.7417
 20
37.58009999999999
 30
0.0
 70
    32
  0
VERTEX
  5
2B97
330
2A8A
100
AcDbEntity
  8
241
  6
Continuous
100
AcDbVertex
100
AcDb3dPolylineVertex
 10
226.7677
 20
37.58579999999998
 30
0.0
 70
    32
  0
VERTEX
  5
2B98
330
2A8A
100
AcDbEntity
  8
241
  6
Continuous
100
AcDbVertex
100
AcDb3dPolylineVertex
 10
226.7936
 20
37.59139999999999
 30
0.0
 70
    32
  0
VERTEX
  5
2B99
330
2A8A
100
AcDbEntity
  8
241
  6
Continuous
100
AcDbVertex
100
AcDb3dPolylineVertex
 10
226.8195
 20
37.59689999999999
 30
0.0
 70
    32
  0
VERTEX
  5
2B9A
330
2A8A
100
AcDbEntity
  8
241
  6
Continuous
100
AcDbVertex
100
AcDb3dPolylineVertex
 10
226.8454
 20
37.60229999999999
 30
0.0
 70
    32
  0
VERTEX
  5
2B9B
330
2A8A
100
AcDbEntity
  8
241
  6
Continuous
100
AcDbVertex
100
AcDb3dPolylineVertex
 10
226.8712
 20
37.60759999999998
 30
0.0
 70
    32
  0
VERTEX
  5
2B9C
330
2A8A
100
AcDbEntity
  8
241
  6
Continuous
100
AcDbVertex
100
AcDb3dPolylineVertex
 10
226.8971
 20
37.61269999999998
 30
0.0
 70
    32
  0
VERTEX
  5
2B9D
330
2A8A
100
AcDbEntity
  8
241
  6
Continuous
100
AcDbVertex
100
AcDb3dPolylineVertex
 10
226.9229
 20
37.61769999999998
 30
0.0
 70
    32
  0
VERTEX
  5
2B9E
330
2A8A
100
AcDbEntity
  8
241
  6
Continuous
100
AcDbVertex
100
AcDb3dPolylineVertex
 10
226.9488
 20
37.62259999999999
 30
0.0
 70
    32
  0
VERTEX
  5
2B9F
330
2A8A
100
AcDbEntity
  8
241
  6
Continuous
100
AcDbVertex
100
AcDb3dPolylineVertex
 10
226.9746
 20
37.62739999999999
 30
0.0
 70
    32
  0
VERTEX
  5
2BA0
330
2A8A
100
AcDbEntity
  8
241
  6
Continuous
100
AcDbVertex
100
AcDb3dPolylineVertex
 10
227.0004
 20
37.63209999999999
 30
0.0
 70
    32
  0
VERTEX
  5
2BA1
330
2A8A
100
AcDbEntity
  8
241
  6
Continuous
100
AcDbVertex
100
AcDb3dPolylineVertex
 10
227.0262
 20
37.63659999999999
 30
0.0
 70
    32
  0
VERTEX
  5
2BA2
330
2A8A
100
AcDbEntity
  8
241
  6
Continuous
100
AcDbVertex
100
AcDb3dPolylineVertex
 10
227.052
 20
37.64109999999999
 30
0.0
 70
    32
  0
VERTEX
  5
2BA3
330
2A8A
100
AcDbEntity
  8
241
  6
Continuous
100
AcDbVertex
100
AcDb3dPolylineVertex
 10
227.0777
 20
37.64539999999999
 30
0.0
 70
    32
  0
VERTEX
  5
2BA4
330
2A8A
100
AcDbEntity
  8
241
  6
Continuous
100
AcDbVertex
100
AcDb3dPolylineVertex
 10
227.1035
 20
37.64959999999998
 30
0.0
 70
    32
  0
VERTEX
  5
2BA5
330
2A8A
100
AcDbEntity
  8
241
  6
Continuous
100
AcDbVertex
100
AcDb3dPolylineVertex
 10
227.1292
 20
37.65369999999999
 30
0.0
 70
    32
  0
VERTEX
  5
2BA6
330
2A8A
100
AcDbEntity
  8
241
  6
Continuous
100
AcDbVertex
100
AcDb3dPolylineVertex
 10
227.1549
 20
37.65769999999998
 30
0.0
 70
    32
  0
VERTEX
  5
2BA7
330
2A8A
100
AcDbEntity
  8
241
  6
Continuous
100
AcDbVertex
100
AcDb3dPolylineVertex
 10
227.1806
 20
37.66149999999998
 30
0.0
 70
    32
  0
VERTEX
  5
2BA8
330
2A8A
100
AcDbEntity
  8
241
  6
Continuous
100
AcDbVertex
100
AcDb3dPolylineVertex
 10
227.2063
 20
37.66529999999999
 30
0.0
 70
    32
  0
VERTEX
  5
2BA9
330
2A8A
100
AcDbEntity
  8
241
  6
Continuous
100
AcDbVertex
100
AcDb3dPolylineVertex
 10
227.232
 20
37.6689
 30
0.0
 70
    32
  0
VERTEX
  5
2BAA
330
2A8A
100
AcDbEntity
  8
241
  6
Continuous
100
AcDbVertex
100
AcDb3dPolylineVertex
 10
227.2576
 20
37.67239999999999
 30
0.0
 70
    32
  0
VERTEX
  5
2BAB
330
2A8A
100
AcDbEntity
  8
241
  6
Continuous
100
AcDbVertex
100
AcDb3dPolylineVertex
 10
227.2832
 20
37.67579999999999
 30
0.0
 70
    32
  0
VERTEX
  5
2BAC
330
2A8A
100
AcDbEntity
  8
241
  6
Continuous
100
AcDbVertex
100
AcDb3dPolylineVertex
 10
227.3087
 20
37.67909999999999
 30
0.0
 70
    32
  0
VERTEX
  5
2BAD
330
2A8A
100
AcDbEntity
  8
241
  6
Continuous
100
AcDbVertex
100
AcDb3dPolylineVertex
 10
227.3342
 20
37.68219999999999
 30
0.0
 70
    32
  0
VERTEX
  5
2BAE
330
2A8A
100
AcDbEntity
  8
241
  6
Continuous
100
AcDbVertex
100
AcDb3dPolylineVertex
 10
227.3597
 20
37.68529999999998
 30
0.0
 70
    32
  0
VERTEX
  5
2BAF
330
2A8A
100
AcDbEntity
  8
241
  6
Continuous
100
AcDbVertex
100
AcDb3dPolylineVertex
 10
227.3852
 20
37.68819999999999
 30
0.0
 70
    32
  0
VERTEX
  5
2BB0
330
2A8A
100
AcDbEntity
  8
241
  6
Continuous
100
AcDbVertex
100
AcDb3dPolylineVertex
 10
227.4106
 20
37.69099999999999
 30
0.0
 70
    32
  0
VERTEX
  5
2BB1
330
2A8A
100
AcDbEntity
  8
241
  6
Continuous
100
AcDbVertex
100
AcDb3dPolylineVertex
 10
227.436
 20
37.69369999999998
 30
0.0
 70
    32
  0
VERTEX
  5
2BB2
330
2A8A
100
AcDbEntity
  8
241
  6
Continuous
100
AcDbVertex
100
AcDb3dPolylineVertex
 10
227.4614
 20
37.69629999999999
 30
0.0
 70
    32
  0
VERTEX
  5
2BB3
330
2A8A
100
AcDbEntity
  8
241
  6
Continuous
100
AcDbVertex
100
AcDb3dPolylineVertex
 10
227.4867
 20
37.69869999999999
 30
0.0
 70
    32
  0
VERTEX
  5
2BB4
330
2A8A
100
AcDbEntity
  8
241
  6
Continuous
100
AcDbVertex
100
AcDb3dPolylineVertex
 10
227.512
 20
37.70109999999998
 30
0.0
 70
    32
  0
VERTEX
  5
2BB5
330
2A8A
100
AcDbEntity
  8
241
  6
Continuous
100
AcDbVertex
100
AcDb3dPolylineVertex
 10
227.5373
 20
37.70329999999999
 30
0.0
 70
    32
  0
VERTEX
  5
2BB6
330
2A8A
100
AcDbEntity
  8
241
  6
Continuous
100
AcDbVertex
100
AcDb3dPolylineVertex
 10
227.5625
 20
37.70539999999999
 30
0.0
 70
    32
  0
VERTEX
  5
2BB7
330
2A8A
100
AcDbEntity
  8
241
  6
Continuous
100
AcDbVertex
100
AcDb3dPolylineVertex
 10
227.5877
 20
37.70739999999999
 30
0.0
 70
    32
  0
VERTEX
  5
2BB8
330
2A8A
100
AcDbEntity
  8
241
  6
Continuous
100
AcDbVertex
100
AcDb3dPolylineVertex
 10
227.6129
 20
37.70929999999999
 30
0.0
 70
    32
  0
VERTEX
  5
2BB9
330
2A8A
100
AcDbEntity
  8
241
  6
Continuous
100
AcDbVertex
100
AcDb3dPolylineVertex
 10
227.638
 20
37.71099999999999
 30
0.0
 70
    32
  0
VERTEX
  5
2BBA
330
2A8A
100
AcDbEntity
  8
241
  6
Continuous
100
AcDbVertex
100
AcDb3dPolylineVertex
 10
227.6631
 20
37.71269999999999
 30
0.0
 70
    32
  0
VERTEX
  5
2BBB
330
2A8A
100
AcDbEntity
  8
241
  6
Continuous
100
AcDbVertex
100
AcDb3dPolylineVertex
 10
227.6881
 20
37.71419999999999
 30
0.0
 70
    32
  0
VERTEX
  5
2BBC
330
2A8A
100
AcDbEntity
  8
241
  6
Continuous
100
AcDbVertex
100
AcDb3dPolylineVertex
 10
227.7132
 20
37.71559999999999
 30
0.0
 70
    32
  0
VERTEX
  5
2BBD
330
2A8A
100
AcDbEntity
  8
241
  6
Continuous
100
AcDbVertex
100
AcDb3dPolylineVertex
 10
227.7381
 20
37.71689999999999
 30
0.0
 70
    32
  0
VERTEX
  5
2BBE
330
2A8A
100
AcDbEntity
  8
241
  6
Continuous
100
AcDbVertex
100
AcDb3dPolylineVertex
 10
227.7631
 20
37.71809999999998
 30
0.0
 70
    32
  0
VERTEX
  5
2BBF
330
2A8A
100
AcDbEntity
  8
241
  6
Continuous
100
AcDbVertex
100
AcDb3dPolylineVertex
 10
227.788
 20
37.7192
 30
0.0
 70
    32
  0
VERTEX
  5
2BC0
330
2A8A
100
AcDbEntity
  8
241
  6
Continuous
100
AcDbVertex
100
AcDb3dPolylineVertex
 10
227.8129
 20
37.72019999999999
 30
0.0
 70
    32
  0
VERTEX
  5
2BC1
330
2A8A
100
AcDbEntity
  8
241
  6
Continuous
100
AcDbVertex
100
AcDb3dPolylineVertex
 10
227.8377
 20
37.72099999999998
 30
0.0
 70
    32
  0
VERTEX
  5
2BC2
330
2A8A
100
AcDbEntity
  8
241
  6
Continuous
100
AcDbVertex
100
AcDb3dPolylineVertex
 10
227.8625
 20
37.72179999999999
 30
0.0
 70
    32
  0
VERTEX
  5
2BC3
330
2A8A
100
AcDbEntity
  8
241
  6
Continuous
100
AcDbVertex
100
AcDb3dPolylineVertex
 10
227.8873
 20
37.7224
 30
0.0
 70
    32
  0
VERTEX
  5
2BC4
330
2A8A
100
AcDbEntity
  8
241
  6
Continuous
100
AcDbVertex
100
AcDb3dPolylineVertex
 10
227.912
 20
37.72289999999999
 30
0.0
 70
    32
  0
VERTEX
  5
2BC5
330
2A8A
100
AcDbEntity
  8
241
  6
Continuous
100
AcDbVertex
100
AcDb3dPolylineVertex
 10
227.9367
 20
37.72329999999999
 30
0.0
 70
    32
  0
VERTEX
  5
2BC6
330
2A8A
100
AcDbEntity
  8
241
  6
Continuous
100
AcDbVertex
100
AcDb3dPolylineVertex
 10
227.9614
 20
37.72359999999999
 30
0.0
 70
    32
  0
VERTEX
  5
2BC7
330
2A8A
100
AcDbEntity
  8
241
  6
Continuous
100
AcDbVertex
100
AcDb3dPolylineVertex
 10
227.986
 20
37.72379999999998
 30
0.0
 70
    32
  0
VERTEX
  5
2BC8
330
2A8A
100
AcDbEntity
  8
241
  6
Continuous
100
AcDbVertex
100
AcDb3dPolylineVertex
 10
228.0106
 20
37.7239
 30
0.0
 70
    32
  0
VERTEX
  5
2BC9
330
2A8A
100
AcDbEntity
  8
241
  6
Continuous
100
AcDbVertex
100
AcDb3dPolylineVertex
 10
228.0351
 20
37.72379999999998
 30
0.0
 70
    32
  0
VERTEX
  5
2BCA
330
2A8A
100
AcDbEntity
  8
241
  6
Continuous
100
AcDbVertex
100
AcDb3dPolylineVertex
 10
228.0596
 20
37.7237
 30
0.0
 70
    32
  0
SEQEND
  5
2BCB
330
2A8A
100
AcDbEntity
  8
241
  6
Continuous
  0
LINE
  5
2BCC
330
1A
100
AcDbEntity
  8
241
  6
Continuous
100
AcDbLine
 10
245.0
 20
25.0
 30
0.0
 11
245.0
 21
49.99999999999998
 31
0.0
  0
ARC
  5
2BCD
330
1A
100
AcDbEntity
  8
241
  6
Continuous
100
AcDbCircle
 10
228.0
 20
29.26473670999999
 30
0.0
 40
7.885567943300054
100
AcDbArc
 50
198.49079377
 51
17.22614669000001
  0
POLYLINE
  5
2BCE
330
1A
100
AcDbEntity
  8
241
  6
Continuous
100
AcDb3dPolyline
 66
     1
 10
0.0
 20
0.0
 30
0.0
 70
     8
  0
VERTEX
  5
2BCF
330
2BCE
100
AcDbEntity
  8
241
  6
Continuous
100
AcDbVertex
100
AcDb3dPolylineVertex
 10
234.0
 20
26.61899999999999
 30
0.0
 70
    32
  0
VERTEX
  5
2BD0
330
2BCE
100
AcDbEntity
  8
241
  6
Continuous
100
AcDbVertex
100
AcDb3dPolylineVertex
 10
233.9928
 20
26.87389999999999
 30
0.0
 70
    32
  0
VERTEX
  5
2BD1
330
2BCE
100
AcDbEntity
  8
241
  6
Continuous
100
AcDbVertex
100
AcDb3dPolylineVertex
 10
233.9711
 20
27.12829999999998
 30
0.0
 70
    32
  0
VERTEX
  5
2BD2
330
2BCE
100
AcDbEntity
  8
241
  6
Continuous
100
AcDbVertex
100
AcDb3dPolylineVertex
 10
233.9351
 20
27.3814
 30
0.0
 70
    32
  0
VERTEX
  5
2BD3
330
2BCE
100
AcDbEntity
  8
241
  6
Continuous
100
AcDbVertex
100
AcDb3dPolylineVertex
 10
233.8847
 20
27.63269999999999
 30
0.0
 70
    32
  0
VERTEX
  5
2BD4
330
2BCE
100
AcDbEntity
  8
241
  6
Continuous
100
AcDbVertex
100
AcDb3dPolylineVertex
 10
233.8202
 20
27.88149999999999
 30
0.0
 70
    32
  0
VERTEX
  5
2BD5
330
2BCE
100
AcDbEntity
  8
241
  6
Continuous
100
AcDbVertex
100
AcDb3dPolylineVertex
 10
233.7416
 20
28.12729999999999
 30
0.0
 70
    32
  0
VERTEX
  5
2BD6
330
2BCE
100
AcDbEntity
  8
241
  6
Continuous
100
AcDbVertex
100
AcDb3dPolylineVertex
 10
233.6493
 20
28.36949999999998
 30
0.0
 70
    32
  0
VERTEX
  5
2BD7
330
2BCE
100
AcDbEntity
  8
241
  6
Continuous
100
AcDbVertex
100
AcDb3dPolylineVertex
 10
233.5433
 20
28.60749999999999
 30
0.0
 70
    32
  0
VERTEX
  5
2BD8
330
2BCE
100
AcDbEntity
  8
241
  6
Continuous
100
AcDbVertex
100
AcDb3dPolylineVertex
 10
233.4239
 20
28.84059999999998
 30
0.0
 70
    32
  0
VERTEX
  5
2BD9
330
2BCE
100
AcDbEntity
  8
241
  6
Continuous
100
AcDbVertex
100
AcDb3dPolylineVertex
 10
233.2915
 20
29.06839999999999
 30
0.0
 70
    32
  0
VERTEX
  5
2BDA
330
2BCE
100
AcDbEntity
  8
241
  6
Continuous
100
AcDbVertex
100
AcDb3dPolylineVertex
 10
233.1464
 20
29.29029999999999
 30
0.0
 70
    32
  0
VERTEX
  5
2BDB
330
2BCE
100
AcDbEntity
  8
241
  6
Continuous
100
AcDbVertex
100
AcDb3dPolylineVertex
 10
232.9888
 20
29.50579999999999
 30
0.0
 70
    32
  0
VERTEX
  5
2BDC
330
2BCE
100
AcDbEntity
  8
241
  6
Continuous
100
AcDbVertex
100
AcDb3dPolylineVertex
 10
232.8192
 20
29.71429999999999
 30
0.0
 70
    32
  0
VERTEX
  5
2BDD
330
2BCE
100
AcDbEntity
  8
241
  6
Continuous
100
AcDbVertex
100
AcDb3dPolylineVertex
 10
232.6381
 20
29.91539999999999
 30
0.0
 70
    32
  0
VERTEX
  5
2BDE
330
2BCE
100
AcDbEntity
  8
241
  6
Continuous
100
AcDbVertex
100
AcDb3dPolylineVertex
 10
232.4457
 20
30.10849999999999
 30
0.0
 70
    32
  0
VERTEX
  5
2BDF
330
2BCE
100
AcDbEntity
  8
241
  6
Continuous
100
AcDbVertex
100
AcDb3dPolylineVertex
 10
232.2426
 20
30.29319999999998
 30
0.0
 70
    32
  0
VERTEX
  5
2BE0
330
2BCE
100
AcDbEntity
  8
241
  6
Continuous
100
AcDbVertex
100
AcDb3dPolylineVertex
 10
232.0294
 20
30.46909999999999
 30
0.0
 70
    32
  0
VERTEX
  5
2BE1
330
2BCE
100
AcDbEntity
  8
241
  6
Continuous
100
AcDbVertex
100
AcDb3dPolylineVertex
 10
231.8064
 20
30.63569999999999
 30
0.0
 70
    32
  0
VERTEX
  5
2BE2
330
2BCE
100
AcDbEntity
  8
241
  6
Continuous
100
AcDbVertex
100
AcDb3dPolylineVertex
 10
231.5742
 20
30.79259999999999
 30
0.0
 70
    32
  0
VERTEX
  5
2BE3
330
2BCE
100
AcDbEntity
  8
241
  6
Continuous
100
AcDbVertex
100
AcDb3dPolylineVertex
 10
231.3334
 20
30.93939999999999
 30
0.0
 70
    32
  0
VERTEX
  5
2BE4
330
2BCE
100
AcDbEntity
  8
241
  6
Continuous
100
AcDbVertex
100
AcDb3dPolylineVertex
 10
231.0846
 20
31.07589999999999
 30
0.0
 70
    32
  0
VERTEX
  5
2BE5
330
2BCE
100
AcDbEntity
  8
241
  6
Continuous
100
AcDbVertex
100
AcDb3dPolylineVertex
 10
230.8284
 20
31.20159999999998
 30
0.0
 70
    32
  0
VERTEX
  5
2BE6
330
2BCE
100
AcDbEntity
  8
241
  6
Continuous
100
AcDbVertex
100
AcDb3dPolylineVertex
 10
230.5653
 20
31.31629999999999
 30
0.0
 70
    32
  0
VERTEX
  5
2BE7
330
2BCE
100
AcDbEntity
  8
241
  6
Continuous
100
AcDbVertex
100
AcDb3dPolylineVertex
 10
230.2961
 20
31.41959999999999
 30
0.0
 70
    32
  0
VERTEX
  5
2BE8
330
2BCE
100
AcDbEntity
  8
241
  6
Continuous
100
AcDbVertex
100
AcDb3dPolylineVertex
 10
230.0213
 20
31.51139999999998
 30
0.0
 70
    32
  0
VERTEX
  5
2BE9
330
2BCE
100
AcDbEntity
  8
241
  6
Continuous
100
AcDbVertex
100
AcDb3dPolylineVertex
 10
229.7417
 20
31.59139999999999
 30
0.0
 70
    32
  0
VERTEX
  5
2BEA
330
2BCE
100
AcDbEntity
  8
241
  6
Continuous
100
AcDbVertex
100
AcDb3dPolylineVertex
 10
229.4579
 20
31.65939999999999
 30
0.0
 70
    32
  0
VERTEX
  5
2BEB
330
2BCE
100
AcDbEntity
  8
241
  6
Continuous
100
AcDbVertex
100
AcDb3dPolylineVertex
 10
229.1705
 20
31.71529999999999
 30
0.0
 70
    32
  0
VERTEX
  5
2BEC
330
2BCE
100
AcDbEntity
  8
241
  6
Continuous
100
AcDbVertex
100
AcDb3dPolylineVertex
 10
228.8804
 20
31.75889999999999
 30
0.0
 70
    32
  0
VERTEX
  5
2BED
330
2BCE
100
AcDbEntity
  8
241
  6
Continuous
100
AcDbVertex
100
AcDb3dPolylineVertex
 10
228.5881
 20
31.79009999999999
 30
0.0
 70
    32
  0
VERTEX
  5
2BEE
330
2BCE
100
AcDbEntity
  8
241
  6
Continuous
100
AcDbVertex
100
AcDb3dPolylineVertex
 10
228.2944
 20
31.80889999999999
 30
0.0
 70
    32
  0
VERTEX
  5
2BEF
330
2BCE
100
AcDbEntity
  8
241
  6
Continuous
100
AcDbVertex
100
AcDb3dPolylineVertex
 10
228.0
 20
31.81509999999999
 30
0.0
 70
    32
  0
VERTEX
  5
2BF0
330
2BCE
100
AcDbEntity
  8
241
  6
Continuous
100
AcDbVertex
100
AcDb3dPolylineVertex
 10
227.7056
 20
31.80889999999999
 30
0.0
 70
    32
  0
VERTEX
  5
2BF1
330
2BCE
100
AcDbEntity
  8
241
  6
Continuous
100
AcDbVertex
100
AcDb3dPolylineVertex
 10
227.4119
 20
31.79009999999999
 30
0.0
 70
    32
  0
VERTEX
  5
2BF2
330
2BCE
100
AcDbEntity
  8
241
  6
Continuous
100
AcDbVertex
100
AcDb3dPolylineVertex
 10
227.1196
 20
31.75889999999999
 30
0.0
 70
    32
  0
VERTEX
  5
2BF3
330
2BCE
100
AcDbEntity
  8
241
  6
Continuous
100
AcDbVertex
100
AcDb3dPolylineVertex
 10
226.8295
 20
31.71529999999999
 30
0.0
 70
    32
  0
VERTEX
  5
2BF4
330
2BCE
100
AcDbEntity
  8
241
  6
Continuous
100
AcDbVertex
100
AcDb3dPolylineVertex
 10
226.5421
 20
31.65939999999999
 30
0.0
 70
    32
  0
VERTEX
  5
2BF5
330
2BCE
100
AcDbEntity
  8
241
  6
Continuous
100
AcDbVertex
100
AcDb3dPolylineVertex
 10
226.2583
 20
31.59139999999999
 30
0.0
 70
    32
  0
VERTEX
  5
2BF6
330
2BCE
100
AcDbEntity
  8
241
  6
Continuous
100
AcDbVertex
100
AcDb3dPolylineVertex
 10
225.9787
 20
31.51139999999998
 30
0.0
 70
    32
  0
VERTEX
  5
2BF7
330
2BCE
100
AcDbEntity
  8
241
  6
Continuous
100
AcDbVertex
100
AcDb3dPolylineVertex
 10
225.7039
 20
31.41959999999999
 30
0.0
 70
    32
  0
VERTEX
  5
2BF8
330
2BCE
100
AcDbEntity
  8
241
  6
Continuous
100
AcDbVertex
100
AcDb3dPolylineVertex
 10
225.4347
 20
31.31629999999999
 30
0.0
 70
    32
  0
VERTEX
  5
2BF9
330
2BCE
100
AcDbEntity
  8
241
  6
Continuous
100
AcDbVertex
100
AcDb3dPolylineVertex
 10
225.1716
 20
31.20159999999998
 30
0.0
 70
    32
  0
VERTEX
  5
2BFA
330
2BCE
100
AcDbEntity
  8
241
  6
Continuous
100
AcDbVertex
100
AcDb3dPolylineVertex
 10
224.9154
 20
31.07589999999999
 30
0.0
 70
    32
  0
VERTEX
  5
2BFB
330
2BCE
100
AcDbEntity
  8
241
  6
Continuous
100
AcDbVertex
100
AcDb3dPolylineVertex
 10
224.6666
 20
30.93939999999999
 30
0.0
 70
    32
  0
VERTEX
  5
2BFC
330
2BCE
100
AcDbEntity
  8
241
  6
Continuous
100
AcDbVertex
100
AcDb3dPolylineVertex
 10
224.4258
 20
30.79259999999999
 30
0.0
 70
    32
  0
VERTEX
  5
2BFD
330
2BCE
100
AcDbEntity
  8
241
  6
Continuous
100
AcDbVertex
100
AcDb3dPolylineVertex
 10
224.1936
 20
30.63569999999999
 30
0.0
 70
    32
  0
VERTEX
  5
2BFE
330
2BCE
100
AcDbEntity
  8
241
  6
Continuous
100
AcDbVertex
100
AcDb3dPolylineVertex
 10
223.9706
 20
30.46909999999999
 30
0.0
 70
    32
  0
VERTEX
  5
2BFF
330
2BCE
100
AcDbEntity
  8
241
  6
Continuous
100
AcDbVertex
100
AcDb3dPolylineVertex
 10
223.7574
 20
30.29319999999998
 30
0.0
 70
    32
  0
VERTEX
  5
2C00
330
2BCE
100
AcDbEntity
  8
241
  6
Continuous
100
AcDbVertex
100
AcDb3dPolylineVertex
 10
223.5543
 20
30.10849999999999
 30
0.0
 70
    32
  0
VERTEX
  5
2C01
330
2BCE
100
AcDbEntity
  8
241
  6
Continuous
100
AcDbVertex
100
AcDb3dPolylineVertex
 10
223.3619
 20
29.91539999999999
 30
0.0
 70
    32
  0
VERTEX
  5
2C02
330
2BCE
100
AcDbEntity
  8
241
  6
Continuous
100
AcDbVertex
100
AcDb3dPolylineVertex
 10
223.1808
 20
29.71429999999999
 30
0.0
 70
    32
  0
VERTEX
  5
2C03
330
2BCE
100
AcDbEntity
  8
241
  6
Continuous
100
AcDbVertex
100
AcDb3dPolylineVertex
 10
223.0112
 20
29.50579999999999
 30
0.0
 70
    32
  0
VERTEX
  5
2C04
330
2BCE
100
AcDbEntity
  8
241
  6
Continuous
100
AcDbVertex
100
AcDb3dPolylineVertex
 10
222.8536
 20
29.29029999999999
 30
0.0
 70
    32
  0
VERTEX
  5
2C05
330
2BCE
100
AcDbEntity
  8
241
  6
Continuous
100
AcDbVertex
100
AcDb3dPolylineVertex
 10
222.7085
 20
29.06839999999999
 30
0.0
 70
    32
  0
VERTEX
  5
2C06
330
2BCE
100
AcDbEntity
  8
241
  6
Continuous
100
AcDbVertex
100
AcDb3dPolylineVertex
 10
222.5761
 20
28.84059999999998
 30
0.0
 70
    32
  0
VERTEX
  5
2C07
330
2BCE
100
AcDbEntity
  8
241
  6
Continuous
100
AcDbVertex
100
AcDb3dPolylineVertex
 10
222.4567
 20
28.60749999999999
 30
0.0
 70
    32
  0
VERTEX
  5
2C08
330
2BCE
100
AcDbEntity
  8
241
  6
Continuous
100
AcDbVertex
100
AcDb3dPolylineVertex
 10
222.3507
 20
28.36949999999998
 30
0.0
 70
    32
  0
VERTEX
  5
2C09
330
2BCE
100
AcDbEntity
  8
241
  6
Continuous
100
AcDbVertex
100
AcDb3dPolylineVertex
 10
222.2584
 20
28.12729999999999
 30
0.0
 70
    32
  0
VERTEX
  5
2C0A
330
2BCE
100
AcDbEntity
  8
241
  6
Continuous
100
AcDbVertex
100
AcDb3dPolylineVertex
 10
222.1798
 20
27.88149999999999
 30
0.0
 70
    32
  0
VERTEX
  5
2C0B
330
2BCE
100
AcDbEntity
  8
241
  6
Continuous
100
AcDbVertex
100
AcDb3dPolylineVertex
 10
222.1153
 20
27.63269999999999
 30
0.0
 70
    32
  0
VERTEX
  5
2C0C
330
2BCE
100
AcDbEntity
  8
241
  6
Continuous
100
AcDbVertex
100
AcDb3dPolylineVertex
 10
222.0649
 20
27.3814
 30
0.0
 70
    32
  0
VERTEX
  5
2C0D
330
2BCE
100
AcDbEntity
  8
241
  6
Continuous
100
AcDbVertex
100
AcDb3dPolylineVertex
 10
222.0289
 20
27.12829999999998
 30
0.0
 70
    32
  0
VERTEX
  5
2C0E
330
2BCE
100
AcDbEntity
  8
241
  6
Continuous
100
AcDbVertex
100
AcDb3dPolylineVertex
 10
222.0072
 20
26.87389999999999
 30
0.0
 70
    32
  0
VERTEX
  5
2C0F
330
2BCE
100
AcDbEntity
  8
241
  6
Continuous
100
AcDbVertex
100
AcDb3dPolylineVertex
 10
222.0
 20
26.61899999999999
 30
0.0
 70
    32
  0
VERTEX
  5
2C10
330
2BCE
100
AcDbEntity
  8
241
  6
Continuous
100
AcDbVertex
100
AcDb3dPolylineVertex
 10
222.0072
 20
26.36399999999999
 30
0.0
 70
    32
  0
VERTEX
  5
2C11
330
2BCE
100
AcDbEntity
  8
241
  6
Continuous
100
AcDbVertex
100
AcDb3dPolylineVertex
 10
222.0289
 20
26.10969999999999
 30
0.0
 70
    32
  0
VERTEX
  5
2C12
330
2BCE
100
AcDbEntity
  8
241
  6
Continuous
100
AcDbVertex
100
AcDb3dPolylineVertex
 10
222.0649
 20
25.85659999999999
 30
0.0
 70
    32
  0
VERTEX
  5
2C13
330
2BCE
100
AcDbEntity
  8
241
  6
Continuous
100
AcDbVertex
100
AcDb3dPolylineVertex
 10
222.1153
 20
25.60529999999999
 30
0.0
 70
    32
  0
VERTEX
  5
2C14
330
2BCE
100
AcDbEntity
  8
241
  6
Continuous
100
AcDbVertex
100
AcDb3dPolylineVertex
 10
222.1798
 20
25.35639999999999
 30
0.0
 70
    32
  0
VERTEX
  5
2C15
330
2BCE
100
AcDbEntity
  8
241
  6
Continuous
100
AcDbVertex
100
AcDb3dPolylineVertex
 10
222.2584
 20
25.11059999999999
 30
0.0
 70
    32
  0
VERTEX
  5
2C16
330
2BCE
100
AcDbEntity
  8
241
  6
Continuous
100
AcDbVertex
100
AcDb3dPolylineVertex
 10
222.3507
 20
24.86849999999999
 30
0.0
 70
    32
  0
VERTEX
  5
2C17
330
2BCE
100
AcDbEntity
  8
241
  6
Continuous
100
AcDbVertex
100
AcDb3dPolylineVertex
 10
222.4567
 20
24.63049999999999
 30
0.0
 70
    32
  0
VERTEX
  5
2C18
330
2BCE
100
AcDbEntity
  8
241
  6
Continuous
100
AcDbVertex
100
AcDb3dPolylineVertex
 10
222.5761
 20
24.39729999999999
 30
0.0
 70
    32
  0
VERTEX
  5
2C19
330
2BCE
100
AcDbEntity
  8
241
  6
Continuous
100
AcDbVertex
100
AcDb3dPolylineVertex
 10
222.7085
 20
24.16949999999999
 30
0.0
 70
    32
  0
VERTEX
  5
2C1A
330
2BCE
100
AcDbEntity
  8
241
  6
Continuous
100
AcDbVertex
100
AcDb3dPolylineVertex
 10
222.8536
 20
23.94759999999999
 30
0.0
 70
    32
  0
VERTEX
  5
2C1B
330
2BCE
100
AcDbEntity
  8
241
  6
Continuous
100
AcDbVertex
100
AcDb3dPolylineVertex
 10
223.0112
 20
23.73219999999998
 30
0.0
 70
    32
  0
VERTEX
  5
2C1C
330
2BCE
100
AcDbEntity
  8
241
  6
Continuous
100
AcDbVertex
100
AcDb3dPolylineVertex
 10
223.1808
 20
23.52359999999999
 30
0.0
 70
    32
  0
VERTEX
  5
2C1D
330
2BCE
100
AcDbEntity
  8
241
  6
Continuous
100
AcDbVertex
100
AcDb3dPolylineVertex
 10
223.3619
 20
23.32259999999999
 30
0.0
 70
    32
  0
VERTEX
  5
2C1E
330
2BCE
100
AcDbEntity
  8
241
  6
Continuous
100
AcDbVertex
100
AcDb3dPolylineVertex
 10
223.5543
 20
23.12949999999998
 30
0.0
 70
    32
  0
VERTEX
  5
2C1F
330
2BCE
100
AcDbEntity
  8
241
  6
Continuous
100
AcDbVertex
100
AcDb3dPolylineVertex
 10
223.7574
 20
22.94479999999999
 30
0.0
 70
    32
  0
VERTEX
  5
2C20
330
2BCE
100
AcDbEntity
  8
241
  6
Continuous
100
AcDbVertex
100
AcDb3dPolylineVertex
 10
223.9706
 20
22.76889999999998
 30
0.0
 70
    32
  0
VERTEX
  5
2C21
330
2BCE
100
AcDbEntity
  8
241
  6
Continuous
100
AcDbVertex
100
AcDb3dPolylineVertex
 10
224.1936
 20
22.60229999999999
 30
0.0
 70
    32
  0
VERTEX
  5
2C22
330
2BCE
100
AcDbEntity
  8
241
  6
Continuous
100
AcDbVertex
100
AcDb3dPolylineVertex
 10
224.4258
 20
22.44539999999998
 30
0.0
 70
    32
  0
VERTEX
  5
2C23
330
2BCE
100
AcDbEntity
  8
241
  6
Continuous
100
AcDbVertex
100
AcDb3dPolylineVertex
 10
224.6666
 20
22.29849999999998
 30
0.0
 70
    32
  0
VERTEX
  5
2C24
330
2BCE
100
AcDbEntity
  8
241
  6
Continuous
100
AcDbVertex
100
AcDb3dPolylineVertex
 10
224.9154
 20
22.16209999999998
 30
0.0
 70
    32
  0
VERTEX
  5
2C25
330
2BCE
100
AcDbEntity
  8
241
  6
Continuous
100
AcDbVertex
100
AcDb3dPolylineVertex
 10
225.1716
 20
22.03639999999999
 30
0.0
 70
    32
  0
VERTEX
  5
2C26
330
2BCE
100
AcDbEntity
  8
241
  6
Continuous
100
AcDbVertex
100
AcDb3dPolylineVertex
 10
225.4347
 20
21.92169999999999
 30
0.0
 70
    32
  0
VERTEX
  5
2C27
330
2BCE
100
AcDbEntity
  8
241
  6
Continuous
100
AcDbVertex
100
AcDb3dPolylineVertex
 10
225.7039
 20
21.81839999999999
 30
0.0
 70
    32
  0
VERTEX
  5
2C28
330
2BCE
100
AcDbEntity
  8
241
  6
Continuous
100
AcDbVertex
100
AcDb3dPolylineVertex
 10
225.9787
 20
21.72659999999999
 30
0.0
 70
    32
  0
VERTEX
  5
2C29
330
2BCE
100
AcDbEntity
  8
241
  6
Continuous
100
AcDbVertex
100
AcDb3dPolylineVertex
 10
226.2583
 20
21.64659999999999
 30
0.0
 70
    32
  0
VERTEX
  5
2C2A
330
2BCE
100
AcDbEntity
  8
241
  6
Continuous
100
AcDbVertex
100
AcDb3dPolylineVertex
 10
226.5421
 20
21.57859999999999
 30
0.0
 70
    32
  0
VERTEX
  5
2C2B
330
2BCE
100
AcDbEntity
  8
241
  6
Continuous
100
AcDbVertex
100
AcDb3dPolylineVertex
 10
226.8295
 20
21.52269999999999
 30
0.0
 70
    32
  0
VERTEX
  5
2C2C
330
2BCE
100
AcDbEntity
  8
241
  6
Continuous
100
AcDbVertex
100
AcDb3dPolylineVertex
 10
227.1196
 20
21.47909999999999
 30
0.0
 70
    32
  0
VERTEX
  5
2C2D
330
2BCE
100
AcDbEntity
  8
241
  6
Continuous
100
AcDbVertex
100
AcDb3dPolylineVertex
 10
227.4119
 20
21.44789999999999
 30
0.0
 70
    32
  0
VERTEX
  5
2C2E
330
2BCE
100
AcDbEntity
  8
241
  6
Continuous
100
AcDbVertex
100
AcDb3dPolylineVertex
 10
227.7056
 20
21.42909999999998
 30
0.0
 70
    32
  0
VERTEX
  5
2C2F
330
2BCE
100
AcDbEntity
  8
241
  6
Continuous
100
AcDbVertex
100
AcDb3dPolylineVertex
 10
228.0
 20
21.42279999999999
 30
0.0
 70
    32
  0
VERTEX
  5
2C30
330
2BCE
100
AcDbEntity
  8
241
  6
Continuous
100
AcDbVertex
100
AcDb3dPolylineVertex
 10
228.2944
 20
21.42909999999998
 30
0.0
 70
    32
  0
VERTEX
  5
2C31
330
2BCE
100
AcDbEntity
  8
241
  6
Continuous
100
AcDbVertex
100
AcDb3dPolylineVertex
 10
228.5881
 20
21.44789999999999
 30
0.0
 70
    32
  0
VERTEX
  5
2C32
330
2BCE
100
AcDbEntity
  8
241
  6
Continuous
100
AcDbVertex
100
AcDb3dPolylineVertex
 10
228.8804
 20
21.47909999999999
 30
0.0
 70
    32
  0
VERTEX
  5
2C33
330
2BCE
100
AcDbEntity
  8
241
  6
Continuous
100
AcDbVertex
100
AcDb3dPolylineVertex
 10
229.1705
 20
21.52269999999999
 30
0.0
 70
    32
  0
VERTEX
  5
2C34
330
2BCE
100
AcDbEntity
  8
241
  6
Continuous
100
AcDbVertex
100
AcDb3dPolylineVertex
 10
229.4579
 20
21.57859999999999
 30
0.0
 70
    32
  0
VERTEX
  5
2C35
330
2BCE
100
AcDbEntity
  8
241
  6
Continuous
100
AcDbVertex
100
AcDb3dPolylineVertex
 10
229.7417
 20
21.64659999999999
 30
0.0
 70
    32
  0
VERTEX
  5
2C36
330
2BCE
100
AcDbEntity
  8
241
  6
Continuous
100
AcDbVertex
100
AcDb3dPolylineVertex
 10
230.0213
 20
21.72659999999999
 30
0.0
 70
    32
  0
VERTEX
  5
2C37
330
2BCE
100
AcDbEntity
  8
241
  6
Continuous
100
AcDbVertex
100
AcDb3dPolylineVertex
 10
230.2961
 20
21.81839999999999
 30
0.0
 70
    32
  0
VERTEX
  5
2C38
330
2BCE
100
AcDbEntity
  8
241
  6
Continuous
100
AcDbVertex
100
AcDb3dPolylineVertex
 10
230.5653
 20
21.92169999999999
 30
0.0
 70
    32
  0
VERTEX
  5
2C39
330
2BCE
100
AcDbEntity
  8
241
  6
Continuous
100
AcDbVertex
100
AcDb3dPolylineVertex
 10
230.8284
 20
22.03639999999999
 30
0.0
 70
    32
  0
VERTEX
  5
2C3A
330
2BCE
100
AcDbEntity
  8
241
  6
Continuous
100
AcDbVertex
100
AcDb3dPolylineVertex
 10
231.0846
 20
22.16209999999998
 30
0.0
 70
    32
  0
VERTEX
  5
2C3B
330
2BCE
100
AcDbEntity
  8
241
  6
Continuous
100
AcDbVertex
100
AcDb3dPolylineVertex
 10
231.3334
 20
22.29849999999998
 30
0.0
 70
    32
  0
VERTEX
  5
2C3C
330
2BCE
100
AcDbEntity
  8
241
  6
Continuous
100
AcDbVertex
100
AcDb3dPolylineVertex
 10
231.5742
 20
22.44539999999998
 30
0.0
 70
    32
  0
VERTEX
  5
2C3D
330
2BCE
100
AcDbEntity
  8
241
  6
Continuous
100
AcDbVertex
100
AcDb3dPolylineVertex
 10
231.8064
 20
22.60229999999999
 30
0.0
 70
    32
  0
VERTEX
  5
2C3E
330
2BCE
100
AcDbEntity
  8
241
  6
Continuous
100
AcDbVertex
100
AcDb3dPolylineVertex
 10
232.0294
 20
22.76889999999998
 30
0.0
 70
    32
  0
VERTEX
  5
2C3F
330
2BCE
100
AcDbEntity
  8
241
  6
Continuous
100
AcDbVertex
100
AcDb3dPolylineVertex
 10
232.2426
 20
22.94479999999999
 30
0.0
 70
    32
  0
VERTEX
  5
2C40
330
2BCE
100
AcDbEntity
  8
241
  6
Continuous
100
AcDbVertex
100
AcDb3dPolylineVertex
 10
232.4457
 20
23.12949999999998
 30
0.0
 70
    32
  0
VERTEX
  5
2C41
330
2BCE
100
AcDbEntity
  8
241
  6
Continuous
100
AcDbVertex
100
AcDb3dPolylineVertex
 10
232.6381
 20
23.32259999999999
 30
0.0
 70
    32
  0
VERTEX
  5
2C42
330
2BCE
100
AcDbEntity
  8
241
  6
Continuous
100
AcDbVertex
100
AcDb3dPolylineVertex
 10
232.8192
 20
23.52359999999999
 30
0.0
 70
    32
  0
VERTEX
  5
2C43
330
2BCE
100
AcDbEntity
  8
241
  6
Continuous
100
AcDbVertex
100
AcDb3dPolylineVertex
 10
232.9888
 20
23.73219999999998
 30
0.0
 70
    32
  0
VERTEX
  5
2C44
330
2BCE
100
AcDbEntity
  8
241
  6
Continuous
100
AcDbVertex
100
AcDb3dPolylineVertex
 10
233.1464
 20
23.94759999999999
 30
0.0
 70
    32
  0
VERTEX
  5
2C45
330
2BCE
100
AcDbEntity
  8
241
  6
Continuous
100
AcDbVertex
100
AcDb3dPolylineVertex
 10
233.2915
 20
24.16949999999999
 30
0.0
 70
    32
  0
VERTEX
  5
2C46
330
2BCE
100
AcDbEntity
  8
241
  6
Continuous
100
AcDbVertex
100
AcDb3dPolylineVertex
 10
233.4239
 20
24.39729999999999
 30
0.0
 70
    32
  0
VERTEX
  5
2C47
330
2BCE
100
AcDbEntity
  8
241
  6
Continuous
100
AcDbVertex
100
AcDb3dPolylineVertex
 10
233.5433
 20
24.63049999999999
 30
0.0
 70
    32
  0
VERTEX
  5
2C48
330
2BCE
100
AcDbEntity
  8
241
  6
Continuous
100
AcDbVertex
100
AcDb3dPolylineVertex
 10
233.6493
 20
24.86849999999999
 30
0.0
 70
    32
  0
VERTEX
  5
2C49
330
2BCE
100
AcDbEntity
  8
241
  6
Continuous
100
AcDbVertex
100
AcDb3dPolylineVertex
 10
233.7416
 20
25.11059999999999
 30
0.0
 70
    32
  0
VERTEX
  5
2C4A
330
2BCE
100
AcDbEntity
  8
241
  6
Continuous
100
AcDbVertex
100
AcDb3dPolylineVertex
 10
233.8202
 20
25.35639999999999
 30
0.0
 70
    32
  0
VERTEX
  5
2C4B
330
2BCE
100
AcDbEntity
  8
241
  6
Continuous
100
AcDbVertex
100
AcDb3dPolylineVertex
 10
233.8847
 20
25.60529999999999
 30
0.0
 70
    32
  0
VERTEX
  5
2C4C
330
2BCE
100
AcDbEntity
  8
241
  6
Continuous
100
AcDbVertex
100
AcDb3dPolylineVertex
 10
233.9351
 20
25.85659999999999
 30
0.0
 70
    32
  0
VERTEX
  5
2C4D
330
2BCE
100
AcDbEntity
  8
241
  6
Continuous
100
AcDbVertex
100
AcDb3dPolylineVertex
 10
233.9711
 20
26.10969999999999
 30
0.0
 70
    32
  0
VERTEX
  5
2C4E
330
2BCE
100
AcDbEntity
  8
241
  6
Continuous
100
AcDbVertex
100
AcDb3dPolylineVertex
 10
233.9928
 20
26.36399999999999
 30
0.0
 70
    32
  0
VERTEX
  5
2C4F
330
2BCE
100
AcDbEntity
  8
241
  6
Continuous
100
AcDbVertex
100
AcDb3dPolylineVertex
 10
234.0
 20
26.61899999999999
 30
0.0
 70
    32
  0
SEQEND
  5
2C50
330
2BCE
100
AcDbEntity
  8
241
  6
Continuous
  0
POLYLINE
  5
2C52
330
1A
100
AcDbEntity
  8
241
  6
Continuous
100
AcDb3dPolyline
 66
     1
 10
0.0
 20
0.0
 30
0.0
 70
     8
  0
VERTEX
  5
2C53
330
2C52
100
AcDbEntity
  8
241
  6
Continuous
100
AcDbVertex
100
AcDb3dPolylineVertex
 10
220.5215
 20
26.76379999999999
 30
0.0
 70
    32
  0
VERTEX
  5
2C54
330
2C52
100
AcDbEntity
  8
241
  6
Continuous
100
AcDbVertex
100
AcDb3dPolylineVertex
 10
220.5184
 20
26.77329999999999
 30
0.0
 70
    32
  0
VERTEX
  5
2C55
330
2C52
100
AcDbEntity
  8
241
  6
Continuous
100
AcDbVertex
100
AcDb3dPolylineVertex
 10
220.5152
 20
26.78279999999999
 30
0.0
 70
    32
  0
VERTEX
  5
2C56
330
2C52
100
AcDbEntity
  8
241
  6
Continuous
100
AcDbVertex
100
AcDb3dPolylineVertex
 10
220.512
 20
26.79239999999999
 30
0.0
 70
    32
  0
VERTEX
  5
2C57
330
2C52
100
AcDbEntity
  8
241
  6
Continuous
100
AcDbVertex
100
AcDb3dPolylineVertex
 10
220.5089
 20
26.80189999999999
 30
0.0
 70
    32
  0
VERTEX
  5
2C58
330
2C52
100
AcDbEntity
  8
241
  6
Continuous
100
AcDbVertex
100
AcDb3dPolylineVertex
 10
220.5058
 20
26.81139999999999
 30
0.0
 70
    32
  0
VERTEX
  5
2C59
330
2C52
100
AcDbEntity
  8
241
  6
Continuous
100
AcDbVertex
100
AcDb3dPolylineVertex
 10
220.5027
 20
26.82089999999999
 30
0.0
 70
    32
  0
VERTEX
  5
2C5A
330
2C52
100
AcDbEntity
  8
241
  6
Continuous
100
AcDbVertex
100
AcDb3dPolylineVertex
 10
220.4996
 20
26.83049999999999
 30
0.0
 70
    32
  0
VERTEX
  5
2C5B
330
2C52
100
AcDbEntity
  8
241
  6
Continuous
100
AcDbVertex
100
AcDb3dPolylineVertex
 10
220.4965
 20
26.83999999999999
 30
0.0
 70
    32
  0
VERTEX
  5
2C5C
330
2C52
100
AcDbEntity
  8
241
  6
Continuous
100
AcDbVertex
100
AcDb3dPolylineVertex
 10
220.4935
 20
26.84949999999999
 30
0.0
 70
    32
  0
VERTEX
  5
2C5D
330
2C52
100
AcDbEntity
  8
241
  6
Continuous
100
AcDbVertex
100
AcDb3dPolylineVertex
 10
220.4904
 20
26.85899999999999
 30
0.0
 70
    32
  0
VERTEX
  5
2C5E
330
2C52
100
AcDbEntity
  8
241
  6
Continuous
100
AcDbVertex
100
AcDb3dPolylineVertex
 10
220.4874
 20
26.86859999999999
 30
0.0
 70
    32
  0
VERTEX
  5
2C5F
330
2C52
100
AcDbEntity
  8
241
  6
Continuous
100
AcDbVertex
100
AcDb3dPolylineVertex
 10
220.4844
 20
26.87809999999999
 30
0.0
 70
    32
  0
VERTEX
  5
2C60
330
2C52
100
AcDbEntity
  8
241
  6
Continuous
100
AcDbVertex
100
AcDb3dPolylineVertex
 10
220.4814
 20
26.88759999999998
 30
0.0
 70
    32
  0
VERTEX
  5
2C61
330
2C52
100
AcDbEntity
  8
241
  6
Continuous
100
AcDbVertex
100
AcDb3dPolylineVertex
 10
220.4784
 20
26.89719999999999
 30
0.0
 70
    32
  0
VERTEX
  5
2C62
330
2C52
100
AcDbEntity
  8
241
  6
Continuous
100
AcDbVertex
100
AcDb3dPolylineVertex
 10
220.4754
 20
26.90669999999999
 30
0.0
 70
    32
  0
VERTEX
  5
2C63
330
2C52
100
AcDbEntity
  8
241
  6
Continuous
100
AcDbVertex
100
AcDb3dPolylineVertex
 10
220.4725
 20
26.91619999999999
 30
0.0
 70
    32
  0
VERTEX
  5
2C64
330
2C52
100
AcDbEntity
  8
241
  6
Continuous
100
AcDbVertex
100
AcDb3dPolylineVertex
 10
220.4695
 20
26.92569999999999
 30
0.0
 70
    32
  0
VERTEX
  5
2C65
330
2C52
100
AcDbEntity
  8
241
  6
Continuous
100
AcDbVertex
100
AcDb3dPolylineVertex
 10
220.4666
 20
26.93529999999999
 30
0.0
 70
    32
  0
VERTEX
  5
2C66
330
2C52
100
AcDbEntity
  8
241
  6
Continuous
100
AcDbVertex
100
AcDb3dPolylineVertex
 10
220.4637
 20
26.94479999999999
 30
0.0
 70
    32
  0
VERTEX
  5
2C67
330
2C52
100
AcDbEntity
  8
241
  6
Continuous
100
AcDbVertex
100
AcDb3dPolylineVertex
 10
220.4608
 20
26.95429999999999
 30
0.0
 70
    32
  0
VERTEX
  5
2C68
330
2C52
100
AcDbEntity
  8
241
  6
Continuous
100
AcDbVertex
100
AcDb3dPolylineVertex
 10
220.4579
 20
26.96389999999999
 30
0.0
 70
    32
  0
VERTEX
  5
2C69
330
2C52
100
AcDbEntity
  8
241
  6
Continuous
100
AcDbVertex
100
AcDb3dPolylineVertex
 10
220.455
 20
26.97339999999999
 30
0.0
 70
    32
  0
VERTEX
  5
2C6A
330
2C52
100
AcDbEntity
  8
241
  6
Continuous
100
AcDbVertex
100
AcDb3dPolylineVertex
 10
220.4522
 20
26.98289999999999
 30
0.0
 70
    32
  0
VERTEX
  5
2C6B
330
2C52
100
AcDbEntity
  8
241
  6
Continuous
100
AcDbVertex
100
AcDb3dPolylineVertex
 10
220.4493
 20
26.99239999999999
 30
0.0
 70
    32
  0
VERTEX
  5
2C6C
330
2C52
100
AcDbEntity
  8
241
  6
Continuous
100
AcDbVertex
100
AcDb3dPolylineVertex
 10
220.4465
 20
27.00199999999999
 30
0.0
 70
    32
  0
VERTEX
  5
2C6D
330
2C52
100
AcDbEntity
  8
241
  6
Continuous
100
AcDbVertex
100
AcDb3dPolylineVertex
 10
220.4437
 20
27.01149999999999
 30
0.0
 70
    32
  0
VERTEX
  5
2C6E
330
2C52
100
AcDbEntity
  8
241
  6
Continuous
100
AcDbVertex
100
AcDb3dPolylineVertex
 10
220.4409
 20
27.02099999999999
 30
0.0
 70
    32
  0
VERTEX
  5
2C6F
330
2C52
100
AcDbEntity
  8
241
  6
Continuous
100
AcDbVertex
100
AcDb3dPolylineVertex
 10
220.4381
 20
27.03049999999999
 30
0.0
 70
    32
  0
VERTEX
  5
2C70
330
2C52
100
AcDbEntity
  8
241
  6
Continuous
100
AcDbVertex
100
AcDb3dPolylineVertex
 10
220.4353
 20
27.04009999999998
 30
0.0
 70
    32
  0
VERTEX
  5
2C71
330
2C52
100
AcDbEntity
  8
241
  6
Continuous
100
AcDbVertex
100
AcDb3dPolylineVertex
 10
220.4326
 20
27.04959999999999
 30
0.0
 70
    32
  0
VERTEX
  5
2C72
330
2C52
100
AcDbEntity
  8
241
  6
Continuous
100
AcDbVertex
100
AcDb3dPolylineVertex
 10
220.4298
 20
27.05909999999999
 30
0.0
 70
    32
  0
VERTEX
  5
2C73
330
2C52
100
AcDbEntity
  8
241
  6
Continuous
100
AcDbVertex
100
AcDb3dPolylineVertex
 10
220.4271
 20
27.06859999999999
 30
0.0
 70
    32
  0
VERTEX
  5
2C74
330
2C52
100
AcDbEntity
  8
241
  6
Continuous
100
AcDbVertex
100
AcDb3dPolylineVertex
 10
220.4244
 20
27.07809999999998
 30
0.0
 70
    32
  0
VERTEX
  5
2C75
330
2C52
100
AcDbEntity
  8
241
  6
Continuous
100
AcDbVertex
100
AcDb3dPolylineVertex
 10
220.4217
 20
27.08759999999998
 30
0.0
 70
    32
  0
VERTEX
  5
2C76
330
2C52
100
AcDbEntity
  8
241
  6
Continuous
100
AcDbVertex
100
AcDb3dPolylineVertex
 10
220.419
 20
27.09709999999999
 30
0.0
 70
    32
  0
VERTEX
  5
2C77
330
2C52
100
AcDbEntity
  8
241
  6
Continuous
100
AcDbVertex
100
AcDb3dPolylineVertex
 10
220.4163
 20
27.10659999999999
 30
0.0
 70
    32
  0
VERTEX
  5
2C78
330
2C52
100
AcDbEntity
  8
241
  6
Continuous
100
AcDbVertex
100
AcDb3dPolylineVertex
 10
220.4137
 20
27.11609999999998
 30
0.0
 70
    32
  0
VERTEX
  5
2C79
330
2C52
100
AcDbEntity
  8
241
  6
Continuous
100
AcDbVertex
100
AcDb3dPolylineVertex
 10
220.411
 20
27.12559999999998
 30
0.0
 70
    32
  0
VERTEX
  5
2C7A
330
2C52
100
AcDbEntity
  8
241
  6
Continuous
100
AcDbVertex
100
AcDb3dPolylineVertex
 10
220.4084
 20
27.13509999999999
 30
0.0
 70
    32
  0
VERTEX
  5
2C7B
330
2C52
100
AcDbEntity
  8
241
  6
Continuous
100
AcDbVertex
100
AcDb3dPolylineVertex
 10
220.4058
 20
27.14459999999999
 30
0.0
 70
    32
  0
VERTEX
  5
2C7C
330
2C52
100
AcDbEntity
  8
241
  6
Continuous
100
AcDbVertex
100
AcDb3dPolylineVertex
 10
220.4032
 20
27.15409999999998
 30
0.0
 70
    32
  0
VERTEX
  5
2C7D
330
2C52
100
AcDbEntity
  8
241
  6
Continuous
100
AcDbVertex
100
AcDb3dPolylineVertex
 10
220.4006
 20
27.16359999999998
 30
0.0
 70
    32
  0
VERTEX
  5
2C7E
330
2C52
100
AcDbEntity
  8
241
  6
Continuous
100
AcDbVertex
100
AcDb3dPolylineVertex
 10
220.398
 20
27.17309999999999
 30
0.0
 70
    32
  0
VERTEX
  5
2C7F
330
2C52
100
AcDbEntity
  8
241
  6
Continuous
100
AcDbVertex
100
AcDb3dPolylineVertex
 10
220.3955
 20
27.18259999999999
 30
0.0
 70
    32
  0
VERTEX
  5
2C80
330
2C52
100
AcDbEntity
  8
241
  6
Continuous
100
AcDbVertex
100
AcDb3dPolylineVertex
 10
220.3929
 20
27.19199999999998
 30
0.0
 70
    32
  0
VERTEX
  5
2C81
330
2C52
100
AcDbEntity
  8
241
  6
Continuous
100
AcDbVertex
100
AcDb3dPolylineVertex
 10
220.3904
 20
27.20149999999998
 30
0.0
 70
    32
  0
VERTEX
  5
2C82
330
2C52
100
AcDbEntity
  8
241
  6
Continuous
100
AcDbVertex
100
AcDb3dPolylineVertex
 10
220.3879
 20
27.21099999999998
 30
0.0
 70
    32
  0
VERTEX
  5
2C83
330
2C52
100
AcDbEntity
  8
241
  6
Continuous
100
AcDbVertex
100
AcDb3dPolylineVertex
 10
220.3854
 20
27.22039999999999
 30
0.0
 70
    32
  0
VERTEX
  5
2C84
330
2C52
100
AcDbEntity
  8
241
  6
Continuous
100
AcDbVertex
100
AcDb3dPolylineVertex
 10
220.3829
 20
27.22989999999999
 30
0.0
 70
    32
  0
VERTEX
  5
2C85
330
2C52
100
AcDbEntity
  8
241
  6
Continuous
100
AcDbVertex
100
AcDb3dPolylineVertex
 10
220.3804
 20
27.23939999999999
 30
0.0
 70
    32
  0
VERTEX
  5
2C86
330
2C52
100
AcDbEntity
  8
241
  6
Continuous
100
AcDbVertex
100
AcDb3dPolylineVertex
 10
220.378
 20
27.24879999999999
 30
0.0
 70
    32
  0
VERTEX
  5
2C87
330
2C52
100
AcDbEntity
  8
241
  6
Continuous
100
AcDbVertex
100
AcDb3dPolylineVertex
 10
220.3755
 20
27.25819999999999
 30
0.0
 70
    32
  0
VERTEX
  5
2C88
330
2C52
100
AcDbEntity
  8
241
  6
Continuous
100
AcDbVertex
100
AcDb3dPolylineVertex
 10
220.3731
 20
27.26769999999999
 30
0.0
 70
    32
  0
VERTEX
  5
2C89
330
2C52
100
AcDbEntity
  8
241
  6
Continuous
100
AcDbVertex
100
AcDb3dPolylineVertex
 10
220.3707
 20
27.27709999999999
 30
0.0
 70
    32
  0
VERTEX
  5
2C8A
330
2C52
100
AcDbEntity
  8
241
  6
Continuous
100
AcDbVertex
100
AcDb3dPolylineVertex
 10
220.3683
 20
27.28659999999999
 30
0.0
 70
    32
  0
VERTEX
  5
2C8B
330
2C52
100
AcDbEntity
  8
241
  6
Continuous
100
AcDbVertex
100
AcDb3dPolylineVertex
 10
220.3659
 20
27.29599999999999
 30
0.0
 70
    32
  0
VERTEX
  5
2C8C
330
2C52
100
AcDbEntity
  8
241
  6
Continuous
100
AcDbVertex
100
AcDb3dPolylineVertex
 10
220.3635
 20
27.30539999999999
 30
0.0
 70
    32
  0
VERTEX
  5
2C8D
330
2C52
100
AcDbEntity
  8
241
  6
Continuous
100
AcDbVertex
100
AcDb3dPolylineVertex
 10
220.3612
 20
27.31479999999999
 30
0.0
 70
    32
  0
VERTEX
  5
2C8E
330
2C52
100
AcDbEntity
  8
241
  6
Continuous
100
AcDbVertex
100
AcDb3dPolylineVertex
 10
220.3588
 20
27.32419999999999
 30
0.0
 70
    32
  0
VERTEX
  5
2C8F
330
2C52
100
AcDbEntity
  8
241
  6
Continuous
100
AcDbVertex
100
AcDb3dPolylineVertex
 10
220.3565
 20
27.33359999999999
 30
0.0
 70
    32
  0
VERTEX
  5
2C90
330
2C52
100
AcDbEntity
  8
241
  6
Continuous
100
AcDbVertex
100
AcDb3dPolylineVertex
 10
220.3542
 20
27.34299999999999
 30
0.0
 70
    32
  0
VERTEX
  5
2C91
330
2C52
100
AcDbEntity
  8
241
  6
Continuous
100
AcDbVertex
100
AcDb3dPolylineVertex
 10
220.3519
 20
27.35239999999999
 30
0.0
 70
    32
  0
VERTEX
  5
2C92
330
2C52
100
AcDbEntity
  8
241
  6
Continuous
100
AcDbVertex
100
AcDb3dPolylineVertex
 10
220.3496
 20
27.36179999999999
 30
0.0
 70
    32
  0
VERTEX
  5
2C93
330
2C52
100
AcDbEntity
  8
241
  6
Continuous
100
AcDbVertex
100
AcDb3dPolylineVertex
 10
220.3473
 20
27.37119999999999
 30
0.0
 70
    32
  0
VERTEX
  5
2C94
330
2C52
100
AcDbEntity
  8
241
  6
Continuous
100
AcDbVertex
100
AcDb3dPolylineVertex
 10
220.3451
 20
27.38049999999999
 30
0.0
 70
    32
  0
VERTEX
  5
2C95
330
2C52
100
AcDbEntity
  8
241
  6
Continuous
100
AcDbVertex
100
AcDb3dPolylineVertex
 10
220.3429
 20
27.38989999999999
 30
0.0
 70
    32
  0
VERTEX
  5
2C96
330
2C52
100
AcDbEntity
  8
241
  6
Continuous
100
AcDbVertex
100
AcDb3dPolylineVertex
 10
220.3406
 20
27.39929999999999
 30
0.0
 70
    32
  0
VERTEX
  5
2C97
330
2C52
100
AcDbEntity
  8
241
  6
Continuous
100
AcDbVertex
100
AcDb3dPolylineVertex
 10
220.3384
 20
27.40859999999999
 30
0.0
 70
    32
  0
VERTEX
  5
2C98
330
2C52
100
AcDbEntity
  8
241
  6
Continuous
100
AcDbVertex
100
AcDb3dPolylineVertex
 10
220.3362
 20
27.418
 30
0.0
 70
    32
  0
VERTEX
  5
2C99
330
2C52
100
AcDbEntity
  8
241
  6
Continuous
100
AcDbVertex
100
AcDb3dPolylineVertex
 10
220.334
 20
27.42729999999999
 30
0.0
 70
    32
  0
VERTEX
  5
2C9A
330
2C52
100
AcDbEntity
  8
241
  6
Continuous
100
AcDbVertex
100
AcDb3dPolylineVertex
 10
220.3319
 20
27.43659999999998
 30
0.0
 70
    32
  0
VERTEX
  5
2C9B
330
2C52
100
AcDbEntity
  8
241
  6
Continuous
100
AcDbVertex
100
AcDb3dPolylineVertex
 10
220.3297
 20
27.44599999999998
 30
0.0
 70
    32
  0
VERTEX
  5
2C9C
330
2C52
100
AcDbEntity
  8
241
  6
Continuous
100
AcDbVertex
100
AcDb3dPolylineVertex
 10
220.3276
 20
27.45529999999999
 30
0.0
 70
    32
  0
VERTEX
  5
2C9D
330
2C52
100
AcDbEntity
  8
241
  6
Continuous
100
AcDbVertex
100
AcDb3dPolylineVertex
 10
220.3254
 20
27.46459999999999
 30
0.0
 70
    32
  0
VERTEX
  5
2C9E
330
2C52
100
AcDbEntity
  8
241
  6
Continuous
100
AcDbVertex
100
AcDb3dPolylineVertex
 10
220.3233
 20
27.47389999999999
 30
0.0
 70
    32
  0
VERTEX
  5
2C9F
330
2C52
100
AcDbEntity
  8
241
  6
Continuous
100
AcDbVertex
100
AcDb3dPolylineVertex
 10
220.3212
 20
27.48319999999999
 30
0.0
 70
    32
  0
VERTEX
  5
2CA0
330
2C52
100
AcDbEntity
  8
241
  6
Continuous
100
AcDbVertex
100
AcDb3dPolylineVertex
 10
220.3191
 20
27.49249999999999
 30
0.0
 70
    32
  0
VERTEX
  5
2CA1
330
2C52
100
AcDbEntity
  8
241
  6
Continuous
100
AcDbVertex
100
AcDb3dPolylineVertex
 10
220.3171
 20
27.50169999999999
 30
0.0
 70
    32
  0
VERTEX
  5
2CA2
330
2C52
100
AcDbEntity
  8
241
  6
Continuous
100
AcDbVertex
100
AcDb3dPolylineVertex
 10
220.315
 20
27.51099999999999
 30
0.0
 70
    32
  0
VERTEX
  5
2CA3
330
2C52
100
AcDbEntity
  8
241
  6
Continuous
100
AcDbVertex
100
AcDb3dPolylineVertex
 10
220.313
 20
27.52029999999999
 30
0.0
 70
    32
  0
VERTEX
  5
2CA4
330
2C52
100
AcDbEntity
  8
241
  6
Continuous
100
AcDbVertex
100
AcDb3dPolylineVertex
 10
220.311
 20
27.52949999999998
 30
0.0
 70
    32
  0
VERTEX
  5
2CA5
330
2C52
100
AcDbEntity
  8
241
  6
Continuous
100
AcDbVertex
100
AcDb3dPolylineVertex
 10
220.3089
 20
27.53869999999999
 30
0.0
 70
    32
  0
VERTEX
  5
2CA6
330
2C52
100
AcDbEntity
  8
241
  6
Continuous
100
AcDbVertex
100
AcDb3dPolylineVertex
 10
220.3069
 20
27.54799999999999
 30
0.0
 70
    32
  0
VERTEX
  5
2CA7
330
2C52
100
AcDbEntity
  8
241
  6
Continuous
100
AcDbVertex
100
AcDb3dPolylineVertex
 10
220.305
 20
27.55719999999999
 30
0.0
 70
    32
  0
VERTEX
  5
2CA8
330
2C52
100
AcDbEntity
  8
241
  6
Continuous
100
AcDbVertex
100
AcDb3dPolylineVertex
 10
220.303
 20
27.56639999999999
 30
0.0
 70
    32
  0
VERTEX
  5
2CA9
330
2C52
100
AcDbEntity
  8
241
  6
Continuous
100
AcDbVertex
100
AcDb3dPolylineVertex
 10
220.301
 20
27.57559999999999
 30
0.0
 70
    32
  0
VERTEX
  5
2CAA
330
2C52
100
AcDbEntity
  8
241
  6
Continuous
100
AcDbVertex
100
AcDb3dPolylineVertex
 10
220.2991
 20
27.58479999999999
 30
0.0
 70
    32
  0
VERTEX
  5
2CAB
330
2C52
100
AcDbEntity
  8
241
  6
Continuous
100
AcDbVertex
100
AcDb3dPolylineVertex
 10
220.2972
 20
27.59399999999999
 30
0.0
 70
    32
  0
VERTEX
  5
2CAC
330
2C52
100
AcDbEntity
  8
241
  6
Continuous
100
AcDbVertex
100
AcDb3dPolylineVertex
 10
220.2953
 20
27.60319999999999
 30
0.0
 70
    32
  0
VERTEX
  5
2CAD
330
2C52
100
AcDbEntity
  8
241
  6
Continuous
100
AcDbVertex
100
AcDb3dPolylineVertex
 10
220.2934
 20
27.61229999999999
 30
0.0
 70
    32
  0
VERTEX
  5
2CAE
330
2C52
100
AcDbEntity
  8
241
  6
Continuous
100
AcDbVertex
100
AcDb3dPolylineVertex
 10
220.2915
 20
27.62149999999999
 30
0.0
 70
    32
  0
VERTEX
  5
2CAF
330
2C52
100
AcDbEntity
  8
241
  6
Continuous
100
AcDbVertex
100
AcDb3dPolylineVertex
 10
220.2896
 20
27.63069999999999
 30
0.0
 70
    32
  0
VERTEX
  5
2CB0
330
2C52
100
AcDbEntity
  8
241
  6
Continuous
100
AcDbVertex
100
AcDb3dPolylineVertex
 10
220.2878
 20
27.63979999999999
 30
0.0
 70
    32
  0
VERTEX
  5
2CB1
330
2C52
100
AcDbEntity
  8
241
  6
Continuous
100
AcDbVertex
100
AcDb3dPolylineVertex
 10
220.2859
 20
27.64889999999999
 30
0.0
 70
    32
  0
VERTEX
  5
2CB2
330
2C52
100
AcDbEntity
  8
241
  6
Continuous
100
AcDbVertex
100
AcDb3dPolylineVertex
 10
220.2841
 20
27.65799999999999
 30
0.0
 70
    32
  0
VERTEX
  5
2CB3
330
2C52
100
AcDbEntity
  8
241
  6
Continuous
100
AcDbVertex
100
AcDb3dPolylineVertex
 10
220.2823
 20
27.66709999999999
 30
0.0
 70
    32
  0
VERTEX
  5
2CB4
330
2C52
100
AcDbEntity
  8
241
  6
Continuous
100
AcDbVertex
100
AcDb3dPolylineVertex
 10
220.2805
 20
27.67619999999999
 30
0.0
 70
    32
  0
VERTEX
  5
2CB5
330
2C52
100
AcDbEntity
  8
241
  6
Continuous
100
AcDbVertex
100
AcDb3dPolylineVertex
 10
220.2787
 20
27.68529999999999
 30
0.0
 70
    32
  0
VERTEX
  5
2CB6
330
2C52
100
AcDbEntity
  8
241
  6
Continuous
100
AcDbVertex
100
AcDb3dPolylineVertex
 10
220.2769
 20
27.69439999999999
 30
0.0
 70
    32
  0
VERTEX
  5
2CB7
330
2C52
100
AcDbEntity
  8
241
  6
Continuous
100
AcDbVertex
100
AcDb3dPolylineVertex
 10
220.2752
 20
27.70349999999999
 30
0.0
 70
    32
  0
VERTEX
  5
2CB8
330
2C52
100
AcDbEntity
  8
241
  6
Continuous
100
AcDbVertex
100
AcDb3dPolylineVertex
 10
220.2734
 20
27.71249999999998
 30
0.0
 70
    32
  0
VERTEX
  5
2CB9
330
2C52
100
AcDbEntity
  8
241
  6
Continuous
100
AcDbVertex
100
AcDb3dPolylineVertex
 10
220.2717
 20
27.72159999999999
 30
0.0
 70
    32
  0
VERTEX
  5
2CBA
330
2C52
100
AcDbEntity
  8
241
  6
Continuous
100
AcDbVertex
100
AcDb3dPolylineVertex
 10
220.27
 20
27.73069999999999
 30
0.0
 70
    32
  0
VERTEX
  5
2CBB
330
2C52
100
AcDbEntity
  8
241
  6
Continuous
100
AcDbVertex
100
AcDb3dPolylineVertex
 10
220.2682
 20
27.73979999999999
 30
0.0
 70
    32
  0
VERTEX
  5
2CBC
330
2C52
100
AcDbEntity
  8
241
  6
Continuous
100
AcDbVertex
100
AcDb3dPolylineVertex
 10
220.2665
 20
27.74899999999999
 30
0.0
 70
    32
  0
VERTEX
  5
2CBD
330
2C52
100
AcDbEntity
  8
241
  6
Continuous
100
AcDbVertex
100
AcDb3dPolylineVertex
 10
220.2648
 20
27.75809999999999
 30
0.0
 70
    32
  0
VERTEX
  5
2CBE
330
2C52
100
AcDbEntity
  8
241
  6
Continuous
100
AcDbVertex
100
AcDb3dPolylineVertex
 10
220.2631
 20
27.76729999999999
 30
0.0
 70
    32
  0
VERTEX
  5
2CBF
330
2C52
100
AcDbEntity
  8
241
  6
Continuous
100
AcDbVertex
100
AcDb3dPolylineVertex
 10
220.2615
 20
27.77649999999999
 30
0.0
 70
    32
  0
VERTEX
  5
2CC0
330
2C52
100
AcDbEntity
  8
241
  6
Continuous
100
AcDbVertex
100
AcDb3dPolylineVertex
 10
220.2598
 20
27.78569999999998
 30
0.0
 70
    32
  0
VERTEX
  5
2CC1
330
2C52
100
AcDbEntity
  8
241
  6
Continuous
100
AcDbVertex
100
AcDb3dPolylineVertex
 10
220.2581
 20
27.79499999999999
 30
0.0
 70
    32
  0
VERTEX
  5
2CC2
330
2C52
100
AcDbEntity
  8
241
  6
Continuous
100
AcDbVertex
100
AcDb3dPolylineVertex
 10
220.2565
 20
27.80419999999999
 30
0.0
 70
    32
  0
VERTEX
  5
2CC3
330
2C52
100
AcDbEntity
  8
241
  6
Continuous
100
AcDbVertex
100
AcDb3dPolylineVertex
 10
220.2548
 20
27.81349999999999
 30
0.0
 70
    32
  0
VERTEX
  5
2CC4
330
2C52
100
AcDbEntity
  8
241
  6
Continuous
100
AcDbVertex
100
AcDb3dPolylineVertex
 10
220.2532
 20
27.82279999999999
 30
0.0
 70
    32
  0
VERTEX
  5
2CC5
330
2C52
100
AcDbEntity
  8
241
  6
Continuous
100
AcDbVertex
100
AcDb3dPolylineVertex
 10
220.2516
 20
27.83209999999999
 30
0.0
 70
    32
  0
VERTEX
  5
2CC6
330
2C52
100
AcDbEntity
  8
241
  6
Continuous
100
AcDbVertex
100
AcDb3dPolylineVertex
 10
220.2499
 20
27.84139999999999
 30
0.0
 70
    32
  0
VERTEX
  5
2CC7
330
2C52
100
AcDbEntity
  8
241
  6
Continuous
100
AcDbVertex
100
AcDb3dPolylineVertex
 10
220.2483
 20
27.85079999999999
 30
0.0
 70
    32
  0
VERTEX
  5
2CC8
330
2C52
100
AcDbEntity
  8
241
  6
Continuous
100
AcDbVertex
100
AcDb3dPolylineVertex
 10
220.2467
 20
27.86019999999999
 30
0.0
 70
    32
  0
VERTEX
  5
2CC9
330
2C52
100
AcDbEntity
  8
241
  6
Continuous
100
AcDbVertex
100
AcDb3dPolylineVertex
 10
220.2451
 20
27.86949999999999
 30
0.0
 70
    32
  0
VERTEX
  5
2CCA
330
2C52
100
AcDbEntity
  8
241
  6
Continuous
100
AcDbVertex
100
AcDb3dPolylineVertex
 10
220.2436
 20
27.87889999999999
 30
0.0
 70
    32
  0
VERTEX
  5
2CCB
330
2C52
100
AcDbEntity
  8
241
  6
Continuous
100
AcDbVertex
100
AcDb3dPolylineVertex
 10
220.242
 20
27.88839999999999
 30
0.0
 70
    32
  0
VERTEX
  5
2CCC
330
2C52
100
AcDbEntity
  8
241
  6
Continuous
100
AcDbVertex
100
AcDb3dPolylineVertex
 10
220.2404
 20
27.89779999999999
 30
0.0
 70
    32
  0
VERTEX
  5
2CCD
330
2C52
100
AcDbEntity
  8
241
  6
Continuous
100
AcDbVertex
100
AcDb3dPolylineVertex
 10
220.2389
 20
27.90719999999998
 30
0.0
 70
    32
  0
VERTEX
  5
2CCE
330
2C52
100
AcDbEntity
  8
241
  6
Continuous
100
AcDbVertex
100
AcDb3dPolylineVertex
 10
220.2373
 20
27.91669999999998
 30
0.0
 70
    32
  0
VERTEX
  5
2CCF
330
2C52
100
AcDbEntity
  8
241
  6
Continuous
100
AcDbVertex
100
AcDb3dPolylineVertex
 10
220.2358
 20
27.92619999999999
 30
0.0
 70
    32
  0
VERTEX
  5
2CD0
330
2C52
100
AcDbEntity
  8
241
  6
Continuous
100
AcDbVertex
100
AcDb3dPolylineVertex
 10
220.2343
 20
27.93569999999999
 30
0.0
 70
    32
  0
VERTEX
  5
2CD1
330
2C52
100
AcDbEntity
  8
241
  6
Continuous
100
AcDbVertex
100
AcDb3dPolylineVertex
 10
220.2327
 20
27.94519999999999
 30
0.0
 70
    32
  0
VERTEX
  5
2CD2
330
2C52
100
AcDbEntity
  8
241
  6
Continuous
100
AcDbVertex
100
AcDb3dPolylineVertex
 10
220.2312
 20
27.95469999999999
 30
0.0
 70
    32
  0
VERTEX
  5
2CD3
330
2C52
100
AcDbEntity
  8
241
  6
Continuous
100
AcDbVertex
100
AcDb3dPolylineVertex
 10
220.2298
 20
27.96429999999999
 30
0.0
 70
    32
  0
VERTEX
  5
2CD4
330
2C52
100
AcDbEntity
  8
241
  6
Continuous
100
AcDbVertex
100
AcDb3dPolylineVertex
 10
220.2283
 20
27.97389999999999
 30
0.0
 70
    32
  0
VERTEX
  5
2CD5
330
2C52
100
AcDbEntity
  8
241
  6
Continuous
100
AcDbVertex
100
AcDb3dPolylineVertex
 10
220.2268
 20
27.98339999999999
 30
0.0
 70
    32
  0
VERTEX
  5
2CD6
330
2C52
100
AcDbEntity
  8
241
  6
Continuous
100
AcDbVertex
100
AcDb3dPolylineVertex
 10
220.2253
 20
27.99299999999999
 30
0.0
 70
    32
  0
VERTEX
  5
2CD7
330
2C52
100
AcDbEntity
  8
241
  6
Continuous
100
AcDbVertex
100
AcDb3dPolylineVertex
 10
220.2239
 20
28.00259999999999
 30
0.0
 70
    32
  0
VERTEX
  5
2CD8
330
2C52
100
AcDbEntity
  8
241
  6
Continuous
100
AcDbVertex
100
AcDb3dPolylineVertex
 10
220.2224
 20
28.01219999999999
 30
0.0
 70
    32
  0
VERTEX
  5
2CD9
330
2C52
100
AcDbEntity
  8
241
  6
Continuous
100
AcDbVertex
100
AcDb3dPolylineVertex
 10
220.221
 20
28.02189999999999
 30
0.0
 70
    32
  0
VERTEX
  5
2CDA
330
2C52
100
AcDbEntity
  8
241
  6
Continuous
100
AcDbVertex
100
AcDb3dPolylineVertex
 10
220.2196
 20
28.03149999999999
 30
0.0
 70
    32
  0
VERTEX
  5
2CDB
330
2C52
100
AcDbEntity
  8
241
  6
Continuous
100
AcDbVertex
100
AcDb3dPolylineVertex
 10
220.2182
 20
28.04119999999999
 30
0.0
 70
    32
  0
VERTEX
  5
2CDC
330
2C52
100
AcDbEntity
  8
241
  6
Continuous
100
AcDbVertex
100
AcDb3dPolylineVertex
 10
220.2168
 20
28.05089999999998
 30
0.0
 70
    32
  0
VERTEX
  5
2CDD
330
2C52
100
AcDbEntity
  8
241
  6
Continuous
100
AcDbVertex
100
AcDb3dPolylineVertex
 10
220.2154
 20
28.06049999999999
 30
0.0
 70
    32
  0
VERTEX
  5
2CDE
330
2C52
100
AcDbEntity
  8
241
  6
Continuous
100
AcDbVertex
100
AcDb3dPolylineVertex
 10
220.214
 20
28.07019999999999
 30
0.0
 70
    32
  0
VERTEX
  5
2CDF
330
2C52
100
AcDbEntity
  8
241
  6
Continuous
100
AcDbVertex
100
AcDb3dPolylineVertex
 10
220.2126
 20
28.07999999999998
 30
0.0
 70
    32
  0
VERTEX
  5
2CE0
330
2C52
100
AcDbEntity
  8
241
  6
Continuous
100
AcDbVertex
100
AcDb3dPolylineVertex
 10
220.2113
 20
28.08969999999998
 30
0.0
 70
    32
  0
VERTEX
  5
2CE1
330
2C52
100
AcDbEntity
  8
241
  6
Continuous
100
AcDbVertex
100
AcDb3dPolylineVertex
 10
220.2099
 20
28.09939999999999
 30
0.0
 70
    32
  0
VERTEX
  5
2CE2
330
2C52
100
AcDbEntity
  8
241
  6
Continuous
100
AcDbVertex
100
AcDb3dPolylineVertex
 10
220.2086
 20
28.10919999999999
 30
0.0
 70
    32
  0
VERTEX
  5
2CE3
330
2C52
100
AcDbEntity
  8
241
  6
Continuous
100
AcDbVertex
100
AcDb3dPolylineVertex
 10
220.2073
 20
28.11889999999999
 30
0.0
 70
    32
  0
VERTEX
  5
2CE4
330
2C52
100
AcDbEntity
  8
241
  6
Continuous
100
AcDbVertex
100
AcDb3dPolylineVertex
 10
220.2059
 20
28.12869999999998
 30
0.0
 70
    32
  0
VERTEX
  5
2CE5
330
2C52
100
AcDbEntity
  8
241
  6
Continuous
100
AcDbVertex
100
AcDb3dPolylineVertex
 10
220.2046
 20
28.13849999999998
 30
0.0
 70
    32
  0
VERTEX
  5
2CE6
330
2C52
100
AcDbEntity
  8
241
  6
Continuous
100
AcDbVertex
100
AcDb3dPolylineVertex
 10
220.2034
 20
28.14829999999999
 30
0.0
 70
    32
  0
VERTEX
  5
2CE7
330
2C52
100
AcDbEntity
  8
241
  6
Continuous
100
AcDbVertex
100
AcDb3dPolylineVertex
 10
220.2021
 20
28.15809999999999
 30
0.0
 70
    32
  0
VERTEX
  5
2CE8
330
2C52
100
AcDbEntity
  8
241
  6
Continuous
100
AcDbVertex
100
AcDb3dPolylineVertex
 10
220.2008
 20
28.16789999999999
 30
0.0
 70
    32
  0
VERTEX
  5
2CE9
330
2C52
100
AcDbEntity
  8
241
  6
Continuous
100
AcDbVertex
100
AcDb3dPolylineVertex
 10
220.1995
 20
28.17769999999999
 30
0.0
 70
    32
  0
VERTEX
  5
2CEA
330
2C52
100
AcDbEntity
  8
241
  6
Continuous
100
AcDbVertex
100
AcDb3dPolylineVertex
 10
220.1983
 20
28.18759999999999
 30
0.0
 70
    32
  0
VERTEX
  5
2CEB
330
2C52
100
AcDbEntity
  8
241
  6
Continuous
100
AcDbVertex
100
AcDb3dPolylineVertex
 10
220.1971
 20
28.19739999999999
 30
0.0
 70
    32
  0
VERTEX
  5
2CEC
330
2C52
100
AcDbEntity
  8
241
  6
Continuous
100
AcDbVertex
100
AcDb3dPolylineVertex
 10
220.1958
 20
28.20729999999999
 30
0.0
 70
    32
  0
VERTEX
  5
2CED
330
2C52
100
AcDbEntity
  8
241
  6
Continuous
100
AcDbVertex
100
AcDb3dPolylineVertex
 10
220.1946
 20
28.21709999999999
 30
0.0
 70
    32
  0
VERTEX
  5
2CEE
330
2C52
100
AcDbEntity
  8
241
  6
Continuous
100
AcDbVertex
100
AcDb3dPolylineVertex
 10
220.1934
 20
28.22699999999998
 30
0.0
 70
    32
  0
VERTEX
  5
2CEF
330
2C52
100
AcDbEntity
  8
241
  6
Continuous
100
AcDbVertex
100
AcDb3dPolylineVertex
 10
220.1922
 20
28.23689999999999
 30
0.0
 70
    32
  0
VERTEX
  5
2CF0
330
2C52
100
AcDbEntity
  8
241
  6
Continuous
100
AcDbVertex
100
AcDb3dPolylineVertex
 10
220.1911
 20
28.24679999999999
 30
0.0
 70
    32
  0
VERTEX
  5
2CF1
330
2C52
100
AcDbEntity
  8
241
  6
Continuous
100
AcDbVertex
100
AcDb3dPolylineVertex
 10
220.1899
 20
28.25669999999999
 30
0.0
 70
    32
  0
VERTEX
  5
2CF2
330
2C52
100
AcDbEntity
  8
241
  6
Continuous
100
AcDbVertex
100
AcDb3dPolylineVertex
 10
220.1888
 20
28.26659999999998
 30
0.0
 70
    32
  0
VERTEX
  5
2CF3
330
2C52
100
AcDbEntity
  8
241
  6
Continuous
100
AcDbVertex
100
AcDb3dPolylineVertex
 10
220.1876
 20
28.27649999999998
 30
0.0
 70
    32
  0
VERTEX
  5
2CF4
330
2C52
100
AcDbEntity
  8
241
  6
Continuous
100
AcDbVertex
100
AcDb3dPolylineVertex
 10
220.1865
 20
28.28639999999999
 30
0.0
 70
    32
  0
VERTEX
  5
2CF5
330
2C52
100
AcDbEntity
  8
241
  6
Continuous
100
AcDbVertex
100
AcDb3dPolylineVertex
 10
220.1854
 20
28.29639999999999
 30
0.0
 70
    32
  0
VERTEX
  5
2CF6
330
2C52
100
AcDbEntity
  8
241
  6
Continuous
100
AcDbVertex
100
AcDb3dPolylineVertex
 10
220.1843
 20
28.30629999999999
 30
0.0
 70
    32
  0
VERTEX
  5
2CF7
330
2C52
100
AcDbEntity
  8
241
  6
Continuous
100
AcDbVertex
100
AcDb3dPolylineVertex
 10
220.1832
 20
28.31619999999999
 30
0.0
 70
    32
  0
VERTEX
  5
2CF8
330
2C52
100
AcDbEntity
  8
241
  6
Continuous
100
AcDbVertex
100
AcDb3dPolylineVertex
 10
220.1821
 20
28.32619999999998
 30
0.0
 70
    32
  0
VERTEX
  5
2CF9
330
2C52
100
AcDbEntity
  8
241
  6
Continuous
100
AcDbVertex
100
AcDb3dPolylineVertex
 10
220.181
 20
28.33619999999999
 30
0.0
 70
    32
  0
VERTEX
  5
2CFA
330
2C52
100
AcDbEntity
  8
241
  6
Continuous
100
AcDbVertex
100
AcDb3dPolylineVertex
 10
220.18
 20
28.34609999999999
 30
0.0
 70
    32
  0
VERTEX
  5
2CFB
330
2C52
100
AcDbEntity
  8
241
  6
Continuous
100
AcDbVertex
100
AcDb3dPolylineVertex
 10
220.1789
 20
28.35609999999999
 30
0.0
 70
    32
  0
VERTEX
  5
2CFC
330
2C52
100
AcDbEntity
  8
241
  6
Continuous
100
AcDbVertex
100
AcDb3dPolylineVertex
 10
220.1779
 20
28.36609999999998
 30
0.0
 70
    32
  0
VERTEX
  5
2CFD
330
2C52
100
AcDbEntity
  8
241
  6
Continuous
100
AcDbVertex
100
AcDb3dPolylineVertex
 10
220.1769
 20
28.37609999999999
 30
0.0
 70
    32
  0
VERTEX
  5
2CFE
330
2C52
100
AcDbEntity
  8
241
  6
Continuous
100
AcDbVertex
100
AcDb3dPolylineVertex
 10
220.1759
 20
28.38609999999999
 30
0.0
 70
    32
  0
VERTEX
  5
2CFF
330
2C52
100
AcDbEntity
  8
241
  6
Continuous
100
AcDbVertex
100
AcDb3dPolylineVertex
 10
220.1749
 20
28.39609999999998
 30
0.0
 70
    32
  0
VERTEX
  5
2D00
330
2C52
100
AcDbEntity
  8
241
  6
Continuous
100
AcDbVertex
100
AcDb3dPolylineVertex
 10
220.1739
 20
28.40609999999998
 30
0.0
 70
    32
  0
VERTEX
  5
2D01
330
2C52
100
AcDbEntity
  8
241
  6
Continuous
100
AcDbVertex
100
AcDb3dPolylineVertex
 10
220.173
 20
28.41609999999999
 30
0.0
 70
    32
  0
VERTEX
  5
2D02
330
2C52
100
AcDbEntity
  8
241
  6
Continuous
100
AcDbVertex
100
AcDb3dPolylineVertex
 10
220.172
 20
28.42609999999999
 30
0.0
 70
    32
  0
VERTEX
  5
2D03
330
2C52
100
AcDbEntity
  8
241
  6
Continuous
100
AcDbVertex
100
AcDb3dPolylineVertex
 10
220.1711
 20
28.43609999999999
 30
0.0
 70
    32
  0
VERTEX
  5
2D04
330
2C52
100
AcDbEntity
  8
241
  6
Continuous
100
AcDbVertex
100
AcDb3dPolylineVertex
 10
220.1701
 20
28.44609999999999
 30
0.0
 70
    32
  0
VERTEX
  5
2D05
330
2C52
100
AcDbEntity
  8
241
  6
Continuous
100
AcDbVertex
100
AcDb3dPolylineVertex
 10
220.1692
 20
28.45619999999998
 30
0.0
 70
    32
  0
VERTEX
  5
2D06
330
2C52
100
AcDbEntity
  8
241
  6
Continuous
100
AcDbVertex
100
AcDb3dPolylineVertex
 10
220.1683
 20
28.46619999999999
 30
0.0
 70
    32
  0
VERTEX
  5
2D07
330
2C52
100
AcDbEntity
  8
241
  6
Continuous
100
AcDbVertex
100
AcDb3dPolylineVertex
 10
220.1674
 20
28.47619999999999
 30
0.0
 70
    32
  0
VERTEX
  5
2D08
330
2C52
100
AcDbEntity
  8
241
  6
Continuous
100
AcDbVertex
100
AcDb3dPolylineVertex
 10
220.1666
 20
28.48629999999999
 30
0.0
 70
    32
  0
VERTEX
  5
2D09
330
2C52
100
AcDbEntity
  8
241
  6
Continuous
100
AcDbVertex
100
AcDb3dPolylineVertex
 10
220.1657
 20
28.49629999999999
 30
0.0
 70
    32
  0
VERTEX
  5
2D0A
330
2C52
100
AcDbEntity
  8
241
  6
Continuous
100
AcDbVertex
100
AcDb3dPolylineVertex
 10
220.1649
 20
28.50639999999998
 30
0.0
 70
    32
  0
VERTEX
  5
2D0B
330
2C52
100
AcDbEntity
  8
241
  6
Continuous
100
AcDbVertex
100
AcDb3dPolylineVertex
 10
220.164
 20
28.51639999999999
 30
0.0
 70
    32
  0
VERTEX
  5
2D0C
330
2C52
100
AcDbEntity
  8
241
  6
Continuous
100
AcDbVertex
100
AcDb3dPolylineVertex
 10
220.1632
 20
28.52649999999999
 30
0.0
 70
    32
  0
VERTEX
  5
2D0D
330
2C52
100
AcDbEntity
  8
241
  6
Continuous
100
AcDbVertex
100
AcDb3dPolylineVertex
 10
220.1624
 20
28.53649999999999
 30
0.0
 70
    32
  0
VERTEX
  5
2D0E
330
2C52
100
AcDbEntity
  8
241
  6
Continuous
100
AcDbVertex
100
AcDb3dPolylineVertex
 10
220.1616
 20
28.54659999999999
 30
0.0
 70
    32
  0
VERTEX
  5
2D0F
330
2C52
100
AcDbEntity
  8
241
  6
Continuous
100
AcDbVertex
100
AcDb3dPolylineVertex
 10
220.1608
 20
28.55659999999998
 30
0.0
 70
    32
  0
VERTEX
  5
2D10
330
2C52
100
AcDbEntity
  8
241
  6
Continuous
100
AcDbVertex
100
AcDb3dPolylineVertex
 10
220.1601
 20
28.56669999999999
 30
0.0
 70
    32
  0
VERTEX
  5
2D11
330
2C52
100
AcDbEntity
  8
241
  6
Continuous
100
AcDbVertex
100
AcDb3dPolylineVertex
 10
220.1593
 20
28.57679999999998
 30
0.0
 70
    32
  0
VERTEX
  5
2D12
330
2C52
100
AcDbEntity
  8
241
  6
Continuous
100
AcDbVertex
100
AcDb3dPolylineVertex
 10
220.1586
 20
28.58679999999999
 30
0.0
 70
    32
  0
VERTEX
  5
2D13
330
2C52
100
AcDbEntity
  8
241
  6
Continuous
100
AcDbVertex
100
AcDb3dPolylineVertex
 10
220.1579
 20
28.59689999999999
 30
0.0
 70
    32
  0
VERTEX
  5
2D14
330
2C52
100
AcDbEntity
  8
241
  6
Continuous
100
AcDbVertex
100
AcDb3dPolylineVertex
 10
220.1572
 20
28.60699999999999
 30
0.0
 70
    32
  0
VERTEX
  5
2D15
330
2C52
100
AcDbEntity
  8
241
  6
Continuous
100
AcDbVertex
100
AcDb3dPolylineVertex
 10
220.1565
 20
28.61699999999999
 30
0.0
 70
    32
  0
VERTEX
  5
2D16
330
2C52
100
AcDbEntity
  8
241
  6
Continuous
100
AcDbVertex
100
AcDb3dPolylineVertex
 10
220.1558
 20
28.62709999999998
 30
0.0
 70
    32
  0
VERTEX
  5
2D17
330
2C52
100
AcDbEntity
  8
241
  6
Continuous
100
AcDbVertex
100
AcDb3dPolylineVertex
 10
220.1551
 20
28.63719999999999
 30
0.0
 70
    32
  0
VERTEX
  5
2D18
330
2C52
100
AcDbEntity
  8
241
  6
Continuous
100
AcDbVertex
100
AcDb3dPolylineVertex
 10
220.1545
 20
28.64719999999999
 30
0.0
 70
    32
  0
VERTEX
  5
2D19
330
2C52
100
AcDbEntity
  8
241
  6
Continuous
100
AcDbVertex
100
AcDb3dPolylineVertex
 10
220.1538
 20
28.65729999999999
 30
0.0
 70
    32
  0
VERTEX
  5
2D1A
330
2C52
100
AcDbEntity
  8
241
  6
Continuous
100
AcDbVertex
100
AcDb3dPolylineVertex
 10
220.1532
 20
28.66739999999999
 30
0.0
 70
    32
  0
VERTEX
  5
2D1B
330
2C52
100
AcDbEntity
  8
241
  6
Continuous
100
AcDbVertex
100
AcDb3dPolylineVertex
 10
220.1526
 20
28.67739999999999
 30
0.0
 70
    32
  0
VERTEX
  5
2D1C
330
2C52
100
AcDbEntity
  8
241
  6
Continuous
100
AcDbVertex
100
AcDb3dPolylineVertex
 10
220.152
 20
28.68749999999998
 30
0.0
 70
    32
  0
VERTEX
  5
2D1D
330
2C52
100
AcDbEntity
  8
241
  6
Continuous
100
AcDbVertex
100
AcDb3dPolylineVertex
 10
220.1514
 20
28.69759999999999
 30
0.0
 70
    32
  0
VERTEX
  5
2D1E
330
2C52
100
AcDbEntity
  8
241
  6
Continuous
100
AcDbVertex
100
AcDb3dPolylineVertex
 10
220.1509
 20
28.70759999999999
 30
0.0
 70
    32
  0
VERTEX
  5
2D1F
330
2C52
100
AcDbEntity
  8
241
  6
Continuous
100
AcDbVertex
100
AcDb3dPolylineVertex
 10
220.1503
 20
28.71769999999999
 30
0.0
 70
    32
  0
VERTEX
  5
2D20
330
2C52
100
AcDbEntity
  8
241
  6
Continuous
100
AcDbVertex
100
AcDb3dPolylineVertex
 10
220.1498
 20
28.72769999999999
 30
0.0
 70
    32
  0
VERTEX
  5
2D21
330
2C52
100
AcDbEntity
  8
241
  6
Continuous
100
AcDbVertex
100
AcDb3dPolylineVertex
 10
220.1492
 20
28.73779999999999
 30
0.0
 70
    32
  0
VERTEX
  5
2D22
330
2C52
100
AcDbEntity
  8
241
  6
Continuous
100
AcDbVertex
100
AcDb3dPolylineVertex
 10
220.1487
 20
28.74789999999999
 30
0.0
 70
    32
  0
VERTEX
  5
2D23
330
2C52
100
AcDbEntity
  8
241
  6
Continuous
100
AcDbVertex
100
AcDb3dPolylineVertex
 10
220.1482
 20
28.75789999999998
 30
0.0
 70
    32
  0
VERTEX
  5
2D24
330
2C52
100
AcDbEntity
  8
241
  6
Continuous
100
AcDbVertex
100
AcDb3dPolylineVertex
 10
220.1477
 20
28.76799999999999
 30
0.0
 70
    32
  0
VERTEX
  5
2D25
330
2C52
100
AcDbEntity
  8
241
  6
Continuous
100
AcDbVertex
100
AcDb3dPolylineVertex
 10
220.1473
 20
28.77799999999999
 30
0.0
 70
    32
  0
VERTEX
  5
2D26
330
2C52
100
AcDbEntity
  8
241
  6
Continuous
100
AcDbVertex
100
AcDb3dPolylineVertex
 10
220.1468
 20
28.78809999999999
 30
0.0
 70
    32
  0
VERTEX
  5
2D27
330
2C52
100
AcDbEntity
  8
241
  6
Continuous
100
AcDbVertex
100
AcDb3dPolylineVertex
 10
220.1464
 20
28.79809999999999
 30
0.0
 70
    32
  0
VERTEX
  5
2D28
330
2C52
100
AcDbEntity
  8
241
  6
Continuous
100
AcDbVertex
100
AcDb3dPolylineVertex
 10
220.1459
 20
28.80809999999998
 30
0.0
 70
    32
  0
VERTEX
  5
2D29
330
2C52
100
AcDbEntity
  8
241
  6
Continuous
100
AcDbVertex
100
AcDb3dPolylineVertex
 10
220.1455
 20
28.81819999999999
 30
0.0
 70
    32
  0
VERTEX
  5
2D2A
330
2C52
100
AcDbEntity
  8
241
  6
Continuous
100
AcDbVertex
100
AcDb3dPolylineVertex
 10
220.1451
 20
28.82819999999999
 30
0.0
 70
    32
  0
VERTEX
  5
2D2B
330
2C52
100
AcDbEntity
  8
241
  6
Continuous
100
AcDbVertex
100
AcDb3dPolylineVertex
 10
220.1447
 20
28.83819999999999
 30
0.0
 70
    32
  0
VERTEX
  5
2D2C
330
2C52
100
AcDbEntity
  8
241
  6
Continuous
100
AcDbVertex
100
AcDb3dPolylineVertex
 10
220.1443
 20
28.84829999999999
 30
0.0
 70
    32
  0
VERTEX
  5
2D2D
330
2C52
100
AcDbEntity
  8
241
  6
Continuous
100
AcDbVertex
100
AcDb3dPolylineVertex
 10
220.144
 20
28.85829999999998
 30
0.0
 70
    32
  0
VERTEX
  5
2D2E
330
2C52
100
AcDbEntity
  8
241
  6
Continuous
100
AcDbVertex
100
AcDb3dPolylineVertex
 10
220.1436
 20
28.86829999999999
 30
0.0
 70
    32
  0
VERTEX
  5
2D2F
330
2C52
100
AcDbEntity
  8
241
  6
Continuous
100
AcDbVertex
100
AcDb3dPolylineVertex
 10
220.1433
 20
28.87829999999999
 30
0.0
 70
    32
  0
VERTEX
  5
2D30
330
2C52
100
AcDbEntity
  8
241
  6
Continuous
100
AcDbVertex
100
AcDb3dPolylineVertex
 10
220.143
 20
28.88829999999999
 30
0.0
 70
    32
  0
VERTEX
  5
2D31
330
2C52
100
AcDbEntity
  8
241
  6
Continuous
100
AcDbVertex
100
AcDb3dPolylineVertex
 10
220.1426
 20
28.89829999999999
 30
0.0
 70
    32
  0
VERTEX
  5
2D32
330
2C52
100
AcDbEntity
  8
241
  6
Continuous
100
AcDbVertex
100
AcDb3dPolylineVertex
 10
220.1423
 20
28.90829999999999
 30
0.0
 70
    32
  0
VERTEX
  5
2D33
330
2C52
100
AcDbEntity
  8
241
  6
Continuous
100
AcDbVertex
100
AcDb3dPolylineVertex
 10
220.1421
 20
28.91829999999999
 30
0.0
 70
    32
  0
VERTEX
  5
2D34
330
2C52
100
AcDbEntity
  8
241
  6
Continuous
100
AcDbVertex
100
AcDb3dPolylineVertex
 10
220.1418
 20
28.92829999999999
 30
0.0
 70
    32
  0
VERTEX
  5
2D35
330
2C52
100
AcDbEntity
  8
241
  6
Continuous
100
AcDbVertex
100
AcDb3dPolylineVertex
 10
220.1415
 20
28.93819999999998
 30
0.0
 70
    32
  0
VERTEX
  5
2D36
330
2C52
100
AcDbEntity
  8
241
  6
Continuous
100
AcDbVertex
100
AcDb3dPolylineVertex
 10
220.1413
 20
28.94819999999999
 30
0.0
 70
    32
  0
VERTEX
  5
2D37
330
2C52
100
AcDbEntity
  8
241
  6
Continuous
100
AcDbVertex
100
AcDb3dPolylineVertex
 10
220.141
 20
28.95819999999999
 30
0.0
 70
    32
  0
VERTEX
  5
2D38
330
2C52
100
AcDbEntity
  8
241
  6
Continuous
100
AcDbVertex
100
AcDb3dPolylineVertex
 10
220.1408
 20
28.96809999999998
 30
0.0
 70
    32
  0
VERTEX
  5
2D39
330
2C52
100
AcDbEntity
  8
241
  6
Continuous
100
AcDbVertex
100
AcDb3dPolylineVertex
 10
220.1406
 20
28.97809999999999
 30
0.0
 70
    32
  0
VERTEX
  5
2D3A
330
2C52
100
AcDbEntity
  8
241
  6
Continuous
100
AcDbVertex
100
AcDb3dPolylineVertex
 10
220.1404
 20
28.98799999999999
 30
0.0
 70
    32
  0
VERTEX
  5
2D3B
330
2C52
100
AcDbEntity
  8
241
  6
Continuous
100
AcDbVertex
100
AcDb3dPolylineVertex
 10
220.1402
 20
28.99789999999999
 30
0.0
 70
    32
  0
VERTEX
  5
2D3C
330
2C52
100
AcDbEntity
  8
241
  6
Continuous
100
AcDbVertex
100
AcDb3dPolylineVertex
 10
220.1401
 20
29.00789999999999
 30
0.0
 70
    32
  0
VERTEX
  5
2D3D
330
2C52
100
AcDbEntity
  8
241
  6
Continuous
100
AcDbVertex
100
AcDb3dPolylineVertex
 10
220.1399
 20
29.01779999999999
 30
0.0
 70
    32
  0
VERTEX
  5
2D3E
330
2C52
100
AcDbEntity
  8
241
  6
Continuous
100
AcDbVertex
100
AcDb3dPolylineVertex
 10
220.1398
 20
29.02769999999998
 30
0.0
 70
    32
  0
VERTEX
  5
2D3F
330
2C52
100
AcDbEntity
  8
241
  6
Continuous
100
AcDbVertex
100
AcDb3dPolylineVertex
 10
220.1396
 20
29.03759999999999
 30
0.0
 70
    32
  0
VERTEX
  5
2D40
330
2C52
100
AcDbEntity
  8
241
  6
Continuous
100
AcDbVertex
100
AcDb3dPolylineVertex
 10
220.1395
 20
29.04749999999999
 30
0.0
 70
    32
  0
VERTEX
  5
2D41
330
2C52
100
AcDbEntity
  8
241
  6
Continuous
100
AcDbVertex
100
AcDb3dPolylineVertex
 10
220.1394
 20
29.05729999999999
 30
0.0
 70
    32
  0
VERTEX
  5
2D42
330
2C52
100
AcDbEntity
  8
241
  6
Continuous
100
AcDbVertex
100
AcDb3dPolylineVertex
 10
220.1393
 20
29.06719999999999
 30
0.0
 70
    32
  0
VERTEX
  5
2D43
330
2C52
100
AcDbEntity
  8
241
  6
Continuous
100
AcDbVertex
100
AcDb3dPolylineVertex
 10
220.1392
 20
29.07709999999999
 30
0.0
 70
    32
  0
VERTEX
  5
2D44
330
2C52
100
AcDbEntity
  8
241
  6
Continuous
100
AcDbVertex
100
AcDb3dPolylineVertex
 10
220.1391
 20
29.08689999999999
 30
0.0
 70
    32
  0
VERTEX
  5
2D45
330
2C52
100
AcDbEntity
  8
241
  6
Continuous
100
AcDbVertex
100
AcDb3dPolylineVertex
 10
220.1391
 20
29.09679999999999
 30
0.0
 70
    32
  0
VERTEX
  5
2D46
330
2C52
100
AcDbEntity
  8
241
  6
Continuous
100
AcDbVertex
100
AcDb3dPolylineVertex
 10
220.139
 20
29.10659999999999
 30
0.0
 70
    32
  0
VERTEX
  5
2D47
330
2C52
100
AcDbEntity
  8
241
  6
Continuous
100
AcDbVertex
100
AcDb3dPolylineVertex
 10
220.139
 20
29.11639999999998
 30
0.0
 70
    32
  0
VERTEX
  5
2D48
330
2C52
100
AcDbEntity
  8
241
  6
Continuous
100
AcDbVertex
100
AcDb3dPolylineVertex
 10
220.139
 20
29.12619999999999
 30
0.0
 70
    32
  0
VERTEX
  5
2D49
330
2C52
100
AcDbEntity
  8
241
  6
Continuous
100
AcDbVertex
100
AcDb3dPolylineVertex
 10
220.139
 20
29.13599999999999
 30
0.0
 70
    32
  0
VERTEX
  5
2D4A
330
2C52
100
AcDbEntity
  8
241
  6
Continuous
100
AcDbVertex
100
AcDb3dPolylineVertex
 10
220.139
 20
29.14579999999999
 30
0.0
 70
    32
  0
VERTEX
  5
2D4B
330
2C52
100
AcDbEntity
  8
241
  6
Continuous
100
AcDbVertex
100
AcDb3dPolylineVertex
 10
220.139
 20
29.15559999999999
 30
0.0
 70
    32
  0
VERTEX
  5
2D4C
330
2C52
100
AcDbEntity
  8
241
  6
Continuous
100
AcDbVertex
100
AcDb3dPolylineVertex
 10
220.139
 20
29.16529999999998
 30
0.0
 70
    32
  0
VERTEX
  5
2D4D
330
2C52
100
AcDbEntity
  8
241
  6
Continuous
100
AcDbVertex
100
AcDb3dPolylineVertex
 10
220.1391
 20
29.17509999999999
 30
0.0
 70
    32
  0
VERTEX
  5
2D4E
330
2C52
100
AcDbEntity
  8
241
  6
Continuous
100
AcDbVertex
100
AcDb3dPolylineVertex
 10
220.1391
 20
29.18479999999999
 30
0.0
 70
    32
  0
VERTEX
  5
2D4F
330
2C52
100
AcDbEntity
  8
241
  6
Continuous
100
AcDbVertex
100
AcDb3dPolylineVertex
 10
220.1392
 20
29.19459999999999
 30
0.0
 70
    32
  0
VERTEX
  5
2D50
330
2C52
100
AcDbEntity
  8
241
  6
Continuous
100
AcDbVertex
100
AcDb3dPolylineVertex
 10
220.1392
 20
29.20429999999999
 30
0.0
 70
    32
  0
VERTEX
  5
2D51
330
2C52
100
AcDbEntity
  8
241
  6
Continuous
100
AcDbVertex
100
AcDb3dPolylineVertex
 10
220.1393
 20
29.21399999999999
 30
0.0
 70
    32
  0
VERTEX
  5
2D52
330
2C52
100
AcDbEntity
  8
241
  6
Continuous
100
AcDbVertex
100
AcDb3dPolylineVertex
 10
220.1394
 20
29.22369999999999
 30
0.0
 70
    32
  0
VERTEX
  5
2D53
330
2C52
100
AcDbEntity
  8
241
  6
Continuous
100
AcDbVertex
100
AcDb3dPolylineVertex
 10
220.1395
 20
29.23339999999999
 30
0.0
 70
    32
  0
VERTEX
  5
2D54
330
2C52
100
AcDbEntity
  8
241
  6
Continuous
100
AcDbVertex
100
AcDb3dPolylineVertex
 10
220.1397
 20
29.24299999999999
 30
0.0
 70
    32
  0
VERTEX
  5
2D55
330
2C52
100
AcDbEntity
  8
241
  6
Continuous
100
AcDbVertex
100
AcDb3dPolylineVertex
 10
220.1398
 20
29.25269999999999
 30
0.0
 70
    32
  0
VERTEX
  5
2D56
330
2C52
100
AcDbEntity
  8
241
  6
Continuous
100
AcDbVertex
100
AcDb3dPolylineVertex
 10
220.1399
 20
29.26229999999998
 30
0.0
 70
    32
  0
VERTEX
  5
2D57
330
2C52
100
AcDbEntity
  8
241
  6
Continuous
100
AcDbVertex
100
AcDb3dPolylineVertex
 10
220.1401
 20
29.27189999999999
 30
0.0
 70
    32
  0
VERTEX
  5
2D58
330
2C52
100
AcDbEntity
  8
241
  6
Continuous
100
AcDbVertex
100
AcDb3dPolylineVertex
 10
220.1403
 20
29.28149999999999
 30
0.0
 70
    32
  0
VERTEX
  5
2D59
330
2C52
100
AcDbEntity
  8
241
  6
Continuous
100
AcDbVertex
100
AcDb3dPolylineVertex
 10
220.1404
 20
29.29109999999999
 30
0.0
 70
    32
  0
VERTEX
  5
2D5A
330
2C52
100
AcDbEntity
  8
241
  6
Continuous
100
AcDbVertex
100
AcDb3dPolylineVertex
 10
220.1406
 20
29.30069999999999
 30
0.0
 70
    32
  0
VERTEX
  5
2D5B
330
2C52
100
AcDbEntity
  8
241
  6
Continuous
100
AcDbVertex
100
AcDb3dPolylineVertex
 10
220.1408
 20
29.31029999999999
 30
0.0
 70
    32
  0
VERTEX
  5
2D5C
330
2C52
100
AcDbEntity
  8
241
  6
Continuous
100
AcDbVertex
100
AcDb3dPolylineVertex
 10
220.1411
 20
29.31979999999999
 30
0.0
 70
    32
  0
VERTEX
  5
2D5D
330
2C52
100
AcDbEntity
  8
241
  6
Continuous
100
AcDbVertex
100
AcDb3dPolylineVertex
 10
220.1413
 20
29.32939999999998
 30
0.0
 70
    32
  0
VERTEX
  5
2D5E
330
2C52
100
AcDbEntity
  8
241
  6
Continuous
100
AcDbVertex
100
AcDb3dPolylineVertex
 10
220.1415
 20
29.33889999999998
 30
0.0
 70
    32
  0
VERTEX
  5
2D5F
330
2C52
100
AcDbEntity
  8
241
  6
Continuous
100
AcDbVertex
100
AcDb3dPolylineVertex
 10
220.1418
 20
29.34839999999999
 30
0.0
 70
    32
  0
VERTEX
  5
2D60
330
2C52
100
AcDbEntity
  8
241
  6
Continuous
100
AcDbVertex
100
AcDb3dPolylineVertex
 10
220.142
 20
29.35789999999999
 30
0.0
 70
    32
  0
VERTEX
  5
2D61
330
2C52
100
AcDbEntity
  8
241
  6
Continuous
100
AcDbVertex
100
AcDb3dPolylineVertex
 10
220.1423
 20
29.36729999999999
 30
0.0
 70
    32
  0
VERTEX
  5
2D62
330
2C52
100
AcDbEntity
  8
241
  6
Continuous
100
AcDbVertex
100
AcDb3dPolylineVertex
 10
220.1426
 20
29.37679999999998
 30
0.0
 70
    32
  0
VERTEX
  5
2D63
330
2C52
100
AcDbEntity
  8
241
  6
Continuous
100
AcDbVertex
100
AcDb3dPolylineVertex
 10
220.1429
 20
29.38619999999998
 30
0.0
 70
    32
  0
VERTEX
  5
2D64
330
2C52
100
AcDbEntity
  8
241
  6
Continuous
100
AcDbVertex
100
AcDb3dPolylineVertex
 10
220.1432
 20
29.39569999999999
 30
0.0
 70
    32
  0
VERTEX
  5
2D65
330
2C52
100
AcDbEntity
  8
241
  6
Continuous
100
AcDbVertex
100
AcDb3dPolylineVertex
 10
220.1435
 20
29.40509999999999
 30
0.0
 70
    32
  0
VERTEX
  5
2D66
330
2C52
100
AcDbEntity
  8
241
  6
Continuous
100
AcDbVertex
100
AcDb3dPolylineVertex
 10
220.1438
 20
29.41439999999999
 30
0.0
 70
    32
  0
VERTEX
  5
2D67
330
2C52
100
AcDbEntity
  8
241
  6
Continuous
100
AcDbVertex
100
AcDb3dPolylineVertex
 10
220.1442
 20
29.42379999999999
 30
0.0
 70
    32
  0
VERTEX
  5
2D68
330
2C52
100
AcDbEntity
  8
241
  6
Continuous
100
AcDbVertex
100
AcDb3dPolylineVertex
 10
220.1445
 20
29.43319999999999
 30
0.0
 70
    32
  0
VERTEX
  5
2D69
330
2C52
100
AcDbEntity
  8
241
  6
Continuous
100
AcDbVertex
100
AcDb3dPolylineVertex
 10
220.1449
 20
29.44249999999998
 30
0.0
 70
    32
  0
VERTEX
  5
2D6A
330
2C52
100
AcDbEntity
  8
241
  6
Continuous
100
AcDbVertex
100
AcDb3dPolylineVertex
 10
220.1452
 20
29.45179999999999
 30
0.0
 70
    32
  0
VERTEX
  5
2D6B
330
2C52
100
AcDbEntity
  8
241
  6
Continuous
100
AcDbVertex
100
AcDb3dPolylineVertex
 10
220.1456
 20
29.46109999999999
 30
0.0
 70
    32
  0
VERTEX
  5
2D6C
330
2C52
100
AcDbEntity
  8
241
  6
Continuous
100
AcDbVertex
100
AcDb3dPolylineVertex
 10
220.146
 20
29.47039999999999
 30
0.0
 70
    32
  0
VERTEX
  5
2D6D
330
2C52
100
AcDbEntity
  8
241
  6
Continuous
100
AcDbVertex
100
AcDb3dPolylineVertex
 10
220.1464
 20
29.47959999999999
 30
0.0
 70
    32
  0
VERTEX
  5
2D6E
330
2C52
100
AcDbEntity
  8
241
  6
Continuous
100
AcDbVertex
100
AcDb3dPolylineVertex
 10
220.1468
 20
29.48889999999999
 30
0.0
 70
    32
  0
VERTEX
  5
2D6F
330
2C52
100
AcDbEntity
  8
241
  6
Continuous
100
AcDbVertex
100
AcDb3dPolylineVertex
 10
220.1473
 20
29.49809999999999
 30
0.0
 70
    32
  0
VERTEX
  5
2D70
330
2C52
100
AcDbEntity
  8
241
  6
Continuous
100
AcDbVertex
100
AcDb3dPolylineVertex
 10
220.1477
 20
29.50729999999999
 30
0.0
 70
    32
  0
VERTEX
  5
2D71
330
2C52
100
AcDbEntity
  8
241
  6
Continuous
100
AcDbVertex
100
AcDb3dPolylineVertex
 10
220.1481
 20
29.51649999999999
 30
0.0
 70
    32
  0
VERTEX
  5
2D72
330
2C52
100
AcDbEntity
  8
241
  6
Continuous
100
AcDbVertex
100
AcDb3dPolylineVertex
 10
220.1486
 20
29.52569999999999
 30
0.0
 70
    32
  0
VERTEX
  5
2D73
330
2C52
100
AcDbEntity
  8
241
  6
Continuous
100
AcDbVertex
100
AcDb3dPolylineVertex
 10
220.1491
 20
29.53499999999999
 30
0.0
 70
    32
  0
VERTEX
  5
2D74
330
2C52
100
AcDbEntity
  8
241
  6
Continuous
100
AcDbVertex
100
AcDb3dPolylineVertex
 10
220.1496
 20
29.54419999999999
 30
0.0
 70
    32
  0
VERTEX
  5
2D75
330
2C52
100
AcDbEntity
  8
241
  6
Continuous
100
AcDbVertex
100
AcDb3dPolylineVertex
 10
220.1501
 20
29.55349999999999
 30
0.0
 70
    32
  0
VERTEX
  5
2D76
330
2C52
100
AcDbEntity
  8
241
  6
Continuous
100
AcDbVertex
100
AcDb3dPolylineVertex
 10
220.1506
 20
29.56279999999999
 30
0.0
 70
    32
  0
VERTEX
  5
2D77
330
2C52
100
AcDbEntity
  8
241
  6
Continuous
100
AcDbVertex
100
AcDb3dPolylineVertex
 10
220.1511
 20
29.57219999999999
 30
0.0
 70
    32
  0
VERTEX
  5
2D78
330
2C52
100
AcDbEntity
  8
241
  6
Continuous
100
AcDbVertex
100
AcDb3dPolylineVertex
 10
220.1516
 20
29.58159999999999
 30
0.0
 70
    32
  0
VERTEX
  5
2D79
330
2C52
100
AcDbEntity
  8
241
  6
Continuous
100
AcDbVertex
100
AcDb3dPolylineVertex
 10
220.1522
 20
29.59089999999999
 30
0.0
 70
    32
  0
VERTEX
  5
2D7A
330
2C52
100
AcDbEntity
  8
241
  6
Continuous
100
AcDbVertex
100
AcDb3dPolylineVertex
 10
220.1528
 20
29.60039999999999
 30
0.0
 70
    32
  0
VERTEX
  5
2D7B
330
2C52
100
AcDbEntity
  8
241
  6
Continuous
100
AcDbVertex
100
AcDb3dPolylineVertex
 10
220.1533
 20
29.60979999999999
 30
0.0
 70
    32
  0
VERTEX
  5
2D7C
330
2C52
100
AcDbEntity
  8
241
  6
Continuous
100
AcDbVertex
100
AcDb3dPolylineVertex
 10
220.1539
 20
29.61929999999999
 30
0.0
 70
    32
  0
VERTEX
  5
2D7D
330
2C52
100
AcDbEntity
  8
241
  6
Continuous
100
AcDbVertex
100
AcDb3dPolylineVertex
 10
220.1545
 20
29.62879999999998
 30
0.0
 70
    32
  0
VERTEX
  5
2D7E
330
2C52
100
AcDbEntity
  8
241
  6
Continuous
100
AcDbVertex
100
AcDb3dPolylineVertex
 10
220.1552
 20
29.63829999999999
 30
0.0
 70
    32
  0
VERTEX
  5
2D7F
330
2C52
100
AcDbEntity
  8
241
  6
Continuous
100
AcDbVertex
100
AcDb3dPolylineVertex
 10
220.1558
 20
29.64779999999999
 30
0.0
 70
    32
  0
VERTEX
  5
2D80
330
2C52
100
AcDbEntity
  8
241
  6
Continuous
100
AcDbVertex
100
AcDb3dPolylineVertex
 10
220.1564
 20
29.65729999999999
 30
0.0
 70
    32
  0
VERTEX
  5
2D81
330
2C52
100
AcDbEntity
  8
241
  6
Continuous
100
AcDbVertex
100
AcDb3dPolylineVertex
 10
220.1571
 20
29.66689999999998
 30
0.0
 70
    32
  0
VERTEX
  5
2D82
330
2C52
100
AcDbEntity
  8
241
  6
Continuous
100
AcDbVertex
100
AcDb3dPolylineVertex
 10
220.1578
 20
29.67649999999999
 30
0.0
 70
    32
  0
VERTEX
  5
2D83
330
2C52
100
AcDbEntity
  8
241
  6
Continuous
100
AcDbVertex
100
AcDb3dPolylineVertex
 10
220.1584
 20
29.68609999999999
 30
0.0
 70
    32
  0
VERTEX
  5
2D84
330
2C52
100
AcDbEntity
  8
241
  6
Continuous
100
AcDbVertex
100
AcDb3dPolylineVertex
 10
220.1591
 20
29.69569999999999
 30
0.0
 70
    32
  0
VERTEX
  5
2D85
330
2C52
100
AcDbEntity
  8
241
  6
Continuous
100
AcDbVertex
100
AcDb3dPolylineVertex
 10
220.1598
 20
29.70539999999999
 30
0.0
 70
    32
  0
VERTEX
  5
2D86
330
2C52
100
AcDbEntity
  8
241
  6
Continuous
100
AcDbVertex
100
AcDb3dPolylineVertex
 10
220.1606
 20
29.71499999999999
 30
0.0
 70
    32
  0
VERTEX
  5
2D87
330
2C52
100
AcDbEntity
  8
241
  6
Continuous
100
AcDbVertex
100
AcDb3dPolylineVertex
 10
220.1613
 20
29.72469999999999
 30
0.0
 70
    32
  0
VERTEX
  5
2D88
330
2C52
100
AcDbEntity
  8
241
  6
Continuous
100
AcDbVertex
100
AcDb3dPolylineVertex
 10
220.1621
 20
29.73439999999999
 30
0.0
 70
    32
  0
VERTEX
  5
2D89
330
2C52
100
AcDbEntity
  8
241
  6
Continuous
100
AcDbVertex
100
AcDb3dPolylineVertex
 10
220.1628
 20
29.74409999999999
 30
0.0
 70
    32
  0
VERTEX
  5
2D8A
330
2C52
100
AcDbEntity
  8
241
  6
Continuous
100
AcDbVertex
100
AcDb3dPolylineVertex
 10
220.1636
 20
29.75379999999999
 30
0.0
 70
    32
  0
VERTEX
  5
2D8B
330
2C52
100
AcDbEntity
  8
241
  6
Continuous
100
AcDbVertex
100
AcDb3dPolylineVertex
 10
220.1644
 20
29.76359999999999
 30
0.0
 70
    32
  0
VERTEX
  5
2D8C
330
2C52
100
AcDbEntity
  8
241
  6
Continuous
100
AcDbVertex
100
AcDb3dPolylineVertex
 10
220.1652
 20
29.77329999999998
 30
0.0
 70
    32
  0
VERTEX
  5
2D8D
330
2C52
100
AcDbEntity
  8
241
  6
Continuous
100
AcDbVertex
100
AcDb3dPolylineVertex
 10
220.166
 20
29.78309999999999
 30
0.0
 70
    32
  0
VERTEX
  5
2D8E
330
2C52
100
AcDbEntity
  8
241
  6
Continuous
100
AcDbVertex
100
AcDb3dPolylineVertex
 10
220.1668
 20
29.79289999999999
 30
0.0
 70
    32
  0
VERTEX
  5
2D8F
330
2C52
100
AcDbEntity
  8
241
  6
Continuous
100
AcDbVertex
100
AcDb3dPolylineVertex
 10
220.1677
 20
29.80269999999999
 30
0.0
 70
    32
  0
VERTEX
  5
2D90
330
2C52
100
AcDbEntity
  8
241
  6
Continuous
100
AcDbVertex
100
AcDb3dPolylineVertex
 10
220.1685
 20
29.81249999999999
 30
0.0
 70
    32
  0
VERTEX
  5
2D91
330
2C52
100
AcDbEntity
  8
241
  6
Continuous
100
AcDbVertex
100
AcDb3dPolylineVertex
 10
220.1694
 20
29.82239999999999
 30
0.0
 70
    32
  0
VERTEX
  5
2D92
330
2C52
100
AcDbEntity
  8
241
  6
Continuous
100
AcDbVertex
100
AcDb3dPolylineVertex
 10
220.1703
 20
29.83219999999999
 30
0.0
 70
    32
  0
VERTEX
  5
2D93
330
2C52
100
AcDbEntity
  8
241
  6
Continuous
100
AcDbVertex
100
AcDb3dPolylineVertex
 10
220.1712
 20
29.84209999999999
 30
0.0
 70
    32
  0
VERTEX
  5
2D94
330
2C52
100
AcDbEntity
  8
241
  6
Continuous
100
AcDbVertex
100
AcDb3dPolylineVertex
 10
220.1721
 20
29.85189999999999
 30
0.0
 70
    32
  0
VERTEX
  5
2D95
330
2C52
100
AcDbEntity
  8
241
  6
Continuous
100
AcDbVertex
100
AcDb3dPolylineVertex
 10
220.173
 20
29.86179999999999
 30
0.0
 70
    32
  0
VERTEX
  5
2D96
330
2C52
100
AcDbEntity
  8
241
  6
Continuous
100
AcDbVertex
100
AcDb3dPolylineVertex
 10
220.1739
 20
29.87169999999999
 30
0.0
 70
    32
  0
VERTEX
  5
2D97
330
2C52
100
AcDbEntity
  8
241
  6
Continuous
100
AcDbVertex
100
AcDb3dPolylineVertex
 10
220.1749
 20
29.88159999999999
 30
0.0
 70
    32
  0
VERTEX
  5
2D98
330
2C52
100
AcDbEntity
  8
241
  6
Continuous
100
AcDbVertex
100
AcDb3dPolylineVertex
 10
220.1758
 20
29.89149999999998
 30
0.0
 70
    32
  0
VERTEX
  5
2D99
330
2C52
100
AcDbEntity
  8
241
  6
Continuous
100
AcDbVertex
100
AcDb3dPolylineVertex
 10
220.1768
 20
29.90139999999998
 30
0.0
 70
    32
  0
VERTEX
  5
2D9A
330
2C52
100
AcDbEntity
  8
241
  6
Continuous
100
AcDbVertex
100
AcDb3dPolylineVertex
 10
220.1778
 20
29.91139999999999
 30
0.0
 70
    32
  0
VERTEX
  5
2D9B
330
2C52
100
AcDbEntity
  8
241
  6
Continuous
100
AcDbVertex
100
AcDb3dPolylineVertex
 10
220.1788
 20
29.92129999999999
 30
0.0
 70
    32
  0
VERTEX
  5
2D9C
330
2C52
100
AcDbEntity
  8
241
  6
Continuous
100
AcDbVertex
100
AcDb3dPolylineVertex
 10
220.1798
 20
29.93119999999999
 30
0.0
 70
    32
  0
VERTEX
  5
2D9D
330
2C52
100
AcDbEntity
  8
241
  6
Continuous
100
AcDbVertex
100
AcDb3dPolylineVertex
 10
220.1809
 20
29.94119999999999
 30
0.0
 70
    32
  0
VERTEX
  5
2D9E
330
2C52
100
AcDbEntity
  8
241
  6
Continuous
100
AcDbVertex
100
AcDb3dPolylineVertex
 10
220.1819
 20
29.95119999999999
 30
0.0
 70
    32
  0
VERTEX
  5
2D9F
330
2C52
100
AcDbEntity
  8
241
  6
Continuous
100
AcDbVertex
100
AcDb3dPolylineVertex
 10
220.183
 20
29.96109999999998
 30
0.0
 70
    32
  0
VERTEX
  5
2DA0
330
2C52
100
AcDbEntity
  8
241
  6
Continuous
100
AcDbVertex
100
AcDb3dPolylineVertex
 10
220.184
 20
29.97109999999999
 30
0.0
 70
    32
  0
VERTEX
  5
2DA1
330
2C52
100
AcDbEntity
  8
241
  6
Continuous
100
AcDbVertex
100
AcDb3dPolylineVertex
 10
220.1851
 20
29.98109999999999
 30
0.0
 70
    32
  0
VERTEX
  5
2DA2
330
2C52
100
AcDbEntity
  8
241
  6
Continuous
100
AcDbVertex
100
AcDb3dPolylineVertex
 10
220.1862
 20
29.99109999999999
 30
0.0
 70
    32
  0
VERTEX
  5
2DA3
330
2C52
100
AcDbEntity
  8
241
  6
Continuous
100
AcDbVertex
100
AcDb3dPolylineVertex
 10
220.1873
 20
30.00109999999999
 30
0.0
 70
    32
  0
VERTEX
  5
2DA4
330
2C52
100
AcDbEntity
  8
241
  6
Continuous
100
AcDbVertex
100
AcDb3dPolylineVertex
 10
220.1884
 20
30.01099999999999
 30
0.0
 70
    32
  0
VERTEX
  5
2DA5
330
2C52
100
AcDbEntity
  8
241
  6
Continuous
100
AcDbVertex
100
AcDb3dPolylineVertex
 10
220.1896
 20
30.02099999999999
 30
0.0
 70
    32
  0
VERTEX
  5
2DA6
330
2C52
100
AcDbEntity
  8
241
  6
Continuous
100
AcDbVertex
100
AcDb3dPolylineVertex
 10
220.1907
 20
30.03099999999998
 30
0.0
 70
    32
  0
VERTEX
  5
2DA7
330
2C52
100
AcDbEntity
  8
241
  6
Continuous
100
AcDbVertex
100
AcDb3dPolylineVertex
 10
220.1919
 20
30.04109999999999
 30
0.0
 70
    32
  0
VERTEX
  5
2DA8
330
2C52
100
AcDbEntity
  8
241
  6
Continuous
100
AcDbVertex
100
AcDb3dPolylineVertex
 10
220.1931
 20
30.05109999999999
 30
0.0
 70
    32
  0
VERTEX
  5
2DA9
330
2C52
100
AcDbEntity
  8
241
  6
Continuous
100
AcDbVertex
100
AcDb3dPolylineVertex
 10
220.1943
 20
30.06109999999999
 30
0.0
 70
    32
  0
VERTEX
  5
2DAA
330
2C52
100
AcDbEntity
  8
241
  6
Continuous
100
AcDbVertex
100
AcDb3dPolylineVertex
 10
220.1955
 20
30.07109999999999
 30
0.0
 70
    32
  0
VERTEX
  5
2DAB
330
2C52
100
AcDbEntity
  8
241
  6
Continuous
100
AcDbVertex
100
AcDb3dPolylineVertex
 10
220.1967
 20
30.08109999999998
 30
0.0
 70
    32
  0
VERTEX
  5
2DAC
330
2C52
100
AcDbEntity
  8
241
  6
Continuous
100
AcDbVertex
100
AcDb3dPolylineVertex
 10
220.1979
 20
30.09109999999999
 30
0.0
 70
    32
  0
VERTEX
  5
2DAD
330
2C52
100
AcDbEntity
  8
241
  6
Continuous
100
AcDbVertex
100
AcDb3dPolylineVertex
 10
220.1992
 20
30.10109999999999
 30
0.0
 70
    32
  0
VERTEX
  5
2DAE
330
2C52
100
AcDbEntity
  8
241
  6
Continuous
100
AcDbVertex
100
AcDb3dPolylineVertex
 10
220.2004
 20
30.11119999999999
 30
0.0
 70
    32
  0
VERTEX
  5
2DAF
330
2C52
100
AcDbEntity
  8
241
  6
Continuous
100
AcDbVertex
100
AcDb3dPolylineVertex
 10
220.2017
 20
30.12119999999999
 30
0.0
 70
    32
  0
VERTEX
  5
2DB0
330
2C52
100
AcDbEntity
  8
241
  6
Continuous
100
AcDbVertex
100
AcDb3dPolylineVertex
 10
220.203
 20
30.13119999999999
 30
0.0
 70
    32
  0
VERTEX
  5
2DB1
330
2C52
100
AcDbEntity
  8
241
  6
Continuous
100
AcDbVertex
100
AcDb3dPolylineVertex
 10
220.2043
 20
30.14119999999999
 30
0.0
 70
    32
  0
VERTEX
  5
2DB2
330
2C52
100
AcDbEntity
  8
241
  6
Continuous
100
AcDbVertex
100
AcDb3dPolylineVertex
 10
220.2056
 20
30.1512
 30
0.0
 70
    32
  0
VERTEX
  5
2DB3
330
2C52
100
AcDbEntity
  8
241
  6
Continuous
100
AcDbVertex
100
AcDb3dPolylineVertex
 10
220.2069
 20
30.16119999999999
 30
0.0
 70
    32
  0
VERTEX
  5
2DB4
330
2C52
100
AcDbEntity
  8
241
  6
Continuous
100
AcDbVertex
100
AcDb3dPolylineVertex
 10
220.2083
 20
30.17119999999998
 30
0.0
 70
    32
  0
VERTEX
  5
2DB5
330
2C52
100
AcDbEntity
  8
241
  6
Continuous
100
AcDbVertex
100
AcDb3dPolylineVertex
 10
220.2096
 20
30.18129999999999
 30
0.0
 70
    32
  0
VERTEX
  5
2DB6
330
2C52
100
AcDbEntity
  8
241
  6
Continuous
100
AcDbVertex
100
AcDb3dPolylineVertex
 10
220.211
 20
30.19129999999999
 30
0.0
 70
    32
  0
VERTEX
  5
2DB7
330
2C52
100
AcDbEntity
  8
241
  6
Continuous
100
AcDbVertex
100
AcDb3dPolylineVertex
 10
220.2124
 20
30.20129999999999
 30
0.0
 70
    32
  0
VERTEX
  5
2DB8
330
2C52
100
AcDbEntity
  8
241
  6
Continuous
100
AcDbVertex
100
AcDb3dPolylineVertex
 10
220.2137
 20
30.21129999999999
 30
0.0
 70
    32
  0
VERTEX
  5
2DB9
330
2C52
100
AcDbEntity
  8
241
  6
Continuous
100
AcDbVertex
100
AcDb3dPolylineVertex
 10
220.2151
 20
30.22119999999999
 30
0.0
 70
    32
  0
VERTEX
  5
2DBA
330
2C52
100
AcDbEntity
  8
241
  6
Continuous
100
AcDbVertex
100
AcDb3dPolylineVertex
 10
220.2166
 20
30.23119999999999
 30
0.0
 70
    32
  0
VERTEX
  5
2DBB
330
2C52
100
AcDbEntity
  8
241
  6
Continuous
100
AcDbVertex
100
AcDb3dPolylineVertex
 10
220.218
 20
30.24119999999999
 30
0.0
 70
    32
  0
VERTEX
  5
2DBC
330
2C52
100
AcDbEntity
  8
241
  6
Continuous
100
AcDbVertex
100
AcDb3dPolylineVertex
 10
220.2194
 20
30.25119999999999
 30
0.0
 70
    32
  0
VERTEX
  5
2DBD
330
2C52
100
AcDbEntity
  8
241
  6
Continuous
100
AcDbVertex
100
AcDb3dPolylineVertex
 10
220.2209
 20
30.26119999999999
 30
0.0
 70
    32
  0
VERTEX
  5
2DBE
330
2C52
100
AcDbEntity
  8
241
  6
Continuous
100
AcDbVertex
100
AcDb3dPolylineVertex
 10
220.2224
 20
30.27109999999999
 30
0.0
 70
    32
  0
VERTEX
  5
2DBF
330
2C52
100
AcDbEntity
  8
241
  6
Continuous
100
AcDbVertex
100
AcDb3dPolylineVertex
 10
220.2238
 20
30.28109999999998
 30
0.0
 70
    32
  0
VERTEX
  5
2DC0
330
2C52
100
AcDbEntity
  8
241
  6
Continuous
100
AcDbVertex
100
AcDb3dPolylineVertex
 10
220.2253
 20
30.29099999999999
 30
0.0
 70
    32
  0
VERTEX
  5
2DC1
330
2C52
100
AcDbEntity
  8
241
  6
Continuous
100
AcDbVertex
100
AcDb3dPolylineVertex
 10
220.2268
 20
30.30099999999999
 30
0.0
 70
    32
  0
VERTEX
  5
2DC2
330
2C52
100
AcDbEntity
  8
241
  6
Continuous
100
AcDbVertex
100
AcDb3dPolylineVertex
 10
220.2284
 20
30.31089999999999
 30
0.0
 70
    32
  0
VERTEX
  5
2DC3
330
2C52
100
AcDbEntity
  8
241
  6
Continuous
100
AcDbVertex
100
AcDb3dPolylineVertex
 10
220.2299
 20
30.32079999999999
 30
0.0
 70
    32
  0
VERTEX
  5
2DC4
330
2C52
100
AcDbEntity
  8
241
  6
Continuous
100
AcDbVertex
100
AcDb3dPolylineVertex
 10
220.2314
 20
30.33069999999999
 30
0.0
 70
    32
  0
VERTEX
  5
2DC5
330
2C52
100
AcDbEntity
  8
241
  6
Continuous
100
AcDbVertex
100
AcDb3dPolylineVertex
 10
220.233
 20
30.34059999999998
 30
0.0
 70
    32
  0
VERTEX
  5
2DC6
330
2C52
100
AcDbEntity
  8
241
  6
Continuous
100
AcDbVertex
100
AcDb3dPolylineVertex
 10
220.2345
 20
30.35049999999999
 30
0.0
 70
    32
  0
VERTEX
  5
2DC7
330
2C52
100
AcDbEntity
  8
241
  6
Continuous
100
AcDbVertex
100
AcDb3dPolylineVertex
 10
220.2361
 20
30.36039999999998
 30
0.0
 70
    32
  0
VERTEX
  5
2DC8
330
2C52
100
AcDbEntity
  8
241
  6
Continuous
100
AcDbVertex
100
AcDb3dPolylineVertex
 10
220.2377
 20
30.37029999999999
 30
0.0
 70
    32
  0
VERTEX
  5
2DC9
330
2C52
100
AcDbEntity
  8
241
  6
Continuous
100
AcDbVertex
100
AcDb3dPolylineVertex
 10
220.2393
 20
30.38019999999999
 30
0.0
 70
    32
  0
VERTEX
  5
2DCA
330
2C52
100
AcDbEntity
  8
241
  6
Continuous
100
AcDbVertex
100
AcDb3dPolylineVertex
 10
220.2409
 20
30.38999999999999
 30
0.0
 70
    32
  0
VERTEX
  5
2DCB
330
2C52
100
AcDbEntity
  8
241
  6
Continuous
100
AcDbVertex
100
AcDb3dPolylineVertex
 10
220.2425
 20
30.39979999999999
 30
0.0
 70
    32
  0
VERTEX
  5
2DCC
330
2C52
100
AcDbEntity
  8
241
  6
Continuous
100
AcDbVertex
100
AcDb3dPolylineVertex
 10
220.2441
 20
30.40969999999999
 30
0.0
 70
    32
  0
VERTEX
  5
2DCD
330
2C52
100
AcDbEntity
  8
241
  6
Continuous
100
AcDbVertex
100
AcDb3dPolylineVertex
 10
220.2457
 20
30.41949999999999
 30
0.0
 70
    32
  0
VERTEX
  5
2DCE
330
2C52
100
AcDbEntity
  8
241
  6
Continuous
100
AcDbVertex
100
AcDb3dPolylineVertex
 10
220.2474
 20
30.42929999999999
 30
0.0
 70
    32
  0
VERTEX
  5
2DCF
330
2C52
100
AcDbEntity
  8
241
  6
Continuous
100
AcDbVertex
100
AcDb3dPolylineVertex
 10
220.249
 20
30.43909999999999
 30
0.0
 70
    32
  0
VERTEX
  5
2DD0
330
2C52
100
AcDbEntity
  8
241
  6
Continuous
100
AcDbVertex
100
AcDb3dPolylineVertex
 10
220.2507
 20
30.44879999999999
 30
0.0
 70
    32
  0
VERTEX
  5
2DD1
330
2C52
100
AcDbEntity
  8
241
  6
Continuous
100
AcDbVertex
100
AcDb3dPolylineVertex
 10
220.2524
 20
30.45859999999999
 30
0.0
 70
    32
  0
VERTEX
  5
2DD2
330
2C52
100
AcDbEntity
  8
241
  6
Continuous
100
AcDbVertex
100
AcDb3dPolylineVertex
 10
220.2541
 20
30.46829999999999
 30
0.0
 70
    32
  0
VERTEX
  5
2DD3
330
2C52
100
AcDbEntity
  8
241
  6
Continuous
100
AcDbVertex
100
AcDb3dPolylineVertex
 10
220.2558
 20
30.47799999999999
 30
0.0
 70
    32
  0
VERTEX
  5
2DD4
330
2C52
100
AcDbEntity
  8
241
  6
Continuous
100
AcDbVertex
100
AcDb3dPolylineVertex
 10
220.2575
 20
30.48779999999999
 30
0.0
 70
    32
  0
VERTEX
  5
2DD5
330
2C52
100
AcDbEntity
  8
241
  6
Continuous
100
AcDbVertex
100
AcDb3dPolylineVertex
 10
220.2592
 20
30.49739999999999
 30
0.0
 70
    32
  0
VERTEX
  5
2DD6
330
2C52
100
AcDbEntity
  8
241
  6
Continuous
100
AcDbVertex
100
AcDb3dPolylineVertex
 10
220.2609
 20
30.50709999999999
 30
0.0
 70
    32
  0
VERTEX
  5
2DD7
330
2C52
100
AcDbEntity
  8
241
  6
Continuous
100
AcDbVertex
100
AcDb3dPolylineVertex
 10
220.2626
 20
30.51679999999999
 30
0.0
 70
    32
  0
VERTEX
  5
2DD8
330
2C52
100
AcDbEntity
  8
241
  6
Continuous
100
AcDbVertex
100
AcDb3dPolylineVertex
 10
220.2644
 20
30.52639999999998
 30
0.0
 70
    32
  0
VERTEX
  5
2DD9
330
2C52
100
AcDbEntity
  8
241
  6
Continuous
100
AcDbVertex
100
AcDb3dPolylineVertex
 10
220.2661
 20
30.53599999999998
 30
0.0
 70
    32
  0
VERTEX
  5
2DDA
330
2C52
100
AcDbEntity
  8
241
  6
Continuous
100
AcDbVertex
100
AcDb3dPolylineVertex
 10
220.2679
 20
30.54559999999999
 30
0.0
 70
    32
  0
VERTEX
  5
2DDB
330
2C52
100
AcDbEntity
  8
241
  6
Continuous
100
AcDbVertex
100
AcDb3dPolylineVertex
 10
220.2696
 20
30.5552
 30
0.0
 70
    32
  0
VERTEX
  5
2DDC
330
2C52
100
AcDbEntity
  8
241
  6
Continuous
100
AcDbVertex
100
AcDb3dPolylineVertex
 10
220.2714
 20
30.56479999999999
 30
0.0
 70
    32
  0
VERTEX
  5
2DDD
330
2C52
100
AcDbEntity
  8
241
  6
Continuous
100
AcDbVertex
100
AcDb3dPolylineVertex
 10
220.2732
 20
30.57429999999999
 30
0.0
 70
    32
  0
VERTEX
  5
2DDE
330
2C52
100
AcDbEntity
  8
241
  6
Continuous
100
AcDbVertex
100
AcDb3dPolylineVertex
 10
220.275
 20
30.58389999999999
 30
0.0
 70
    32
  0
VERTEX
  5
2DDF
330
2C52
100
AcDbEntity
  8
241
  6
Continuous
100
AcDbVertex
100
AcDb3dPolylineVertex
 10
220.2768
 20
30.59339999999999
 30
0.0
 70
    32
  0
VERTEX
  5
2DE0
330
2C52
100
AcDbEntity
  8
241
  6
Continuous
100
AcDbVertex
100
AcDb3dPolylineVertex
 10
220.2786
 20
30.60289999999999
 30
0.0
 70
    32
  0
VERTEX
  5
2DE1
330
2C52
100
AcDbEntity
  8
241
  6
Continuous
100
AcDbVertex
100
AcDb3dPolylineVertex
 10
220.2804
 20
30.61229999999999
 30
0.0
 70
    32
  0
VERTEX
  5
2DE2
330
2C52
100
AcDbEntity
  8
241
  6
Continuous
100
AcDbVertex
100
AcDb3dPolylineVertex
 10
220.2822
 20
30.62179999999999
 30
0.0
 70
    32
  0
VERTEX
  5
2DE3
330
2C52
100
AcDbEntity
  8
241
  6
Continuous
100
AcDbVertex
100
AcDb3dPolylineVertex
 10
220.284
 20
30.63119999999999
 30
0.0
 70
    32
  0
VERTEX
  5
2DE4
330
2C52
100
AcDbEntity
  8
241
  6
Continuous
100
AcDbVertex
100
AcDb3dPolylineVertex
 10
220.2859
 20
30.6406
 30
0.0
 70
    32
  0
VERTEX
  5
2DE5
330
2C52
100
AcDbEntity
  8
241
  6
Continuous
100
AcDbVertex
100
AcDb3dPolylineVertex
 10
220.2877
 20
30.64989999999998
 30
0.0
 70
    32
  0
VERTEX
  5
2DE6
330
2C52
100
AcDbEntity
  8
241
  6
Continuous
100
AcDbVertex
100
AcDb3dPolylineVertex
 10
220.2896
 20
30.65929999999999
 30
0.0
 70
    32
  0
VERTEX
  5
2DE7
330
2C52
100
AcDbEntity
  8
241
  6
Continuous
100
AcDbVertex
100
AcDb3dPolylineVertex
 10
220.2914
 20
30.66859999999999
 30
0.0
 70
    32
  0
VERTEX
  5
2DE8
330
2C52
100
AcDbEntity
  8
241
  6
Continuous
100
AcDbVertex
100
AcDb3dPolylineVertex
 10
220.2933
 20
30.67789999999999
 30
0.0
 70
    32
  0
VERTEX
  5
2DE9
330
2C52
100
AcDbEntity
  8
241
  6
Continuous
100
AcDbVertex
100
AcDb3dPolylineVertex
 10
220.2951
 20
30.68719999999999
 30
0.0
 70
    32
  0
VERTEX
  5
2DEA
330
2C52
100
AcDbEntity
  8
241
  6
Continuous
100
AcDbVertex
100
AcDb3dPolylineVertex
 10
220.297
 20
30.69639999999999
 30
0.0
 70
    32
  0
VERTEX
  5
2DEB
330
2C52
100
AcDbEntity
  8
241
  6
Continuous
100
AcDbVertex
100
AcDb3dPolylineVertex
 10
220.2989
 20
30.70569999999999
 30
0.0
 70
    32
  0
VERTEX
  5
2DEC
330
2C52
100
AcDbEntity
  8
241
  6
Continuous
100
AcDbVertex
100
AcDb3dPolylineVertex
 10
220.3008
 20
30.71489999999999
 30
0.0
 70
    32
  0
VERTEX
  5
2DED
330
2C52
100
AcDbEntity
  8
241
  6
Continuous
100
AcDbVertex
100
AcDb3dPolylineVertex
 10
220.3027
 20
30.72399999999999
 30
0.0
 70
    32
  0
VERTEX
  5
2DEE
330
2C52
100
AcDbEntity
  8
241
  6
Continuous
100
AcDbVertex
100
AcDb3dPolylineVertex
 10
220.3046
 20
30.73319999999999
 30
0.0
 70
    32
  0
VERTEX
  5
2DEF
330
2C52
100
AcDbEntity
  8
241
  6
Continuous
100
AcDbVertex
100
AcDb3dPolylineVertex
 10
220.3065
 20
30.74229999999999
 30
0.0
 70
    32
  0
VERTEX
  5
2DF0
330
2C52
100
AcDbEntity
  8
241
  6
Continuous
100
AcDbVertex
100
AcDb3dPolylineVertex
 10
220.3084
 20
30.75139999999999
 30
0.0
 70
    32
  0
VERTEX
  5
2DF1
330
2C52
100
AcDbEntity
  8
241
  6
Continuous
100
AcDbVertex
100
AcDb3dPolylineVertex
 10
220.3103
 20
30.76039999999999
 30
0.0
 70
    32
  0
VERTEX
  5
2DF2
330
2C52
100
AcDbEntity
  8
241
  6
Continuous
100
AcDbVertex
100
AcDb3dPolylineVertex
 10
220.3122
 20
30.76949999999999
 30
0.0
 70
    32
  0
VERTEX
  5
2DF3
330
2C52
100
AcDbEntity
  8
241
  6
Continuous
100
AcDbVertex
100
AcDb3dPolylineVertex
 10
220.3142
 20
30.77849999999999
 30
0.0
 70
    32
  0
VERTEX
  5
2DF4
330
2C52
100
AcDbEntity
  8
241
  6
Continuous
100
AcDbVertex
100
AcDb3dPolylineVertex
 10
220.3161
 20
30.78749999999999
 30
0.0
 70
    32
  0
VERTEX
  5
2DF5
330
2C52
100
AcDbEntity
  8
241
  6
Continuous
100
AcDbVertex
100
AcDb3dPolylineVertex
 10
220.3181
 20
30.79649999999999
 30
0.0
 70
    32
  0
VERTEX
  5
2DF6
330
2C52
100
AcDbEntity
  8
241
  6
Continuous
100
AcDbVertex
100
AcDb3dPolylineVertex
 10
220.32
 20
30.80549999999999
 30
0.0
 70
    32
  0
VERTEX
  5
2DF7
330
2C52
100
AcDbEntity
  8
241
  6
Continuous
100
AcDbVertex
100
AcDb3dPolylineVertex
 10
220.322
 20
30.81449999999998
 30
0.0
 70
    32
  0
VERTEX
  5
2DF8
330
2C52
100
AcDbEntity
  8
241
  6
Continuous
100
AcDbVertex
100
AcDb3dPolylineVertex
 10
220.324
 20
30.82359999999999
 30
0.0
 70
    32
  0
VERTEX
  5
2DF9
330
2C52
100
AcDbEntity
  8
241
  6
Continuous
100
AcDbVertex
100
AcDb3dPolylineVertex
 10
220.326
 20
30.83259999999999
 30
0.0
 70
    32
  0
VERTEX
  5
2DFA
330
2C52
100
AcDbEntity
  8
241
  6
Continuous
100
AcDbVertex
100
AcDb3dPolylineVertex
 10
220.328
 20
30.84169999999998
 30
0.0
 70
    32
  0
VERTEX
  5
2DFB
330
2C52
100
AcDbEntity
  8
241
  6
Continuous
100
AcDbVertex
100
AcDb3dPolylineVertex
 10
220.33
 20
30.85069999999999
 30
0.0
 70
    32
  0
VERTEX
  5
2DFC
330
2C52
100
AcDbEntity
  8
241
  6
Continuous
100
AcDbVertex
100
AcDb3dPolylineVertex
 10
220.3321
 20
30.85979999999999
 30
0.0
 70
    32
  0
VERTEX
  5
2DFD
330
2C52
100
AcDbEntity
  8
241
  6
Continuous
100
AcDbVertex
100
AcDb3dPolylineVertex
 10
220.3341
 20
30.86889999999999
 30
0.0
 70
    32
  0
VERTEX
  5
2DFE
330
2C52
100
AcDbEntity
  8
241
  6
Continuous
100
AcDbVertex
100
AcDb3dPolylineVertex
 10
220.3362
 20
30.87789999999999
 30
0.0
 70
    32
  0
VERTEX
  5
2DFF
330
2C52
100
AcDbEntity
  8
241
  6
Continuous
100
AcDbVertex
100
AcDb3dPolylineVertex
 10
220.3383
 20
30.88699999999998
 30
0.0
 70
    32
  0
VERTEX
  5
2E00
330
2C52
100
AcDbEntity
  8
241
  6
Continuous
100
AcDbVertex
100
AcDb3dPolylineVertex
 10
220.3404
 20
30.89609999999999
 30
0.0
 70
    32
  0
VERTEX
  5
2E01
330
2C52
100
AcDbEntity
  8
241
  6
Continuous
100
AcDbVertex
100
AcDb3dPolylineVertex
 10
220.3425
 20
30.90519999999999
 30
0.0
 70
    32
  0
VERTEX
  5
2E02
330
2C52
100
AcDbEntity
  8
241
  6
Continuous
100
AcDbVertex
100
AcDb3dPolylineVertex
 10
220.3446
 20
30.91439999999999
 30
0.0
 70
    32
  0
VERTEX
  5
2E03
330
2C52
100
AcDbEntity
  8
241
  6
Continuous
100
AcDbVertex
100
AcDb3dPolylineVertex
 10
220.3467
 20
30.92349999999999
 30
0.0
 70
    32
  0
VERTEX
  5
2E04
330
2C52
100
AcDbEntity
  8
241
  6
Continuous
100
AcDbVertex
100
AcDb3dPolylineVertex
 10
220.3489
 20
30.93259999999999
 30
0.0
 70
    32
  0
VERTEX
  5
2E05
330
2C52
100
AcDbEntity
  8
241
  6
Continuous
100
AcDbVertex
100
AcDb3dPolylineVertex
 10
220.351
 20
30.94169999999999
 30
0.0
 70
    32
  0
VERTEX
  5
2E06
330
2C52
100
AcDbEntity
  8
241
  6
Continuous
100
AcDbVertex
100
AcDb3dPolylineVertex
 10
220.3532
 20
30.95089999999999
 30
0.0
 70
    32
  0
VERTEX
  5
2E07
330
2C52
100
AcDbEntity
  8
241
  6
Continuous
100
AcDbVertex
100
AcDb3dPolylineVertex
 10
220.3554
 20
30.95999999999999
 30
0.0
 70
    32
  0
VERTEX
  5
2E08
330
2C52
100
AcDbEntity
  8
241
  6
Continuous
100
AcDbVertex
100
AcDb3dPolylineVertex
 10
220.3576
 20
30.96919999999999
 30
0.0
 70
    32
  0
VERTEX
  5
2E09
330
2C52
100
AcDbEntity
  8
241
  6
Continuous
100
AcDbVertex
100
AcDb3dPolylineVertex
 10
220.3598
 20
30.97829999999999
 30
0.0
 70
    32
  0
VERTEX
  5
2E0A
330
2C52
100
AcDbEntity
  8
241
  6
Continuous
100
AcDbVertex
100
AcDb3dPolylineVertex
 10
220.362
 20
30.98749999999999
 30
0.0
 70
    32
  0
VERTEX
  5
2E0B
330
2C52
100
AcDbEntity
  8
241
  6
Continuous
100
AcDbVertex
100
AcDb3dPolylineVertex
 10
220.3643
 20
30.99669999999999
 30
0.0
 70
    32
  0
VERTEX
  5
2E0C
330
2C52
100
AcDbEntity
  8
241
  6
Continuous
100
AcDbVertex
100
AcDb3dPolylineVertex
 10
220.3665
 20
31.00589999999999
 30
0.0
 70
    32
  0
VERTEX
  5
2E0D
330
2C52
100
AcDbEntity
  8
241
  6
Continuous
100
AcDbVertex
100
AcDb3dPolylineVertex
 10
220.3688
 20
31.01509999999999
 30
0.0
 70
    32
  0
VERTEX
  5
2E0E
330
2C52
100
AcDbEntity
  8
241
  6
Continuous
100
AcDbVertex
100
AcDb3dPolylineVertex
 10
220.3711
 20
31.02419999999999
 30
0.0
 70
    32
  0
VERTEX
  5
2E0F
330
2C52
100
AcDbEntity
  8
241
  6
Continuous
100
AcDbVertex
100
AcDb3dPolylineVertex
 10
220.3733
 20
31.03339999999999
 30
0.0
 70
    32
  0
VERTEX
  5
2E10
330
2C52
100
AcDbEntity
  8
241
  6
Continuous
100
AcDbVertex
100
AcDb3dPolylineVertex
 10
220.3756
 20
31.04259999999999
 30
0.0
 70
    32
  0
VERTEX
  5
2E11
330
2C52
100
AcDbEntity
  8
241
  6
Continuous
100
AcDbVertex
100
AcDb3dPolylineVertex
 10
220.378
 20
31.05189999999999
 30
0.0
 70
    32
  0
VERTEX
  5
2E12
330
2C52
100
AcDbEntity
  8
241
  6
Continuous
100
AcDbVertex
100
AcDb3dPolylineVertex
 10
220.3803
 20
31.06109999999999
 30
0.0
 70
    32
  0
VERTEX
  5
2E13
330
2C52
100
AcDbEntity
  8
241
  6
Continuous
100
AcDbVertex
100
AcDb3dPolylineVertex
 10
220.3826
 20
31.07029999999999
 30
0.0
 70
    32
  0
VERTEX
  5
2E14
330
2C52
100
AcDbEntity
  8
241
  6
Continuous
100
AcDbVertex
100
AcDb3dPolylineVertex
 10
220.385
 20
31.07949999999999
 30
0.0
 70
    32
  0
VERTEX
  5
2E15
330
2C52
100
AcDbEntity
  8
241
  6
Continuous
100
AcDbVertex
100
AcDb3dPolylineVertex
 10
220.3874
 20
31.08879999999999
 30
0.0
 70
    32
  0
VERTEX
  5
2E16
330
2C52
100
AcDbEntity
  8
241
  6
Continuous
100
AcDbVertex
100
AcDb3dPolylineVertex
 10
220.3897
 20
31.09799999999999
 30
0.0
 70
    32
  0
VERTEX
  5
2E17
330
2C52
100
AcDbEntity
  8
241
  6
Continuous
100
AcDbVertex
100
AcDb3dPolylineVertex
 10
220.3921
 20
31.10719999999999
 30
0.0
 70
    32
  0
VERTEX
  5
2E18
330
2C52
100
AcDbEntity
  8
241
  6
Continuous
100
AcDbVertex
100
AcDb3dPolylineVertex
 10
220.3945
 20
31.11649999999999
 30
0.0
 70
    32
  0
VERTEX
  5
2E19
330
2C52
100
AcDbEntity
  8
241
  6
Continuous
100
AcDbVertex
100
AcDb3dPolylineVertex
 10
220.397
 20
31.12579999999999
 30
0.0
 70
    32
  0
VERTEX
  5
2E1A
330
2C52
100
AcDbEntity
  8
241
  6
Continuous
100
AcDbVertex
100
AcDb3dPolylineVertex
 10
220.3994
 20
31.13499999999999
 30
0.0
 70
    32
  0
VERTEX
  5
2E1B
330
2C52
100
AcDbEntity
  8
241
  6
Continuous
100
AcDbVertex
100
AcDb3dPolylineVertex
 10
220.4018
 20
31.14429999999999
 30
0.0
 70
    32
  0
VERTEX
  5
2E1C
330
2C52
100
AcDbEntity
  8
241
  6
Continuous
100
AcDbVertex
100
AcDb3dPolylineVertex
 10
220.4043
 20
31.15349999999999
 30
0.0
 70
    32
  0
VERTEX
  5
2E1D
330
2C52
100
AcDbEntity
  8
241
  6
Continuous
100
AcDbVertex
100
AcDb3dPolylineVertex
 10
220.4068
 20
31.16279999999999
 30
0.0
 70
    32
  0
VERTEX
  5
2E1E
330
2C52
100
AcDbEntity
  8
241
  6
Continuous
100
AcDbVertex
100
AcDb3dPolylineVertex
 10
220.4092
 20
31.17209999999999
 30
0.0
 70
    32
  0
VERTEX
  5
2E1F
330
2C52
100
AcDbEntity
  8
241
  6
Continuous
100
AcDbVertex
100
AcDb3dPolylineVertex
 10
220.4117
 20
31.18139999999999
 30
0.0
 70
    32
  0
VERTEX
  5
2E20
330
2C52
100
AcDbEntity
  8
241
  6
Continuous
100
AcDbVertex
100
AcDb3dPolylineVertex
 10
220.4143
 20
31.19069999999999
 30
0.0
 70
    32
  0
VERTEX
  5
2E21
330
2C52
100
AcDbEntity
  8
241
  6
Continuous
100
AcDbVertex
100
AcDb3dPolylineVertex
 10
220.4168
 20
31.19999999999999
 30
0.0
 70
    32
  0
VERTEX
  5
2E22
330
2C52
100
AcDbEntity
  8
241
  6
Continuous
100
AcDbVertex
100
AcDb3dPolylineVertex
 10
220.4193
 20
31.20929999999999
 30
0.0
 70
    32
  0
VERTEX
  5
2E23
330
2C52
100
AcDbEntity
  8
241
  6
Continuous
100
AcDbVertex
100
AcDb3dPolylineVertex
 10
220.4219
 20
31.21859999999998
 30
0.0
 70
    32
  0
VERTEX
  5
2E24
330
2C52
100
AcDbEntity
  8
241
  6
Continuous
100
AcDbVertex
100
AcDb3dPolylineVertex
 10
220.4244
 20
31.22789999999999
 30
0.0
 70
    32
  0
VERTEX
  5
2E25
330
2C52
100
AcDbEntity
  8
241
  6
Continuous
100
AcDbVertex
100
AcDb3dPolylineVertex
 10
220.427
 20
31.23719999999999
 30
0.0
 70
    32
  0
VERTEX
  5
2E26
330
2C52
100
AcDbEntity
  8
241
  6
Continuous
100
AcDbVertex
100
AcDb3dPolylineVertex
 10
220.4296
 20
31.24649999999999
 30
0.0
 70
    32
  0
VERTEX
  5
2E27
330
2C52
100
AcDbEntity
  8
241
  6
Continuous
100
AcDbVertex
100
AcDb3dPolylineVertex
 10
220.4322
 20
31.25579999999999
 30
0.0
 70
    32
  0
VERTEX
  5
2E28
330
2C52
100
AcDbEntity
  8
241
  6
Continuous
100
AcDbVertex
100
AcDb3dPolylineVertex
 10
220.4348
 20
31.26509999999999
 30
0.0
 70
    32
  0
VERTEX
  5
2E29
330
2C52
100
AcDbEntity
  8
241
  6
Continuous
100
AcDbVertex
100
AcDb3dPolylineVertex
 10
220.4374
 20
31.27449999999999
 30
0.0
 70
    32
  0
VERTEX
  5
2E2A
330
2C52
100
AcDbEntity
  8
241
  6
Continuous
100
AcDbVertex
100
AcDb3dPolylineVertex
 10
220.4401
 20
31.28379999999999
 30
0.0
 70
    32
  0
VERTEX
  5
2E2B
330
2C52
100
AcDbEntity
  8
241
  6
Continuous
100
AcDbVertex
100
AcDb3dPolylineVertex
 10
220.4427
 20
31.29309999999998
 30
0.0
 70
    32
  0
VERTEX
  5
2E2C
330
2C52
100
AcDbEntity
  8
241
  6
Continuous
100
AcDbVertex
100
AcDb3dPolylineVertex
 10
220.4454
 20
31.30249999999998
 30
0.0
 70
    32
  0
VERTEX
  5
2E2D
330
2C52
100
AcDbEntity
  8
241
  6
Continuous
100
AcDbVertex
100
AcDb3dPolylineVertex
 10
220.4481
 20
31.31179999999999
 30
0.0
 70
    32
  0
VERTEX
  5
2E2E
330
2C52
100
AcDbEntity
  8
241
  6
Continuous
100
AcDbVertex
100
AcDb3dPolylineVertex
 10
220.4508
 20
31.32119999999999
 30
0.0
 70
    32
  0
VERTEX
  5
2E2F
330
2C52
100
AcDbEntity
  8
241
  6
Continuous
100
AcDbVertex
100
AcDb3dPolylineVertex
 10
220.4535
 20
31.33049999999999
 30
0.0
 70
    32
  0
VERTEX
  5
2E30
330
2C52
100
AcDbEntity
  8
241
  6
Continuous
100
AcDbVertex
100
AcDb3dPolylineVertex
 10
220.4562
 20
31.33989999999999
 30
0.0
 70
    32
  0
VERTEX
  5
2E31
330
2C52
100
AcDbEntity
  8
241
  6
Continuous
100
AcDbVertex
100
AcDb3dPolylineVertex
 10
220.4589
 20
31.34919999999999
 30
0.0
 70
    32
  0
VERTEX
  5
2E32
330
2C52
100
AcDbEntity
  8
241
  6
Continuous
100
AcDbVertex
100
AcDb3dPolylineVertex
 10
220.4617
 20
31.35859999999999
 30
0.0
 70
    32
  0
VERTEX
  5
2E33
330
2C52
100
AcDbEntity
  8
241
  6
Continuous
100
AcDbVertex
100
AcDb3dPolylineVertex
 10
220.4644
 20
31.36789999999999
 30
0.0
 70
    32
  0
VERTEX
  5
2E34
330
2C52
100
AcDbEntity
  8
241
  6
Continuous
100
AcDbVertex
100
AcDb3dPolylineVertex
 10
220.4672
 20
31.37729999999999
 30
0.0
 70
    32
  0
VERTEX
  5
2E35
330
2C52
100
AcDbEntity
  8
241
  6
Continuous
100
AcDbVertex
100
AcDb3dPolylineVertex
 10
220.47
 20
31.38669999999999
 30
0.0
 70
    32
  0
VERTEX
  5
2E36
330
2C52
100
AcDbEntity
  8
241
  6
Continuous
100
AcDbVertex
100
AcDb3dPolylineVertex
 10
220.4728
 20
31.39599999999999
 30
0.0
 70
    32
  0
VERTEX
  5
2E37
330
2C52
100
AcDbEntity
  8
241
  6
Continuous
100
AcDbVertex
100
AcDb3dPolylineVertex
 10
220.4756
 20
31.40539999999999
 30
0.0
 70
    32
  0
VERTEX
  5
2E38
330
2C52
100
AcDbEntity
  8
241
  6
Continuous
100
AcDbVertex
100
AcDb3dPolylineVertex
 10
220.4784
 20
31.41479999999999
 30
0.0
 70
    32
  0
VERTEX
  5
2E39
330
2C52
100
AcDbEntity
  8
241
  6
Continuous
100
AcDbVertex
100
AcDb3dPolylineVertex
 10
220.4813
 20
31.42409999999999
 30
0.0
 70
    32
  0
VERTEX
  5
2E3A
330
2C52
100
AcDbEntity
  8
241
  6
Continuous
100
AcDbVertex
100
AcDb3dPolylineVertex
 10
220.4841
 20
31.43349999999998
 30
0.0
 70
    32
  0
VERTEX
  5
2E3B
330
2C52
100
AcDbEntity
  8
241
  6
Continuous
100
AcDbVertex
100
AcDb3dPolylineVertex
 10
220.487
 20
31.44289999999999
 30
0.0
 70
    32
  0
VERTEX
  5
2E3C
330
2C52
100
AcDbEntity
  8
241
  6
Continuous
100
AcDbVertex
100
AcDb3dPolylineVertex
 10
220.4899
 20
31.45229999999999
 30
0.0
 70
    32
  0
VERTEX
  5
2E3D
330
2C52
100
AcDbEntity
  8
241
  6
Continuous
100
AcDbVertex
100
AcDb3dPolylineVertex
 10
220.4928
 20
31.46169999999999
 30
0.0
 70
    32
  0
VERTEX
  5
2E3E
330
2C52
100
AcDbEntity
  8
241
  6
Continuous
100
AcDbVertex
100
AcDb3dPolylineVertex
 10
220.4957
 20
31.47099999999999
 30
0.0
 70
    32
  0
VERTEX
  5
2E3F
330
2C52
100
AcDbEntity
  8
241
  6
Continuous
100
AcDbVertex
100
AcDb3dPolylineVertex
 10
220.4986
 20
31.48039999999999
 30
0.0
 70
    32
  0
VERTEX
  5
2E40
330
2C52
100
AcDbEntity
  8
241
  6
Continuous
100
AcDbVertex
100
AcDb3dPolylineVertex
 10
220.5015
 20
31.48979999999999
 30
0.0
 70
    32
  0
VERTEX
  5
2E41
330
2C52
100
AcDbEntity
  8
241
  6
Continuous
100
AcDbVertex
100
AcDb3dPolylineVertex
 10
220.5045
 20
31.49919999999998
 30
0.0
 70
    32
  0
VERTEX
  5
2E42
330
2C52
100
AcDbEntity
  8
241
  6
Continuous
100
AcDbVertex
100
AcDb3dPolylineVertex
 10
220.5074
 20
31.50859999999999
 30
0.0
 70
    32
  0
VERTEX
  5
2E43
330
2C52
100
AcDbEntity
  8
241
  6
Continuous
100
AcDbVertex
100
AcDb3dPolylineVertex
 10
220.5104
 20
31.51799999999999
 30
0.0
 70
    32
  0
VERTEX
  5
2E44
330
2C52
100
AcDbEntity
  8
241
  6
Continuous
100
AcDbVertex
100
AcDb3dPolylineVertex
 10
220.5134
 20
31.52739999999999
 30
0.0
 70
    32
  0
VERTEX
  5
2E45
330
2C52
100
AcDbEntity
  8
241
  6
Continuous
100
AcDbVertex
100
AcDb3dPolylineVertex
 10
220.5164
 20
31.53679999999999
 30
0.0
 70
    32
  0
VERTEX
  5
2E46
330
2C52
100
AcDbEntity
  8
241
  6
Continuous
100
AcDbVertex
100
AcDb3dPolylineVertex
 10
220.5194
 20
31.54619999999999
 30
0.0
 70
    32
  0
VERTEX
  5
2E47
330
2C52
100
AcDbEntity
  8
241
  6
Continuous
100
AcDbVertex
100
AcDb3dPolylineVertex
 10
220.5224
 20
31.55559999999999
 30
0.0
 70
    32
  0
VERTEX
  5
2E48
330
2C52
100
AcDbEntity
  8
241
  6
Continuous
100
AcDbVertex
100
AcDb3dPolylineVertex
 10
220.5254
 20
31.56499999999999
 30
0.0
 70
    32
  0
VERTEX
  5
2E49
330
2C52
100
AcDbEntity
  8
241
  6
Continuous
100
AcDbVertex
100
AcDb3dPolylineVertex
 10
220.5285
 20
31.57439999999999
 30
0.0
 70
    32
  0
VERTEX
  5
2E4A
330
2C52
100
AcDbEntity
  8
241
  6
Continuous
100
AcDbVertex
100
AcDb3dPolylineVertex
 10
220.5316
 20
31.58379999999999
 30
0.0
 70
    32
  0
VERTEX
  5
2E4B
330
2C52
100
AcDbEntity
  8
241
  6
Continuous
100
AcDbVertex
100
AcDb3dPolylineVertex
 10
220.5346
 20
31.59319999999999
 30
0.0
 70
    32
  0
VERTEX
  5
2E4C
330
2C52
100
AcDbEntity
  8
241
  6
Continuous
100
AcDbVertex
100
AcDb3dPolylineVertex
 10
220.5377
 20
31.60259999999999
 30
0.0
 70
    32
  0
VERTEX
  5
2E4D
330
2C52
100
AcDbEntity
  8
241
  6
Continuous
100
AcDbVertex
100
AcDb3dPolylineVertex
 10
220.5408
 20
31.61199999999999
 30
0.0
 70
    32
  0
VERTEX
  5
2E4E
330
2C52
100
AcDbEntity
  8
241
  6
Continuous
100
AcDbVertex
100
AcDb3dPolylineVertex
 10
220.5439
 20
31.62139999999999
 30
0.0
 70
    32
  0
VERTEX
  5
2E4F
330
2C52
100
AcDbEntity
  8
241
  6
Continuous
100
AcDbVertex
100
AcDb3dPolylineVertex
 10
220.5471
 20
31.63079999999999
 30
0.0
 70
    32
  0
VERTEX
  5
2E50
330
2C52
100
AcDbEntity
  8
241
  6
Continuous
100
AcDbVertex
100
AcDb3dPolylineVertex
 10
220.5502
 20
31.64019999999999
 30
0.0
 70
    32
  0
VERTEX
  5
2E51
330
2C52
100
AcDbEntity
  8
241
  6
Continuous
100
AcDbVertex
100
AcDb3dPolylineVertex
 10
220.5534
 20
31.64959999999999
 30
0.0
 70
    32
  0
VERTEX
  5
2E52
330
2C52
100
AcDbEntity
  8
241
  6
Continuous
100
AcDbVertex
100
AcDb3dPolylineVertex
 10
220.5565
 20
31.65899999999999
 30
0.0
 70
    32
  0
VERTEX
  5
2E53
330
2C52
100
AcDbEntity
  8
241
  6
Continuous
100
AcDbVertex
100
AcDb3dPolylineVertex
 10
220.5597
 20
31.66839999999999
 30
0.0
 70
    32
  0
VERTEX
  5
2E54
330
2C52
100
AcDbEntity
  8
241
  6
Continuous
100
AcDbVertex
100
AcDb3dPolylineVertex
 10
220.5629
 20
31.67779999999999
 30
0.0
 70
    32
  0
VERTEX
  5
2E55
330
2C52
100
AcDbEntity
  8
241
  6
Continuous
100
AcDbVertex
100
AcDb3dPolylineVertex
 10
220.5661
 20
31.68719999999999
 30
0.0
 70
    32
  0
VERTEX
  5
2E56
330
2C52
100
AcDbEntity
  8
241
  6
Continuous
100
AcDbVertex
100
AcDb3dPolylineVertex
 10
220.5693
 20
31.69659999999999
 30
0.0
 70
    32
  0
VERTEX
  5
2E57
330
2C52
100
AcDbEntity
  8
241
  6
Continuous
100
AcDbVertex
100
AcDb3dPolylineVertex
 10
220.5726
 20
31.70599999999998
 30
0.0
 70
    32
  0
VERTEX
  5
2E58
330
2C52
100
AcDbEntity
  8
241
  6
Continuous
100
AcDbVertex
100
AcDb3dPolylineVertex
 10
220.5758
 20
31.71539999999998
 30
0.0
 70
    32
  0
VERTEX
  5
2E59
330
2C52
100
AcDbEntity
  8
241
  6
Continuous
100
AcDbVertex
100
AcDb3dPolylineVertex
 10
220.5791
 20
31.72489999999999
 30
0.0
 70
    32
  0
VERTEX
  5
2E5A
330
2C52
100
AcDbEntity
  8
241
  6
Continuous
100
AcDbVertex
100
AcDb3dPolylineVertex
 10
220.5823
 20
31.73429999999999
 30
0.0
 70
    32
  0
VERTEX
  5
2E5B
330
2C52
100
AcDbEntity
  8
241
  6
Continuous
100
AcDbVertex
100
AcDb3dPolylineVertex
 10
220.5856
 20
31.74369999999999
 30
0.0
 70
    32
  0
VERTEX
  5
2E5C
330
2C52
100
AcDbEntity
  8
241
  6
Continuous
100
AcDbVertex
100
AcDb3dPolylineVertex
 10
220.5889
 20
31.75309999999999
 30
0.0
 70
    32
  0
VERTEX
  5
2E5D
330
2C52
100
AcDbEntity
  8
241
  6
Continuous
100
AcDbVertex
100
AcDb3dPolylineVertex
 10
220.5922
 20
31.7625
 30
0.0
 70
    32
  0
VERTEX
  5
2E5E
330
2C52
100
AcDbEntity
  8
241
  6
Continuous
100
AcDbVertex
100
AcDb3dPolylineVertex
 10
220.5955
 20
31.77189999999999
 30
0.0
 70
    32
  0
VERTEX
  5
2E5F
330
2C52
100
AcDbEntity
  8
241
  6
Continuous
100
AcDbVertex
100
AcDb3dPolylineVertex
 10
220.5989
 20
31.78129999999999
 30
0.0
 70
    32
  0
VERTEX
  5
2E60
330
2C52
100
AcDbEntity
  8
241
  6
Continuous
100
AcDbVertex
100
AcDb3dPolylineVertex
 10
220.6022
 20
31.79069999999999
 30
0.0
 70
    32
  0
VERTEX
  5
2E61
330
2C52
100
AcDbEntity
  8
241
  6
Continuous
100
AcDbVertex
100
AcDb3dPolylineVertex
 10
220.6056
 20
31.80009999999999
 30
0.0
 70
    32
  0
VERTEX
  5
2E62
330
2C52
100
AcDbEntity
  8
241
  6
Continuous
100
AcDbVertex
100
AcDb3dPolylineVertex
 10
220.6089
 20
31.80949999999999
 30
0.0
 70
    32
  0
VERTEX
  5
2E63
330
2C52
100
AcDbEntity
  8
241
  6
Continuous
100
AcDbVertex
100
AcDb3dPolylineVertex
 10
220.6123
 20
31.81889999999999
 30
0.0
 70
    32
  0
VERTEX
  5
2E64
330
2C52
100
AcDbEntity
  8
241
  6
Continuous
100
AcDbVertex
100
AcDb3dPolylineVertex
 10
220.6157
 20
31.82829999999999
 30
0.0
 70
    32
  0
VERTEX
  5
2E65
330
2C52
100
AcDbEntity
  8
241
  6
Continuous
100
AcDbVertex
100
AcDb3dPolylineVertex
 10
220.6191
 20
31.83769999999999
 30
0.0
 70
    32
  0
VERTEX
  5
2E66
330
2C52
100
AcDbEntity
  8
241
  6
Continuous
100
AcDbVertex
100
AcDb3dPolylineVertex
 10
220.6225
 20
31.84709999999999
 30
0.0
 70
    32
  0
VERTEX
  5
2E67
330
2C52
100
AcDbEntity
  8
241
  6
Continuous
100
AcDbVertex
100
AcDb3dPolylineVertex
 10
220.626
 20
31.85639999999999
 30
0.0
 70
    32
  0
VERTEX
  5
2E68
330
2C52
100
AcDbEntity
  8
241
  6
Continuous
100
AcDbVertex
100
AcDb3dPolylineVertex
 10
220.6294
 20
31.86579999999999
 30
0.0
 70
    32
  0
VERTEX
  5
2E69
330
2C52
100
AcDbEntity
  8
241
  6
Continuous
100
AcDbVertex
100
AcDb3dPolylineVertex
 10
220.6329
 20
31.87519999999999
 30
0.0
 70
    32
  0
VERTEX
  5
2E6A
330
2C52
100
AcDbEntity
  8
241
  6
Continuous
100
AcDbVertex
100
AcDb3dPolylineVertex
 10
220.6363
 20
31.88459999999999
 30
0.0
 70
    32
  0
VERTEX
  5
2E6B
330
2C52
100
AcDbEntity
  8
241
  6
Continuous
100
AcDbVertex
100
AcDb3dPolylineVertex
 10
220.6398
 20
31.89399999999999
 30
0.0
 70
    32
  0
VERTEX
  5
2E6C
330
2C52
100
AcDbEntity
  8
241
  6
Continuous
100
AcDbVertex
100
AcDb3dPolylineVertex
 10
220.6433
 20
31.90339999999999
 30
0.0
 70
    32
  0
VERTEX
  5
2E6D
330
2C52
100
AcDbEntity
  8
241
  6
Continuous
100
AcDbVertex
100
AcDb3dPolylineVertex
 10
220.6468
 20
31.91279999999999
 30
0.0
 70
    32
  0
VERTEX
  5
2E6E
330
2C52
100
AcDbEntity
  8
241
  6
Continuous
100
AcDbVertex
100
AcDb3dPolylineVertex
 10
220.6503
 20
31.92209999999999
 30
0.0
 70
    32
  0
VERTEX
  5
2E6F
330
2C52
100
AcDbEntity
  8
241
  6
Continuous
100
AcDbVertex
100
AcDb3dPolylineVertex
 10
220.6539
 20
31.93149999999999
 30
0.0
 70
    32
  0
VERTEX
  5
2E70
330
2C52
100
AcDbEntity
  8
241
  6
Continuous
100
AcDbVertex
100
AcDb3dPolylineVertex
 10
220.6574
 20
31.94089999999999
 30
0.0
 70
    32
  0
VERTEX
  5
2E71
330
2C52
100
AcDbEntity
  8
241
  6
Continuous
100
AcDbVertex
100
AcDb3dPolylineVertex
 10
220.661
 20
31.95029999999999
 30
0.0
 70
    32
  0
VERTEX
  5
2E72
330
2C52
100
AcDbEntity
  8
241
  6
Continuous
100
AcDbVertex
100
AcDb3dPolylineVertex
 10
220.6645
 20
31.95959999999999
 30
0.0
 70
    32
  0
VERTEX
  5
2E73
330
2C52
100
AcDbEntity
  8
241
  6
Continuous
100
AcDbVertex
100
AcDb3dPolylineVertex
 10
220.6681
 20
31.96899999999999
 30
0.0
 70
    32
  0
VERTEX
  5
2E74
330
2C52
100
AcDbEntity
  8
241
  6
Continuous
100
AcDbVertex
100
AcDb3dPolylineVertex
 10
220.6717
 20
31.97839999999999
 30
0.0
 70
    32
  0
VERTEX
  5
2E75
330
2C52
100
AcDbEntity
  8
241
  6
Continuous
100
AcDbVertex
100
AcDb3dPolylineVertex
 10
220.6753
 20
31.98769999999999
 30
0.0
 70
    32
  0
VERTEX
  5
2E76
330
2C52
100
AcDbEntity
  8
241
  6
Continuous
100
AcDbVertex
100
AcDb3dPolylineVertex
 10
220.6789
 20
31.99709999999999
 30
0.0
 70
    32
  0
VERTEX
  5
2E77
330
2C52
100
AcDbEntity
  8
241
  6
Continuous
100
AcDbVertex
100
AcDb3dPolylineVertex
 10
220.6826
 20
32.00639999999999
 30
0.0
 70
    32
  0
VERTEX
  5
2E78
330
2C52
100
AcDbEntity
  8
241
  6
Continuous
100
AcDbVertex
100
AcDb3dPolylineVertex
 10
220.6862
 20
32.01579999999998
 30
0.0
 70
    32
  0
VERTEX
  5
2E79
330
2C52
100
AcDbEntity
  8
241
  6
Continuous
100
AcDbVertex
100
AcDb3dPolylineVertex
 10
220.6899
 20
32.02519999999998
 30
0.0
 70
    32
  0
VERTEX
  5
2E7A
330
2C52
100
AcDbEntity
  8
241
  6
Continuous
100
AcDbVertex
100
AcDb3dPolylineVertex
 10
220.6935
 20
32.03449999999999
 30
0.0
 70
    32
  0
VERTEX
  5
2E7B
330
2C52
100
AcDbEntity
  8
241
  6
Continuous
100
AcDbVertex
100
AcDb3dPolylineVertex
 10
220.6972
 20
32.04379999999999
 30
0.0
 70
    32
  0
VERTEX
  5
2E7C
330
2C52
100
AcDbEntity
  8
241
  6
Continuous
100
AcDbVertex
100
AcDb3dPolylineVertex
 10
220.7009
 20
32.05319999999999
 30
0.0
 70
    32
  0
VERTEX
  5
2E7D
330
2C52
100
AcDbEntity
  8
241
  6
Continuous
100
AcDbVertex
100
AcDb3dPolylineVertex
 10
220.7046
 20
32.06249999999999
 30
0.0
 70
    32
  0
VERTEX
  5
2E7E
330
2C52
100
AcDbEntity
  8
241
  6
Continuous
100
AcDbVertex
100
AcDb3dPolylineVertex
 10
220.7083
 20
32.07189999999999
 30
0.0
 70
    32
  0
VERTEX
  5
2E7F
330
2C52
100
AcDbEntity
  8
241
  6
Continuous
100
AcDbVertex
100
AcDb3dPolylineVertex
 10
220.712
 20
32.08119999999999
 30
0.0
 70
    32
  0
VERTEX
  5
2E80
330
2C52
100
AcDbEntity
  8
241
  6
Continuous
100
AcDbVertex
100
AcDb3dPolylineVertex
 10
220.7158
 20
32.09049999999999
 30
0.0
 70
    32
  0
VERTEX
  5
2E81
330
2C52
100
AcDbEntity
  8
241
  6
Continuous
100
AcDbVertex
100
AcDb3dPolylineVertex
 10
220.7195
 20
32.09989999999999
 30
0.0
 70
    32
  0
VERTEX
  5
2E82
330
2C52
100
AcDbEntity
  8
241
  6
Continuous
100
AcDbVertex
100
AcDb3dPolylineVertex
 10
220.7233
 20
32.10919999999999
 30
0.0
 70
    32
  0
VERTEX
  5
2E83
330
2C52
100
AcDbEntity
  8
241
  6
Continuous
100
AcDbVertex
100
AcDb3dPolylineVertex
 10
220.727
 20
32.11849999999998
 30
0.0
 70
    32
  0
VERTEX
  5
2E84
330
2C52
100
AcDbEntity
  8
241
  6
Continuous
100
AcDbVertex
100
AcDb3dPolylineVertex
 10
220.7308
 20
32.12779999999999
 30
0.0
 70
    32
  0
VERTEX
  5
2E85
330
2C52
100
AcDbEntity
  8
241
  6
Continuous
100
AcDbVertex
100
AcDb3dPolylineVertex
 10
220.7346
 20
32.13709999999998
 30
0.0
 70
    32
  0
VERTEX
  5
2E86
330
2C52
100
AcDbEntity
  8
241
  6
Continuous
100
AcDbVertex
100
AcDb3dPolylineVertex
 10
220.7384
 20
32.14639999999999
 30
0.0
 70
    32
  0
VERTEX
  5
2E87
330
2C52
100
AcDbEntity
  8
241
  6
Continuous
100
AcDbVertex
100
AcDb3dPolylineVertex
 10
220.7423
 20
32.15569999999999
 30
0.0
 70
    32
  0
VERTEX
  5
2E88
330
2C52
100
AcDbEntity
  8
241
  6
Continuous
100
AcDbVertex
100
AcDb3dPolylineVertex
 10
220.7461
 20
32.16499999999999
 30
0.0
 70
    32
  0
VERTEX
  5
2E89
330
2C52
100
AcDbEntity
  8
241
  6
Continuous
100
AcDbVertex
100
AcDb3dPolylineVertex
 10
220.7499
 20
32.17429999999999
 30
0.0
 70
    32
  0
VERTEX
  5
2E8A
330
2C52
100
AcDbEntity
  8
241
  6
Continuous
100
AcDbVertex
100
AcDb3dPolylineVertex
 10
220.7538
 20
32.18359999999999
 30
0.0
 70
    32
  0
VERTEX
  5
2E8B
330
2C52
100
AcDbEntity
  8
241
  6
Continuous
100
AcDbVertex
100
AcDb3dPolylineVertex
 10
220.7576
 20
32.19289999999999
 30
0.0
 70
    32
  0
VERTEX
  5
2E8C
330
2C52
100
AcDbEntity
  8
241
  6
Continuous
100
AcDbVertex
100
AcDb3dPolylineVertex
 10
220.7615
 20
32.20219999999998
 30
0.0
 70
    32
  0
VERTEX
  5
2E8D
330
2C52
100
AcDbEntity
  8
241
  6
Continuous
100
AcDbVertex
100
AcDb3dPolylineVertex
 10
220.7654
 20
32.21139999999998
 30
0.0
 70
    32
  0
VERTEX
  5
2E8E
330
2C52
100
AcDbEntity
  8
241
  6
Continuous
100
AcDbVertex
100
AcDb3dPolylineVertex
 10
220.7693
 20
32.22069999999999
 30
0.0
 70
    32
  0
VERTEX
  5
2E8F
330
2C52
100
AcDbEntity
  8
241
  6
Continuous
100
AcDbVertex
100
AcDb3dPolylineVertex
 10
220.7732
 20
32.22999999999998
 30
0.0
 70
    32
  0
VERTEX
  5
2E90
330
2C52
100
AcDbEntity
  8
241
  6
Continuous
100
AcDbVertex
100
AcDb3dPolylineVertex
 10
220.7771
 20
32.23919999999998
 30
0.0
 70
    32
  0
VERTEX
  5
2E91
330
2C52
100
AcDbEntity
  8
241
  6
Continuous
100
AcDbVertex
100
AcDb3dPolylineVertex
 10
220.7811
 20
32.24849999999999
 30
0.0
 70
    32
  0
VERTEX
  5
2E92
330
2C52
100
AcDbEntity
  8
241
  6
Continuous
100
AcDbVertex
100
AcDb3dPolylineVertex
 10
220.785
 20
32.25779999999999
 30
0.0
 70
    32
  0
SEQEND
  5
2E93
330
2C52
100
AcDbEntity
  8
241
  6
Continuous
  0
ARC
  5
2E97
330
1A
100
AcDbEntity
  8
240
  6
Continuous
100
AcDbCircle
 10
245.0
 20
-0.0000000000000142
 30
0.0
 40
60.0
100
AcDbArc
 50
25.84193275999999
 51
53.13010218999997
  0
LINE
  5
2E99
330
1A
100
AcDbEntity
  8
241
  6
Continuous
100
AcDbLine
 10
270.0
 20
24.99999999999998
 30
0.0
 11
270.0000000000001
 21
49.99999992499998
 31
0.0
  0
ARC
  5
2E9C
330
1A
100
AcDbEntity
  8
240
  6
Continuous
100
AcDbCircle
 10
275.00000012
 20
39.99999990999999
 30
0.0
 40
10.0
100
AcDbArc
 50
53.13010218999997
 51
89.99999983
  0
ARC
  5
2E9E
330
1A
100
AcDbEntity
  8
240
  6
Continuous
100
AcDbCircle
 10
272.0
 20
13.07669682999998
 30
0.0
 40
30.0
100
AcDbArc
 50
0.0
 51
25.84193275999999
  0
LINE
  5
2E9F
330
1A
100
AcDbEntity
  8
240
  6
Continuous
100
AcDbLine
 10
302.0
 20
13.07669682999998
 30
0.0
 11
302.0
 21
6.999999999999985
 31
0.0
  0
LINE
  5
2EE3
330
1A
100
AcDbEntity
  8
240
  6
Continuous
100
AcDbLine
 10
-0.0000000000000071
 20
-34.92500000000001
 30
0.0
 11
-101.7999999999999
 21
-20.07916666518844
 31
0.0
  0
LINE
  5
2EE4
330
1A
100
AcDbEntity
  8
240
  6
Continuous
100
AcDbLine
 10
-0.0000000000000071
 20
34.92500000000001
 30
0.0
 11
-101.7999999999999
 21
20.07916666518844
 31
0.0
  0
LINE
  5
2EE5
330
1A
100
AcDbEntity
  8
240
  6
Continuous
100
AcDbLine
 10
-101.7999999999999
 20
20.07916666518844
 30
0.0
 11
-101.7999999999999
 21
-20.07916666518844
 31
0.0
  0
LINE
  5
2EE6
330
1A
100
AcDbEntity
  8
241
  6
Continuous
100
AcDbLine
 10
30.70000000000006
 20
50.0
 30
0.0
 11
30.70000000000006
 21
8.539906322671839
 31
0.0
  0
LINE
  5
2EE7
330
1A
100
AcDbEntity
  8
241
  6
Continuous
100
AcDbLine
 10
26.36987297999996
 20
42.5
 30
0.0
 11
26.36987297999996
 21
11.64415681647545
 31
0.0
  0
LINE
  5
2EE8
330
1A
100
AcDbEntity
  8
241
  6
Continuous
100
AcDbLine
 10
20.03012702
 20
42.5
 30
0.0
 11
20.03012702
 21
12.69999999999991
 31
0.0
  0
LINE
  5
2EE9
330
1A
100
AcDbEntity
  8
241
  6
Continuous
100
AcDbLine
 10
15.70000000000003
 20
50.0
 30
0.0
 11
15.70000000000003
 21
12.69999999999991
 31
0.0
  0
LINE
  5
2EEC
330
1A
100
AcDbEntity
  8
241
  6
Continuous
100
AcDbLine
 10
15.70000000000003
 20
-50.0
 30
0.0
 11
15.70000000000003
 21
-12.7
 31
0.0
  0
LINE
  5
2EED
330
1A
100
AcDbEntity
  8
241
  6
Continuous
100
AcDbLine
 10
20.03012702
 20
-42.5
 30
0.0
 11
20.03012702
 21
-12.7
 31
0.0
  0
LINE
  5
2EEE
330
1A
100
AcDbEntity
  8
241
  6
Continuous
100
AcDbLine
 10
30.70000000000006
 20
-50.0
 30
0.0
 11
30.70000000000006
 21
-8.539906322671951
 31
0.0
  0
LINE
  5
2EEF
330
1A
100
AcDbEntity
  8
241
  6
Continuous
100
AcDbLine
 10
26.36987297999996
 20
-42.5
 30
0.0
 11
26.36987297999996
 21
-11.64415681647556
 31
0.0
  0
LINE
  5
2EF0
330
1A
100
AcDbEntity
  8
240
  6
Continuous
100
AcDbLine
 10
1.499999999999992
 20
-50.0
 30
0.0
 11
1.499999999999992
 21
-34.92500000000001
 31
0.0
  0
LINE
  5
2EF1
330
1A
100
AcDbEntity
  8
241
  6
Continuous
100
AcDbLine
 10
37.99999999999999
 20
-50.0
 30
0.0
 11
37.99999999999999
 21
50.0
 31
0.0
  0
LINE
  5
2EF2
330
1A
100
AcDbEntity
  8
240
  6
Continuous
100
AcDbLine
 10
37.99999999999999
 20
-50.0
 30
0.0
 11
30.70000000000006
 21
-50.0
 31
0.0
  0
LINE
  5
2EF3
330
1A
100
AcDbEntity
  8
240
  6
Continuous
100
AcDbLine
 10
1.499999999999992
 20
-50.0
 30
0.0
 11
15.70000000000003
 21
-50.0
 31
0.0
  0
LINE
  5
2EF4
330
1A
100
AcDbEntity
  8
240
  6
Continuous
100
AcDbLine
 10
26.36987297999996
 20
-42.5
 30
0.0
 11
20.03012702
 21
-42.5
 31
0.0
  0
LINE
  5
2EF5
330
1A
100
AcDbEntity
  8
240
  6
Continuous
100
AcDbLine
 10
20.03012702
 20
-42.5
 30
0.0
 11
15.70000000000003
 21
-50.0
 31
0.0
  0
LINE
  5
2EF6
330
1A
100
AcDbEntity
  8
240
  6
Continuous
100
AcDbLine
 10
26.36987297999996
 20
-42.5
 30
0.0
 11
30.70000000000006
 21
-50.0
 31
0.0
  0
LINE
  5
2EF7
330
1A
100
AcDbEntity
  8
241
  6
Continuous
100
AcDbLine
 10
1.499999999999992
 20
-34.92500000000001
 30
0.0
 11
1.499999999999992
 21
34.92500000000001
 31
0.0
  0
LINE
  5
2EF8
330
1A
100
AcDbEntity
  8
241
  6
Continuous
100
AcDbLine
 10
-0.0000000000000071
 20
-34.92500000000001
 30
0.0
 11
-0.0000000000000071
 21
34.92500000000001
 31
0.0
  0
LINE
  5
2EF9
330
1A
100
AcDbEntity
  8
240
  6
Continuous
100
AcDbLine
 10
-0.0000000000000071
 20
-34.92500000000001
 30
0.0
 11
1.499999999999992
 21
-34.92500000000001
 31
0.0
  0
LINE
  5
2EFA
330
1A
100
AcDbEntity
  8
240
  6
Continuous
100
AcDbLine
 10
30.70000000000006
 20
50.0
 30
0.0
 11
37.99999999999999
 21
50.0
 31
0.0
  0
LINE
  5
2EFB
330
1A
100
AcDbEntity
  8
240
  6
Continuous
100
AcDbLine
 10
1.499999999999992
 20
50.0
 30
0.0
 11
1.499999999999992
 21
34.92500000000001
 31
0.0
  0
LINE
  5
2EFC
330
1A
100
AcDbEntity
  8
240
  6
Continuous
100
AcDbLine
 10
-0.0000000000000071
 20
34.92500000000001
 30
0.0
 11
1.499999999999992
 21
34.92500000000001
 31
0.0
  0
LINE
  5
2EFD
330
1A
100
AcDbEntity
  8
240
  6
Continuous
100
AcDbLine
 10
15.70000000000003
 20
50.0
 30
0.0
 11
1.499999999999992
 21
50.0
 31
0.0
  0
LINE
  5
2EFE
330
1A
100
AcDbEntity
  8
240
  6
Continuous
100
AcDbLine
 10
26.36987297999996
 20
42.5
 30
0.0
 11
20.03012702
 21
42.5
 31
0.0
  0
LINE
  5
2EFF
330
1A
100
AcDbEntity
  8
240
  6
Continuous
100
AcDbLine
 10
20.03012702
 20
42.5
 30
0.0
 11
15.70000000000003
 21
50.0
 31
0.0
  0
LINE
  5
2F00
330
1A
100
AcDbEntity
  8
240
  6
Continuous
100
AcDbLine
 10
26.36987297999996
 20
42.5
 30
0.0
 11
30.70000000000006
 21
50.0
 31
0.0
  0
LINE
  5
2F01
330
1A
100
AcDbEntity
  8
247
  6
Continuous
100
AcDbLine
 10
10.49999999999999
 20
-26.25000000007004
 30
0.0
 11
10.49999999999999
 21
-19.55769230803003
 31
0.0
  0
ARC
  5
2F02
330
1A
100
AcDbEntity
  8
247
  6
Continuous
100
AcDbCircle
 10
8.750000000070022
 20
-26.25000000007004
 30
0.0
 40
1.749999999929999
100
AcDbArc
 50
180.0
 51
0.0
  0
ARC
  5
2F03
330
1A
100
AcDbEntity
  8
247
  6
Continuous
100
AcDbCircle
 10
8.750000000070022
 20
-19.55769230803003
 30
0.0
 40
1.749999999929999
100
AcDbArc
 50
0.0
 51
180.0
  0
LINE
  5
2F04
330
1A
100
AcDbEntity
  8
247
  6
Continuous
100
AcDbLine
 10
7.000000000140054
 20
-25.38461538472001
 30
0.0
 11
10.00000000002
 21
-26.24485154196202
 31
0.0
  0
LINE
  5
2F05
330
1A
100
AcDbEntity
  8
247
  6
Continuous
100
AcDbLine
 10
8.423076923160001
 20
-24.48498381833582
 30
0.0
 11
8.423076923160001
 21
-25.79267612597585
 31
0.0
  0
ARC
  5
2F06
330
1A
100
AcDbEntity
  8
247
  6
Continuous
100
AcDbCircle
 10
7.549598667702968
 20
-24.14514381608979
 30
0.0
 40
0.5538165441895348
100
AcDbArc
 50
72.99788967529534
 51
172.9241662185136
  0
ARC
  5
2F07
330
1A
100
AcDbEntity
  8
247
  6
Continuous
100
AcDbCircle
 10
7.436033044465822
 20
-24.56687832302879
 30
0.0
 40
0.9904354236226808
100
AcDbArc
 50
4.742936852202211
 51
73.84922627326654
1001
GENIUS_GENOBJ-N-FIL_13
1002
{
1000
OWNER
1000
GEN
1002
}
1001
GENIUS_GENODEF_13
1002
{
1000
HIER
1070
     0
1002
}
1002
{
1000
MANEDIT
1070
     0
1002
}
1002
{
1000
NOSEL
1070
     0
1002
}
1002
{
1000
BEHIND
1070
     0
1002
}
1002
{
1000
OTHER
1070
     0
1002
}
1002
{
1000
REACTOR
1002
}
  0
LINE
  5
2F08
330
1A
100
AcDbEntity
  8
247
  6
Continuous
100
AcDbLine
 10
10.00000000002
 20
-24.937159234322
 30
0.0
 11
10.00000000002
 21
-26.24485154196202
 31
0.0
  0
LINE
  5
2F09
330
1A
100
AcDbEntity
  8
247
  6
Continuous
100
AcDbLine
 10
7.000000000140054
 20
-25.38461538472001
 30
0.0
 11
7.000000000140054
 21
-24.07692307707999
 31
0.0
  0
ARC
  5
2F0A
330
1A
100
AcDbEntity
  8
247
  6
Continuous
100
AcDbCircle
 10
8.982024232665587
 20
-24.56091963654694
 30
0.0
 40
0.5640818586791229
100
AcDbArc
 50
65.99094165252889
 51
172.2634434590691
  0
ARC
  5
2F0B
330
1A
100
AcDbEntity
  8
247
  6
Continuous
100
AcDbCircle
 10
8.987429039186615
 20
-25.03826268534709
 30
0.0
 40
1.017605944623098
100
AcDbArc
 50
5.701985164256463
 51
77.27733843682219
1001
GENIUS_GENOBJ-N-FIL_13
1002
{
1000
OWNER
1000
GEN
1002
}
1001
GENIUS_GENODEF_13
1002
{
1000
HIER
1070
     0
1002
}
1002
{
1000
MANEDIT
1070
     0
1002
}
1002
{
1000
NOSEL
1070
     0
1002
}
1002
{
1000
BEHIND
1070
     0
1002
}
1002
{
1000
OTHER
1070
     0
1002
}
1002
{
1000
REACTOR
1002
}
  0
LINE
  5
2F0C
330
1A
100
AcDbEntity
  8
247
  6
Continuous
100
AcDbLine
 10
10.00000000002
 20
-23.28331308054203
 30
0.0
 11
7.000000000140054
 21
-22.42307692330002
 31
0.0
  0
LINE
  5
2F0D
330
1A
100
AcDbEntity
  8
247
  6
Continuous
100
AcDbLine
 10
7.000000000140054
 20
-20.00000000031997
 30
0.0
 11
7.000000000140054
 21
-20.56573661945657
 31
0.0
  0
LINE
  5
2F0E
330
1A
100
AcDbEntity
  8
247
  6
Continuous
100
AcDbLine
 10
10.00000000002
 20
-21.46153846179999
 30
0.0
 11
10.00000000002
 21
-20.84615384644002
 31
0.0
  0
ARC
  5
2F0F
330
1A
100
AcDbEntity
  8
247
  6
Continuous
100
AcDbCircle
 10
9.083285135973355
 20
-19.70879120912286
 30
0.0
 40
2.252650082342209
100
AcDbArc
 50
202.3594881415262
 51
254.9932485428461
  0
ARC
  5
2F10
330
1A
100
AcDbEntity
  8
247
  6
Continuous
100
AcDbCircle
 10
7.808312655194519
 20
-20.37406947921323
 30
0.0
 40
0.8906723995727782
100
AcDbArc
 50
94.99458931907538
 51
155.1663289573039
1001
GENIUS_GENOBJ-N-FIL_13
1002
{
1000
OWNER
1000
GEN
1002
}
1001
GENIUS_GENODEF_13
1002
{
1000
HIER
1070
     0
1002
}
1002
{
1000
MANEDIT
1070
     0
1002
}
1002
{
1000
NOSEL
1070
     0
1002
}
1002
{
1000
BEHIND
1070
     0
1002
}
1002
{
1000
OTHER
1070
     0
1002
}
1002
{
1000
REACTOR
1002
}
  0
ARC
  5
2F11
330
1A
100
AcDbEntity
  8
247
  6
Continuous
100
AcDbCircle
 10
8.660145888667777
 20
-21.22645888621258
 30
0.0
 40
1.392781735586712
100
AcDbArc
 50
15.8460965557808
 51
82.32513700416907
  0
ARC
  5
2F12
330
1A
100
AcDbEntity
  8
247
  6
Continuous
100
AcDbCircle
 10
8.959243431527275
 20
-20.64221272584035
 30
0.0
 40
1.324563662670287
100
AcDbArc
 50
249.7136016704969
 51
321.788745656406
1001
GENIUS_GENOBJ-N-FIL_13
1002
{
1000
OWNER
1000
GEN
1002
}
1001
GENIUS_GENODEF_13
1002
{
1000
HIER
1070
     0
1002
}
1002
{
1000
MANEDIT
1070
     0
1002
}
1002
{
1000
NOSEL
1070
     0
1002
}
1002
{
1000
BEHIND
1070
     0
1002
}
1002
{
1000
OTHER
1070
     0
1002
}
1002
{
1000
REACTOR
1002
}
  0
LINE
  5
2F13
330
1A
100
AcDbEntity
  8
247
  6
Continuous
100
AcDbLine
 10
8.846153846219966
 20
-20.53846153875998
 30
0.0
 11
8.846153846219966
 21
-19.84615384647996
 31
0.0
  0
LINE
  5
2F14
330
1A
100
AcDbEntity
  8
247
  6
Continuous
100
AcDbLine
 10
7.000000000140054
 20
-26.25000000007004
 30
0.0
 11
7.000000000140054
 21
-25.57692307702007
 31
0.0
  0
LINE
  5
2F15
330
1A
100
AcDbEntity
  8
250
  6
Continuous
100
AcDbLine
 10
-52.78156984999993
 20
-37.79107178000004
 30
0.0
 11
-70.51490317999998
 21
-37.79107178000004
 31
0.0
1001
ITEMNAME
1000
LNSP2
  0
TEXT
  5
2F16
330
1A
100
AcDbEntity
  8
250
  6
Continuous
100
AcDbText
 10
-68.24823651333327
 20
-36.79107178000004
 30
0.0
 40
2.799999999999998
  1
BBT50
  7
YOKO
100
AcDbText
1001
ITEMNAME
1000
LNSP3
  0
LINE
  5
2F17
330
1A
100
AcDbEntity
  8
250
  6
Continuous
100
AcDbLine
 10
-48.36743449422534
 20
-29.47889840120632
 30
0.0
 11
-47.07875935999993
 21
-27.91351426
 31
0.0
  0
LINE
  5
2F18
330
1A
100
AcDbEntity
  8
250
  6
Continuous
100
AcDbLine
 10
-47.79008422495699
 20
-29.81223173440345
 30
0.0
 11
-47.07875935999993
 21
-27.91351426
 31
0.0
  0
LINE
  5
2F19
330
1A
100
AcDbEntity
  8
250
  6
Continuous
100
AcDbLine
 10
-47.07875935999993
 20
-27.91351426
 30
0.0
 11
-48.07875935959117
 21
-29.64556506780491
 31
0.0
  0
LINE
  5
2F1A
330
1A
100
AcDbEntity
  8
250
  6
Continuous
100
AcDbLine
 10
-48.07875935959117
 20
-29.64556506780491
 30
0.0
 11
-52.78156984999993
 21
-37.79107178000004
 31
0.0
1001
ACAD
1000
DSTYLE
1002
{
1070
     6
1000
OPEN
1070
    41
1040
2.0
1070
   343
1005
0
1002
}
  0
LINE
  5
2F2D
330
1A
100
AcDbEntity
  8
241
  6
Continuous
100
AcDbLine
 10
21.30000000000066
 20
-12.7
 30
0.0
 11
1.499999999999992
 21
-12.7
 31
0.0
  0
ARC
  5
2F2E
330
1A
100
AcDbEntity
  8
241
  6
Continuous
100
AcDbCircle
 10
21.30000000000066
 20
-0.0000000000000568
 30
0.0
 40
12.7
100
AcDbArc
 50
270.0
 51
90.0
  0
LINE
  5
2F2F
330
1A
100
AcDbEntity
  8
241
  6
Continuous
100
AcDbLine
 10
21.30000000000069
 20
12.6999999999999
 30
0.0
 11
1.499999999999992
 21
12.69999999999994
 31
0.0
  0
ARC
  5
2F74
330
1A
100
AcDbEntity
  8
240
  6
Continuous
100
AcDbCircle
 10
245.0
 20
0.0000000000000071
 30
0.0
 40
50.0
100
AcDbArc
 50
90.0
 51
270.0
  0
LEADER
  5
2F83
102
{ACAD_REACTORS
330
2F85
102
}
330
1A
100
AcDbEntity
  8
250
  6
Continuous
370
    -3
100
AcDbLeader
  3
BIGT
 76
     2
 10
297.2029829805192
 20
-15.88773837528818
 30
0.0
 10
297.2708847666118
 20
-15.91750905555534
 30
0.0
1001
ACAD
1000
DSTYLE
1002
{
1070
    41
1040
2.0
1070
    79
1070
     2
1070
   179
1070
     3
1070
   371
1070
    -1
1070
   372
1070
    -1
1002
}
1001
ITEMNAME
1000
DI100
  0
ARC
  5
2F9E
330
1A
100
AcDbEntity
  8
242
  6
PHANTOM2
100
AcDbCircle
 10
134.0000000000007
 20
-54.00000000000023
 30
0.0
 40
6.0
100
AcDbArc
 50
270.0
 51
0.0
  0
LINE
  5
2F9F
330
1A
100
AcDbEntity
  8
242
  6
PHANTOM2
100
AcDbLine
 10
53.00000000000075
 20
59.99999999999989
 30
0.0
 11
134.0000000000007
 21
59.99999999999989
 31
0.0
  0
LINE
  5
2FA0
330
1A
100
AcDbEntity
  8
242
  6
PHANTOM2
100
AcDbLine
 10
53.00000000000075
 20
-60.00000000000024
 30
0.0
 11
134.0000000000007
 21
-60.00000000000024
 31
0.0
  0
ARC
  5
2FA1
330
1A
100
AcDbEntity
  8
242
  6
PHANTOM2
100
AcDbCircle
 10
53.00000000000075
 20
-55.00000000000023
 30
0.0
 40
5.0
100
AcDbArc
 50
180.0
 51
270.0
  0
ARC
  5
2FA5
330
1A
100
AcDbEntity
  8
242
  6
PHANTOM2
100
AcDbCircle
 10
134.0000000000007
 20
54.00000000000023
 30
0.0
 40
6.0
100
AcDbArc
 50
0.0
 51
90.00000000000005
  0
ARC
  5
2FA6
330
1A
100
AcDbEntity
  8
242
  6
PHANTOM2
100
AcDbCircle
 10
53.00000000000075
 20
55.00000000000023
 30
0.0
 40
5.0
100
AcDbArc
 50
90.00000000000005
 51
180.0
  0
LINE
  5
2FC1
330
1A
100
AcDbEntity
  8
250
  6
Continuous
100
AcDbLine
 10
127.5
 20
-0.0000000000000001
 30
0.0
 11
162.0
 21
-0.0000000000000099
 31
0.0
  0
LINE
  5
2FC2
330
1A
100
AcDbEntity
  8
250
  6
Continuous
100
AcDbLine
 10
140.499999952893
 20
50.0
 30
0.0
 11
162.0
 21
50.0
 31
0.0
  0
LINE
  5
2FC3
330
1A
100
AcDbEntity
  8
250
  6
Continuous
100
AcDbLine
 10
161.0
 20
2.22999999999999
 30
0.0
 11
161.0
 21
47.77
 31
0.0
  0
INSERT
  5
2FC4
330
1A
100
AcDbEntity
  8
250
  6
Continuous
100
AcDbBlockReference
  2
_OPEN
 10
161.0
 20
-0.0000000000000096
 30
0.0
 41
2.229999999999999
 42
2.229999999999999
 43
2.229999999999999
 50
270.0
  0
INSERT
  5
2FC5
330
1A
100
AcDbEntity
  8
250
  6
Continuous
100
AcDbBlockReference
  2
_OPEN
 10
161.0
 20
50.0
 30
0.0
 41
2.229999999999999
 42
2.229999999999999
 43
2.229999999999999
 50
90.0
  0
MTEXT
  5
2FC6
330
1A
100
AcDbEntity
  8
250
  6
Continuous
100
AcDbMText
 10
158.6
 20
25.00000000000002
 30
0.0
 40
2.799999999999998
 41
0.0
 71
     5
 72
     1
  1
\A1;50
 11
0.0000000000000001
 21
1.0
 31
0.0
 73
     1
 44
1.0
1001
ACAD
1000
MTEXTBEGIN
1070
    73
1070
     1
1070
    44
1040
1.0
1070
    74
1070
     0
1000
MTEXTEND
  0
LINE
  5
2FC7
330
1A
100
AcDbEntity
  8
250
  6
Continuous
100
AcDbLine
 10
-0.0000000000000071
 20
-35.42500000000001
 30
0.0
 11
-0.0000000000000097
 21
-78.0
 31
0.0
  0
LINE
  5
2FC8
330
1A
100
AcDbEntity
  8
250
  6
Continuous
100
AcDbLine
 10
140.0
 20
19.47056275
 30
0.0
 11
140.0
 21
-78.0
 31
0.0
  0
LINE
  5
2FC9
330
1A
100
AcDbEntity
  8
250
  6
Continuous
100
AcDbLine
 10
1.999999999999987
 20
-77.0
 30
0.0
 11
138.0
 21
-77.0
 31
0.0
  0
INSERT
  5
2FCA
330
1A
100
AcDbEntity
  8
250
  6
Continuous
100
AcDbBlockReference
  2
_OPEN
 10
-0.0000000000000097
 20
-77.0
 30
0.0
 41
2.0
 42
2.0
 43
2.0
 50
180.0
  0
INSERT
  5
2FCB
330
1A
100
AcDbEntity
  8
250
  6
Continuous
100
AcDbBlockReference
  2
_OPEN
 10
140.0
 20
-77.0
 30
0.0
 41
2.0
 42
2.0
 43
2.0
  0
MTEXT
  5
2FCC
330
1A
100
AcDbEntity
  8
250
  6
Continuous
370
    -3
100
AcDbMText
 10
70.0
 20
-74.59999999999998
 30
0.0
 40
2.799999999999998
 41
0.0
 71
     5
 72
     1
  1
\A1;140
 73
     1
 44
1.0
1001
ACAD
1000
MTEXTBEGIN
1070
    73
1070
     1
1070
    44
1040
1.0
1070
    74
1070
     0
1000
MTEXTEND
  0
LINE
  5
2FCD
330
1A
100
AcDbEntity
  8
250
  6
Continuous
100
AcDbLine
 10
245.0
 20
62.5
 30
0.0
 11
245.0
 21
70.99999999999998
 31
0.0
  0
LINE
  5
2FCE
330
1A
100
AcDbEntity
  8
250
  6
Continuous
100
AcDbLine
 10
270.0
 20
50.29999992999998
 30
0.0
 11
270.0
 21
70.99999999999998
 31
0.0
  0
LINE
  5
2FCF
330
1A
100
AcDbEntity
  8
250
  6
Continuous
100
AcDbLine
 10
247.23
 20
69.99999999999999
 30
0.0
 11
267.77
 21
69.99999999999999
 31
0.0
  0
INSERT
  5
2FD0
330
1A
100
AcDbEntity
  8
250
  6
Continuous
100
AcDbBlockReference
  2
_OPEN
 10
245.0
 20
69.99999999999999
 30
0.0
 41
2.229999999999999
 42
2.229999999999999
 43
2.229999999999999
 50
180.0
  0
INSERT
  5
2FD1
330
1A
100
AcDbEntity
  8
250
  6
Continuous
100
AcDbBlockReference
  2
_OPEN
 10
270.0
 20
69.99999999999999
 30
0.0
 41
2.229999999999999
 42
2.229999999999999
 43
2.229999999999999
  0
MTEXT
  5
2FD2
330
1A
100
AcDbEntity
  8
250
  6
Continuous
100
AcDbMText
 10
257.5
 20
72.39999999999998
 30
0.0
 40
2.799999999999998
 41
0.0
 71
     5
 72
     1
  1
\A1;□25
 73
     1
 44
1.0
1001
ACAD
1000
MTEXTBEGIN
1070
    73
1070
     1
1070
    44
1040
1.0
1070
    74
1070
     0
1000
MTEXTEND
  0
LINE
  5
2FD3
330
1A
100
AcDbEntity
  8
250
  6
Continuous
100
AcDbLine
 10
190.8586832757506
 20
20.15169282770317
 30
0.0
 11
299.1413167242495
 21
-20.15169282770317
 31
0.0
  0
INSERT
  5
2FD4
330
1A
100
AcDbEntity
  8
250
  6
Continuous
100
AcDbBlockReference
  2
_OPEN
 10
188.7687553497198
 20
20.92957537924717
 30
0.0
 41
2.229999999999999
 42
2.229999999999999
 43
2.229999999999999
 50
159.5844594941431
  0
INSERT
  5
2FD5
330
1A
100
AcDbEntity
  8
250
  6
Continuous
100
AcDbBlockReference
  2
_OPEN
 10
301.2312446502802
 20
-20.92957537924721
 30
0.0
 41
2.229999999999999
 42
2.229999999999999
 43
2.229999999999999
 50
339.5844594941431
  0
MTEXT
  5
2FD6
102
{ACAD_XDICTIONARY
360
305C
102
}
330
1A
100
AcDbEntity
  8
250
  6
Continuous
100
AcDbMText
 10
276.3452780051147
 20
-9.106029254137268
 30
0.0
 40
2.799999999999998
 41
0.0
 71
     5
 72
     1
  1
\A1;（{\H2.8;\U+2205}120）
 11
0.9371874107761419
 21
-0.3488262562977609
 31
0.0
 73
     1
 44
1.0
1001
ACAD
1000
MTEXTBEGIN
1070
    73
1070
     1
1070
    44
1040
1.0
1070
    74
1070
     0
1000
MTEXTEND
  0
LINE
  5
3073
330
1A
100
AcDbEntity
  8
241
  6
Continuous
100
AcDbLine
 10
218.3366492737476
 20
-35.69366349993276
 30
0.0
 11
282.7657397247096
 21
-35.69366349993276
 31
0.0
  0
VIEWPORT
  5
22
102
{ACAD_XDICTIONARY
360
319F
102
}
330
17
100
AcDbEntity
 67
     1
  8
0
100
AcDbViewport
 10
261.51769912
 20
148.5
 30
0.0
 40
523.03539823
 41
297.0
 68
     1
 69
     1
 12
261.51769912
 22
148.5
 13
0.0
 23
0.0
 14
1.0
 24
1.0
 15
10.0
 25
10.0
 16
0.0
 26
0.0
 36
1.0
 17
0.0
 27
0.0
 37
0.0
 42
50.0
 43
0.0
 44
0.0
 45
297.0
 50
0.0
 51
0.0
 72
   100
 90
    32800
  1

281
     0
 71
     1
 74
     0
110
0.0
120
0.0
130
0.0
111
1.0
121
0.0
131
0.0
112
0.0
122
1.0
132
0.0
 79
     0
146
0.0
  0
ENDSEC
  0
SECTION
  2
OBJECTS
  0
DICTIONARY
  5
C
330
0
100
AcDbDictionary
281
     1
  3
ACAD_CIP_PREVIOUS_PRODUCT_INFO
350
28E3
  3
ACAD_COLOR
350
28C4
  3
ACAD_DETAILVIEWSTYLE
350
28DD
  3
ACAD_GROUP
350
D
  3
ACAD_LAYOUT
350
565
  3
ACAD_MATERIAL
350
2892
  3
ACAD_MLEADERSTYLE
350
28D9
  3
ACAD_MLINESTYLE
350
E
  3
ACAD_PLOTSETTINGS
350
566
  3
ACAD_PLOTSTYLENAME
350
563
  3
ACAD_SCALELIST
350
28C7
  3
ACAD_SECTIONVIEWSTYLE
350
28DB
  3
ACAD_TABLESTYLE
350
28C5
  3
ACAD_VISUALSTYLE
350
28AB
  3
ACDB_RECOMPOSE_DATA
350
319D
  3
AcDbVariableDictionary
350
2FFB
  3
DWGPROPS
350
319E
  3
GRADE_DWG
350
540
  0
DICTIONARY
  5
2F22
330
2
100
AcDbDictionary
280
     1
281
     1
  3
ACAD_LAYERSTATES
360
2F23
  0
DICTIONARY
  5
2FEA
330
F
100
AcDbDictionary
280
     1
281
     1
  3
ADSK_XREC_LAYER_RECONCILED
360
2FEB
  0
DICTIONARY
  5
2FEC
330
1AA
100
AcDbDictionary
280
     1
281
     1
  3
ADSK_XREC_LAYER_RECONCILED
360
2FED
  0
DICTIONARY
  5
2FEE
330
1AB
100
AcDbDictionary
280
     1
281
     1
  3
ADSK_XREC_LAYER_RECONCILED
360
2FEF
  0
DICTIONARY
  5
2FF0
330
1AC
100
AcDbDictionary
280
     1
281
     1
  3
ADSK_XREC_LAYER_RECONCILED
360
2FF1
  0
DICTIONARY
  5
2FF2
330
1AD
100
AcDbDictionary
280
     1
281
     1
  3
ADSK_XREC_LAYER_RECONCILED
360
2FF3
  0
DICTIONARY
  5
2FF4
330
1AF
100
AcDbDictionary
280
     1
281
     1
  3
ADSK_XREC_LAYER_RECONCILED
360
2FF5
  0
DICTIONARY
  5
2FF6
330
21E
100
AcDbDictionary
280
     1
281
     1
  3
ADSK_XREC_LAYER_RECONCILED
360
2FF7
  0
DICTIONARY
  5
2FF8
330
2EA1
100
AcDbDictionary
280
     1
281
     1
  3
ADSK_XREC_LAYER_RECONCILED
360
2FF9
  0
DICTIONARY
  5
1C6C
330
1A
100
AcDbDictionary
280
     1
281
     1
  3
ACAD_LAYOUTSELFREF
360
2884
  3
ACAD_SORTENTS
360
2EA0
  0
DICTIONARY
  5
1C6A
330
17
100
AcDbDictionary
280
     1
281
     1
  3
ACAD_LAYOUTSELFREF
360
2883
  0
DICTIONARY
  5
305C
330
2FD6
100
AcDbDictionary
280
     1
281
     1
  3
ACAD_MTEXT_RT
360
31EE
  0
DICTIONARY
  5
319F
330
22
100
AcDbDictionary
280
     1
281
     1
  3
ACAD_XREC_ROUNDTRIP
360
31A0
  0
XRECORD
  5
28E3
102
{ACAD_REACTORS
330
C
102
}
330
C
100
AcDbXrecord
280
     1
300
ACD
300
2014
300
ACD_F_S
  0
DICTIONARY
  5
28C4
102
{ACAD_REACTORS
330
C
102
}
330
C
100
AcDbDictionary
281
     1
  0
DICTIONARY
  5
28DD
102
{ACAD_REACTORS
330
C
102
}
330
C
100
AcDbDictionary
281
     1
  3
Imperial24
350
2EA6
  3
Metric50
350
28DE
  0
DICTIONARY
  5
D
102
{ACAD_REACTORS
330
C
102
}
330
C
100
AcDbDictionary
281
     1
  3
DM500-1
350
2F85
  0
DICTIONARY
  5
565
102
{ACAD_REACTORS
330
C
102
}
330
C
100
AcDbDictionary
281
     1
  3
Model
350
28DF
  3
レイアウト1
350
28E0
  0
DICTIONARY
  5
2892
102
{ACAD_REACTORS
330
C
102
}
330
C
100
AcDbDictionary
281
     1
  3
ByBlock
350
289B
  3
ByLayer
350
2893
  3
Global
350
28A3
  0
DICTIONARY
  5
28D9
102
{ACAD_REACTORS
330
C
102
}
330
C
100
AcDbDictionary
281
     1
  3
Standard
350
28DA
  0
DICTIONARY
  5
E
102
{ACAD_REACTORS
330
C
102
}
330
C
100
AcDbDictionary
281
     1
  3
STANDARD
350
13
  0
DICTIONARY
  5
566
102
{ACAD_REACTORS
330
C
102
}
330
C
100
AcDbDictionary
281
     1
  3
A3_0_5倍_
350
758
  3
A3_1倍_
350
757
  3
A3_1倍__2000_
350
707
  3
A3_2倍_
350
759
  3
A4_0_5倍_
350
755
  3
A4_1倍_
350
754
  3
A4_1倍__2000_
350
708
  3
A4_2倍_
350
756
  0
ACDBDICTIONARYWDFLT
  5
563
102
{ACAD_REACTORS
330
C
102
}
330
C
100
AcDbDictionary
281
     1
  3
Normal
350
564
100
AcDbDictionaryWithDefault
340
564
  0
DICTIONARY
  5
28C7
102
{ACAD_REACTORS
330
C
102
}
330
C
100
AcDbDictionary
281
     1
  3
A0
350
28C8
  3
A1
350
28C9
  3
A2
350
28CA
  3
A3
350
28CB
  3
A4
350
28CC
  3
A5
350
28CD
  3
A6
350
28CE
  3
A7
350
28CF
  3
A8
350
28D0
  3
A9
350
28D1
  3
B0
350
28D2
  3
B1
350
28D3
  3
B2
350
28D4
  3
B3
350
28D5
  3
B4
350
28D6
  3
B5
350
28D7
  3
B6
350
28D8
  0
DICTIONARY
  5
28DB
102
{ACAD_REACTORS
330
C
102
}
330
C
100
AcDbDictionary
281
     1
  3
Imperial24
350
2EA5
  3
Metric50
350
28DC
  0
DICTIONARY
  5
28C5
102
{ACAD_REACTORS
330
C
102
}
330
C
100
AcDbDictionary
281
     1
  3
Standard
350
28C6
  0
DICTIONARY
  5
28AB
102
{ACAD_REACTORS
330
C
102
}
330
C
100
AcDbDictionary
281
     1
  3
2dWireframe
350
28B1
  3
Basic
350
28B0
  3
Brighten
350
28B7
  3
ColorChange
350
28BB
  3
Conceptual
350
28B4
  3
Dim
350
28B6
  3
EdgeColorOff
350
28C3
  3
Facepattern
350
28BA
  3
Flat
350
28AC
  3
FlatWithEdges
350
28AD
  3
Gouraud
350
28AE
  3
GouraudWithEdges
350
28AF
  3
Hidden
350
28B3
  3
JitterOff
350
28C1
  3
Linepattern
350
28B9
  3
OverhangOff
350
28C2
  3
Realistic
350
28B5
  3
Shaded
350
28C0
  3
Shaded with edges
350
28BF
  3
Shades of Gray
350
28BC
  3
Sketchy
350
28BD
  3
Thicken
350
28B8
  3
Wireframe
350
28B2
  3
X-Ray
350
28BE
  0
XRECORD
  5
319D
102
{ACAD_REACTORS
330
C
102
}
330
C
100
AcDbXrecord
280
     1
 90
        1
330
28C6
  0
DICTIONARY
  5
2FFB
102
{ACAD_REACTORS
330
C
102
}
330
C
100
AcDbDictionary
281
     1
  3
CANNOSCALE
350
3000
  3
CMLEADERSTYLE
350
2FFD
  3
CTABLESTYLE
350
2FFC
  3
CVIEWDETAILSTYLE
350
2FFE
  3
CVIEWSECTIONSTYLE
350
2FFF
  3
DIMASSOC
350
3003
  3
INDEXCTL
350
3002
  3
SORTENTS
350
3001
  3
XCLIPFRAME
350
319B
  0
XRECORD
  5
319E
102
{ACAD_REACTORS
330
C
102
}
330
C
100
AcDbXrecord
280
     1
  1
DWGPROPS COOKIE
  2

  3

  4

  6

  7

  8
AWTEC
  9

300
=
301
=
302
=
303
=
304
=
305
=
306
=
307
=
308
=
309
=
 40
0.0347041435185185
 41
2455107.554141886
 42
2457869.574200659
  1

 90
        0
  0
DICTIONARY
  5
540
102
{ACAD_REACTORS
330
C
102
}
330
C
100
AcDbDictionary
281
     1
  3
VERSION
350
560
  0
DICTIONARY
  5
2F23
102
{ACAD_REACTORS
330
2F22
102
}
330
2F22
100
AcDbDictionary
281
     1
  0
XRECORD
  5
2FEB
102
{ACAD_REACTORS
330
2FEA
102
}
330
2FEA
100
AcDbXrecord
280
     1
290
     1
  0
XRECORD
  5
2FED
102
{ACAD_REACTORS
330
2FEC
102
}
330
2FEC
100
AcDbXrecord
280
     1
290
     1
  0
XRECORD
  5
2FEF
102
{ACAD_REACTORS
330
2FEE
102
}
330
2FEE
100
AcDbXrecord
280
     1
290
     1
  0
XRECORD
  5
2FF1
102
{ACAD_REACTORS
330
2FF0
102
}
330
2FF0
100
AcDbXrecord
280
     1
290
     1
  0
XRECORD
  5
2FF3
102
{ACAD_REACTORS
330
2FF2
102
}
330
2FF2
100
AcDbXrecord
280
     1
290
     1
  0
XRECORD
  5
2FF5
102
{ACAD_REACTORS
330
2FF4
102
}
330
2FF4
100
AcDbXrecord
280
     1
290
     1
  0
XRECORD
  5
2FF7
102
{ACAD_REACTORS
330
2FF6
102
}
330
2FF6
100
AcDbXrecord
280
     1
290
     1
  0
XRECORD
  5
2FF9
102
{ACAD_REACTORS
330
2FF8
102
}
330
2FF8
100
AcDbXrecord
280
     1
290
     1
  0
XRECORD
  5
2884
102
{ACAD_REACTORS
330
1C6C
102
}
330
1C6C
100
AcDbXrecord
280
     1
340
1A
  0
SORTENTSTABLE
  5
2EA0
102
{ACAD_REACTORS
330
1C6C
102
}
330
1C6C
100
AcDbSortentsTable
330
1A
331
2F0C
  5
2F2E
331
2F08
  5
2F18
331
292D
  5
2940
331
2929
  5
293B
331
2925
  5
2937
331
2921
  5
2931
331
2F04
  5
2F14
331
2F00
  5
2F10
331
2FCC
  5
2FD6
331
2EFC
  5
2F0C
331
2FC8
  5
2FD2
331
2F1A
  5
2FC4
331
2F9F
  5
2FCC
331
2FC4
  5
28F0
331
2EF8
  5
2F08
331
291D
  5
292D
331
2A8A
  5
2EE5
331
2919
  5
2929
331
2915
  5
2925
331
2C52
  5
2EEC
331
2EF4
  5
2F04
331
2EF0
  5
2F00
331
2F83
  5
2FCA
331
2FD4
  5
291A
331
2FD0
  5
2915
331
2EEC
  5
2EFC
331
2EE8
  5
2EFA
331
2905
  5
2922
331
28F1
  5
291F
331
2940
  5
2E9D
331
2BCC
  5
2EE6
331
2EE4
  5
2EF6
331
2F2F
  5
2FC8
331
2E9C
  5
2EF1
331
2F17
  5
2FC1
331
2F13
  5
2FA1
331
2938
  5
2C51
331
2930
  5
2A05
331
2F0F
  5
2F83
331
2F0B
  5
2F2D
331
292C
  5
293F
331
2928
  5
293A
331
2924
  5
2936
331
2920
  5
2930
331
2F07
  5
2F17
331
2F03
  5
2F13
331
2FA6
  5
2FD0
331
2FCF
  5
2907
331
2FCB
  5
2FD5
331
2EFF
  5
2F0F
331
2EFB
  5
2F0B
331
2FC7
  5
2FD1
331
2F19
  5
2FC3
331
2F9E
  5
2FCB
331
2FC3
  5
28E6
331
291C
  5
292C
331
2918
  5
2928
331
2EF7
  5
2F07
331
2EF3
  5
2F03
331
2EEF
  5
2EFF
331
2FD3
  5
2919
331
2A07
  5
2EE4
331
2904
  5
2921
331
28F0
  5
291E
331
2EE7
  5
2EF9
331
2EE3
  5
2EF5
331
2F2E
  5
2FC7
331
2E9F
  5
2EF4
331
2F16
  5
2FAB
331
2F12
  5
2FA0
331
293F
  5
2E9C
331
2937
  5
2BCE
331
2E97
  5
2EEE
331
2F0E
  5
2F74
331
6E6
  5
6E6
331
2F0A
  5
2F1A
331
292F
  5
2A04
331
292B
  5
293E
331
2927
  5
2939
331
2923
  5
2935
331
2F06
  5
2F16
331
2F02
  5
2F12
331
2FA5
  5
2FCF
331
2FCE
  5
2906
331
2EFE
  5
2F0E
331
2FCA
  5
2FD4
331
2FA1
  5
2FCE
331
2FC6
  5
28F2
331
2F18
  5
2FC2
331
2EFA
  5
2F0A
331
2FC2
  5
15C3
331
291F
  5
292F
331
291B
  5
292B
331
2917
  5
2927
331
2EF6
  5
2F06
331
2EF2
  5
2F02
331
2FD6
  5
291C
331
2FD2
  5
2917
331
2EEE
  5
2EFE
331
28E6
  5
291D
331
2907
  5
2924
331
2BCE
  5
2EE8
331
2EE6
  5
2EF8
331
2F2D
  5
2FC5
331
2E9E
  5
2EF3
331
2F15
  5
2FA6
331
2F11
  5
2F9F
331
293E
  5
2E99
331
9BB
  5
9BB
331
2936
  5
2BCD
331
2932
  5
2A8A
331
2F0D
  5
2F2F
331
2F09
  5
2F19
331
292E
  5
2942
331
292A
  5
293D
331
2926
  5
2938
331
2922
  5
2932
331
2F05
  5
2F15
331
2F01
  5
2F11
331
2FCD
  5
2905
331
2EFD
  5
2F0D
331
2FC9
  5
2FD3
331
2FA0
  5
2FCD
331
2FC5
  5
28F1
331
2EF9
  5
2F09
331
2FC1
  5
1594
331
291E
  5
292E
331
291A
  5
292A
331
2916
  5
2926
331
2EF5
  5
2F05
331
2EF1
  5
2F01
331
2FD5
  5
291B
331
2FD1
  5
2916
331
2EED
  5
2EFD
331
2EE9
  5
2EFB
331
2F74
  5
2FC9
331
2906
  5
2923
331
2A05
  5
2EE3
331
28F2
  5
2920
331
2BCD
  5
2EE7
331
2EE5
  5
2EF7
331
2E99
  5
2EF0
331
2F14
  5
2FA5
331
2F10
  5
2F9E
331
293D
  5
2E98
331
2939
  5
2C52
331
2935
  5
2BCC
331
2931
  5
2A07
  0
XRECORD
  5
2883
102
{ACAD_REACTORS
330
1C6A
102
}
330
1C6A
100
AcDbXrecord
280
     1
340
17
  0
XRECORD
  5
31EE
102
{ACAD_REACTORS
330
305C
102
}
330
305C
100
AcDbXrecord
280
     1
 40
17849.0
  1
\A1;（{\H2.8;\U+2205}120）
  0
XRECORD
  5
31A0
102
{ACAD_REACTORS
330
319F
102
}
330
319F
100
AcDbXrecord
280
     1
102
SHADEPLOT
 70
     0
  0
ACDBDETAILVIEWSTYLE
  5
2EA6
102
{ACAD_XDICTIONARY
360
31EC
102
}
102
{ACAD_REACTORS
330
28DD
102
}
330
28DD
100
AcDbModelDocViewStyle
 70
     0
  3
Imperial24
290
     0
100
AcDbDetailViewStyle
 70
     0
 71
     0
 90
        3
 71
     1
340
10
 40
0.24
340
0
 40
0.24
300

 40
0.36
280
     3
 71
     2
340
16
 90
       25
 71
     3
340
10
 40
0.24
 90
        1
 40
0.75
 90
        1
300
%<\AcVar ViewType \f "%tc1">% %<\AcVar ViewDetailId>%\PSCALE %<\AcVar ViewScale \f "%sn">%
 71
     4
340
16
 90
       25
340
16
 90
       25
280
     0
  0
ACDBDETAILVIEWSTYLE
  5
28DE
102
{ACAD_XDICTIONARY
360
31E4
102
}
102
{ACAD_REACTORS
330
28DD
102
}
330
28DD
100
AcDbModelDocViewStyle
 70
     0
  3
Metric50
290
     0
100
AcDbDetailViewStyle
 70
     0
 71
     0
 90
        3
 71
     1
340
10
 40
5.0
340
0
 40
5.0
300

 40
0.0
280
     1
 71
     2
340
16
 90
       25
 71
     3
340
10
 40
5.0
 90
        0
 40
15.0
 90
        1
300
%<\AcVar ViewDetailId>% (%<\AcVar ViewScale \f "%sn">%)
 71
     4
340
16
 90
       25
340
16
 90
       25
280
     0
  0
GROUP
  5
2F85
102
{ACAD_REACTORS
330
D
102
}
330
D
100
AcDbGroup
300

 70
     0
 71
     1
340
2F83
  0
LAYOUT
  5
28DF
102
{ACAD_XDICTIONARY
360
31E6
102
}
102
{ACAD_REACTORS
330
565
102
}
330
565
100
AcDbPlotSettings
  1

  2
Canon LBP5610
  4
A4
  6

 40
5.789083003997802
 41
5.7890625
 42
5.789077758789062
 43
5.789093017578125
 44
209.9733276367186
 45
296.9259948730469
 46
41.05122231168619
 47
0.0
 48
0.0
 49
0.0
140
0.0
141
0.0
142
1.0
143
1.436259434820082
 70
 11956
 72
     1
 73
     1
 74
     1
  7
big.ctb
 75
     0
147
0.696253041585949
148
102.8159533726236
149
78.01144321869537
100
AcDbLayout
  1
Model
 70
     1
 71
     0
 10
0.0
 20
0.0
 11
12.0
 21
9.0
 12
0.0
 22
0.0
 32
0.0
 14
0.0
 24
0.0
 34
0.0
 15
0.0
 25
0.0
 35
0.0
146
0.0
 13
0.0
 23
0.0
 33
0.0
 16
1.0
 26
0.0
 36
0.0
 17
0.0
 27
1.0
 37
0.0
 76
     0
330
1A
331
2861
1001
ACAD_PSEXT
1000
Canon LBP5610
1000
Canon LBP5610
1000
IP_192.168.120.151
1000

1070
     0
  0
LAYOUT
  5
28E0
102
{ACAD_XDICTIONARY
360
31E8
102
}
102
{ACAD_REACTORS
330
565
102
}
330
565
100
AcDbPlotSettings
  1

  2
CubePDF
  4

  6

 40
0.0
 41
0.0
 42
0.0
 43
0.0
 44
0.0
 45
0.0
 46
0.0
 47
0.0
 48
0.0
 49
0.0
140
0.0
141
0.0
142
1.0
143
1.0
 70
   688
 72
     0
 73
     0
 74
     5
  7
big.ctb
 75
    16
147
1.0
148
0.0
149
0.0
100
AcDbLayout
  1
レイアウト1
 70
     1
 71
     1
 10
0.0
 20
0.0
 11
420.0
 21
297.0
 12
0.0
 22
0.0
 32
0.0
 14
1.000000000000000E+20
 24
1.000000000000000E+20
 34
1.000000000000000E+20
 15
-1.000000000000000E+20
 25
-1.000000000000000E+20
 35
-1.000000000000000E+20
146
0.0
 13
0.0
 23
0.0
 33
0.0
 16
1.0
 26
0.0
 36
0.0
 17
0.0
 27
1.0
 37
0.0
 76
     0
330
17
331
22
  0
MATERIAL
  5
289B
102
{ACAD_XDICTIONARY
360
289C
102
}
102
{ACAD_REACTORS
330
2892
102
}
330
2892
100
AcDbMaterial
  1
ByBlock
 72
     0
 43
0.0208333333333333
 43
0.0
 43
0.0
 43
0.0
 43
0.0
 43
0.0208333333333333
 43
0.0
 43
0.0
 43
0.0
 43
0.0
 43
1.0
 43
0.0
 43
0.0
 43
0.0
 43
0.0
 43
1.0
 77
     0
 47
0.0208333333333333
 47
0.0
 47
0.0
 47
0.0
 47
0.0
 47
0.0208333333333333
 47
0.0
 47
0.0
 47
0.0
 47
0.0
 47
1.0
 47
0.0
 47
0.0
 47
0.0
 47
0.0
 47
1.0
171
     0
 49
0.0208333333333333
 49
0.0
 49
0.0
 49
0.0
 49
0.0
 49
0.0208333333333333
 49
0.0
 49
0.0
 49
0.0
 49
0.0
 49
1.0
 49
0.0
 49
0.0
 49
0.0
 49
0.0
 49
1.0
175
     0
142
0.0208333333333333
142
0.0
142
0.0
142
0.0
142
0.0
142
0.0208333333333333
142
0.0
142
0.0
142
0.0
142
0.0
142
1.0
142
0.0
142
0.0
142
0.0
142
0.0
142
1.0
179
     0
144
0.0208333333333333
144
0.0
144
0.0
144
0.0
144
0.0
144
0.0208333333333333
144
0.0
144
0.0
144
0.0
144
0.0
144
1.0
144
0.0
144
0.0
144
0.0
144
0.0
144
1.0
147
0.0208333333333333
147
0.0
147
0.0
147
0.0
147
0.0
147
0.0208333333333333
147
0.0
147
0.0
147
0.0
147
0.0
147
1.0
147
0.0
147
0.0
147
0.0
147
0.0
147
1.0
  0
MATERIAL
  5
2893
102
{ACAD_XDICTIONARY
360
2894
102
}
102
{ACAD_REACTORS
330
2892
102
}
330
2892
100
AcDbMaterial
  1
ByLayer
 72
     0
 43
0.0208333333333333
 43
0.0
 43
0.0
 43
0.0
 43
0.0
 43
0.0208333333333333
 43
0.0
 43
0.0
 43
0.0
 43
0.0
 43
1.0
 43
0.0
 43
0.0
 43
0.0
 43
0.0
 43
1.0
 77
     0
 47
0.0208333333333333
 47
0.0
 47
0.0
 47
0.0
 47
0.0
 47
0.0208333333333333
 47
0.0
 47
0.0
 47
0.0
 47
0.0
 47
1.0
 47
0.0
 47
0.0
 47
0.0
 47
0.0
 47
1.0
171
     0
 49
0.0208333333333333
 49
0.0
 49
0.0
 49
0.0
 49
0.0
 49
0.0208333333333333
 49
0.0
 49
0.0
 49
0.0
 49
0.0
 49
1.0
 49
0.0
 49
0.0
 49
0.0
 49
0.0
 49
1.0
175
     0
142
0.0208333333333333
142
0.0
142
0.0
142
0.0
142
0.0
142
0.0208333333333333
142
0.0
142
0.0
142
0.0
142
0.0
142
1.0
142
0.0
142
0.0
142
0.0
142
0.0
142
1.0
179
     0
144
0.0208333333333333
144
0.0
144
0.0
144
0.0
144
0.0
144
0.0208333333333333
144
0.0
144
0.0
144
0.0
144
0.0
144
1.0
144
0.0
144
0.0
144
0.0
144
0.0
144
1.0
147
0.0208333333333333
147
0.0
147
0.0
147
0.0
147
0.0
147
0.0208333333333333
147
0.0
147
0.0
147
0.0
147
0.0
147
1.0
147
0.0
147
0.0
147
0.0
147
0.0
147
1.0
  0
MATERIAL
  5
28A3
102
{ACAD_XDICTIONARY
360
28A4
102
}
102
{ACAD_REACTORS
330
2892
102
}
330
2892
100
AcDbMaterial
  1
Global
 72
     0
 43
0.0208333333333333
 43
0.0
 43
0.0
 43
0.0
 43
0.0
 43
0.0208333333333333
 43
0.0
 43
0.0
 43
0.0
 43
0.0
 43
1.0
 43
0.0
 43
0.0
 43
0.0
 43
0.0
 43
1.0
 77
     0
 47
0.0208333333333333
 47
0.0
 47
0.0
 47
0.0
 47
0.0
 47
0.0208333333333333
 47
0.0
 47
0.0
 47
0.0
 47
0.0
 47
1.0
 47
0.0
 47
0.0
 47
0.0
 47
0.0
 47
1.0
171
     0
 49
0.0208333333333333
 49
0.0
 49
0.0
 49
0.0
 49
0.0
 49
0.0208333333333333
 49
0.0
 49
0.0
 49
0.0
 49
0.0
 49
1.0
 49
0.0
 49
0.0
 49
0.0
 49
0.0
 49
1.0
175
     0
142
0.0208333333333333
142
0.0
142
0.0
142
0.0
142
0.0
142
0.0208333333333333
142
0.0
142
0.0
142
0.0
142
0.0
142
1.0
142
0.0
142
0.0
142
0.0
142
0.0
142
1.0
179
     0
144
0.0208333333333333
144
0.0
144
0.0
144
0.0
144
0.0
144
0.0208333333333333
144
0.0
144
0.0
144
0.0
144
0.0
144
1.0
144
0.0
144
0.0
144
0.0
144
0.0
144
1.0
147
0.0208333333333333
147
0.0
147
0.0
147
0.0
147
0.0
147
0.0208333333333333
147
0.0
147
0.0
147
0.0
147
0.0
147
1.0
147
0.0
147
0.0
147
0.0
147
0.0
147
1.0
  0
MLEADERSTYLE
  5
28DA
102
{ACAD_REACTORS
330
28D9
102
}
330
28D9
100
AcDbMLeaderStyle
170
     2
171
     1
172
     0
 90
        2
 40
0.0
 41
0.0
173
     1
 91
-1056964608
340
14
 92
       -2
290
     1
 42
2.0
291
     1
 43
0.36
  3
Standard
 44
4.0
300

342
10
174
     1
178
     6
175
     1
176
     0
 93
-1056964608
 45
4.0
292
     0
297
     0
 46
4.0
 94
-1056964608
 47
1.0
 49
1.0
140
1.0
293
     1
141
0.0
294
     1
177
     0
142
1.0
295
     0
296
     0
143
0.125
1001
ACAD_MLEADERVER
1070
     2
  0
MLINESTYLE
  5
13
102
{ACAD_REACTORS
330
E
102
}
330
E
100
AcDbMlineStyle
  2
STANDARD
 70
     0
  3

 62
     0
 51
90.0
 52
90.0
 71
     2
 49
0.5
 62
   256
  6
BYLAYER
 49
-0.5
 62
   256
  6
BYLAYER
  0
PLOTSETTINGS
  5
758
102
{ACAD_XDICTIONARY
360
31AD
102
}
102
{ACAD_REACTORS
330
566
102
}
330
566
100
AcDbPlotSettings
  1
A3(0.5倍)
  2
\\AWTECPC05\HP DeskJet 1120C
  4
A3
  6

 40
5.958416459999997
 41
13.49375153
 42
6.043090819999997
 43
3.67242432
 44
296.92599487
 45
419.94665527
 46
89.96
 47
127.14
 48
0.0
 49
0.0
140
0.0
141
0.0
142
1.0
143
2.0
 70
  1716
 72
     1
 73
     1
 74
     2
  7
big.ctb
 75
    17
147
0.5
148
0.0
149
0.0
  0
PLOTSETTINGS
  5
757
102
{ACAD_XDICTIONARY
360
31AB
102
}
102
{ACAD_REACTORS
330
566
102
}
330
566
100
AcDbPlotSettings
  1
A3(1倍)
  2
\\AWTECPC05\HP DeskJet 1120C
  4
A3
  6

 40
5.958416459999997
 41
13.49375153
 42
6.043090819999997
 43
3.67242432
 44
296.92599487
 45
419.94665527
 46
37.46
 47
52.89
 48
0.0
 49
0.0
140
0.0
141
0.0
142
1.0
143
1.0
 70
  1716
 72
     1
 73
     1
 74
     2
  7
big.ctb
 75
    16
147
1.0
148
0.0
149
0.0
  0
PLOTSETTINGS
  5
707
102
{ACAD_XDICTIONARY
360
31A1
102
}
102
{ACAD_REACTORS
330
566
102
}
330
566
100
AcDbPlotSettings
  1
A3(1倍)(2000)
  2
SII LS-1300 (D-SCAN)
  4
User258
  6

 40
3.17499995
 41
3.17499995
 42
3.174987789999998
 43
3.174987789999998
 44
419.98898315
 45
296.98950195
 46
58.32
 47
40.32
 48
0.0
 49
0.0
140
0.0
141
0.0
142
1.0
143
1.0
 70
  1716
 72
     1
 73
     0
 74
     2
  7
big.ctb
 75
    16
147
1.0
148
0.0
149
0.0
  0
PLOTSETTINGS
  5
759
102
{ACAD_XDICTIONARY
360
31AF
102
}
102
{ACAD_REACTORS
330
566
102
}
330
566
100
AcDbPlotSettings
  1
A3(2倍)
  2
\\AWTECPC05\HP DeskJet 1120C
  4
A3
  6

 40
5.958416459999997
 41
13.49375153
 42
6.043090819999997
 43
3.67242432
 44
296.92599487
 45
419.94665527
 46
-67.54000000000001
 47
-95.60999999999999
 48
0.0
 49
0.0
140
0.0
141
0.0
142
1.0
143
0.5
 70
  1716
 72
     1
 73
     1
 74
     2
  7
big.ctb
 75
    27
147
2.0
148
0.0
149
0.0
  0
PLOTSETTINGS
  5
755
102
{ACAD_XDICTIONARY
360
31A7
102
}
102
{ACAD_REACTORS
330
566
102
}
330
566
100
AcDbPlotSettings
  1
A4(0.5倍)
  2
\\AWTECPC05\HP DeskJet 1120C
  4
A4
  6

 40
4.18041658
 41
13.49374962
 42
4.180404659999997
 43
3.926422119999998
 44
209.97332764
 45
296.92599487
 46
48.31
 47
65.5
 48
0.0
 49
0.0
140
0.0
141
0.0
142
1.0
143
2.0
 70
  1716
 72
     1
 73
     1
 74
     2
  7
big.ctb
 75
    17
147
0.5
148
0.0
149
0.0
  0
PLOTSETTINGS
  5
754
102
{ACAD_XDICTIONARY
360
31A5
102
}
102
{ACAD_REACTORS
330
566
102
}
330
566
100
AcDbPlotSettings
  1
A4(1倍)
  2
\\AWTECPC05\HP DeskJet 1120C
  4
A4
  6

 40
4.18041658
 41
13.49374962
 42
4.180404659999997
 43
3.926422119999998
 44
209.97332764
 45
296.92599487
 46
-4.19
 47
-8.75
 48
0.0
 49
0.0
140
0.0
141
0.0
142
1.0
143
1.0
 70
  1716
 72
     1
 73
     1
 74
     2
  7
big.ctb
 75
    16
147
1.0
148
0.0
149
0.0
  0
PLOTSETTINGS
  5
708
102
{ACAD_XDICTIONARY
360
31A3
102
}
102
{ACAD_REACTORS
330
566
102
}
330
566
100
AcDbPlotSettings
  1
A4(1倍)(2000)
  2
SII LS-1300 (D-SCAN)
  4
User259
  6

 40
3.17499995
 41
3.17499995
 42
3.174987789999998
 43
3.175003049999998
 44
296.98950195
 45
209.99449158
 46
-3.18
 47
-3.18
 48
0.0
 49
0.0
140
0.0
141
0.0
142
1.0
143
1.0
 70
  1716
 72
     1
 73
     0
 74
     2
  7
big.ctb
 75
    16
147
1.0
148
0.0
149
0.0
  0
PLOTSETTINGS
  5
756
102
{ACAD_XDICTIONARY
360
31A9
102
}
102
{ACAD_REACTORS
330
566
102
}
330
566
100
AcDbPlotSettings
  1
A4(2倍)
  2
\\AWTECPC05\HP DeskJet 1120C
  4
A4
  6

 40
4.18041658
 41
13.49374962
 42
4.180404659999997
 43
3.926422119999998
 44
209.97332764
 45
296.92599487
 46
-109.19
 47
-157.25
 48
0.0
 49
0.0
140
0.0
141
0.0
142
1.0
143
0.5
 70
  1716
 72
     1
 73
     1
 74
     2
  7
big.ctb
 75
    27
147
2.0
148
0.0
149
0.0
  0
ACDBPLACEHOLDER
  5
564
102
{ACAD_REACTORS
330
563
102
}
330
563
  0
SCALE
  5
28C8
102
{ACAD_REACTORS
330
28C7
102
}
330
28C7
100
AcDbScale
 70
     0
300
1:1
140
1.0
141
1.0
290
     1
  0
SCALE
  5
28C9
102
{ACAD_REACTORS
330
28C7
102
}
330
28C7
100
AcDbScale
 70
     0
300
1:2
140
1.0
141
2.0
290
     0
  0
SCALE
  5
28CA
102
{ACAD_REACTORS
330
28C7
102
}
330
28C7
100
AcDbScale
 70
     0
300
1:4
140
1.0
141
4.0
290
     0
  0
SCALE
  5
28CB
102
{ACAD_REACTORS
330
28C7
102
}
330
28C7
100
AcDbScale
 70
     0
300
1:5
140
1.0
141
5.0
290
     0
  0
SCALE
  5
28CC
102
{ACAD_REACTORS
330
28C7
102
}
330
28C7
100
AcDbScale
 70
     0
300
1:8
140
1.0
141
8.0
290
     0
  0
SCALE
  5
28CD
102
{ACAD_REACTORS
330
28C7
102
}
330
28C7
100
AcDbScale
 70
     0
300
1:10
140
1.0
141
10.0
290
     0
  0
SCALE
  5
28CE
102
{ACAD_REACTORS
330
28C7
102
}
330
28C7
100
AcDbScale
 70
     0
300
1:16
140
1.0
141
16.0
290
     0
  0
SCALE
  5
28CF
102
{ACAD_REACTORS
330
28C7
102
}
330
28C7
100
AcDbScale
 70
     0
300
1:20
140
1.0
141
20.0
290
     0
  0
SCALE
  5
28D0
102
{ACAD_REACTORS
330
28C7
102
}
330
28C7
100
AcDbScale
 70
     0
300
1:30
140
1.0
141
30.0
290
     0
  0
SCALE
  5
28D1
102
{ACAD_REACTORS
330
28C7
102
}
330
28C7
100
AcDbScale
 70
     0
300
1:40
140
1.0
141
40.0
290
     0
  0
SCALE
  5
28D2
102
{ACAD_REACTORS
330
28C7
102
}
330
28C7
100
AcDbScale
 70
     0
300
1:50
140
1.0
141
50.0
290
     0
  0
SCALE
  5
28D3
102
{ACAD_REACTORS
330
28C7
102
}
330
28C7
100
AcDbScale
 70
     0
300
1:100
140
1.0
141
100.0
290
     0
  0
SCALE
  5
28D4
102
{ACAD_REACTORS
330
28C7
102
}
330
28C7
100
AcDbScale
 70
     0
300
2:1
140
2.0
141
1.0
290
     0
  0
SCALE
  5
28D5
102
{ACAD_REACTORS
330
28C7
102
}
330
28C7
100
AcDbScale
 70
     0
300
4:1
140
4.0
141
1.0
290
     0
  0
SCALE
  5
28D6
102
{ACAD_REACTORS
330
28C7
102
}
330
28C7
100
AcDbScale
 70
     0
300
8:1
140
8.0
141
1.0
290
     0
  0
SCALE
  5
28D7
102
{ACAD_REACTORS
330
28C7
102
}
330
28C7
100
AcDbScale
 70
     0
300
10:1
140
10.0
141
1.0
290
     0
  0
SCALE
  5
28D8
102
{ACAD_REACTORS
330
28C7
102
}
330
28C7
100
AcDbScale
 70
     0
300
100:1
140
100.0
141
1.0
290
     0
  0
ACDBSECTIONVIEWSTYLE
  5
2EA5
102
{ACAD_XDICTIONARY
360
31EA
102
}
102
{ACAD_REACTORS
330
28DB
102
}
330
28DB
100
AcDbModelDocViewStyle
 70
     0
  3
Imperial24
290
     0
100
AcDbSectionViewStyle
 70
     0
 71
     0
 90
       78
 71
     1
340
10
 40
0.24
340
0
340
0
 40
0.24
300
I, O, Q, S, X, Z
 40
0.48
 90
        3
 40
0.18
 90
        1
 71
     2
340
16
 90
       25
340
16
 90
       50
 40
0.24
 40
0.0
 40
0.24
 71
     3
340
10
 40
0.24
 90
        1
 40
0.75
 90
        1
300
%<\AcVar ViewType \f "%tc1">% %<\AcVar ViewSectionStartId>%-%<\AcVar ViewSectionEndId>%\PSCALE %<\AcVar ViewScale \f "%sn">%
 71
     4
300
ANSI31
 40
1.0
 90
        0
290
     0
290
     0
 90
        6
 40
0.0
 40
1.570796326794896
 40
0.2617993877991494
 40
1.308996938995747
 40
-0.2617993877991494
 40
1.832595714594044
  0
ACDBSECTIONVIEWSTYLE
  5
28DC
102
{ACAD_XDICTIONARY
360
31E2
102
}
102
{ACAD_REACTORS
330
28DB
102
}
330
28DB
100
AcDbModelDocViewStyle
 70
     0
  3
Metric50
290
     0
100
AcDbSectionViewStyle
 70
     0
 71
     0
 90
      102
 71
     1
340
10
 40
5.0
340
0
340
0
 40
5.0
300
I, O, Q, S, X, Z
 40
10.0
 90
        0
 40
2.5
 90
        0
 71
     2
340
16
 90
       25
340
16
 90
       50
 40
5.0
 40
2.5
 40
5.0
 71
     3
340
10
 40
5.0
 90
        0
 40
15.0
 90
        1
300
%<\AcVar ViewSectionStartId>%-%<\AcVar ViewSectionEndId>% (%<\AcVar ViewScale \f "%sn">%)
 71
     4
300
ANSI31
 40
1.0
 90
        0
290
     0
290
     0
 90
        6
 40
0.0
 40
1.570796326794896
 40
0.2617993877991494
 40
1.308996938995747
 40
-0.2617993877991494
 40
1.832595714594044
  0
TABLESTYLE
  5
28C6
102
{ACAD_XDICTIONARY
360
3005
102
}
102
{ACAD_REACTORS
330
28C5
102
}
330
28C5
100
AcDbTableStyle
  3
Standard
 70
     0
 71
     0
 40
1.5
 41
1.5
280
     0
281
     0
  7
STANDARD
140
4.5
170
     2
 62
     0
 63
     7
283
     0
274
    -2
284
     1
 64
     0
275
    -2
285
     1
 65
     0
276
    -2
286
     1
 66
     0
277
    -2
287
     1
 67
     0
278
    -2
288
     1
 68
     0
279
    -2
289
     1
 69
     0
  7
STANDARD
140
6.0
170
     5
 62
     0
 63
     7
283
     0
274
    -2
284
     1
 64
     0
275
    -2
285
     1
 65
     0
276
    -2
286
     1
 66
     0
277
    -2
287
     1
 67
     0
278
    -2
288
     1
 68
     0
279
    -2
289
     1
 69
     0
  7
STANDARD
140
4.5
170
     5
 62
     0
 63
     7
283
     0
274
    -2
284
     1
 64
     0
275
    -2
285
     1
 65
     0
276
    -2
286
     1
 66
     0
277
    -2
287
     1
 67
     0
278
    -2
288
     1
 68
     0
279
    -2
289
     1
 69
     0
  0
VISUALSTYLE
  5
28B1
102
{ACAD_XDICTIONARY
360
31BB
102
}
102
{ACAD_REACTORS
330
28AB
102
}
330
28AB
100
AcDbVisualStyle
  2

 70
     4
 71
     0
 72
     2
 73
     0
 90
        0
 40
-0.6
 41
-30.0
 62
     5
 63
     7
 74
     1
 91
        4
 64
     7
 65
   257
 75
     1
175
     1
 42
1.0
 92
        0
 66
   257
 43
1.0
 76
     1
 77
     6
 78
     2
 67
     7
 79
     5
170
     0
171
     0
290
     0
174
     0
 93
        1
 44
0.0
173
     0
291
     0
 45
0.0
1001
ACAD
1000
AcDbSavedByObjectVersion
1070
     0
  0
VISUALSTYLE
  5
28B0
102
{ACAD_XDICTIONARY
360
31B9
102
}
102
{ACAD_REACTORS
330
28AB
102
}
330
28AB
100
AcDbVisualStyle
  2

 70
     7
 71
     1
 72
     0
 73
     1
 90
        0
 40
-0.6
 41
-30.0
 62
     5
 63
     7
 74
     0
 91
        4
 64
     7
 65
   257
 75
     1
175
     1
 42
1.0
 92
        8
 66
     7
 43
1.0
 76
     1
 77
     6
 78
     2
 67
     7
 79
     5
170
     0
171
     0
290
     0
174
     0
 93
        1
 44
0.0
173
     0
291
     1
 45
0.0
1001
ACAD
1000
AcDbSavedByObjectVersion
1070
     0
  0
VISUALSTYLE
  5
28B7
102
{ACAD_XDICTIONARY
360
31C7
102
}
102
{ACAD_REACTORS
330
28AB
102
}
330
28AB
100
AcDbVisualStyle
  2

 70
    12
 71
     2
 72
     2
 73
     0
 90
        0
 40
-0.6
 41
-30.0
 62
     5
 63
     7
 74
     1
 91
        4
 64
     7
 65
   257
 75
     1
175
     1
 42
1.0
 92
        8
 66
     7
 43
1.0
 76
     1
 77
     6
 78
     2
 67
     7
 79
     5
170
     0
171
     0
290
     0
174
     0
 93
        1
 44
50.0
173
     0
291
     1
 45
0.0
1001
ACAD
1000
AcDbSavedByObjectVersion
1070
     0
  0
VISUALSTYLE
  5
28BB
102
{ACAD_XDICTIONARY
360
31CF
102
}
102
{ACAD_REACTORS
330
28AB
102
}
330
28AB
100
AcDbVisualStyle
  2

 70
    16
 71
     2
 72
     2
 73
     3
 90
        0
 40
-0.6
 41
-30.0
 62
     5
 63
     8
 74
     1
 91
        4
 64
     7
 65
   257
 75
     1
175
     1
 42
1.0
 92
        8
 66
     8
 43
1.0
 76
     1
 77
     6
 78
     2
 67
     7
 79
     5
170
     0
171
     0
290
     0
174
     0
 93
        1
 44
0.0
173
     0
291
     1
 45
0.0
1001
ACAD
1000
AcDbSavedByObjectVersion
1070
     0
  0
VISUALSTYLE
  5
28B4
102
{ACAD_XDICTIONARY
360
31C1
102
}
102
{ACAD_REACTORS
330
28AB
102
}
330
28AB
100
AcDbVisualStyle
  2

 70
     9
 71
     3
 72
     2
 73
     0
 90
        0
 40
-0.6
 41
-30.0
 62
     5
 63
     7
 74
     2
 91
        2
 64
     7
 65
   257
 75
     1
175
     1
 42
179.0
 92
        8
 66
     7
 43
1.0
 76
     1
 77
     6
 78
     2
 67
     7
 79
     3
170
     0
171
     0
290
     0
174
     0
 93
        1
 44
0.0
173
     0
291
     0
 45
0.0
1001
ACAD
1000
AcDbSavedByObjectVersion
1070
     0
  0
VISUALSTYLE
  5
28B6
102
{ACAD_XDICTIONARY
360
31C5
102
}
102
{ACAD_REACTORS
330
28AB
102
}
330
28AB
100
AcDbVisualStyle
  2

 70
    11
 71
     2
 72
     2
 73
     0
 90
        0
 40
-0.6
 41
-30.0
 62
     5
 63
     7
 74
     1
 91
        4
 64
     7
 65
   257
 75
     1
175
     1
 42
1.0
 92
        8
 66
     7
 43
1.0
 76
     1
 77
     6
 78
     2
 67
     7
 79
     5
170
     0
171
     0
290
     0
174
     0
 93
        1
 44
-50.0
173
     0
291
     1
 45
0.0
1001
ACAD
1000
AcDbSavedByObjectVersion
1070
     0
  0
VISUALSTYLE
  5
28C3
102
{ACAD_XDICTIONARY
360
31DF
102
}
102
{ACAD_REACTORS
330
28AB
102
}
330
28AB
100
AcDbVisualStyle
  2

 70
    22
 71
     2
 72
     2
 73
     0
 90
        0
 40
-0.6
 41
-30.0
 62
     5
 63
     7
 74
     1
 91
        4
 64
     7
 65
   257
 75
     1
175
     1
 42
1.0
 92
        8
 66
     7
 43
1.0
 76
     1
 77
     6
 78
     2
 67
     7
 79
     5
170
     0
171
     0
290
     0
174
     0
 93
        1
 44
0.0
173
     0
291
     1
 45
0.0
1001
ACAD
1000
AcDbSavedByObjectVersion
1070
     0
  0
VISUALSTYLE
  5
28BA
102
{ACAD_XDICTIONARY
360
31CD
102
}
102
{ACAD_REACTORS
330
28AB
102
}
330
28AB
100
AcDbVisualStyle
  2

 70
    15
 71
     2
 72
     2
 73
     0
 90
        0
 40
-0.6
 41
-30.0
 62
     5
 63
     7
 74
     1
 91
        4
 64
     7
 65
   257
 75
     1
175
     1
 42
1.0
 92
        8
 66
     7
 43
1.0
 76
     1
 77
     6
 78
     2
 67
     7
 79
     5
170
     0
171
     0
290
     0
174
     0
 93
        1
 44
0.0
173
     0
291
     1
 45
0.0
1001
ACAD
1000
AcDbSavedByObjectVersion
1070
     0
  0
VISUALSTYLE
  5
28AC
102
{ACAD_XDICTIONARY
360
31B1
102
}
102
{ACAD_REACTORS
330
28AB
102
}
330
28AB
100
AcDbVisualStyle
  2

 70
     0
 71
     2
 72
     1
 73
     1
 90
        2
 40
-0.6
 41
30.0
 62
     5
 63
     7
 74
     0
 91
        0
 64
     7
 65
   257
 75
     1
175
     1
 42
1.0
 92
        8
 66
     7
 43
1.0
 76
     1
 77
     6
 78
     2
 67
     7
 79
     5
170
     0
171
     0
290
     0
174
     0
 93
       13
 44
0.0
173
     0
291
     1
 45
0.0
1001
ACAD
1000
AcDbSavedByObjectVersion
1070
     0
  0
VISUALSTYLE
  5
28AD
102
{ACAD_XDICTIONARY
360
31B3
102
}
102
{ACAD_REACTORS
330
28AB
102
}
330
28AB
100
AcDbVisualStyle
  2

 70
     1
 71
     2
 72
     1
 73
     1
 90
        2
 40
-0.6
 41
30.0
 62
     5
 63
     7
 74
     1
 91
        0
 64
     7
 65
   257
 75
     1
175
     1
 42
1.0
 92
        0
 66
   257
 43
1.0
 76
     1
 77
     6
 78
     2
 67
     7
 79
     5
170
     0
171
     0
290
     0
174
     0
 93
       13
 44
0.0
173
     0
291
     1
 45
0.0
1001
ACAD
1000
AcDbSavedByObjectVersion
1070
     0
  0
VISUALSTYLE
  5
28AE
102
{ACAD_XDICTIONARY
360
31B5
102
}
102
{ACAD_REACTORS
330
28AB
102
}
330
28AB
100
AcDbVisualStyle
  2

 70
     2
 71
     2
 72
     2
 73
     1
 90
        2
 40
-0.6
 41
30.0
 62
     5
 63
     7
 74
     0
 91
        0
 64
     7
 65
   257
 75
     1
175
     1
 42
1.0
 92
        0
 66
     7
 43
1.0
 76
     1
 77
     6
 78
     2
 67
     7
 79
     5
170
     0
171
     0
290
     0
174
     0
 93
       13
 44
0.0
173
     0
291
     1
 45
0.0
1001
ACAD
1000
AcDbSavedByObjectVersion
1070
     0
  0
VISUALSTYLE
  5
28AF
102
{ACAD_XDICTIONARY
360
31B7
102
}
102
{ACAD_REACTORS
330
28AB
102
}
330
28AB
100
AcDbVisualStyle
  2

 70
     3
 71
     2
 72
     2
 73
     1
 90
        2
 40
-0.6
 41
30.0
 62
     5
 63
     7
 74
     1
 91
        0
 64
     7
 65
   257
 75
     1
175
     1
 42
1.0
 92
        0
 66
   257
 43
1.0
 76
     1
 77
     6
 78
     2
 67
     7
 79
     5
170
     0
171
     0
290
     0
174
     0
 93
       13
 44
0.0
173
     0
291
     1
 45
0.0
1001
ACAD
1000
AcDbSavedByObjectVersion
1070
     0
  0
VISUALSTYLE
  5
28B3
102
{ACAD_XDICTIONARY
360
31BF
102
}
102
{ACAD_REACTORS
330
28AB
102
}
330
28AB
100
AcDbVisualStyle
  2

 70
     6
 71
     1
 72
     2
 73
     2
 90
        0
 40
-0.6
 41
-30.0
 62
     5
 63
     7
 74
     2
 91
        2
 64
     7
 65
   257
 75
     2
175
     1
 42
40.0
 92
        0
 66
   257
 43
1.0
 76
     1
 77
     6
 78
     2
 67
     7
 79
     3
170
     0
171
     0
290
     0
174
     0
 93
        1
 44
0.0
173
     0
291
     0
 45
0.0
1001
ACAD
1000
AcDbSavedByObjectVersion
1070
     0
  0
VISUALSTYLE
  5
28C1
102
{ACAD_XDICTIONARY
360
31DB
102
}
102
{ACAD_REACTORS
330
28AB
102
}
330
28AB
100
AcDbVisualStyle
  2

 70
    20
 71
     2
 72
     2
 73
     0
 90
        0
 40
-0.6
 41
-30.0
 62
     5
 63
     7
 74
     1
 91
        4
 64
     7
 65
   257
 75
     1
175
     1
 42
1.0
 92
       10
 66
     7
 43
1.0
 76
     1
 77
     6
 78
     2
 67
     7
 79
     5
170
     0
171
     0
290
     0
174
     0
 93
        1
 44
0.0
173
     0
291
     1
 45
0.0
1001
ACAD
1000
AcDbSavedByObjectVersion
1070
     0
  0
VISUALSTYLE
  5
28B9
102
{ACAD_XDICTIONARY
360
31CB
102
}
102
{ACAD_REACTORS
330
28AB
102
}
330
28AB
100
AcDbVisualStyle
  2

 70
    14
 71
     2
 72
     2
 73
     0
 90
        0
 40
-0.6
 41
-30.0
 62
     5
 63
     7
 74
     1
 91
        4
 64
     7
 65
   257
 75
     7
175
     7
 42
1.0
 92
        8
 66
     7
 43
1.0
 76
     1
 77
     6
 78
     2
 67
     7
 79
     5
170
     0
171
     0
290
     0
174
     0
 93
        1
 44
0.0
173
     0
291
     1
 45
0.0
1001
ACAD
1000
AcDbSavedByObjectVersion
1070
     0
  0
VISUALSTYLE
  5
28C2
102
{ACAD_XDICTIONARY
360
31DD
102
}
102
{ACAD_REACTORS
330
28AB
102
}
330
28AB
100
AcDbVisualStyle
  2

 70
    21
 71
     2
 72
     2
 73
     0
 90
        0
 40
-0.6
 41
-30.0
 62
     5
 63
     7
 74
     1
 91
        4
 64
     7
 65
   257
 75
     1
175
     1
 42
1.0
 92
        9
 66
     7
 43
1.0
 76
     1
 77
     6
 78
     2
 67
     7
 79
     5
170
     0
171
     0
290
     0
174
     0
 93
        1
 44
0.0
173
     0
291
     1
 45
0.0
1001
ACAD
1000
AcDbSavedByObjectVersion
1070
     0
  0
VISUALSTYLE
  5
28B5
102
{ACAD_XDICTIONARY
360
31C3
102
}
102
{ACAD_REACTORS
330
28AB
102
}
330
28AB
100
AcDbVisualStyle
  2

 70
     8
 71
     2
 72
     3
 73
     0
 90
        2
 40
-0.6
 41
30.0
 62
     5
 63
     7
 74
     0
 91
        0
 64
     7
 65
   257
 75
     1
175
     1
 42
1.0
 92
        8
 66
   257
 43
1.0
 76
     1
 77
     6
 78
     2
 67
     7
 79
     3
170
     0
171
     0
290
     0
174
     0
 93
       13
 44
0.0
173
     0
291
     0
 45
0.0
1001
ACAD
1000
AcDbSavedByObjectVersion
1070
     0
  0
VISUALSTYLE
  5
28C0
102
{ACAD_XDICTIONARY
360
31D9
102
}
102
{ACAD_REACTORS
330
28AB
102
}
330
28AB
100
AcDbVisualStyle
  2

 70
    27
 71
     2
 72
     2
 73
     1
 90
        2
 40
-0.6
 41
30.0
 62
     5
 63
     7
 74
     0
 91
        4
 64
     7
 65
   257
 75
     1
175
     1
 42
1.0
 92
        8
 66
   257
 43
1.0
 76
     1
 77
     6
 78
     2
 67
     8
 79
     3
170
     0
171
     0
290
     0
174
     0
 93
        5
 44
0.0
173
     0
291
     0
 45
0.0
1001
ACAD
1000
AcDbSavedByObjectVersion
1070
     0
  0
VISUALSTYLE
  5
28BF
102
{ACAD_XDICTIONARY
360
31D7
102
}
102
{ACAD_REACTORS
330
28AB
102
}
330
28AB
100
AcDbVisualStyle
  2

 70
    26
 71
     2
 72
     2
 73
     1
 90
        2
 40
-0.6
 41
30.0
 62
     5
 63
     7
 74
     1
 91
       10
 64
     7
 65
   257
 75
     2
175
     1
 42
1.0
 92
        8
 66
   257
 43
1.0
 76
     1
 77
     6
 78
     2
 67
     7
 79
     3
170
     0
171
     0
290
     0
174
     0
 93
        5
 44
0.0
173
     0
291
     0
 45
0.0
1001
ACAD
1000
AcDbSavedByObjectVersion
1070
     0
  0
VISUALSTYLE
  5
28BC
102
{ACAD_XDICTIONARY
360
31D1
102
}
102
{ACAD_REACTORS
330
28AB
102
}
330
28AB
100
AcDbVisualStyle
  2

 70
    23
 71
     2
 72
     2
 73
     3
 90
        0
 40
-0.6
 41
-30.0
 62
     5
 63
     7
 74
     2
 91
        2
 64
     7
 65
     7
 75
     1
175
     1
 42
40.0
 92
        8
 66
     7
 43
1.0
 76
     1
 77
     6
 78
     2
 67
     7
 79
     3
170
     0
171
     0
290
     0
174
     0
 93
        1
 44
0.0
173
     0
291
     0
 45
0.0
1001
ACAD
1000
AcDbSavedByObjectVersion
1070
     0
  0
VISUALSTYLE
  5
28BD
102
{ACAD_XDICTIONARY
360
31D3
102
}
102
{ACAD_REACTORS
330
28AB
102
}
330
28AB
100
AcDbVisualStyle
  2

 70
    24
 71
     1
 72
     2
 73
     2
 90
        0
 40
-0.6
 41
-30.0
 62
     5
 63
     7
 74
     2
 91
        2
 64
     7
 65
     7
 75
     1
175
     1
 42
40.0
 92
       11
 66
     7
 43
1.0
 76
     1
 77
     6
 78
     2
 67
     7
 79
     6
170
     0
171
     0
290
     0
174
     0
 93
        1
 44
0.0
173
     0
291
     0
 45
0.0
1001
ACAD
1000
AcDbSavedByObjectVersion
1070
     0
  0
VISUALSTYLE
  5
28B8
102
{ACAD_XDICTIONARY
360
31C9
102
}
102
{ACAD_REACTORS
330
28AB
102
}
330
28AB
100
AcDbVisualStyle
  2

 70
    13
 71
     2
 72
     2
 73
     0
 90
        0
 40
-0.6
 41
-30.0
 62
     5
 63
     7
 74
     1
 91
        4
 64
     7
 65
   257
 75
     1
175
     1
 42
1.0
 92
       12
 66
     7
 43
1.0
 76
     1
 77
     6
 78
     2
 67
     7
 79
     5
170
     0
171
     0
290
     0
174
     0
 93
        1
 44
0.0
173
     0
291
     1
 45
0.0
1001
ACAD
1000
AcDbSavedByObjectVersion
1070
     0
  0
VISUALSTYLE
  5
28B2
102
{ACAD_XDICTIONARY
360
31BD
102
}
102
{ACAD_REACTORS
330
28AB
102
}
330
28AB
100
AcDbVisualStyle
  2

 70
     5
 71
     0
 72
     2
 73
     0
 90
        0
 40
-0.6
 41
-30.0
 62
     5
 63
     7
 74
     1
 91
        4
 64
     7
 65
   257
 75
     1
175
     1
 42
1.0
 92
        0
 66
   257
 43
1.0
 76
     1
 77
     6
 78
     2
 67
     7
 79
     3
170
     0
171
     0
290
     0
174
     0
 93
        1
 44
0.0
173
     0
291
     0
 45
0.0
1001
ACAD
1000
AcDbSavedByObjectVersion
1070
     0
  0
VISUALSTYLE
  5
28BE
102
{ACAD_XDICTIONARY
360
31D5
102
}
102
{ACAD_REACTORS
330
28AB
102
}
330
28AB
100
AcDbVisualStyle
  2

 70
    25
 71
     2
 72
     2
 73
     1
 90
        1
 40
0.5
 41
-30.0
 62
     5
 63
     7
 74
     1
 91
        0
 64
     7
 65
   257
 75
     1
175
     1
 42
1.0
 92
        8
 66
     7
 43
1.0
 76
     1
 77
     6
 78
     2
 67
     7
 79
     3
170
     0
171
     0
290
     0
174
     0
 93
       13
 44
0.0
173
     0
291
     0
 45
0.0
1001
ACAD
1000
AcDbSavedByObjectVersion
1070
     0
  0
DICTIONARYVAR
  5
3000
102
{ACAD_REACTORS
330
2FFB
102
}
330
2FFB
100
DictionaryVariables
280
     0
  1
1:1
  0
DICTIONARYVAR
  5
2FFD
102
{ACAD_REACTORS
330
2FFB
102
}
330
2FFB
100
DictionaryVariables
280
     0
  1
STANDARD
  0
DICTIONARYVAR
  5
2FFC
102
{ACAD_REACTORS
330
2FFB
102
}
330
2FFB
100
DictionaryVariables
280
     0
  1
STANDARD
  0
DICTIONARYVAR
  5
2FFE
102
{ACAD_REACTORS
330
2FFB
102
}
330
2FFB
100
DictionaryVariables
280
     0
  1
Metric50
  0
DICTIONARYVAR
  5
2FFF
102
{ACAD_REACTORS
330
2FFB
102
}
330
2FFB
100
DictionaryVariables
280
     0
  1
Metric50
  0
DICTIONARYVAR
  5
3003
102
{ACAD_REACTORS
330
2FFB
102
}
330
2FFB
100
DictionaryVariables
280
     0
  1
1
  0
DICTIONARYVAR
  5
3002
102
{ACAD_REACTORS
330
2FFB
102
}
330
2FFB
100
DictionaryVariables
280
     0
  1
0
  0
DICTIONARYVAR
  5
3001
102
{ACAD_REACTORS
330
2FFB
102
}
330
2FFB
100
DictionaryVariables
280
     0
  1
127
  0
DICTIONARYVAR
  5
319B
102
{ACAD_REACTORS
330
2FFB
102
}
330
2FFB
100
DictionaryVariables
280
     0
  1
2
  0
XRECORD
  5
560
102
{ACAD_REACTORS
330
540
102
}
330
540
100
AcDbXrecord
280
     1
  1
2.0.0
  0
DICTIONARY
  5
31EC
330
2EA6
100
AcDbDictionary
280
     1
281
     1
  3
ACAD_XREC_ROUNDTRIP
360
31ED
  0
DICTIONARY
  5
31E4
330
28DE
100
AcDbDictionary
280
     1
281
     1
  3
ACAD_XREC_ROUNDTRIP
360
31E5
  0
DICTIONARY
  5
31E6
330
28DF
100
AcDbDictionary
280
     1
281
     1
  3
ACAD_XREC_ROUNDTRIP
360
31E7
  0
DICTIONARY
  5
31E8
330
28E0
100
AcDbDictionary
280
     1
281
     1
  3
ACAD_XREC_ROUNDTRIP
360
31E9
  0
DICTIONARY
  5
289C
330
289B
100
AcDbDictionary
280
     1
281
     1
  3
ACAD_XREC_ROUNDTRIP
360
301C
  3
BUMPTILE
360
289E
  3
DIFFUSETILE
360
289D
  3
OPACITYTILE
360
28A1
  3
REFLECTIONTILE
360
28A0
  3
REFRACTIONTILE
360
28A2
  3
SPECULARTILE
360
289F
  0
DICTIONARY
  5
2894
330
2893
100
AcDbDictionary
280
     1
281
     1
  3
ACAD_XREC_ROUNDTRIP
360
301B
  3
BUMPTILE
360
2896
  3
DIFFUSETILE
360
2895
  3
OPACITYTILE
360
2899
  3
REFLECTIONTILE
360
2898
  3
REFRACTIONTILE
360
289A
  3
SPECULARTILE
360
2897
  0
DICTIONARY
  5
28A4
330
28A3
100
AcDbDictionary
280
     1
281
     1
  3
ACAD_XREC_ROUNDTRIP
360
301D
  3
BUMPTILE
360
28A6
  3
DIFFUSETILE
360
28A5
  3
OPACITYTILE
360
28A9
  3
REFLECTIONTILE
360
28A8
  3
REFRACTIONTILE
360
28AA
  3
SPECULARTILE
360
28A7
  0
DICTIONARY
  5
31AD
330
758
100
AcDbDictionary
280
     1
281
     1
  3
ACAD_XREC_ROUNDTRIP
360
31AE
  0
DICTIONARY
  5
31AB
330
757
100
AcDbDictionary
280
     1
281
     1
  3
ACAD_XREC_ROUNDTRIP
360
31AC
  0
DICTIONARY
  5
31A1
330
707
100
AcDbDictionary
280
     1
281
     1
  3
ACAD_XREC_ROUNDTRIP
360
31A2
  0
DICTIONARY
  5
31AF
330
759
100
AcDbDictionary
280
     1
281
     1
  3
ACAD_XREC_ROUNDTRIP
360
31B0
  0
DICTIONARY
  5
31A7
330
755
100
AcDbDictionary
280
     1
281
     1
  3
ACAD_XREC_ROUNDTRIP
360
31A8
  0
DICTIONARY
  5
31A5
330
754
100
AcDbDictionary
280
     1
281
     1
  3
ACAD_XREC_ROUNDTRIP
360
31A6
  0
DICTIONARY
  5
31A3
330
708
100
AcDbDictionary
280
     1
281
     1
  3
ACAD_XREC_ROUNDTRIP
360
31A4
  0
DICTIONARY
  5
31A9
330
756
100
AcDbDictionary
280
     1
281
     1
  3
ACAD_XREC_ROUNDTRIP
360
31AA
  0
DICTIONARY
  5
31EA
330
2EA5
100
AcDbDictionary
280
     1
281
     1
  3
ACAD_XREC_ROUNDTRIP
360
31EB
  0
DICTIONARY
  5
31E2
330
28DC
100
AcDbDictionary
280
     1
281
     1
  3
ACAD_XREC_ROUNDTRIP
360
31E3
  0
DICTIONARY
  5
3005
330
28C6
100
AcDbDictionary
280
     1
281
     1
  3
ACAD_ROUNDTRIP_2008_TABLESTYLE_CELLSTYLEMAP
360
319C
  3
ACAD_XREC_ROUNDTRIP
360
31E1
  0
DICTIONARY
  5
31BB
330
28B1
100
AcDbDictionary
280
     1
281
     1
  3
ACAD_XREC_ROUNDTRIP
360
31BC
  0
DICTIONARY
  5
31B9
330
28B0
100
AcDbDictionary
280
     1
281
     1
  3
ACAD_XREC_ROUNDTRIP
360
31BA
  0
DICTIONARY
  5
31C7
330
28B7
100
AcDbDictionary
280
     1
281
     1
  3
ACAD_XREC_ROUNDTRIP
360
31C8
  0
DICTIONARY
  5
31CF
330
28BB
100
AcDbDictionary
280
     1
281
     1
  3
ACAD_XREC_ROUNDTRIP
360
31D0
  0
DICTIONARY
  5
31C1
330
28B4
100
AcDbDictionary
280
     1
281
     1
  3
ACAD_XREC_ROUNDTRIP
360
31C2
  0
DICTIONARY
  5
31C5
330
28B6
100
AcDbDictionary
280
     1
281
     1
  3
ACAD_XREC_ROUNDTRIP
360
31C6
  0
DICTIONARY
  5
31DF
330
28C3
100
AcDbDictionary
280
     1
281
     1
  3
ACAD_XREC_ROUNDTRIP
360
31E0
  0
DICTIONARY
  5
31CD
330
28BA
100
AcDbDictionary
280
     1
281
     1
  3
ACAD_XREC_ROUNDTRIP
360
31CE
  0
DICTIONARY
  5
31B1
330
28AC
100
AcDbDictionary
280
     1
281
     1
  3
ACAD_XREC_ROUNDTRIP
360
31B2
  0
DICTIONARY
  5
31B3
330
28AD
100
AcDbDictionary
280
     1
281
     1
  3
ACAD_XREC_ROUNDTRIP
360
31B4
  0
DICTIONARY
  5
31B5
330
28AE
100
AcDbDictionary
280
     1
281
     1
  3
ACAD_XREC_ROUNDTRIP
360
31B6
  0
DICTIONARY
  5
31B7
330
28AF
100
AcDbDictionary
280
     1
281
     1
  3
ACAD_XREC_ROUNDTRIP
360
31B8
  0
DICTIONARY
  5
31BF
330
28B3
100
AcDbDictionary
280
     1
281
     1
  3
ACAD_XREC_ROUNDTRIP
360
31C0
  0
DICTIONARY
  5
31DB
330
28C1
100
AcDbDictionary
280
     1
281
     1
  3
ACAD_XREC_ROUNDTRIP
360
31DC
  0
DICTIONARY
  5
31CB
330
28B9
100
AcDbDictionary
280
     1
281
     1
  3
ACAD_XREC_ROUNDTRIP
360
31CC
  0
DICTIONARY
  5
31DD
330
28C2
100
AcDbDictionary
280
     1
281
     1
  3
ACAD_XREC_ROUNDTRIP
360
31DE
  0
DICTIONARY
  5
31C3
330
28B5
100
AcDbDictionary
280
     1
281
     1
  3
ACAD_XREC_ROUNDTRIP
360
31C4
  0
DICTIONARY
  5
31D9
330
28C0
100
AcDbDictionary
280
     1
281
     1
  3
ACAD_XREC_ROUNDTRIP
360
31DA
  0
DICTIONARY
  5
31D7
330
28BF
100
AcDbDictionary
280
     1
281
     1
  3
ACAD_XREC_ROUNDTRIP
360
31D8
  0
DICTIONARY
  5
31D1
330
28BC
100
AcDbDictionary
280
     1
281
     1
  3
ACAD_XREC_ROUNDTRIP
360
31D2
  0
DICTIONARY
  5
31D3
330
28BD
100
AcDbDictionary
280
     1
281
     1
  3
ACAD_XREC_ROUNDTRIP
360
31D4
  0
DICTIONARY
  5
31C9
330
28B8
100
AcDbDictionary
280
     1
281
     1
  3
ACAD_XREC_ROUNDTRIP
360
31CA
  0
DICTIONARY
  5
31BD
330
28B2
100
AcDbDictionary
280
     1
281
     1
  3
ACAD_XREC_ROUNDTRIP
360
31BE
  0
DICTIONARY
  5
31D5
330
28BE
100
AcDbDictionary
280
     1
281
     1
  3
ACAD_XREC_ROUNDTRIP
360
31D6
  0
XRECORD
  5
31ED
102
{ACAD_REACTORS
330
31EC
102
}
330
31EC
100
AcDbXrecord
280
     1
102
DISPLAYNAME
  1
Imperial24
102
FLAGS
 90
        0
  0
XRECORD
  5
31E5
102
{ACAD_REACTORS
330
31E4
102
}
330
31E4
100
AcDbXrecord
280
     1
102
DISPLAYNAME
  1
Metric50
102
FLAGS
 90
        0
  0
XRECORD
  5
31E7
102
{ACAD_REACTORS
330
31E6
102
}
330
31E6
100
AcDbXrecord
280
     1
102
SHADEPLOT
 70
     0
102
SHADEPLOTRESLEVEL
 70
     2
102
SHADEPLOTCUSTOMDPI
 70
   300
  0
XRECORD
  5
31E9
102
{ACAD_REACTORS
330
31E8
102
}
330
31E8
100
AcDbXrecord
280
     1
102
SHADEPLOT
 70
     0
102
SHADEPLOTRESLEVEL
 70
     2
102
SHADEPLOTCUSTOMDPI
 70
   300
  0
XRECORD
  5
301C
102
{ACAD_REACTORS
330
289C
102
}
330
289C
100
AcDbXrecord
280
     1
102
MATERIAL
148
0.0
149
0.0
149
0.0
 93
        0
 94
      127
282
     0
 72
     0
 77
     0
171
     0
175
     0
179
     0
273
     0
  0
XRECORD
  5
289E
102
{ACAD_REACTORS
330
289C
102
}
330
289C
100
AcDbXrecord
280
     1
270
     1
271
     1
  0
XRECORD
  5
289D
102
{ACAD_REACTORS
330
289C
102
}
330
289C
100
AcDbXrecord
280
     1
270
     1
271
     1
  0
XRECORD
  5
28A1
102
{ACAD_REACTORS
330
289C
102
}
330
289C
100
AcDbXrecord
280
     1
270
     1
271
     1
  0
XRECORD
  5
28A0
102
{ACAD_REACTORS
330
289C
102
}
330
289C
100
AcDbXrecord
280
     1
270
     1
271
     1
  0
XRECORD
  5
28A2
102
{ACAD_REACTORS
330
289C
102
}
330
289C
100
AcDbXrecord
280
     1
270
     1
271
     1
  0
XRECORD
  5
289F
102
{ACAD_REACTORS
330
289C
102
}
330
289C
100
AcDbXrecord
280
     1
270
     1
271
     1
  0
XRECORD
  5
301B
102
{ACAD_REACTORS
330
2894
102
}
330
2894
100
AcDbXrecord
280
     1
102
MATERIAL
148
0.0
149
0.0
149
0.0
 93
        0
 94
      127
282
     0
 72
     0
 77
     0
171
     0
175
     0
179
     0
273
     0
  0
XRECORD
  5
2896
102
{ACAD_REACTORS
330
2894
102
}
330
2894
100
AcDbXrecord
280
     1
270
     1
271
     1
  0
XRECORD
  5
2895
102
{ACAD_REACTORS
330
2894
102
}
330
2894
100
AcDbXrecord
280
     1
270
     1
271
     1
  0
XRECORD
  5
2899
102
{ACAD_REACTORS
330
2894
102
}
330
2894
100
AcDbXrecord
280
     1
270
     1
271
     1
  0
XRECORD
  5
2898
102
{ACAD_REACTORS
330
2894
102
}
330
2894
100
AcDbXrecord
280
     1
270
     1
271
     1
  0
XRECORD
  5
289A
102
{ACAD_REACTORS
330
2894
102
}
330
2894
100
AcDbXrecord
280
     1
270
     1
271
     1
  0
XRECORD
  5
2897
102
{ACAD_REACTORS
330
2894
102
}
330
2894
100
AcDbXrecord
280
     1
270
     1
271
     1
  0
XRECORD
  5
301D
102
{ACAD_REACTORS
330
28A4
102
}
330
28A4
100
AcDbXrecord
280
     1
102
MATERIAL
148
0.0
149
0.0
149
0.0
 93
        0
 94
      127
282
     0
 72
     0
 77
     0
171
     0
175
     0
179
     0
273
     0
  0
XRECORD
  5
28A6
102
{ACAD_REACTORS
330
28A4
102
}
330
28A4
100
AcDbXrecord
280
     1
270
     1
271
     1
  0
XRECORD
  5
28A5
102
{ACAD_REACTORS
330
28A4
102
}
330
28A4
100
AcDbXrecord
280
     1
270
     1
271
     1
  0
XRECORD
  5
28A9
102
{ACAD_REACTORS
330
28A4
102
}
330
28A4
100
AcDbXrecord
280
     1
270
     1
271
     1
  0
XRECORD
  5
28A8
102
{ACAD_REACTORS
330
28A4
102
}
330
28A4
100
AcDbXrecord
280
     1
270
     1
271
     1
  0
XRECORD
  5
28AA
102
{ACAD_REACTORS
330
28A4
102
}
330
28A4
100
AcDbXrecord
280
     1
270
     1
271
     1
  0
XRECORD
  5
28A7
102
{ACAD_REACTORS
330
28A4
102
}
330
28A4
100
AcDbXrecord
280
     1
270
     1
271
     1
  0
XRECORD
  5
31AE
102
{ACAD_REACTORS
330
31AD
102
}
330
31AD
100
AcDbXrecord
280
     1
102
SHADEPLOT
 70
     0
102
SHADEPLOTRESLEVEL
 70
     2
102
SHADEPLOTCUSTOMDPI
 70
   300
  0
XRECORD
  5
31AC
102
{ACAD_REACTORS
330
31AB
102
}
330
31AB
100
AcDbXrecord
280
     1
102
SHADEPLOT
 70
     0
102
SHADEPLOTRESLEVEL
 70
     2
102
SHADEPLOTCUSTOMDPI
 70
   300
  0
XRECORD
  5
31A2
102
{ACAD_REACTORS
330
31A1
102
}
330
31A1
100
AcDbXrecord
280
     1
102
SHADEPLOT
 70
     0
102
SHADEPLOTRESLEVEL
 70
     2
102
SHADEPLOTCUSTOMDPI
 70
   300
  0
XRECORD
  5
31B0
102
{ACAD_REACTORS
330
31AF
102
}
330
31AF
100
AcDbXrecord
280
     1
102
SHADEPLOT
 70
     0
102
SHADEPLOTRESLEVEL
 70
     2
102
SHADEPLOTCUSTOMDPI
 70
   300
  0
XRECORD
  5
31A8
102
{ACAD_REACTORS
330
31A7
102
}
330
31A7
100
AcDbXrecord
280
     1
102
SHADEPLOT
 70
     0
102
SHADEPLOTRESLEVEL
 70
     2
102
SHADEPLOTCUSTOMDPI
 70
   300
  0
XRECORD
  5
31A6
102
{ACAD_REACTORS
330
31A5
102
}
330
31A5
100
AcDbXrecord
280
     1
102
SHADEPLOT
 70
     0
102
SHADEPLOTRESLEVEL
 70
     2
102
SHADEPLOTCUSTOMDPI
 70
   300
  0
XRECORD
  5
31A4
102
{ACAD_REACTORS
330
31A3
102
}
330
31A3
100
AcDbXrecord
280
     1
102
SHADEPLOT
 70
     0
102
SHADEPLOTRESLEVEL
 70
     2
102
SHADEPLOTCUSTOMDPI
 70
   300
  0
XRECORD
  5
31AA
102
{ACAD_REACTORS
330
31A9
102
}
330
31A9
100
AcDbXrecord
280
     1
102
SHADEPLOT
 70
     0
102
SHADEPLOTRESLEVEL
 70
     2
102
SHADEPLOTCUSTOMDPI
 70
   300
  0
XRECORD
  5
31EB
102
{ACAD_REACTORS
330
31EA
102
}
330
31EA
100
AcDbXrecord
280
     1
102
DISPLAYNAME
  1
Imperial24
102
FLAGS
 90
        0
  0
XRECORD
  5
31E3
102
{ACAD_REACTORS
330
31E2
102
}
330
31E2
100
AcDbXrecord
280
     1
102
DISPLAYNAME
  1
Metric50
102
FLAGS
 90
        0
  0
CELLSTYLEMAP
  5
319C
102
{ACAD_REACTORS
330
3005
102
}
330
3005
100
AcDbCellStyleMap
 90
        3
300
CELLSTYLE
  1
TABLEFORMAT_BEGIN
 90
        5
170
     1
 91
        0
 92
    32768
 62
   257
 93
        1
300
CONTENTFORMAT
  1
CONTENTFORMAT_BEGIN
 90
        0
 91
        0
 92
      512
 93
        0
300

 40
0.0
140
1.0
 94
        5
 62
     0
340
10
144
6.0
309
CONTENTFORMAT_END
171
     1
301
MARGIN
  1
CELLMARGIN_BEGIN
 40
1.5
 40
1.5
 40
1.5
 40
1.5
 40
0.18
 40
0.18
309
CELLMARGIN_END
 94
        6
 95
        1
302
GRIDFORMAT
  1
GRIDFORMAT_BEGIN
 90
        0
 91
        1
 62
     0
 92
       -2
340
0
 93
        0
 40
1.125
309
GRIDFORMAT_END
 95
        2
302
GRIDFORMAT
  1
GRIDFORMAT_BEGIN
 90
        0
 91
        1
 62
     0
 92
       -2
340
0
 93
        0
 40
1.125
309
GRIDFORMAT_END
 95
        4
302
GRIDFORMAT
  1
GRIDFORMAT_BEGIN
 90
        0
 91
        1
 62
     0
 92
       -2
340
0
 93
        0
 40
1.125
309
GRIDFORMAT_END
 95
        8
302
GRIDFORMAT
  1
GRIDFORMAT_BEGIN
 90
        0
 91
        1
 62
     0
 92
       -2
340
0
 93
        0
 40
1.125
309
GRIDFORMAT_END
 95
       16
302
GRIDFORMAT
  1
GRIDFORMAT_BEGIN
 90
        0
 91
        1
 62
     0
 92
       -2
340
0
 93
        0
 40
1.125
309
GRIDFORMAT_END
 95
       32
302
GRIDFORMAT
  1
GRIDFORMAT_BEGIN
 90
        0
 91
        1
 62
     0
 92
       -2
340
0
 93
        0
 40
1.125
309
GRIDFORMAT_END
309
TABLEFORMAT_END
  1
CELLSTYLE_BEGIN
 90
        1
 91
        1
300
_TITLE
309
CELLSTYLE_END
300
CELLSTYLE
  1
TABLEFORMAT_BEGIN
 90
        5
170
     1
 91
        0
 92
        0
 62
   257
 93
        1
300
CONTENTFORMAT
  1
CONTENTFORMAT_BEGIN
 90
        0
 91
        0
 92
      512
 93
        0
300

 40
0.0
140
1.0
 94
        5
 62
     0
340
10
144
4.5
309
CONTENTFORMAT_END
171
     1
301
MARGIN
  1
CELLMARGIN_BEGIN
 40
1.5
 40
1.5
 40
1.5
 40
1.5
 40
0.18
 40
0.18
309
CELLMARGIN_END
 94
        6
 95
        1
302
GRIDFORMAT
  1
GRIDFORMAT_BEGIN
 90
        0
 91
        1
 62
     0
 92
       -2
340
0
 93
        0
 40
1.125
309
GRIDFORMAT_END
 95
        2
302
GRIDFORMAT
  1
GRIDFORMAT_BEGIN
 90
        0
 91
        1
 62
     0
 92
       -2
340
0
 93
        0
 40
1.125
309
GRIDFORMAT_END
 95
        4
302
GRIDFORMAT
  1
GRIDFORMAT_BEGIN
 90
        0
 91
        1
 62
     0
 92
       -2
340
0
 93
        0
 40
1.125
309
GRIDFORMAT_END
 95
        8
302
GRIDFORMAT
  1
GRIDFORMAT_BEGIN
 90
        0
 91
        1
 62
     0
 92
       -2
340
0
 93
        0
 40
1.125
309
GRIDFORMAT_END
 95
       16
302
GRIDFORMAT
  1
GRIDFORMAT_BEGIN
 90
        0
 91
        1
 62
     0
 92
       -2
340
0
 93
        0
 40
1.125
309
GRIDFORMAT_END
 95
       32
302
GRIDFORMAT
  1
GRIDFORMAT_BEGIN
 90
        0
 91
        1
 62
     0
 92
       -2
340
0
 93
        0
 40
1.125
309
GRIDFORMAT_END
309
TABLEFORMAT_END
  1
CELLSTYLE_BEGIN
 90
        2
 91
        1
300
_HEADER
309
CELLSTYLE_END
300
CELLSTYLE
  1
TABLEFORMAT_BEGIN
 90
        5
170
     1
 91
        0
 92
        0
 62
   257
 93
        1
300
CONTENTFORMAT
  1
CONTENTFORMAT_BEGIN
 90
        0
 91
        0
 92
      512
 93
        0
300

 40
0.0
140
1.0
 94
        2
 62
     0
340
10
144
4.5
309
CONTENTFORMAT_END
171
     1
301
MARGIN
  1
CELLMARGIN_BEGIN
 40
1.5
 40
1.5
 40
1.5
 40
1.5
 40
0.18
 40
0.18
309
CELLMARGIN_END
 94
        6
 95
        1
302
GRIDFORMAT
  1
GRIDFORMAT_BEGIN
 90
        0
 91
        1
 62
     0
 92
       -2
340
0
 93
        0
 40
1.125
309
GRIDFORMAT_END
 95
        2
302
GRIDFORMAT
  1
GRIDFORMAT_BEGIN
 90
        0
 91
        1
 62
     0
 92
       -2
340
0
 93
        0
 40
1.125
309
GRIDFORMAT_END
 95
        4
302
GRIDFORMAT
  1
GRIDFORMAT_BEGIN
 90
        0
 91
        1
 62
     0
 92
       -2
340
0
 93
        0
 40
1.125
309
GRIDFORMAT_END
 95
        8
302
GRIDFORMAT
  1
GRIDFORMAT_BEGIN
 90
        0
 91
        1
 62
     0
 92
       -2
340
0
 93
        0
 40
1.125
309
GRIDFORMAT_END
 95
       16
302
GRIDFORMAT
  1
GRIDFORMAT_BEGIN
 90
        0
 91
        1
 62
     0
 92
       -2
340
0
 93
        0
 40
1.125
309
GRIDFORMAT_END
 95
       32
302
GRIDFORMAT
  1
GRIDFORMAT_BEGIN
 90
        0
 91
        1
 62
     0
 92
       -2
340
0
 93
        0
 40
1.125
309
GRIDFORMAT_END
309
TABLEFORMAT_END
  1
CELLSTYLE_BEGIN
 90
        3
 91
        2
300
_DATA
309
CELLSTYLE_END
  0
XRECORD
  5
31E1
102
{ACAD_REACTORS
330
3005
102
}
330
3005
100
AcDbXrecord
280
     1
102
ACAD_ROUNDTRIP_PRE2007_TABLESTYLE
 90
      512
 91
        0
  1

 92
      512
 93
        0
  2

 94
      512
 95
        0
  3

  0
XRECORD
  5
31BC
102
{ACAD_REACTORS
330
31BB
102
}
330
31BB
100
AcDbXrecord
280
     1
102
RTVSPost2010Prop28
280
     1
102
RTVSPost2010PropOp28
 70
     1
102
RTVSPost2010Prop29
280
     1
102
RTVSPost2010PropOp29
 70
     1
102
RTVSPost2010Prop30
280
     0
102
RTVSPost2010PropOp30
 70
     1
102
RTVSPost2010Prop31
280
     0
102
RTVSPost2010PropOp31
 70
     1
102
RTVSPost2010Prop32
280
     0
102
RTVSPost2010PropOp32
 70
     1
102
RTVSPost2010Prop33
280
     0
102
RTVSPost2010PropOp33
 70
     1
102
RTVSPost2010Prop34
280
     0
102
RTVSPost2010PropOp34
 70
     1
102
RTVSPost2010Prop35
280
     0
102
RTVSPost2010PropOp35
 70
     1
102
RTVSPost2010Prop36
280
     0
102
RTVSPost2010PropOp36
 70
     1
102
RTVSPost2010Prop37
 90
       50
102
RTVSPost2010PropOp37
 70
     1
102
RTVSPost2010Prop38
140
0.0
102
RTVSPost2010PropOp38
 70
     1
102
RTVSPost2010Prop39
140
1.0
102
RTVSPost2010PropOp39
 70
     1
102
RTVSPost2010Prop40
 90
        0
102
RTVSPost2010PropOp40
 70
     1
102
RTVSPost2010Prop41ColorIndex
 90
       18
102
RTVSPost2010Prop41ColorRGB
 90
        0
102
RTVSPost2010PropOp41
 70
     1
102
RTVSPost2010Prop42
 90
       50
102
RTVSPost2010PropOp42
 70
     1
102
RTVSPost2010Prop43
 90
        3
102
RTVSPost2010PropOp43
 70
     1
102
RTVSPost2010Prop44ColorIndex
 90
        5
102
RTVSPost2010Prop44ColorRGB
 90
      255
102
RTVSPost2010PropOp44
 70
     1
102
RTVSPost2010Prop45
280
     0
102
RTVSPost2010PropOp45
 70
     1
102
RTVSPost2010Prop46
 90
       50
102
RTVSPost2010PropOp46
 70
     1
102
RTVSPost2010Prop47
 90
       50
102
RTVSPost2010PropOp47
 70
     1
102
RTVSPost2010Prop48
 90
       50
102
RTVSPost2010PropOp48
 70
     1
102
RTVSPost2010Prop49
280
     0
102
RTVSPost2010PropOp49
 70
     1
102
RTVSPost2010Prop50
 90
       50
102
RTVSPost2010PropOp50
 70
     1
102
RTVSPost2010Prop51ColorIndex
 90
      256
102
RTVSPost2010Prop51ColorRGB
 90
-16777216
102
RTVSPost2010PropOp51
 70
     0
102
RTVSPost2010Prop52
140
1.0
102
RTVSPost2010PropOp52
 70
     0
102
RTVSPost2010Prop53
 90
        2
102
RTVSPost2010PropOp53
 70
     1
102
RTVSPost2010Prop54
  1
strokes_ogs.tif
102
RTVSPost2010PropOp54
 70
     1
102
RTVSPost2010Prop55
280
     0
102
RTVSPost2010PropOp55
 70
     1
102
RTVSPost2010Prop56
140
1.0
102
RTVSPost2010PropOp56
 70
     1
102
RTVSPost2010Prop57
140
1.0
102
RTVSPost2010PropOp57
 70
     1
102
RTVSPropertyOp0
 70
     1
102
RTVSPropertyOp1
 70
     1
102
RTVSPropertyOp2
 70
     1
102
RTVSPropertyOp3
 70
     1
102
RTVSPropertyOp4
 70
     1
102
RTVSPropertyOp5
 70
     1
102
RTVSPropertyOp6
 70
     1
102
RTVSPropertyOp7
 70
     1
102
RTVSPropertyOp8
 70
     1
102
RTVSPropertyOp9
 70
     1
102
RTVSPropertyOp10
 70
     1
102
RTVSPropertyOp11
 70
     1
102
RTVSPropertyOp12
 70
     1
102
RTVSPropertyOp13
 70
     1
102
RTVSPropertyOp14
 70
     1
102
RTVSPropertyOp15
 70
     1
102
RTVSPropertyOp16
 70
     1
102
RTVSPropertyOp17
 70
     1
102
RTVSPropertyOp18
 70
     1
102
RTVSPropertyOp19
 70
     1
102
RTVSPropertyOp20
 70
     1
102
RTVSPropertyOp21
 70
     1
102
RTVSPropertyOp22
 70
     1
102
RTVSPropertyOp23
 70
     1
102
RTVSPropertyOp24
 70
     1
102
RTVSPropertyOp25
 70
     1
102
RTVSPropertyOp26
 70
     1
102
RTVSPropertyOp27
 70
     1
102
RTVSPropertyOp28
 70
     1
102
RTVSPropertyOp29
 70
     1
102
RTVSPropertyOp30
 70
     1
102
RTVSPropertyOp31
 70
     1
102
RTVSPropertyOp32
 70
     1
102
RTVSPropertyOp33
 70
     1
102
RTVSPropertyOp34
 70
     1
102
RTVSPropertyOp35
 70
     1
102
RTVSPropertyOp36
 70
     1
102
RTVSPropertyOp37
 70
     1
102
RTVSPropertyOp38
 70
     1
102
RTVSPropertyOp39
 70
     1
102
RTVSPropertyOp40
 70
     1
102
RTVSPropertyOp41
 70
     1
102
RTVSPropertyOp42
 70
     1
102
RTVSPropertyOp43
 70
     1
102
RTVSPropertyOp44
 70
     1
102
RTVSPropertyOp45
 70
     1
102
RTVSPropertyOp46
 70
     1
102
RTVSPropertyOp47
 70
     1
102
RTVSPropertyOp48
 70
     1
102
RTVSPropertyOp49
 70
     1
102
RTVSPropertyOp50
 70
     1
102
RTVSPropertyOp51
 70
     0
102
RTVSPropertyOp52
 70
     0
102
RTVSPropertyOp53
 70
     1
102
RTVSPropertyOp54
 70
     1
102
RTVSPropertyOp55
 70
     1
102
RTVSPropertyOp56
 70
     1
102
RTVSPropertyOp57
 70
     1
102
RTVSPropertyOp58
 70
     1
102
RTVSPropertyOp59
 70
     1
102
RTVSPropertyOp60
 70
     1
102
RTVSPropertyOp61
 70
     1
102
RTVSPropertyOp62
 70
     1
  0
XRECORD
  5
31BA
102
{ACAD_REACTORS
330
31B9
102
}
330
31B9
100
AcDbXrecord
280
     1
102
RTVSPost2010Prop28
280
     0
102
RTVSPost2010PropOp28
 70
     1
102
RTVSPost2010Prop29
280
     1
102
RTVSPost2010PropOp29
 70
     1
102
RTVSPost2010Prop30
280
     1
102
RTVSPost2010PropOp30
 70
     1
102
RTVSPost2010Prop31
280
     0
102
RTVSPost2010PropOp31
 70
     1
102
RTVSPost2010Prop32
280
     0
102
RTVSPost2010PropOp32
 70
     1
102
RTVSPost2010Prop33
280
     0
102
RTVSPost2010PropOp33
 70
     1
102
RTVSPost2010Prop34
280
     0
102
RTVSPost2010PropOp34
 70
     1
102
RTVSPost2010Prop35
280
     0
102
RTVSPost2010PropOp35
 70
     1
102
RTVSPost2010Prop36
280
     0
102
RTVSPost2010PropOp36
 70
     1
102
RTVSPost2010Prop37
 90
       50
102
RTVSPost2010PropOp37
 70
     1
102
RTVSPost2010Prop38
140
0.0
102
RTVSPost2010PropOp38
 70
     1
102
RTVSPost2010Prop39
140
1.0
102
RTVSPost2010PropOp39
 70
     1
102
RTVSPost2010Prop40
 90
        0
102
RTVSPost2010PropOp40
 70
     1
102
RTVSPost2010Prop41ColorIndex
 90
       18
102
RTVSPost2010Prop41ColorRGB
 90
        0
102
RTVSPost2010PropOp41
 70
     1
102
RTVSPost2010Prop42
 90
       50
102
RTVSPost2010PropOp42
 70
     1
102
RTVSPost2010Prop43
 90
        3
102
RTVSPost2010PropOp43
 70
     1
102
RTVSPost2010Prop44ColorIndex
 90
        5
102
RTVSPost2010Prop44ColorRGB
 90
      255
102
RTVSPost2010PropOp44
 70
     1
102
RTVSPost2010Prop45
280
     0
102
RTVSPost2010PropOp45
 70
     1
102
RTVSPost2010Prop46
 90
       50
102
RTVSPost2010PropOp46
 70
     1
102
RTVSPost2010Prop47
 90
       50
102
RTVSPost2010PropOp47
 70
     1
102
RTVSPost2010Prop48
 90
       50
102
RTVSPost2010PropOp48
 70
     1
102
RTVSPost2010Prop49
280
     0
102
RTVSPost2010PropOp49
 70
     1
102
RTVSPost2010Prop50
 90
       50
102
RTVSPost2010PropOp50
 70
     1
102
RTVSPost2010Prop51ColorIndex
 90
      256
102
RTVSPost2010Prop51ColorRGB
 90
-16777216
102
RTVSPost2010PropOp51
 70
     0
102
RTVSPost2010Prop52
140
1.0
102
RTVSPost2010PropOp52
 70
     0
102
RTVSPost2010Prop53
 90
        2
102
RTVSPost2010PropOp53
 70
     1
102
RTVSPost2010Prop54
  1
strokes_ogs.tif
102
RTVSPost2010PropOp54
 70
     1
102
RTVSPost2010Prop55
280
     0
102
RTVSPost2010PropOp55
 70
     1
102
RTVSPost2010Prop56
140
1.0
102
RTVSPost2010PropOp56
 70
     1
102
RTVSPost2010Prop57
140
1.0
102
RTVSPost2010PropOp57
 70
     1
102
RTVSPropertyOp0
 70
     1
102
RTVSPropertyOp1
 70
     1
102
RTVSPropertyOp2
 70
     1
102
RTVSPropertyOp3
 70
     1
102
RTVSPropertyOp4
 70
     1
102
RTVSPropertyOp5
 70
     1
102
RTVSPropertyOp6
 70
     1
102
RTVSPropertyOp7
 70
     1
102
RTVSPropertyOp8
 70
     1
102
RTVSPropertyOp9
 70
     1
102
RTVSPropertyOp10
 70
     1
102
RTVSPropertyOp11
 70
     1
102
RTVSPropertyOp12
 70
     1
102
RTVSPropertyOp13
 70
     1
102
RTVSPropertyOp14
 70
     1
102
RTVSPropertyOp15
 70
     1
102
RTVSPropertyOp16
 70
     1
102
RTVSPropertyOp17
 70
     1
102
RTVSPropertyOp18
 70
     1
102
RTVSPropertyOp19
 70
     1
102
RTVSPropertyOp20
 70
     1
102
RTVSPropertyOp21
 70
     1
102
RTVSPropertyOp22
 70
     1
102
RTVSPropertyOp23
 70
     1
102
RTVSPropertyOp24
 70
     1
102
RTVSPropertyOp25
 70
     1
102
RTVSPropertyOp26
 70
     1
102
RTVSPropertyOp27
 70
     1
102
RTVSPropertyOp28
 70
     1
102
RTVSPropertyOp29
 70
     1
102
RTVSPropertyOp30
 70
     1
102
RTVSPropertyOp31
 70
     1
102
RTVSPropertyOp32
 70
     1
102
RTVSPropertyOp33
 70
     1
102
RTVSPropertyOp34
 70
     1
102
RTVSPropertyOp35
 70
     1
102
RTVSPropertyOp36
 70
     1
102
RTVSPropertyOp37
 70
     1
102
RTVSPropertyOp38
 70
     1
102
RTVSPropertyOp39
 70
     1
102
RTVSPropertyOp40
 70
     1
102
RTVSPropertyOp41
 70
     1
102
RTVSPropertyOp42
 70
     1
102
RTVSPropertyOp43
 70
     1
102
RTVSPropertyOp44
 70
     1
102
RTVSPropertyOp45
 70
     1
102
RTVSPropertyOp46
 70
     1
102
RTVSPropertyOp47
 70
     1
102
RTVSPropertyOp48
 70
     1
102
RTVSPropertyOp49
 70
     1
102
RTVSPropertyOp50
 70
     1
102
RTVSPropertyOp51
 70
     0
102
RTVSPropertyOp52
 70
     0
102
RTVSPropertyOp53
 70
     1
102
RTVSPropertyOp54
 70
     1
102
RTVSPropertyOp55
 70
     1
102
RTVSPropertyOp56
 70
     1
102
RTVSPropertyOp57
 70
     1
102
RTVSPropertyOp58
 70
     1
102
RTVSPropertyOp59
 70
     1
102
RTVSPropertyOp60
 70
     1
102
RTVSPropertyOp61
 70
     1
102
RTVSPropertyOp62
 70
     1
  0
XRECORD
  5
31C8
102
{ACAD_REACTORS
330
31C7
102
}
330
31C7
100
AcDbXrecord
280
     1
102
RTVSPost2010Prop28
280
     0
102
RTVSPost2010PropOp28
 70
     1
102
RTVSPost2010Prop29
280
     1
102
RTVSPost2010PropOp29
 70
     1
102
RTVSPost2010Prop30
280
     1
102
RTVSPost2010PropOp30
 70
     1
102
RTVSPost2010Prop31
280
     0
102
RTVSPost2010PropOp31
 70
     1
102
RTVSPost2010Prop32
280
     0
102
RTVSPost2010PropOp32
 70
     1
102
RTVSPost2010Prop33
280
     0
102
RTVSPost2010PropOp33
 70
     1
102
RTVSPost2010Prop34
280
     0
102
RTVSPost2010PropOp34
 70
     1
102
RTVSPost2010Prop35
280
     0
102
RTVSPost2010PropOp35
 70
     1
102
RTVSPost2010Prop36
280
     0
102
RTVSPost2010PropOp36
 70
     1
102
RTVSPost2010Prop37
 90
       50
102
RTVSPost2010PropOp37
 70
     1
102
RTVSPost2010Prop38
140
0.0
102
RTVSPost2010PropOp38
 70
     1
102
RTVSPost2010Prop39
140
1.0
102
RTVSPost2010PropOp39
 70
     1
102
RTVSPost2010Prop40
 90
        0
102
RTVSPost2010PropOp40
 70
     1
102
RTVSPost2010Prop41ColorIndex
 90
       18
102
RTVSPost2010Prop41ColorRGB
 90
        0
102
RTVSPost2010PropOp41
 70
     1
102
RTVSPost2010Prop42
 90
       50
102
RTVSPost2010PropOp42
 70
     1
102
RTVSPost2010Prop43
 90
        3
102
RTVSPost2010PropOp43
 70
     1
102
RTVSPost2010Prop44ColorIndex
 90
        5
102
RTVSPost2010Prop44ColorRGB
 90
      255
102
RTVSPost2010PropOp44
 70
     1
102
RTVSPost2010Prop45
280
     0
102
RTVSPost2010PropOp45
 70
     1
102
RTVSPost2010Prop46
 90
       50
102
RTVSPost2010PropOp46
 70
     1
102
RTVSPost2010Prop47
 90
       50
102
RTVSPost2010PropOp47
 70
     1
102
RTVSPost2010Prop48
 90
       50
102
RTVSPost2010PropOp48
 70
     1
102
RTVSPost2010Prop49
280
     0
102
RTVSPost2010PropOp49
 70
     1
102
RTVSPost2010Prop50
 90
       50
102
RTVSPost2010PropOp50
 70
     1
102
RTVSPost2010Prop51ColorIndex
 90
      256
102
RTVSPost2010Prop51ColorRGB
 90
-16777216
102
RTVSPost2010PropOp51
 70
     0
102
RTVSPost2010Prop52
140
1.0
102
RTVSPost2010PropOp52
 70
     0
102
RTVSPost2010Prop53
 90
        2
102
RTVSPost2010PropOp53
 70
     1
102
RTVSPost2010Prop54
  1
strokes_ogs.tif
102
RTVSPost2010PropOp54
 70
     1
102
RTVSPost2010Prop55
280
     0
102
RTVSPost2010PropOp55
 70
     1
102
RTVSPost2010Prop56
140
1.0
102
RTVSPost2010PropOp56
 70
     1
102
RTVSPost2010Prop57
140
1.0
102
RTVSPost2010PropOp57
 70
     1
102
RTVSPropertyOp0
 70
     1
102
RTVSPropertyOp1
 70
     1
102
RTVSPropertyOp2
 70
     1
102
RTVSPropertyOp3
 70
     1
102
RTVSPropertyOp4
 70
     1
102
RTVSPropertyOp5
 70
     1
102
RTVSPropertyOp6
 70
     1
102
RTVSPropertyOp7
 70
     1
102
RTVSPropertyOp8
 70
     1
102
RTVSPropertyOp9
 70
     1
102
RTVSPropertyOp10
 70
     1
102
RTVSPropertyOp11
 70
     1
102
RTVSPropertyOp12
 70
     1
102
RTVSPropertyOp13
 70
     1
102
RTVSPropertyOp14
 70
     1
102
RTVSPropertyOp15
 70
     1
102
RTVSPropertyOp16
 70
     1
102
RTVSPropertyOp17
 70
     1
102
RTVSPropertyOp18
 70
     1
102
RTVSPropertyOp19
 70
     1
102
RTVSPropertyOp20
 70
     1
102
RTVSPropertyOp21
 70
     1
102
RTVSPropertyOp22
 70
     1
102
RTVSPropertyOp23
 70
     1
102
RTVSPropertyOp24
 70
     1
102
RTVSPropertyOp25
 70
     1
102
RTVSPropertyOp26
 70
     1
102
RTVSPropertyOp27
 70
     1
102
RTVSPropertyOp28
 70
     1
102
RTVSPropertyOp29
 70
     1
102
RTVSPropertyOp30
 70
     1
102
RTVSPropertyOp31
 70
     1
102
RTVSPropertyOp32
 70
     1
102
RTVSPropertyOp33
 70
     1
102
RTVSPropertyOp34
 70
     1
102
RTVSPropertyOp35
 70
     1
102
RTVSPropertyOp36
 70
     1
102
RTVSPropertyOp37
 70
     1
102
RTVSPropertyOp38
 70
     1
102
RTVSPropertyOp39
 70
     1
102
RTVSPropertyOp40
 70
     1
102
RTVSPropertyOp41
 70
     1
102
RTVSPropertyOp42
 70
     1
102
RTVSPropertyOp43
 70
     1
102
RTVSPropertyOp44
 70
     1
102
RTVSPropertyOp45
 70
     1
102
RTVSPropertyOp46
 70
     1
102
RTVSPropertyOp47
 70
     1
102
RTVSPropertyOp48
 70
     1
102
RTVSPropertyOp49
 70
     1
102
RTVSPropertyOp50
 70
     1
102
RTVSPropertyOp51
 70
     0
102
RTVSPropertyOp52
 70
     0
102
RTVSPropertyOp53
 70
     1
102
RTVSPropertyOp54
 70
     1
102
RTVSPropertyOp55
 70
     1
102
RTVSPropertyOp56
 70
     1
102
RTVSPropertyOp57
 70
     1
102
RTVSPropertyOp58
 70
     1
102
RTVSPropertyOp59
 70
     1
102
RTVSPropertyOp60
 70
     1
102
RTVSPropertyOp61
 70
     1
102
RTVSPropertyOp62
 70
     1
  0
XRECORD
  5
31D0
102
{ACAD_REACTORS
330
31CF
102
}
330
31CF
100
AcDbXrecord
280
     1
102
RTVSPost2010Prop28
280
     0
102
RTVSPost2010PropOp28
 70
     1
102
RTVSPost2010Prop29
280
     1
102
RTVSPost2010PropOp29
 70
     1
102
RTVSPost2010Prop30
280
     1
102
RTVSPost2010PropOp30
 70
     1
102
RTVSPost2010Prop31
280
     0
102
RTVSPost2010PropOp31
 70
     1
102
RTVSPost2010Prop32
280
     0
102
RTVSPost2010PropOp32
 70
     1
102
RTVSPost2010Prop33
280
     0
102
RTVSPost2010PropOp33
 70
     1
102
RTVSPost2010Prop34
280
     0
102
RTVSPost2010PropOp34
 70
     1
102
RTVSPost2010Prop35
280
     0
102
RTVSPost2010PropOp35
 70
     1
102
RTVSPost2010Prop36
280
     0
102
RTVSPost2010PropOp36
 70
     1
102
RTVSPost2010Prop37
 90
       50
102
RTVSPost2010PropOp37
 70
     1
102
RTVSPost2010Prop38
140
0.0
102
RTVSPost2010PropOp38
 70
     1
102
RTVSPost2010Prop39
140
1.0
102
RTVSPost2010PropOp39
 70
     1
102
RTVSPost2010Prop40
 90
        0
102
RTVSPost2010PropOp40
 70
     1
102
RTVSPost2010Prop41ColorIndex
 90
       18
102
RTVSPost2010Prop41ColorRGB
 90
        0
102
RTVSPost2010PropOp41
 70
     1
102
RTVSPost2010Prop42
 90
       50
102
RTVSPost2010PropOp42
 70
     1
102
RTVSPost2010Prop43
 90
        3
102
RTVSPost2010PropOp43
 70
     1
102
RTVSPost2010Prop44ColorIndex
 90
        5
102
RTVSPost2010Prop44ColorRGB
 90
      255
102
RTVSPost2010PropOp44
 70
     1
102
RTVSPost2010Prop45
280
     0
102
RTVSPost2010PropOp45
 70
     1
102
RTVSPost2010Prop46
 90
       50
102
RTVSPost2010PropOp46
 70
     1
102
RTVSPost2010Prop47
 90
       50
102
RTVSPost2010PropOp47
 70
     1
102
RTVSPost2010Prop48
 90
       50
102
RTVSPost2010PropOp48
 70
     1
102
RTVSPost2010Prop49
280
     0
102
RTVSPost2010PropOp49
 70
     1
102
RTVSPost2010Prop50
 90
       50
102
RTVSPost2010PropOp50
 70
     1
102
RTVSPost2010Prop51ColorIndex
 90
      256
102
RTVSPost2010Prop51ColorRGB
 90
-16777216
102
RTVSPost2010PropOp51
 70
     0
102
RTVSPost2010Prop52
140
1.0
102
RTVSPost2010PropOp52
 70
     0
102
RTVSPost2010Prop53
 90
        2
102
RTVSPost2010PropOp53
 70
     1
102
RTVSPost2010Prop54
  1
strokes_ogs.tif
102
RTVSPost2010PropOp54
 70
     1
102
RTVSPost2010Prop55
280
     0
102
RTVSPost2010PropOp55
 70
     1
102
RTVSPost2010Prop56
140
1.0
102
RTVSPost2010PropOp56
 70
     1
102
RTVSPost2010Prop57
140
1.0
102
RTVSPost2010PropOp57
 70
     1
102
RTVSPropertyOp0
 70
     1
102
RTVSPropertyOp1
 70
     1
102
RTVSPropertyOp2
 70
     1
102
RTVSPropertyOp3
 70
     1
102
RTVSPropertyOp4
 70
     1
102
RTVSPropertyOp5
 70
     1
102
RTVSPropertyOp6
 70
     1
102
RTVSPropertyOp7
 70
     1
102
RTVSPropertyOp8
 70
     1
102
RTVSPropertyOp9
 70
     1
102
RTVSPropertyOp10
 70
     1
102
RTVSPropertyOp11
 70
     1
102
RTVSPropertyOp12
 70
     1
102
RTVSPropertyOp13
 70
     1
102
RTVSPropertyOp14
 70
     1
102
RTVSPropertyOp15
 70
     1
102
RTVSPropertyOp16
 70
     1
102
RTVSPropertyOp17
 70
     1
102
RTVSPropertyOp18
 70
     1
102
RTVSPropertyOp19
 70
     1
102
RTVSPropertyOp20
 70
     1
102
RTVSPropertyOp21
 70
     1
102
RTVSPropertyOp22
 70
     1
102
RTVSPropertyOp23
 70
     1
102
RTVSPropertyOp24
 70
     1
102
RTVSPropertyOp25
 70
     1
102
RTVSPropertyOp26
 70
     1
102
RTVSPropertyOp27
 70
     1
102
RTVSPropertyOp28
 70
     1
102
RTVSPropertyOp29
 70
     1
102
RTVSPropertyOp30
 70
     1
102
RTVSPropertyOp31
 70
     1
102
RTVSPropertyOp32
 70
     1
102
RTVSPropertyOp33
 70
     1
102
RTVSPropertyOp34
 70
     1
102
RTVSPropertyOp35
 70
     1
102
RTVSPropertyOp36
 70
     1
102
RTVSPropertyOp37
 70
     1
102
RTVSPropertyOp38
 70
     1
102
RTVSPropertyOp39
 70
     1
102
RTVSPropertyOp40
 70
     1
102
RTVSPropertyOp41
 70
     1
102
RTVSPropertyOp42
 70
     1
102
RTVSPropertyOp43
 70
     1
102
RTVSPropertyOp44
 70
     1
102
RTVSPropertyOp45
 70
     1
102
RTVSPropertyOp46
 70
     1
102
RTVSPropertyOp47
 70
     1
102
RTVSPropertyOp48
 70
     1
102
RTVSPropertyOp49
 70
     1
102
RTVSPropertyOp50
 70
     1
102
RTVSPropertyOp51
 70
     0
102
RTVSPropertyOp52
 70
     0
102
RTVSPropertyOp53
 70
     1
102
RTVSPropertyOp54
 70
     1
102
RTVSPropertyOp55
 70
     1
102
RTVSPropertyOp56
 70
     1
102
RTVSPropertyOp57
 70
     1
102
RTVSPropertyOp58
 70
     1
102
RTVSPropertyOp59
 70
     1
102
RTVSPropertyOp60
 70
     1
102
RTVSPropertyOp61
 70
     1
102
RTVSPropertyOp62
 70
     1
  0
XRECORD
  5
31C2
102
{ACAD_REACTORS
330
31C1
102
}
330
31C1
100
AcDbXrecord
280
     1
102
RTVSPost2010Prop28
280
     0
102
RTVSPost2010PropOp28
 70
     1
102
RTVSPost2010Prop29
280
     1
102
RTVSPost2010PropOp29
 70
     1
102
RTVSPost2010Prop30
280
     1
102
RTVSPost2010PropOp30
 70
     1
102
RTVSPost2010Prop31
280
     0
102
RTVSPost2010PropOp31
 70
     1
102
RTVSPost2010Prop32
280
     0
102
RTVSPost2010PropOp32
 70
     1
102
RTVSPost2010Prop33
280
     0
102
RTVSPost2010PropOp33
 70
     1
102
RTVSPost2010Prop34
280
     0
102
RTVSPost2010PropOp34
 70
     1
102
RTVSPost2010Prop35
280
     0
102
RTVSPost2010PropOp35
 70
     1
102
RTVSPost2010Prop36
280
     0
102
RTVSPost2010PropOp36
 70
     1
102
RTVSPost2010Prop37
 90
       50
102
RTVSPost2010PropOp37
 70
     1
102
RTVSPost2010Prop38
140
0.0
102
RTVSPost2010PropOp38
 70
     1
102
RTVSPost2010Prop39
140
1.0
102
RTVSPost2010PropOp39
 70
     1
102
RTVSPost2010Prop40
 90
        0
102
RTVSPost2010PropOp40
 70
     1
102
RTVSPost2010Prop41ColorIndex
 90
       18
102
RTVSPost2010Prop41ColorRGB
 90
        0
102
RTVSPost2010PropOp41
 70
     1
102
RTVSPost2010Prop42
 90
       50
102
RTVSPost2010PropOp42
 70
     1
102
RTVSPost2010Prop43
 90
        3
102
RTVSPost2010PropOp43
 70
     1
102
RTVSPost2010Prop44ColorIndex
 90
        5
102
RTVSPost2010Prop44ColorRGB
 90
      255
102
RTVSPost2010PropOp44
 70
     1
102
RTVSPost2010Prop45
280
     0
102
RTVSPost2010PropOp45
 70
     1
102
RTVSPost2010Prop46
 90
       50
102
RTVSPost2010PropOp46
 70
     1
102
RTVSPost2010Prop47
 90
       50
102
RTVSPost2010PropOp47
 70
     1
102
RTVSPost2010Prop48
 90
       50
102
RTVSPost2010PropOp48
 70
     1
102
RTVSPost2010Prop49
280
     0
102
RTVSPost2010PropOp49
 70
     1
102
RTVSPost2010Prop50
 90
       50
102
RTVSPost2010PropOp50
 70
     1
102
RTVSPost2010Prop51ColorIndex
 90
      256
102
RTVSPost2010Prop51ColorRGB
 90
-16777216
102
RTVSPost2010PropOp51
 70
     0
102
RTVSPost2010Prop52
140
1.0
102
RTVSPost2010PropOp52
 70
     0
102
RTVSPost2010Prop53
 90
        2
102
RTVSPost2010PropOp53
 70
     1
102
RTVSPost2010Prop54
  1
strokes_ogs.tif
102
RTVSPost2010PropOp54
 70
     1
102
RTVSPost2010Prop55
280
     0
102
RTVSPost2010PropOp55
 70
     1
102
RTVSPost2010Prop56
140
1.0
102
RTVSPost2010PropOp56
 70
     1
102
RTVSPost2010Prop57
140
1.0
102
RTVSPost2010PropOp57
 70
     1
102
RTVSPropertyOp0
 70
     1
102
RTVSPropertyOp1
 70
     1
102
RTVSPropertyOp2
 70
     1
102
RTVSPropertyOp3
 70
     1
102
RTVSPropertyOp4
 70
     1
102
RTVSPropertyOp5
 70
     1
102
RTVSPropertyOp6
 70
     1
102
RTVSPropertyOp7
 70
     1
102
RTVSPropertyOp8
 70
     1
102
RTVSPropertyOp9
 70
     1
102
RTVSPropertyOp10
 70
     1
102
RTVSPropertyOp11
 70
     1
102
RTVSPropertyOp12
 70
     1
102
RTVSPropertyOp13
 70
     1
102
RTVSPropertyOp14
 70
     1
102
RTVSPropertyOp15
 70
     1
102
RTVSPropertyOp16
 70
     1
102
RTVSPropertyOp17
 70
     1
102
RTVSPropertyOp18
 70
     1
102
RTVSPropertyOp19
 70
     1
102
RTVSPropertyOp20
 70
     1
102
RTVSPropertyOp21
 70
     1
102
RTVSPropertyOp22
 70
     1
102
RTVSPropertyOp23
 70
     1
102
RTVSPropertyOp24
 70
     1
102
RTVSPropertyOp25
 70
     1
102
RTVSPropertyOp26
 70
     1
102
RTVSPropertyOp27
 70
     1
102
RTVSPropertyOp28
 70
     1
102
RTVSPropertyOp29
 70
     1
102
RTVSPropertyOp30
 70
     1
102
RTVSPropertyOp31
 70
     1
102
RTVSPropertyOp32
 70
     1
102
RTVSPropertyOp33
 70
     1
102
RTVSPropertyOp34
 70
     1
102
RTVSPropertyOp35
 70
     1
102
RTVSPropertyOp36
 70
     1
102
RTVSPropertyOp37
 70
     1
102
RTVSPropertyOp38
 70
     1
102
RTVSPropertyOp39
 70
     1
102
RTVSPropertyOp40
 70
     1
102
RTVSPropertyOp41
 70
     1
102
RTVSPropertyOp42
 70
     1
102
RTVSPropertyOp43
 70
     1
102
RTVSPropertyOp44
 70
     1
102
RTVSPropertyOp45
 70
     1
102
RTVSPropertyOp46
 70
     1
102
RTVSPropertyOp47
 70
     1
102
RTVSPropertyOp48
 70
     1
102
RTVSPropertyOp49
 70
     1
102
RTVSPropertyOp50
 70
     1
102
RTVSPropertyOp51
 70
     0
102
RTVSPropertyOp52
 70
     0
102
RTVSPropertyOp53
 70
     1
102
RTVSPropertyOp54
 70
     1
102
RTVSPropertyOp55
 70
     1
102
RTVSPropertyOp56
 70
     1
102
RTVSPropertyOp57
 70
     1
102
RTVSPropertyOp58
 70
     1
102
RTVSPropertyOp59
 70
     1
102
RTVSPropertyOp60
 70
     1
102
RTVSPropertyOp61
 70
     1
102
RTVSPropertyOp62
 70
     1
  0
XRECORD
  5
31C6
102
{ACAD_REACTORS
330
31C5
102
}
330
31C5
100
AcDbXrecord
280
     1
102
RTVSPost2010Prop28
280
     0
102
RTVSPost2010PropOp28
 70
     1
102
RTVSPost2010Prop29
280
     1
102
RTVSPost2010PropOp29
 70
     1
102
RTVSPost2010Prop30
280
     1
102
RTVSPost2010PropOp30
 70
     1
102
RTVSPost2010Prop31
280
     0
102
RTVSPost2010PropOp31
 70
     1
102
RTVSPost2010Prop32
280
     0
102
RTVSPost2010PropOp32
 70
     1
102
RTVSPost2010Prop33
280
     0
102
RTVSPost2010PropOp33
 70
     1
102
RTVSPost2010Prop34
280
     0
102
RTVSPost2010PropOp34
 70
     1
102
RTVSPost2010Prop35
280
     0
102
RTVSPost2010PropOp35
 70
     1
102
RTVSPost2010Prop36
280
     0
102
RTVSPost2010PropOp36
 70
     1
102
RTVSPost2010Prop37
 90
       50
102
RTVSPost2010PropOp37
 70
     1
102
RTVSPost2010Prop38
140
0.0
102
RTVSPost2010PropOp38
 70
     1
102
RTVSPost2010Prop39
140
1.0
102
RTVSPost2010PropOp39
 70
     1
102
RTVSPost2010Prop40
 90
        0
102
RTVSPost2010PropOp40
 70
     1
102
RTVSPost2010Prop41ColorIndex
 90
       18
102
RTVSPost2010Prop41ColorRGB
 90
        0
102
RTVSPost2010PropOp41
 70
     1
102
RTVSPost2010Prop42
 90
       50
102
RTVSPost2010PropOp42
 70
     1
102
RTVSPost2010Prop43
 90
        3
102
RTVSPost2010PropOp43
 70
     1
102
RTVSPost2010Prop44ColorIndex
 90
        5
102
RTVSPost2010Prop44ColorRGB
 90
      255
102
RTVSPost2010PropOp44
 70
     1
102
RTVSPost2010Prop45
280
     0
102
RTVSPost2010PropOp45
 70
     1
102
RTVSPost2010Prop46
 90
       50
102
RTVSPost2010PropOp46
 70
     1
102
RTVSPost2010Prop47
 90
       50
102
RTVSPost2010PropOp47
 70
     1
102
RTVSPost2010Prop48
 90
       50
102
RTVSPost2010PropOp48
 70
     1
102
RTVSPost2010Prop49
280
     0
102
RTVSPost2010PropOp49
 70
     1
102
RTVSPost2010Prop50
 90
       50
102
RTVSPost2010PropOp50
 70
     1
102
RTVSPost2010Prop51ColorIndex
 90
      256
102
RTVSPost2010Prop51ColorRGB
 90
-16777216
102
RTVSPost2010PropOp51
 70
     0
102
RTVSPost2010Prop52
140
1.0
102
RTVSPost2010PropOp52
 70
     0
102
RTVSPost2010Prop53
 90
        2
102
RTVSPost2010PropOp53
 70
     1
102
RTVSPost2010Prop54
  1
strokes_ogs.tif
102
RTVSPost2010PropOp54
 70
     1
102
RTVSPost2010Prop55
280
     0
102
RTVSPost2010PropOp55
 70
     1
102
RTVSPost2010Prop56
140
1.0
102
RTVSPost2010PropOp56
 70
     1
102
RTVSPost2010Prop57
140
1.0
102
RTVSPost2010PropOp57
 70
     1
102
RTVSPropertyOp0
 70
     1
102
RTVSPropertyOp1
 70
     1
102
RTVSPropertyOp2
 70
     1
102
RTVSPropertyOp3
 70
     1
102
RTVSPropertyOp4
 70
     1
102
RTVSPropertyOp5
 70
     1
102
RTVSPropertyOp6
 70
     1
102
RTVSPropertyOp7
 70
     1
102
RTVSPropertyOp8
 70
     1
102
RTVSPropertyOp9
 70
     1
102
RTVSPropertyOp10
 70
     1
102
RTVSPropertyOp11
 70
     1
102
RTVSPropertyOp12
 70
     1
102
RTVSPropertyOp13
 70
     1
102
RTVSPropertyOp14
 70
     1
102
RTVSPropertyOp15
 70
     1
102
RTVSPropertyOp16
 70
     1
102
RTVSPropertyOp17
 70
     1
102
RTVSPropertyOp18
 70
     1
102
RTVSPropertyOp19
 70
     1
102
RTVSPropertyOp20
 70
     1
102
RTVSPropertyOp21
 70
     1
102
RTVSPropertyOp22
 70
     1
102
RTVSPropertyOp23
 70
     1
102
RTVSPropertyOp24
 70
     1
102
RTVSPropertyOp25
 70
     1
102
RTVSPropertyOp26
 70
     1
102
RTVSPropertyOp27
 70
     1
102
RTVSPropertyOp28
 70
     1
102
RTVSPropertyOp29
 70
     1
102
RTVSPropertyOp30
 70
     1
102
RTVSPropertyOp31
 70
     1
102
RTVSPropertyOp32
 70
     1
102
RTVSPropertyOp33
 70
     1
102
RTVSPropertyOp34
 70
     1
102
RTVSPropertyOp35
 70
     1
102
RTVSPropertyOp36
 70
     1
102
RTVSPropertyOp37
 70
     1
102
RTVSPropertyOp38
 70
     1
102
RTVSPropertyOp39
 70
     1
102
RTVSPropertyOp40
 70
     1
102
RTVSPropertyOp41
 70
     1
102
RTVSPropertyOp42
 70
     1
102
RTVSPropertyOp43
 70
     1
102
RTVSPropertyOp44
 70
     1
102
RTVSPropertyOp45
 70
     1
102
RTVSPropertyOp46
 70
     1
102
RTVSPropertyOp47
 70
     1
102
RTVSPropertyOp48
 70
     1
102
RTVSPropertyOp49
 70
     1
102
RTVSPropertyOp50
 70
     1
102
RTVSPropertyOp51
 70
     0
102
RTVSPropertyOp52
 70
     0
102
RTVSPropertyOp53
 70
     1
102
RTVSPropertyOp54
 70
     1
102
RTVSPropertyOp55
 70
     1
102
RTVSPropertyOp56
 70
     1
102
RTVSPropertyOp57
 70
     1
102
RTVSPropertyOp58
 70
     1
102
RTVSPropertyOp59
 70
     1
102
RTVSPropertyOp60
 70
     1
102
RTVSPropertyOp61
 70
     1
102
RTVSPropertyOp62
 70
     1
  0
XRECORD
  5
31E0
102
{ACAD_REACTORS
330
31DF
102
}
330
31DF
100
AcDbXrecord
280
     1
102
RTVSPost2010Prop28
280
     0
102
RTVSPost2010PropOp28
 70
     1
102
RTVSPost2010Prop29
280
     1
102
RTVSPost2010PropOp29
 70
     1
102
RTVSPost2010Prop30
280
     1
102
RTVSPost2010PropOp30
 70
     1
102
RTVSPost2010Prop31
280
     0
102
RTVSPost2010PropOp31
 70
     1
102
RTVSPost2010Prop32
280
     0
102
RTVSPost2010PropOp32
 70
     1
102
RTVSPost2010Prop33
280
     0
102
RTVSPost2010PropOp33
 70
     1
102
RTVSPost2010Prop34
280
     0
102
RTVSPost2010PropOp34
 70
     1
102
RTVSPost2010Prop35
280
     0
102
RTVSPost2010PropOp35
 70
     1
102
RTVSPost2010Prop36
280
     0
102
RTVSPost2010PropOp36
 70
     1
102
RTVSPost2010Prop37
 90
       50
102
RTVSPost2010PropOp37
 70
     0
102
RTVSPost2010Prop38
140
0.0
102
RTVSPost2010PropOp38
 70
     0
102
RTVSPost2010Prop39
140
1.0
102
RTVSPost2010PropOp39
 70
     0
102
RTVSPost2010Prop40
 90
        0
102
RTVSPost2010PropOp40
 70
     0
102
RTVSPost2010Prop41ColorIndex
 90
       18
102
RTVSPost2010Prop41ColorRGB
 90
        0
102
RTVSPost2010PropOp41
 70
     0
102
RTVSPost2010Prop42
 90
       50
102
RTVSPost2010PropOp42
 70
     0
102
RTVSPost2010Prop43
 90
        3
102
RTVSPost2010PropOp43
 70
     0
102
RTVSPost2010Prop44ColorIndex
 90
        5
102
RTVSPost2010Prop44ColorRGB
 90
      255
102
RTVSPost2010PropOp44
 70
     0
102
RTVSPost2010Prop45
280
     0
102
RTVSPost2010PropOp45
 70
     1
102
RTVSPost2010Prop46
 90
       50
102
RTVSPost2010PropOp46
 70
     0
102
RTVSPost2010Prop47
 90
       50
102
RTVSPost2010PropOp47
 70
     0
102
RTVSPost2010Prop48
 90
       50
102
RTVSPost2010PropOp48
 70
     0
102
RTVSPost2010Prop49
280
     0
102
RTVSPost2010PropOp49
 70
     1
102
RTVSPost2010Prop50
 90
       50
102
RTVSPost2010PropOp50
 70
     0
102
RTVSPost2010Prop51ColorIndex
 90
      256
102
RTVSPost2010Prop51ColorRGB
 90
-16777216
102
RTVSPost2010PropOp51
 70
     0
102
RTVSPost2010Prop52
140
1.0
102
RTVSPost2010PropOp52
 70
     0
102
RTVSPost2010Prop53
 90
        2
102
RTVSPost2010PropOp53
 70
     0
102
RTVSPost2010Prop54
  1
strokes_ogs.tif
102
RTVSPost2010PropOp54
 70
     0
102
RTVSPost2010Prop55
280
     0
102
RTVSPost2010PropOp55
 70
     1
102
RTVSPost2010Prop56
140
1.0
102
RTVSPost2010PropOp56
 70
     0
102
RTVSPost2010Prop57
140
1.0
102
RTVSPost2010PropOp57
 70
     0
102
RTVSPropertyOp0
 70
     0
102
RTVSPropertyOp1
 70
     0
102
RTVSPropertyOp2
 70
     0
102
RTVSPropertyOp3
 70
     0
102
RTVSPropertyOp4
 70
     0
102
RTVSPropertyOp5
 70
     0
102
RTVSPropertyOp6
 70
     0
102
RTVSPropertyOp7
 70
     0
102
RTVSPropertyOp8
 70
     0
102
RTVSPropertyOp9
 70
     0
102
RTVSPropertyOp10
 70
     0
102
RTVSPropertyOp11
 70
     0
102
RTVSPropertyOp12
 70
     0
102
RTVSPropertyOp13
 70
     0
102
RTVSPropertyOp14
 70
     2
102
RTVSPropertyOp15
 70
     0
102
RTVSPropertyOp16
 70
     0
102
RTVSPropertyOp17
 70
     0
102
RTVSPropertyOp18
 70
     0
102
RTVSPropertyOp19
 70
     0
102
RTVSPropertyOp20
 70
     0
102
RTVSPropertyOp21
 70
     0
102
RTVSPropertyOp22
 70
     0
102
RTVSPropertyOp23
 70
     0
102
RTVSPropertyOp24
 70
     0
102
RTVSPropertyOp25
 70
     0
102
RTVSPropertyOp26
 70
     0
102
RTVSPropertyOp27
 70
     0
102
RTVSPropertyOp28
 70
     1
102
RTVSPropertyOp29
 70
     1
102
RTVSPropertyOp30
 70
     1
102
RTVSPropertyOp31
 70
     1
102
RTVSPropertyOp32
 70
     1
102
RTVSPropertyOp33
 70
     1
102
RTVSPropertyOp34
 70
     1
102
RTVSPropertyOp35
 70
     1
102
RTVSPropertyOp36
 70
     1
102
RTVSPropertyOp37
 70
     0
102
RTVSPropertyOp38
 70
     0
102
RTVSPropertyOp39
 70
     0
102
RTVSPropertyOp40
 70
     0
102
RTVSPropertyOp41
 70
     0
102
RTVSPropertyOp42
 70
     0
102
RTVSPropertyOp43
 70
     0
102
RTVSPropertyOp44
 70
     0
102
RTVSPropertyOp45
 70
     1
102
RTVSPropertyOp46
 70
     0
102
RTVSPropertyOp47
 70
     0
102
RTVSPropertyOp48
 70
     0
102
RTVSPropertyOp49
 70
     1
102
RTVSPropertyOp50
 70
     0
102
RTVSPropertyOp51
 70
     0
102
RTVSPropertyOp52
 70
     0
102
RTVSPropertyOp53
 70
     0
102
RTVSPropertyOp54
 70
     0
102
RTVSPropertyOp55
 70
     1
102
RTVSPropertyOp56
 70
     0
102
RTVSPropertyOp57
 70
     0
102
RTVSPropertyOp58
 70
     0
102
RTVSPropertyOp59
 70
     0
102
RTVSPropertyOp60
 70
     0
102
RTVSPropertyOp61
 70
     0
102
RTVSPropertyOp62
 70
     0
  0
XRECORD
  5
31CE
102
{ACAD_REACTORS
330
31CD
102
}
330
31CD
100
AcDbXrecord
280
     1
102
RTVSPost2010Prop28
280
     0
102
RTVSPost2010PropOp28
 70
     1
102
RTVSPost2010Prop29
280
     1
102
RTVSPost2010PropOp29
 70
     1
102
RTVSPost2010Prop30
280
     1
102
RTVSPost2010PropOp30
 70
     1
102
RTVSPost2010Prop31
280
     0
102
RTVSPost2010PropOp31
 70
     1
102
RTVSPost2010Prop32
280
     0
102
RTVSPost2010PropOp32
 70
     1
102
RTVSPost2010Prop33
280
     0
102
RTVSPost2010PropOp33
 70
     1
102
RTVSPost2010Prop34
280
     0
102
RTVSPost2010PropOp34
 70
     1
102
RTVSPost2010Prop35
280
     0
102
RTVSPost2010PropOp35
 70
     1
102
RTVSPost2010Prop36
280
     0
102
RTVSPost2010PropOp36
 70
     1
102
RTVSPost2010Prop37
 90
       50
102
RTVSPost2010PropOp37
 70
     1
102
RTVSPost2010Prop38
140
0.0
102
RTVSPost2010PropOp38
 70
     1
102
RTVSPost2010Prop39
140
1.0
102
RTVSPost2010PropOp39
 70
     1
102
RTVSPost2010Prop40
 90
        0
102
RTVSPost2010PropOp40
 70
     1
102
RTVSPost2010Prop41ColorIndex
 90
       18
102
RTVSPost2010Prop41ColorRGB
 90
        0
102
RTVSPost2010PropOp41
 70
     1
102
RTVSPost2010Prop42
 90
       50
102
RTVSPost2010PropOp42
 70
     1
102
RTVSPost2010Prop43
 90
        3
102
RTVSPost2010PropOp43
 70
     1
102
RTVSPost2010Prop44ColorIndex
 90
        5
102
RTVSPost2010Prop44ColorRGB
 90
      255
102
RTVSPost2010PropOp44
 70
     1
102
RTVSPost2010Prop45
280
     0
102
RTVSPost2010PropOp45
 70
     1
102
RTVSPost2010Prop46
 90
       50
102
RTVSPost2010PropOp46
 70
     1
102
RTVSPost2010Prop47
 90
       50
102
RTVSPost2010PropOp47
 70
     1
102
RTVSPost2010Prop48
 90
       50
102
RTVSPost2010PropOp48
 70
     1
102
RTVSPost2010Prop49
280
     0
102
RTVSPost2010PropOp49
 70
     1
102
RTVSPost2010Prop50
 90
       50
102
RTVSPost2010PropOp50
 70
     1
102
RTVSPost2010Prop51ColorIndex
 90
      256
102
RTVSPost2010Prop51ColorRGB
 90
-16777216
102
RTVSPost2010PropOp51
 70
     0
102
RTVSPost2010Prop52
140
1.0
102
RTVSPost2010PropOp52
 70
     0
102
RTVSPost2010Prop53
 90
        2
102
RTVSPost2010PropOp53
 70
     1
102
RTVSPost2010Prop54
  1
strokes_ogs.tif
102
RTVSPost2010PropOp54
 70
     1
102
RTVSPost2010Prop55
280
     0
102
RTVSPost2010PropOp55
 70
     1
102
RTVSPost2010Prop56
140
1.0
102
RTVSPost2010PropOp56
 70
     1
102
RTVSPost2010Prop57
140
1.0
102
RTVSPost2010PropOp57
 70
     1
102
RTVSPropertyOp0
 70
     1
102
RTVSPropertyOp1
 70
     1
102
RTVSPropertyOp2
 70
     1
102
RTVSPropertyOp3
 70
     1
102
RTVSPropertyOp4
 70
     1
102
RTVSPropertyOp5
 70
     1
102
RTVSPropertyOp6
 70
     1
102
RTVSPropertyOp7
 70
     1
102
RTVSPropertyOp8
 70
     1
102
RTVSPropertyOp9
 70
     1
102
RTVSPropertyOp10
 70
     1
102
RTVSPropertyOp11
 70
     1
102
RTVSPropertyOp12
 70
     1
102
RTVSPropertyOp13
 70
     1
102
RTVSPropertyOp14
 70
     1
102
RTVSPropertyOp15
 70
     1
102
RTVSPropertyOp16
 70
     1
102
RTVSPropertyOp17
 70
     1
102
RTVSPropertyOp18
 70
     1
102
RTVSPropertyOp19
 70
     1
102
RTVSPropertyOp20
 70
     1
102
RTVSPropertyOp21
 70
     1
102
RTVSPropertyOp22
 70
     1
102
RTVSPropertyOp23
 70
     1
102
RTVSPropertyOp24
 70
     1
102
RTVSPropertyOp25
 70
     1
102
RTVSPropertyOp26
 70
     1
102
RTVSPropertyOp27
 70
     1
102
RTVSPropertyOp28
 70
     1
102
RTVSPropertyOp29
 70
     1
102
RTVSPropertyOp30
 70
     1
102
RTVSPropertyOp31
 70
     1
102
RTVSPropertyOp32
 70
     1
102
RTVSPropertyOp33
 70
     1
102
RTVSPropertyOp34
 70
     1
102
RTVSPropertyOp35
 70
     1
102
RTVSPropertyOp36
 70
     1
102
RTVSPropertyOp37
 70
     1
102
RTVSPropertyOp38
 70
     1
102
RTVSPropertyOp39
 70
     1
102
RTVSPropertyOp40
 70
     1
102
RTVSPropertyOp41
 70
     1
102
RTVSPropertyOp42
 70
     1
102
RTVSPropertyOp43
 70
     1
102
RTVSPropertyOp44
 70
     1
102
RTVSPropertyOp45
 70
     1
102
RTVSPropertyOp46
 70
     1
102
RTVSPropertyOp47
 70
     1
102
RTVSPropertyOp48
 70
     1
102
RTVSPropertyOp49
 70
     1
102
RTVSPropertyOp50
 70
     1
102
RTVSPropertyOp51
 70
     0
102
RTVSPropertyOp52
 70
     0
102
RTVSPropertyOp53
 70
     1
102
RTVSPropertyOp54
 70
     1
102
RTVSPropertyOp55
 70
     1
102
RTVSPropertyOp56
 70
     1
102
RTVSPropertyOp57
 70
     1
102
RTVSPropertyOp58
 70
     1
102
RTVSPropertyOp59
 70
     1
102
RTVSPropertyOp60
 70
     1
102
RTVSPropertyOp61
 70
     1
102
RTVSPropertyOp62
 70
     1
  0
XRECORD
  5
31B2
102
{ACAD_REACTORS
330
31B1
102
}
330
31B1
100
AcDbXrecord
280
     1
102
RTVSPost2010Prop28
280
     0
102
RTVSPost2010PropOp28
 70
     1
102
RTVSPost2010Prop29
280
     1
102
RTVSPost2010PropOp29
 70
     1
102
RTVSPost2010Prop30
280
     1
102
RTVSPost2010PropOp30
 70
     1
102
RTVSPost2010Prop31
280
     0
102
RTVSPost2010PropOp31
 70
     1
102
RTVSPost2010Prop32
280
     0
102
RTVSPost2010PropOp32
 70
     1
102
RTVSPost2010Prop33
280
     0
102
RTVSPost2010PropOp33
 70
     1
102
RTVSPost2010Prop34
280
     0
102
RTVSPost2010PropOp34
 70
     1
102
RTVSPost2010Prop35
280
     0
102
RTVSPost2010PropOp35
 70
     1
102
RTVSPost2010Prop36
280
     0
102
RTVSPost2010PropOp36
 70
     1
102
RTVSPost2010Prop37
 90
       50
102
RTVSPost2010PropOp37
 70
     1
102
RTVSPost2010Prop38
140
0.0
102
RTVSPost2010PropOp38
 70
     1
102
RTVSPost2010Prop39
140
1.0
102
RTVSPost2010PropOp39
 70
     1
102
RTVSPost2010Prop40
 90
        0
102
RTVSPost2010PropOp40
 70
     1
102
RTVSPost2010Prop41ColorIndex
 90
       18
102
RTVSPost2010Prop41ColorRGB
 90
        0
102
RTVSPost2010PropOp41
 70
     1
102
RTVSPost2010Prop42
 90
       50
102
RTVSPost2010PropOp42
 70
     1
102
RTVSPost2010Prop43
 90
        3
102
RTVSPost2010PropOp43
 70
     1
102
RTVSPost2010Prop44ColorIndex
 90
        5
102
RTVSPost2010Prop44ColorRGB
 90
      255
102
RTVSPost2010PropOp44
 70
     1
102
RTVSPost2010Prop45
280
     0
102
RTVSPost2010PropOp45
 70
     1
102
RTVSPost2010Prop46
 90
       50
102
RTVSPost2010PropOp46
 70
     1
102
RTVSPost2010Prop47
 90
       50
102
RTVSPost2010PropOp47
 70
     1
102
RTVSPost2010Prop48
 90
       50
102
RTVSPost2010PropOp48
 70
     1
102
RTVSPost2010Prop49
280
     0
102
RTVSPost2010PropOp49
 70
     1
102
RTVSPost2010Prop50
 90
       50
102
RTVSPost2010PropOp50
 70
     1
102
RTVSPost2010Prop51ColorIndex
 90
      256
102
RTVSPost2010Prop51ColorRGB
 90
-16777216
102
RTVSPost2010PropOp51
 70
     0
102
RTVSPost2010Prop52
140
1.0
102
RTVSPost2010PropOp52
 70
     0
102
RTVSPost2010Prop53
 90
        2
102
RTVSPost2010PropOp53
 70
     1
102
RTVSPost2010Prop54
  1
strokes_ogs.tif
102
RTVSPost2010PropOp54
 70
     1
102
RTVSPost2010Prop55
280
     0
102
RTVSPost2010PropOp55
 70
     1
102
RTVSPost2010Prop56
140
1.0
102
RTVSPost2010PropOp56
 70
     1
102
RTVSPost2010Prop57
140
1.0
102
RTVSPost2010PropOp57
 70
     1
102
RTVSPropertyOp0
 70
     1
102
RTVSPropertyOp1
 70
     1
102
RTVSPropertyOp2
 70
     1
102
RTVSPropertyOp3
 70
     1
102
RTVSPropertyOp4
 70
     1
102
RTVSPropertyOp5
 70
     1
102
RTVSPropertyOp6
 70
     1
102
RTVSPropertyOp7
 70
     1
102
RTVSPropertyOp8
 70
     1
102
RTVSPropertyOp9
 70
     1
102
RTVSPropertyOp10
 70
     1
102
RTVSPropertyOp11
 70
     1
102
RTVSPropertyOp12
 70
     1
102
RTVSPropertyOp13
 70
     1
102
RTVSPropertyOp14
 70
     1
102
RTVSPropertyOp15
 70
     1
102
RTVSPropertyOp16
 70
     1
102
RTVSPropertyOp17
 70
     1
102
RTVSPropertyOp18
 70
     1
102
RTVSPropertyOp19
 70
     1
102
RTVSPropertyOp20
 70
     1
102
RTVSPropertyOp21
 70
     1
102
RTVSPropertyOp22
 70
     1
102
RTVSPropertyOp23
 70
     1
102
RTVSPropertyOp24
 70
     1
102
RTVSPropertyOp25
 70
     1
102
RTVSPropertyOp26
 70
     1
102
RTVSPropertyOp27
 70
     1
102
RTVSPropertyOp28
 70
     1
102
RTVSPropertyOp29
 70
     1
102
RTVSPropertyOp30
 70
     1
102
RTVSPropertyOp31
 70
     1
102
RTVSPropertyOp32
 70
     1
102
RTVSPropertyOp33
 70
     1
102
RTVSPropertyOp34
 70
     1
102
RTVSPropertyOp35
 70
     1
102
RTVSPropertyOp36
 70
     1
102
RTVSPropertyOp37
 70
     1
102
RTVSPropertyOp38
 70
     1
102
RTVSPropertyOp39
 70
     1
102
RTVSPropertyOp40
 70
     1
102
RTVSPropertyOp41
 70
     1
102
RTVSPropertyOp42
 70
     1
102
RTVSPropertyOp43
 70
     1
102
RTVSPropertyOp44
 70
     1
102
RTVSPropertyOp45
 70
     1
102
RTVSPropertyOp46
 70
     1
102
RTVSPropertyOp47
 70
     1
102
RTVSPropertyOp48
 70
     1
102
RTVSPropertyOp49
 70
     1
102
RTVSPropertyOp50
 70
     1
102
RTVSPropertyOp51
 70
     0
102
RTVSPropertyOp52
 70
     0
102
RTVSPropertyOp53
 70
     1
102
RTVSPropertyOp54
 70
     1
102
RTVSPropertyOp55
 70
     1
102
RTVSPropertyOp56
 70
     1
102
RTVSPropertyOp57
 70
     1
102
RTVSPropertyOp58
 70
     1
102
RTVSPropertyOp59
 70
     1
102
RTVSPropertyOp60
 70
     1
102
RTVSPropertyOp61
 70
     1
102
RTVSPropertyOp62
 70
     1
  0
XRECORD
  5
31B4
102
{ACAD_REACTORS
330
31B3
102
}
330
31B3
100
AcDbXrecord
280
     1
102
RTVSPost2010Prop28
280
     0
102
RTVSPost2010PropOp28
 70
     1
102
RTVSPost2010Prop29
280
     1
102
RTVSPost2010PropOp29
 70
     1
102
RTVSPost2010Prop30
280
     1
102
RTVSPost2010PropOp30
 70
     1
102
RTVSPost2010Prop31
280
     0
102
RTVSPost2010PropOp31
 70
     1
102
RTVSPost2010Prop32
280
     0
102
RTVSPost2010PropOp32
 70
     1
102
RTVSPost2010Prop33
280
     0
102
RTVSPost2010PropOp33
 70
     1
102
RTVSPost2010Prop34
280
     0
102
RTVSPost2010PropOp34
 70
     1
102
RTVSPost2010Prop35
280
     0
102
RTVSPost2010PropOp35
 70
     1
102
RTVSPost2010Prop36
280
     0
102
RTVSPost2010PropOp36
 70
     1
102
RTVSPost2010Prop37
 90
       50
102
RTVSPost2010PropOp37
 70
     1
102
RTVSPost2010Prop38
140
0.0
102
RTVSPost2010PropOp38
 70
     1
102
RTVSPost2010Prop39
140
1.0
102
RTVSPost2010PropOp39
 70
     1
102
RTVSPost2010Prop40
 90
        0
102
RTVSPost2010PropOp40
 70
     1
102
RTVSPost2010Prop41ColorIndex
 90
       18
102
RTVSPost2010Prop41ColorRGB
 90
        0
102
RTVSPost2010PropOp41
 70
     1
102
RTVSPost2010Prop42
 90
       50
102
RTVSPost2010PropOp42
 70
     1
102
RTVSPost2010Prop43
 90
        3
102
RTVSPost2010PropOp43
 70
     1
102
RTVSPost2010Prop44ColorIndex
 90
        5
102
RTVSPost2010Prop44ColorRGB
 90
      255
102
RTVSPost2010PropOp44
 70
     1
102
RTVSPost2010Prop45
280
     0
102
RTVSPost2010PropOp45
 70
     1
102
RTVSPost2010Prop46
 90
       50
102
RTVSPost2010PropOp46
 70
     1
102
RTVSPost2010Prop47
 90
       50
102
RTVSPost2010PropOp47
 70
     1
102
RTVSPost2010Prop48
 90
       50
102
RTVSPost2010PropOp48
 70
     1
102
RTVSPost2010Prop49
280
     0
102
RTVSPost2010PropOp49
 70
     1
102
RTVSPost2010Prop50
 90
       50
102
RTVSPost2010PropOp50
 70
     1
102
RTVSPost2010Prop51ColorIndex
 90
      256
102
RTVSPost2010Prop51ColorRGB
 90
-16777216
102
RTVSPost2010PropOp51
 70
     0
102
RTVSPost2010Prop52
140
1.0
102
RTVSPost2010PropOp52
 70
     0
102
RTVSPost2010Prop53
 90
        2
102
RTVSPost2010PropOp53
 70
     1
102
RTVSPost2010Prop54
  1
strokes_ogs.tif
102
RTVSPost2010PropOp54
 70
     1
102
RTVSPost2010Prop55
280
     0
102
RTVSPost2010PropOp55
 70
     1
102
RTVSPost2010Prop56
140
1.0
102
RTVSPost2010PropOp56
 70
     1
102
RTVSPost2010Prop57
140
1.0
102
RTVSPost2010PropOp57
 70
     1
102
RTVSPropertyOp0
 70
     1
102
RTVSPropertyOp1
 70
     1
102
RTVSPropertyOp2
 70
     1
102
RTVSPropertyOp3
 70
     1
102
RTVSPropertyOp4
 70
     1
102
RTVSPropertyOp5
 70
     1
102
RTVSPropertyOp6
 70
     1
102
RTVSPropertyOp7
 70
     1
102
RTVSPropertyOp8
 70
     1
102
RTVSPropertyOp9
 70
     1
102
RTVSPropertyOp10
 70
     1
102
RTVSPropertyOp11
 70
     1
102
RTVSPropertyOp12
 70
     1
102
RTVSPropertyOp13
 70
     1
102
RTVSPropertyOp14
 70
     1
102
RTVSPropertyOp15
 70
     1
102
RTVSPropertyOp16
 70
     1
102
RTVSPropertyOp17
 70
     1
102
RTVSPropertyOp18
 70
     1
102
RTVSPropertyOp19
 70
     1
102
RTVSPropertyOp20
 70
     1
102
RTVSPropertyOp21
 70
     1
102
RTVSPropertyOp22
 70
     1
102
RTVSPropertyOp23
 70
     1
102
RTVSPropertyOp24
 70
     1
102
RTVSPropertyOp25
 70
     1
102
RTVSPropertyOp26
 70
     1
102
RTVSPropertyOp27
 70
     1
102
RTVSPropertyOp28
 70
     1
102
RTVSPropertyOp29
 70
     1
102
RTVSPropertyOp30
 70
     1
102
RTVSPropertyOp31
 70
     1
102
RTVSPropertyOp32
 70
     1
102
RTVSPropertyOp33
 70
     1
102
RTVSPropertyOp34
 70
     1
102
RTVSPropertyOp35
 70
     1
102
RTVSPropertyOp36
 70
     1
102
RTVSPropertyOp37
 70
     1
102
RTVSPropertyOp38
 70
     1
102
RTVSPropertyOp39
 70
     1
102
RTVSPropertyOp40
 70
     1
102
RTVSPropertyOp41
 70
     1
102
RTVSPropertyOp42
 70
     1
102
RTVSPropertyOp43
 70
     1
102
RTVSPropertyOp44
 70
     1
102
RTVSPropertyOp45
 70
     1
102
RTVSPropertyOp46
 70
     1
102
RTVSPropertyOp47
 70
     1
102
RTVSPropertyOp48
 70
     1
102
RTVSPropertyOp49
 70
     1
102
RTVSPropertyOp50
 70
     1
102
RTVSPropertyOp51
 70
     0
102
RTVSPropertyOp52
 70
     0
102
RTVSPropertyOp53
 70
     1
102
RTVSPropertyOp54
 70
     1
102
RTVSPropertyOp55
 70
     1
102
RTVSPropertyOp56
 70
     1
102
RTVSPropertyOp57
 70
     1
102
RTVSPropertyOp58
 70
     1
102
RTVSPropertyOp59
 70
     1
102
RTVSPropertyOp60
 70
     1
102
RTVSPropertyOp61
 70
     1
102
RTVSPropertyOp62
 70
     1
  0
XRECORD
  5
31B6
102
{ACAD_REACTORS
330
31B5
102
}
330
31B5
100
AcDbXrecord
280
     1
102
RTVSPost2010Prop28
280
     0
102
RTVSPost2010PropOp28
 70
     1
102
RTVSPost2010Prop29
280
     1
102
RTVSPost2010PropOp29
 70
     1
102
RTVSPost2010Prop30
280
     1
102
RTVSPost2010PropOp30
 70
     1
102
RTVSPost2010Prop31
280
     0
102
RTVSPost2010PropOp31
 70
     1
102
RTVSPost2010Prop32
280
     0
102
RTVSPost2010PropOp32
 70
     1
102
RTVSPost2010Prop33
280
     0
102
RTVSPost2010PropOp33
 70
     1
102
RTVSPost2010Prop34
280
     0
102
RTVSPost2010PropOp34
 70
     1
102
RTVSPost2010Prop35
280
     0
102
RTVSPost2010PropOp35
 70
     1
102
RTVSPost2010Prop36
280
     0
102
RTVSPost2010PropOp36
 70
     1
102
RTVSPost2010Prop37
 90
       50
102
RTVSPost2010PropOp37
 70
     1
102
RTVSPost2010Prop38
140
0.0
102
RTVSPost2010PropOp38
 70
     1
102
RTVSPost2010Prop39
140
1.0
102
RTVSPost2010PropOp39
 70
     1
102
RTVSPost2010Prop40
 90
        0
102
RTVSPost2010PropOp40
 70
     1
102
RTVSPost2010Prop41ColorIndex
 90
       18
102
RTVSPost2010Prop41ColorRGB
 90
        0
102
RTVSPost2010PropOp41
 70
     1
102
RTVSPost2010Prop42
 90
       50
102
RTVSPost2010PropOp42
 70
     1
102
RTVSPost2010Prop43
 90
        3
102
RTVSPost2010PropOp43
 70
     1
102
RTVSPost2010Prop44ColorIndex
 90
        5
102
RTVSPost2010Prop44ColorRGB
 90
      255
102
RTVSPost2010PropOp44
 70
     1
102
RTVSPost2010Prop45
280
     0
102
RTVSPost2010PropOp45
 70
     1
102
RTVSPost2010Prop46
 90
       50
102
RTVSPost2010PropOp46
 70
     1
102
RTVSPost2010Prop47
 90
       50
102
RTVSPost2010PropOp47
 70
     1
102
RTVSPost2010Prop48
 90
       50
102
RTVSPost2010PropOp48
 70
     1
102
RTVSPost2010Prop49
280
     0
102
RTVSPost2010PropOp49
 70
     1
102
RTVSPost2010Prop50
 90
       50
102
RTVSPost2010PropOp50
 70
     1
102
RTVSPost2010Prop51ColorIndex
 90
      256
102
RTVSPost2010Prop51ColorRGB
 90
-16777216
102
RTVSPost2010PropOp51
 70
     0
102
RTVSPost2010Prop52
140
1.0
102
RTVSPost2010PropOp52
 70
     0
102
RTVSPost2010Prop53
 90
        2
102
RTVSPost2010PropOp53
 70
     1
102
RTVSPost2010Prop54
  1
strokes_ogs.tif
102
RTVSPost2010PropOp54
 70
     1
102
RTVSPost2010Prop55
280
     0
102
RTVSPost2010PropOp55
 70
     1
102
RTVSPost2010Prop56
140
1.0
102
RTVSPost2010PropOp56
 70
     1
102
RTVSPost2010Prop57
140
1.0
102
RTVSPost2010PropOp57
 70
     1
102
RTVSPropertyOp0
 70
     1
102
RTVSPropertyOp1
 70
     1
102
RTVSPropertyOp2
 70
     1
102
RTVSPropertyOp3
 70
     1
102
RTVSPropertyOp4
 70
     1
102
RTVSPropertyOp5
 70
     1
102
RTVSPropertyOp6
 70
     1
102
RTVSPropertyOp7
 70
     1
102
RTVSPropertyOp8
 70
     1
102
RTVSPropertyOp9
 70
     1
102
RTVSPropertyOp10
 70
     1
102
RTVSPropertyOp11
 70
     1
102
RTVSPropertyOp12
 70
     1
102
RTVSPropertyOp13
 70
     1
102
RTVSPropertyOp14
 70
     1
102
RTVSPropertyOp15
 70
     1
102
RTVSPropertyOp16
 70
     1
102
RTVSPropertyOp17
 70
     1
102
RTVSPropertyOp18
 70
     1
102
RTVSPropertyOp19
 70
     1
102
RTVSPropertyOp20
 70
     1
102
RTVSPropertyOp21
 70
     1
102
RTVSPropertyOp22
 70
     1
102
RTVSPropertyOp23
 70
     1
102
RTVSPropertyOp24
 70
     1
102
RTVSPropertyOp25
 70
     1
102
RTVSPropertyOp26
 70
     1
102
RTVSPropertyOp27
 70
     1
102
RTVSPropertyOp28
 70
     1
102
RTVSPropertyOp29
 70
     1
102
RTVSPropertyOp30
 70
     1
102
RTVSPropertyOp31
 70
     1
102
RTVSPropertyOp32
 70
     1
102
RTVSPropertyOp33
 70
     1
102
RTVSPropertyOp34
 70
     1
102
RTVSPropertyOp35
 70
     1
102
RTVSPropertyOp36
 70
     1
102
RTVSPropertyOp37
 70
     1
102
RTVSPropertyOp38
 70
     1
102
RTVSPropertyOp39
 70
     1
102
RTVSPropertyOp40
 70
     1
102
RTVSPropertyOp41
 70
     1
102
RTVSPropertyOp42
 70
     1
102
RTVSPropertyOp43
 70
     1
102
RTVSPropertyOp44
 70
     1
102
RTVSPropertyOp45
 70
     1
102
RTVSPropertyOp46
 70
     1
102
RTVSPropertyOp47
 70
     1
102
RTVSPropertyOp48
 70
     1
102
RTVSPropertyOp49
 70
     1
102
RTVSPropertyOp50
 70
     1
102
RTVSPropertyOp51
 70
     0
102
RTVSPropertyOp52
 70
     0
102
RTVSPropertyOp53
 70
     1
102
RTVSPropertyOp54
 70
     1
102
RTVSPropertyOp55
 70
     1
102
RTVSPropertyOp56
 70
     1
102
RTVSPropertyOp57
 70
     1
102
RTVSPropertyOp58
 70
     1
102
RTVSPropertyOp59
 70
     1
102
RTVSPropertyOp60
 70
     1
102
RTVSPropertyOp61
 70
     1
102
RTVSPropertyOp62
 70
     1
  0
XRECORD
  5
31B8
102
{ACAD_REACTORS
330
31B7
102
}
330
31B7
100
AcDbXrecord
280
     1
102
RTVSPost2010Prop28
280
     0
102
RTVSPost2010PropOp28
 70
     1
102
RTVSPost2010Prop29
280
     1
102
RTVSPost2010PropOp29
 70
     1
102
RTVSPost2010Prop30
280
     1
102
RTVSPost2010PropOp30
 70
     1
102
RTVSPost2010Prop31
280
     0
102
RTVSPost2010PropOp31
 70
     1
102
RTVSPost2010Prop32
280
     0
102
RTVSPost2010PropOp32
 70
     1
102
RTVSPost2010Prop33
280
     0
102
RTVSPost2010PropOp33
 70
     1
102
RTVSPost2010Prop34
280
     0
102
RTVSPost2010PropOp34
 70
     1
102
RTVSPost2010Prop35
280
     0
102
RTVSPost2010PropOp35
 70
     1
102
RTVSPost2010Prop36
280
     0
102
RTVSPost2010PropOp36
 70
     1
102
RTVSPost2010Prop37
 90
       50
102
RTVSPost2010PropOp37
 70
     1
102
RTVSPost2010Prop38
140
0.0
102
RTVSPost2010PropOp38
 70
     1
102
RTVSPost2010Prop39
140
1.0
102
RTVSPost2010PropOp39
 70
     1
102
RTVSPost2010Prop40
 90
        0
102
RTVSPost2010PropOp40
 70
     1
102
RTVSPost2010Prop41ColorIndex
 90
       18
102
RTVSPost2010Prop41ColorRGB
 90
        0
102
RTVSPost2010PropOp41
 70
     1
102
RTVSPost2010Prop42
 90
       50
102
RTVSPost2010PropOp42
 70
     1
102
RTVSPost2010Prop43
 90
        3
102
RTVSPost2010PropOp43
 70
     1
102
RTVSPost2010Prop44ColorIndex
 90
        5
102
RTVSPost2010Prop44ColorRGB
 90
      255
102
RTVSPost2010PropOp44
 70
     1
102
RTVSPost2010Prop45
280
     0
102
RTVSPost2010PropOp45
 70
     1
102
RTVSPost2010Prop46
 90
       50
102
RTVSPost2010PropOp46
 70
     1
102
RTVSPost2010Prop47
 90
       50
102
RTVSPost2010PropOp47
 70
     1
102
RTVSPost2010Prop48
 90
       50
102
RTVSPost2010PropOp48
 70
     1
102
RTVSPost2010Prop49
280
     0
102
RTVSPost2010PropOp49
 70
     1
102
RTVSPost2010Prop50
 90
       50
102
RTVSPost2010PropOp50
 70
     1
102
RTVSPost2010Prop51ColorIndex
 90
      256
102
RTVSPost2010Prop51ColorRGB
 90
-16777216
102
RTVSPost2010PropOp51
 70
     0
102
RTVSPost2010Prop52
140
1.0
102
RTVSPost2010PropOp52
 70
     0
102
RTVSPost2010Prop53
 90
        2
102
RTVSPost2010PropOp53
 70
     1
102
RTVSPost2010Prop54
  1
strokes_ogs.tif
102
RTVSPost2010PropOp54
 70
     1
102
RTVSPost2010Prop55
280
     0
102
RTVSPost2010PropOp55
 70
     1
102
RTVSPost2010Prop56
140
1.0
102
RTVSPost2010PropOp56
 70
     1
102
RTVSPost2010Prop57
140
1.0
102
RTVSPost2010PropOp57
 70
     1
102
RTVSPropertyOp0
 70
     1
102
RTVSPropertyOp1
 70
     1
102
RTVSPropertyOp2
 70
     1
102
RTVSPropertyOp3
 70
     1
102
RTVSPropertyOp4
 70
     1
102
RTVSPropertyOp5
 70
     1
102
RTVSPropertyOp6
 70
     1
102
RTVSPropertyOp7
 70
     1
102
RTVSPropertyOp8
 70
     1
102
RTVSPropertyOp9
 70
     1
102
RTVSPropertyOp10
 70
     1
102
RTVSPropertyOp11
 70
     1
102
RTVSPropertyOp12
 70
     1
102
RTVSPropertyOp13
 70
     1
102
RTVSPropertyOp14
 70
     1
102
RTVSPropertyOp15
 70
     1
102
RTVSPropertyOp16
 70
     1
102
RTVSPropertyOp17
 70
     1
102
RTVSPropertyOp18
 70
     1
102
RTVSPropertyOp19
 70
     1
102
RTVSPropertyOp20
 70
     1
102
RTVSPropertyOp21
 70
     1
102
RTVSPropertyOp22
 70
     1
102
RTVSPropertyOp23
 70
     1
102
RTVSPropertyOp24
 70
     1
102
RTVSPropertyOp25
 70
     1
102
RTVSPropertyOp26
 70
     1
102
RTVSPropertyOp27
 70
     1
102
RTVSPropertyOp28
 70
     1
102
RTVSPropertyOp29
 70
     1
102
RTVSPropertyOp30
 70
     1
102
RTVSPropertyOp31
 70
     1
102
RTVSPropertyOp32
 70
     1
102
RTVSPropertyOp33
 70
     1
102
RTVSPropertyOp34
 70
     1
102
RTVSPropertyOp35
 70
     1
102
RTVSPropertyOp36
 70
     1
102
RTVSPropertyOp37
 70
     1
102
RTVSPropertyOp38
 70
     1
102
RTVSPropertyOp39
 70
     1
102
RTVSPropertyOp40
 70
     1
102
RTVSPropertyOp41
 70
     1
102
RTVSPropertyOp42
 70
     1
102
RTVSPropertyOp43
 70
     1
102
RTVSPropertyOp44
 70
     1
102
RTVSPropertyOp45
 70
     1
102
RTVSPropertyOp46
 70
     1
102
RTVSPropertyOp47
 70
     1
102
RTVSPropertyOp48
 70
     1
102
RTVSPropertyOp49
 70
     1
102
RTVSPropertyOp50
 70
     1
102
RTVSPropertyOp51
 70
     0
102
RTVSPropertyOp52
 70
     0
102
RTVSPropertyOp53
 70
     1
102
RTVSPropertyOp54
 70
     1
102
RTVSPropertyOp55
 70
     1
102
RTVSPropertyOp56
 70
     1
102
RTVSPropertyOp57
 70
     1
102
RTVSPropertyOp58
 70
     1
102
RTVSPropertyOp59
 70
     1
102
RTVSPropertyOp60
 70
     1
102
RTVSPropertyOp61
 70
     1
102
RTVSPropertyOp62
 70
     1
  0
XRECORD
  5
31C0
102
{ACAD_REACTORS
330
31BF
102
}
330
31BF
100
AcDbXrecord
280
     1
102
RTVSPost2010Prop28
280
     0
102
RTVSPost2010PropOp28
 70
     1
102
RTVSPost2010Prop29
280
     1
102
RTVSPost2010PropOp29
 70
     1
102
RTVSPost2010Prop30
280
     1
102
RTVSPost2010PropOp30
 70
     1
102
RTVSPost2010Prop31
280
     0
102
RTVSPost2010PropOp31
 70
     1
102
RTVSPost2010Prop32
280
     0
102
RTVSPost2010PropOp32
 70
     1
102
RTVSPost2010Prop33
280
     0
102
RTVSPost2010PropOp33
 70
     1
102
RTVSPost2010Prop34
280
     0
102
RTVSPost2010PropOp34
 70
     1
102
RTVSPost2010Prop35
280
     0
102
RTVSPost2010PropOp35
 70
     1
102
RTVSPost2010Prop36
280
     0
102
RTVSPost2010PropOp36
 70
     1
102
RTVSPost2010Prop37
 90
       50
102
RTVSPost2010PropOp37
 70
     1
102
RTVSPost2010Prop38
140
0.0
102
RTVSPost2010PropOp38
 70
     1
102
RTVSPost2010Prop39
140
1.0
102
RTVSPost2010PropOp39
 70
     1
102
RTVSPost2010Prop40
 90
        0
102
RTVSPost2010PropOp40
 70
     1
102
RTVSPost2010Prop41ColorIndex
 90
       18
102
RTVSPost2010Prop41ColorRGB
 90
        0
102
RTVSPost2010PropOp41
 70
     1
102
RTVSPost2010Prop42
 90
       50
102
RTVSPost2010PropOp42
 70
     1
102
RTVSPost2010Prop43
 90
        3
102
RTVSPost2010PropOp43
 70
     1
102
RTVSPost2010Prop44ColorIndex
 90
        5
102
RTVSPost2010Prop44ColorRGB
 90
      255
102
RTVSPost2010PropOp44
 70
     1
102
RTVSPost2010Prop45
280
     0
102
RTVSPost2010PropOp45
 70
     1
102
RTVSPost2010Prop46
 90
       50
102
RTVSPost2010PropOp46
 70
     1
102
RTVSPost2010Prop47
 90
       50
102
RTVSPost2010PropOp47
 70
     1
102
RTVSPost2010Prop48
 90
       50
102
RTVSPost2010PropOp48
 70
     1
102
RTVSPost2010Prop49
280
     0
102
RTVSPost2010PropOp49
 70
     1
102
RTVSPost2010Prop50
 90
       50
102
RTVSPost2010PropOp50
 70
     1
102
RTVSPost2010Prop51ColorIndex
 90
      256
102
RTVSPost2010Prop51ColorRGB
 90
-16777216
102
RTVSPost2010PropOp51
 70
     0
102
RTVSPost2010Prop52
140
1.0
102
RTVSPost2010PropOp52
 70
     0
102
RTVSPost2010Prop53
 90
        2
102
RTVSPost2010PropOp53
 70
     1
102
RTVSPost2010Prop54
  1
strokes_ogs.tif
102
RTVSPost2010PropOp54
 70
     1
102
RTVSPost2010Prop55
280
     0
102
RTVSPost2010PropOp55
 70
     1
102
RTVSPost2010Prop56
140
1.0
102
RTVSPost2010PropOp56
 70
     1
102
RTVSPost2010Prop57
140
1.0
102
RTVSPost2010PropOp57
 70
     1
102
RTVSPropertyOp0
 70
     1
102
RTVSPropertyOp1
 70
     1
102
RTVSPropertyOp2
 70
     1
102
RTVSPropertyOp3
 70
     1
102
RTVSPropertyOp4
 70
     1
102
RTVSPropertyOp5
 70
     1
102
RTVSPropertyOp6
 70
     1
102
RTVSPropertyOp7
 70
     1
102
RTVSPropertyOp8
 70
     1
102
RTVSPropertyOp9
 70
     1
102
RTVSPropertyOp10
 70
     1
102
RTVSPropertyOp11
 70
     1
102
RTVSPropertyOp12
 70
     1
102
RTVSPropertyOp13
 70
     1
102
RTVSPropertyOp14
 70
     1
102
RTVSPropertyOp15
 70
     1
102
RTVSPropertyOp16
 70
     1
102
RTVSPropertyOp17
 70
     1
102
RTVSPropertyOp18
 70
     1
102
RTVSPropertyOp19
 70
     1
102
RTVSPropertyOp20
 70
     1
102
RTVSPropertyOp21
 70
     1
102
RTVSPropertyOp22
 70
     1
102
RTVSPropertyOp23
 70
     1
102
RTVSPropertyOp24
 70
     1
102
RTVSPropertyOp25
 70
     1
102
RTVSPropertyOp26
 70
     1
102
RTVSPropertyOp27
 70
     1
102
RTVSPropertyOp28
 70
     1
102
RTVSPropertyOp29
 70
     1
102
RTVSPropertyOp30
 70
     1
102
RTVSPropertyOp31
 70
     1
102
RTVSPropertyOp32
 70
     1
102
RTVSPropertyOp33
 70
     1
102
RTVSPropertyOp34
 70
     1
102
RTVSPropertyOp35
 70
     1
102
RTVSPropertyOp36
 70
     1
102
RTVSPropertyOp37
 70
     1
102
RTVSPropertyOp38
 70
     1
102
RTVSPropertyOp39
 70
     1
102
RTVSPropertyOp40
 70
     1
102
RTVSPropertyOp41
 70
     1
102
RTVSPropertyOp42
 70
     1
102
RTVSPropertyOp43
 70
     1
102
RTVSPropertyOp44
 70
     1
102
RTVSPropertyOp45
 70
     1
102
RTVSPropertyOp46
 70
     1
102
RTVSPropertyOp47
 70
     1
102
RTVSPropertyOp48
 70
     1
102
RTVSPropertyOp49
 70
     1
102
RTVSPropertyOp50
 70
     1
102
RTVSPropertyOp51
 70
     0
102
RTVSPropertyOp52
 70
     0
102
RTVSPropertyOp53
 70
     1
102
RTVSPropertyOp54
 70
     1
102
RTVSPropertyOp55
 70
     1
102
RTVSPropertyOp56
 70
     1
102
RTVSPropertyOp57
 70
     1
102
RTVSPropertyOp58
 70
     1
102
RTVSPropertyOp59
 70
     1
102
RTVSPropertyOp60
 70
     1
102
RTVSPropertyOp61
 70
     1
102
RTVSPropertyOp62
 70
     1
  0
XRECORD
  5
31DC
102
{ACAD_REACTORS
330
31DB
102
}
330
31DB
100
AcDbXrecord
280
     1
102
RTVSPost2010Prop28
280
     0
102
RTVSPost2010PropOp28
 70
     1
102
RTVSPost2010Prop29
280
     1
102
RTVSPost2010PropOp29
 70
     1
102
RTVSPost2010Prop30
280
     1
102
RTVSPost2010PropOp30
 70
     1
102
RTVSPost2010Prop31
280
     0
102
RTVSPost2010PropOp31
 70
     1
102
RTVSPost2010Prop32
280
     0
102
RTVSPost2010PropOp32
 70
     1
102
RTVSPost2010Prop33
280
     0
102
RTVSPost2010PropOp33
 70
     1
102
RTVSPost2010Prop34
280
     0
102
RTVSPost2010PropOp34
 70
     1
102
RTVSPost2010Prop35
280
     0
102
RTVSPost2010PropOp35
 70
     1
102
RTVSPost2010Prop36
280
     0
102
RTVSPost2010PropOp36
 70
     1
102
RTVSPost2010Prop37
 90
       50
102
RTVSPost2010PropOp37
 70
     0
102
RTVSPost2010Prop38
140
0.0
102
RTVSPost2010PropOp38
 70
     0
102
RTVSPost2010Prop39
140
1.0
102
RTVSPost2010PropOp39
 70
     0
102
RTVSPost2010Prop40
 90
        0
102
RTVSPost2010PropOp40
 70
     0
102
RTVSPost2010Prop41ColorIndex
 90
       18
102
RTVSPost2010Prop41ColorRGB
 90
        0
102
RTVSPost2010PropOp41
 70
     0
102
RTVSPost2010Prop42
 90
       50
102
RTVSPost2010PropOp42
 70
     0
102
RTVSPost2010Prop43
 90
        3
102
RTVSPost2010PropOp43
 70
     0
102
RTVSPost2010Prop44ColorIndex
 90
        5
102
RTVSPost2010Prop44ColorRGB
 90
      255
102
RTVSPost2010PropOp44
 70
     0
102
RTVSPost2010Prop45
280
     0
102
RTVSPost2010PropOp45
 70
     1
102
RTVSPost2010Prop46
 90
       50
102
RTVSPost2010PropOp46
 70
     0
102
RTVSPost2010Prop47
 90
       50
102
RTVSPost2010PropOp47
 70
     0
102
RTVSPost2010Prop48
 90
       50
102
RTVSPost2010PropOp48
 70
     0
102
RTVSPost2010Prop49
280
     0
102
RTVSPost2010PropOp49
 70
     1
102
RTVSPost2010Prop50
 90
       50
102
RTVSPost2010PropOp50
 70
     0
102
RTVSPost2010Prop51ColorIndex
 90
      256
102
RTVSPost2010Prop51ColorRGB
 90
-16777216
102
RTVSPost2010PropOp51
 70
     0
102
RTVSPost2010Prop52
140
1.0
102
RTVSPost2010PropOp52
 70
     0
102
RTVSPost2010Prop53
 90
        2
102
RTVSPost2010PropOp53
 70
     0
102
RTVSPost2010Prop54
  1
strokes_ogs.tif
102
RTVSPost2010PropOp54
 70
     0
102
RTVSPost2010Prop55
280
     0
102
RTVSPost2010PropOp55
 70
     1
102
RTVSPost2010Prop56
140
1.0
102
RTVSPost2010PropOp56
 70
     0
102
RTVSPost2010Prop57
140
1.0
102
RTVSPost2010PropOp57
 70
     0
102
RTVSPropertyOp0
 70
     0
102
RTVSPropertyOp1
 70
     0
102
RTVSPropertyOp2
 70
     0
102
RTVSPropertyOp3
 70
     0
102
RTVSPropertyOp4
 70
     0
102
RTVSPropertyOp5
 70
     0
102
RTVSPropertyOp6
 70
     0
102
RTVSPropertyOp7
 70
     0
102
RTVSPropertyOp8
 70
     0
102
RTVSPropertyOp9
 70
     0
102
RTVSPropertyOp10
 70
     0
102
RTVSPropertyOp11
 70
     0
102
RTVSPropertyOp12
 70
     0
102
RTVSPropertyOp13
 70
     0
102
RTVSPropertyOp14
 70
     2
102
RTVSPropertyOp15
 70
     0
102
RTVSPropertyOp16
 70
     0
102
RTVSPropertyOp17
 70
     0
102
RTVSPropertyOp18
 70
     0
102
RTVSPropertyOp19
 70
     0
102
RTVSPropertyOp20
 70
     0
102
RTVSPropertyOp21
 70
     0
102
RTVSPropertyOp22
 70
     0
102
RTVSPropertyOp23
 70
     0
102
RTVSPropertyOp24
 70
     0
102
RTVSPropertyOp25
 70
     0
102
RTVSPropertyOp26
 70
     0
102
RTVSPropertyOp27
 70
     0
102
RTVSPropertyOp28
 70
     1
102
RTVSPropertyOp29
 70
     1
102
RTVSPropertyOp30
 70
     1
102
RTVSPropertyOp31
 70
     1
102
RTVSPropertyOp32
 70
     1
102
RTVSPropertyOp33
 70
     1
102
RTVSPropertyOp34
 70
     1
102
RTVSPropertyOp35
 70
     1
102
RTVSPropertyOp36
 70
     1
102
RTVSPropertyOp37
 70
     0
102
RTVSPropertyOp38
 70
     0
102
RTVSPropertyOp39
 70
     0
102
RTVSPropertyOp40
 70
     0
102
RTVSPropertyOp41
 70
     0
102
RTVSPropertyOp42
 70
     0
102
RTVSPropertyOp43
 70
     0
102
RTVSPropertyOp44
 70
     0
102
RTVSPropertyOp45
 70
     1
102
RTVSPropertyOp46
 70
     0
102
RTVSPropertyOp47
 70
     0
102
RTVSPropertyOp48
 70
     0
102
RTVSPropertyOp49
 70
     1
102
RTVSPropertyOp50
 70
     0
102
RTVSPropertyOp51
 70
     0
102
RTVSPropertyOp52
 70
     0
102
RTVSPropertyOp53
 70
     0
102
RTVSPropertyOp54
 70
     0
102
RTVSPropertyOp55
 70
     1
102
RTVSPropertyOp56
 70
     0
102
RTVSPropertyOp57
 70
     0
102
RTVSPropertyOp58
 70
     0
102
RTVSPropertyOp59
 70
     0
102
RTVSPropertyOp60
 70
     0
102
RTVSPropertyOp61
 70
     0
102
RTVSPropertyOp62
 70
     0
  0
XRECORD
  5
31CC
102
{ACAD_REACTORS
330
31CB
102
}
330
31CB
100
AcDbXrecord
280
     1
102
RTVSPost2010Prop28
280
     0
102
RTVSPost2010PropOp28
 70
     1
102
RTVSPost2010Prop29
280
     1
102
RTVSPost2010PropOp29
 70
     1
102
RTVSPost2010Prop30
280
     1
102
RTVSPost2010PropOp30
 70
     1
102
RTVSPost2010Prop31
280
     0
102
RTVSPost2010PropOp31
 70
     1
102
RTVSPost2010Prop32
280
     0
102
RTVSPost2010PropOp32
 70
     1
102
RTVSPost2010Prop33
280
     0
102
RTVSPost2010PropOp33
 70
     1
102
RTVSPost2010Prop34
280
     0
102
RTVSPost2010PropOp34
 70
     1
102
RTVSPost2010Prop35
280
     0
102
RTVSPost2010PropOp35
 70
     1
102
RTVSPost2010Prop36
280
     0
102
RTVSPost2010PropOp36
 70
     1
102
RTVSPost2010Prop37
 90
       50
102
RTVSPost2010PropOp37
 70
     1
102
RTVSPost2010Prop38
140
0.0
102
RTVSPost2010PropOp38
 70
     1
102
RTVSPost2010Prop39
140
1.0
102
RTVSPost2010PropOp39
 70
     1
102
RTVSPost2010Prop40
 90
        0
102
RTVSPost2010PropOp40
 70
     1
102
RTVSPost2010Prop41ColorIndex
 90
       18
102
RTVSPost2010Prop41ColorRGB
 90
        0
102
RTVSPost2010PropOp41
 70
     1
102
RTVSPost2010Prop42
 90
       50
102
RTVSPost2010PropOp42
 70
     1
102
RTVSPost2010Prop43
 90
        3
102
RTVSPost2010PropOp43
 70
     1
102
RTVSPost2010Prop44ColorIndex
 90
        5
102
RTVSPost2010Prop44ColorRGB
 90
      255
102
RTVSPost2010PropOp44
 70
     1
102
RTVSPost2010Prop45
280
     0
102
RTVSPost2010PropOp45
 70
     1
102
RTVSPost2010Prop46
 90
       50
102
RTVSPost2010PropOp46
 70
     1
102
RTVSPost2010Prop47
 90
       50
102
RTVSPost2010PropOp47
 70
     1
102
RTVSPost2010Prop48
 90
       50
102
RTVSPost2010PropOp48
 70
     1
102
RTVSPost2010Prop49
280
     0
102
RTVSPost2010PropOp49
 70
     1
102
RTVSPost2010Prop50
 90
       50
102
RTVSPost2010PropOp50
 70
     1
102
RTVSPost2010Prop51ColorIndex
 90
      256
102
RTVSPost2010Prop51ColorRGB
 90
-16777216
102
RTVSPost2010PropOp51
 70
     0
102
RTVSPost2010Prop52
140
1.0
102
RTVSPost2010PropOp52
 70
     0
102
RTVSPost2010Prop53
 90
        2
102
RTVSPost2010PropOp53
 70
     1
102
RTVSPost2010Prop54
  1
strokes_ogs.tif
102
RTVSPost2010PropOp54
 70
     1
102
RTVSPost2010Prop55
280
     0
102
RTVSPost2010PropOp55
 70
     1
102
RTVSPost2010Prop56
140
1.0
102
RTVSPost2010PropOp56
 70
     1
102
RTVSPost2010Prop57
140
1.0
102
RTVSPost2010PropOp57
 70
     1
102
RTVSPropertyOp0
 70
     1
102
RTVSPropertyOp1
 70
     1
102
RTVSPropertyOp2
 70
     1
102
RTVSPropertyOp3
 70
     1
102
RTVSPropertyOp4
 70
     1
102
RTVSPropertyOp5
 70
     1
102
RTVSPropertyOp6
 70
     1
102
RTVSPropertyOp7
 70
     1
102
RTVSPropertyOp8
 70
     1
102
RTVSPropertyOp9
 70
     1
102
RTVSPropertyOp10
 70
     1
102
RTVSPropertyOp11
 70
     1
102
RTVSPropertyOp12
 70
     1
102
RTVSPropertyOp13
 70
     1
102
RTVSPropertyOp14
 70
     1
102
RTVSPropertyOp15
 70
     1
102
RTVSPropertyOp16
 70
     1
102
RTVSPropertyOp17
 70
     1
102
RTVSPropertyOp18
 70
     1
102
RTVSPropertyOp19
 70
     1
102
RTVSPropertyOp20
 70
     1
102
RTVSPropertyOp21
 70
     1
102
RTVSPropertyOp22
 70
     1
102
RTVSPropertyOp23
 70
     1
102
RTVSPropertyOp24
 70
     1
102
RTVSPropertyOp25
 70
     1
102
RTVSPropertyOp26
 70
     1
102
RTVSPropertyOp27
 70
     1
102
RTVSPropertyOp28
 70
     1
102
RTVSPropertyOp29
 70
     1
102
RTVSPropertyOp30
 70
     1
102
RTVSPropertyOp31
 70
     1
102
RTVSPropertyOp32
 70
     1
102
RTVSPropertyOp33
 70
     1
102
RTVSPropertyOp34
 70
     1
102
RTVSPropertyOp35
 70
     1
102
RTVSPropertyOp36
 70
     1
102
RTVSPropertyOp37
 70
     1
102
RTVSPropertyOp38
 70
     1
102
RTVSPropertyOp39
 70
     1
102
RTVSPropertyOp40
 70
     1
102
RTVSPropertyOp41
 70
     1
102
RTVSPropertyOp42
 70
     1
102
RTVSPropertyOp43
 70
     1
102
RTVSPropertyOp44
 70
     1
102
RTVSPropertyOp45
 70
     1
102
RTVSPropertyOp46
 70
     1
102
RTVSPropertyOp47
 70
     1
102
RTVSPropertyOp48
 70
     1
102
RTVSPropertyOp49
 70
     1
102
RTVSPropertyOp50
 70
     1
102
RTVSPropertyOp51
 70
     0
102
RTVSPropertyOp52
 70
     0
102
RTVSPropertyOp53
 70
     1
102
RTVSPropertyOp54
 70
     1
102
RTVSPropertyOp55
 70
     1
102
RTVSPropertyOp56
 70
     1
102
RTVSPropertyOp57
 70
     1
102
RTVSPropertyOp58
 70
     1
102
RTVSPropertyOp59
 70
     1
102
RTVSPropertyOp60
 70
     1
102
RTVSPropertyOp61
 70
     1
102
RTVSPropertyOp62
 70
     1
  0
XRECORD
  5
31DE
102
{ACAD_REACTORS
330
31DD
102
}
330
31DD
100
AcDbXrecord
280
     1
102
RTVSPost2010Prop28
280
     0
102
RTVSPost2010PropOp28
 70
     1
102
RTVSPost2010Prop29
280
     1
102
RTVSPost2010PropOp29
 70
     1
102
RTVSPost2010Prop30
280
     1
102
RTVSPost2010PropOp30
 70
     1
102
RTVSPost2010Prop31
280
     0
102
RTVSPost2010PropOp31
 70
     1
102
RTVSPost2010Prop32
280
     0
102
RTVSPost2010PropOp32
 70
     1
102
RTVSPost2010Prop33
280
     0
102
RTVSPost2010PropOp33
 70
     1
102
RTVSPost2010Prop34
280
     0
102
RTVSPost2010PropOp34
 70
     1
102
RTVSPost2010Prop35
280
     0
102
RTVSPost2010PropOp35
 70
     1
102
RTVSPost2010Prop36
280
     0
102
RTVSPost2010PropOp36
 70
     1
102
RTVSPost2010Prop37
 90
       50
102
RTVSPost2010PropOp37
 70
     0
102
RTVSPost2010Prop38
140
0.0
102
RTVSPost2010PropOp38
 70
     0
102
RTVSPost2010Prop39
140
1.0
102
RTVSPost2010PropOp39
 70
     0
102
RTVSPost2010Prop40
 90
        0
102
RTVSPost2010PropOp40
 70
     0
102
RTVSPost2010Prop41ColorIndex
 90
       18
102
RTVSPost2010Prop41ColorRGB
 90
        0
102
RTVSPost2010PropOp41
 70
     0
102
RTVSPost2010Prop42
 90
       50
102
RTVSPost2010PropOp42
 70
     0
102
RTVSPost2010Prop43
 90
        3
102
RTVSPost2010PropOp43
 70
     0
102
RTVSPost2010Prop44ColorIndex
 90
        5
102
RTVSPost2010Prop44ColorRGB
 90
      255
102
RTVSPost2010PropOp44
 70
     0
102
RTVSPost2010Prop45
280
     0
102
RTVSPost2010PropOp45
 70
     1
102
RTVSPost2010Prop46
 90
       50
102
RTVSPost2010PropOp46
 70
     0
102
RTVSPost2010Prop47
 90
       50
102
RTVSPost2010PropOp47
 70
     0
102
RTVSPost2010Prop48
 90
       50
102
RTVSPost2010PropOp48
 70
     0
102
RTVSPost2010Prop49
280
     0
102
RTVSPost2010PropOp49
 70
     1
102
RTVSPost2010Prop50
 90
       50
102
RTVSPost2010PropOp50
 70
     0
102
RTVSPost2010Prop51ColorIndex
 90
      256
102
RTVSPost2010Prop51ColorRGB
 90
-16777216
102
RTVSPost2010PropOp51
 70
     0
102
RTVSPost2010Prop52
140
1.0
102
RTVSPost2010PropOp52
 70
     0
102
RTVSPost2010Prop53
 90
        2
102
RTVSPost2010PropOp53
 70
     0
102
RTVSPost2010Prop54
  1
strokes_ogs.tif
102
RTVSPost2010PropOp54
 70
     0
102
RTVSPost2010Prop55
280
     0
102
RTVSPost2010PropOp55
 70
     1
102
RTVSPost2010Prop56
140
1.0
102
RTVSPost2010PropOp56
 70
     0
102
RTVSPost2010Prop57
140
1.0
102
RTVSPost2010PropOp57
 70
     0
102
RTVSPropertyOp0
 70
     0
102
RTVSPropertyOp1
 70
     0
102
RTVSPropertyOp2
 70
     0
102
RTVSPropertyOp3
 70
     0
102
RTVSPropertyOp4
 70
     0
102
RTVSPropertyOp5
 70
     0
102
RTVSPropertyOp6
 70
     0
102
RTVSPropertyOp7
 70
     0
102
RTVSPropertyOp8
 70
     0
102
RTVSPropertyOp9
 70
     0
102
RTVSPropertyOp10
 70
     0
102
RTVSPropertyOp11
 70
     0
102
RTVSPropertyOp12
 70
     0
102
RTVSPropertyOp13
 70
     0
102
RTVSPropertyOp14
 70
     2
102
RTVSPropertyOp15
 70
     0
102
RTVSPropertyOp16
 70
     0
102
RTVSPropertyOp17
 70
     0
102
RTVSPropertyOp18
 70
     0
102
RTVSPropertyOp19
 70
     0
102
RTVSPropertyOp20
 70
     0
102
RTVSPropertyOp21
 70
     0
102
RTVSPropertyOp22
 70
     0
102
RTVSPropertyOp23
 70
     0
102
RTVSPropertyOp24
 70
     0
102
RTVSPropertyOp25
 70
     0
102
RTVSPropertyOp26
 70
     0
102
RTVSPropertyOp27
 70
     0
102
RTVSPropertyOp28
 70
     1
102
RTVSPropertyOp29
 70
     1
102
RTVSPropertyOp30
 70
     1
102
RTVSPropertyOp31
 70
     1
102
RTVSPropertyOp32
 70
     1
102
RTVSPropertyOp33
 70
     1
102
RTVSPropertyOp34
 70
     1
102
RTVSPropertyOp35
 70
     1
102
RTVSPropertyOp36
 70
     1
102
RTVSPropertyOp37
 70
     0
102
RTVSPropertyOp38
 70
     0
102
RTVSPropertyOp39
 70
     0
102
RTVSPropertyOp40
 70
     0
102
RTVSPropertyOp41
 70
     0
102
RTVSPropertyOp42
 70
     0
102
RTVSPropertyOp43
 70
     0
102
RTVSPropertyOp44
 70
     0
102
RTVSPropertyOp45
 70
     1
102
RTVSPropertyOp46
 70
     0
102
RTVSPropertyOp47
 70
     0
102
RTVSPropertyOp48
 70
     0
102
RTVSPropertyOp49
 70
     1
102
RTVSPropertyOp50
 70
     0
102
RTVSPropertyOp51
 70
     0
102
RTVSPropertyOp52
 70
     0
102
RTVSPropertyOp53
 70
     0
102
RTVSPropertyOp54
 70
     0
102
RTVSPropertyOp55
 70
     1
102
RTVSPropertyOp56
 70
     0
102
RTVSPropertyOp57
 70
     0
102
RTVSPropertyOp58
 70
     0
102
RTVSPropertyOp59
 70
     0
102
RTVSPropertyOp60
 70
     0
102
RTVSPropertyOp61
 70
     0
102
RTVSPropertyOp62
 70
     0
  0
XRECORD
  5
31C4
102
{ACAD_REACTORS
330
31C3
102
}
330
31C3
100
AcDbXrecord
280
     1
102
RTVSPost2010Prop28
280
     0
102
RTVSPost2010PropOp28
 70
     1
102
RTVSPost2010Prop29
280
     1
102
RTVSPost2010PropOp29
 70
     1
102
RTVSPost2010Prop30
280
     1
102
RTVSPost2010PropOp30
 70
     1
102
RTVSPost2010Prop31
280
     0
102
RTVSPost2010PropOp31
 70
     1
102
RTVSPost2010Prop32
280
     0
102
RTVSPost2010PropOp32
 70
     1
102
RTVSPost2010Prop33
280
     0
102
RTVSPost2010PropOp33
 70
     1
102
RTVSPost2010Prop34
280
     0
102
RTVSPost2010PropOp34
 70
     1
102
RTVSPost2010Prop35
280
     0
102
RTVSPost2010PropOp35
 70
     1
102
RTVSPost2010Prop36
280
     0
102
RTVSPost2010PropOp36
 70
     1
102
RTVSPost2010Prop37
 90
       50
102
RTVSPost2010PropOp37
 70
     1
102
RTVSPost2010Prop38
140
0.0
102
RTVSPost2010PropOp38
 70
     1
102
RTVSPost2010Prop39
140
1.0
102
RTVSPost2010PropOp39
 70
     1
102
RTVSPost2010Prop40
 90
        0
102
RTVSPost2010PropOp40
 70
     1
102
RTVSPost2010Prop41ColorIndex
 90
       18
102
RTVSPost2010Prop41ColorRGB
 90
        0
102
RTVSPost2010PropOp41
 70
     1
102
RTVSPost2010Prop42
 90
       50
102
RTVSPost2010PropOp42
 70
     1
102
RTVSPost2010Prop43
 90
        3
102
RTVSPost2010PropOp43
 70
     1
102
RTVSPost2010Prop44ColorIndex
 90
        5
102
RTVSPost2010Prop44ColorRGB
 90
      255
102
RTVSPost2010PropOp44
 70
     1
102
RTVSPost2010Prop45
280
     0
102
RTVSPost2010PropOp45
 70
     1
102
RTVSPost2010Prop46
 90
       50
102
RTVSPost2010PropOp46
 70
     1
102
RTVSPost2010Prop47
 90
       50
102
RTVSPost2010PropOp47
 70
     1
102
RTVSPost2010Prop48
 90
       50
102
RTVSPost2010PropOp48
 70
     1
102
RTVSPost2010Prop49
280
     0
102
RTVSPost2010PropOp49
 70
     1
102
RTVSPost2010Prop50
 90
       50
102
RTVSPost2010PropOp50
 70
     1
102
RTVSPost2010Prop51ColorIndex
 90
      256
102
RTVSPost2010Prop51ColorRGB
 90
-16777216
102
RTVSPost2010PropOp51
 70
     0
102
RTVSPost2010Prop52
140
1.0
102
RTVSPost2010PropOp52
 70
     0
102
RTVSPost2010Prop53
 90
        2
102
RTVSPost2010PropOp53
 70
     1
102
RTVSPost2010Prop54
  1
strokes_ogs.tif
102
RTVSPost2010PropOp54
 70
     1
102
RTVSPost2010Prop55
280
     0
102
RTVSPost2010PropOp55
 70
     1
102
RTVSPost2010Prop56
140
1.0
102
RTVSPost2010PropOp56
 70
     1
102
RTVSPost2010Prop57
140
1.0
102
RTVSPost2010PropOp57
 70
     1
102
RTVSPropertyOp0
 70
     1
102
RTVSPropertyOp1
 70
     1
102
RTVSPropertyOp2
 70
     1
102
RTVSPropertyOp3
 70
     1
102
RTVSPropertyOp4
 70
     1
102
RTVSPropertyOp5
 70
     1
102
RTVSPropertyOp6
 70
     1
102
RTVSPropertyOp7
 70
     1
102
RTVSPropertyOp8
 70
     1
102
RTVSPropertyOp9
 70
     1
102
RTVSPropertyOp10
 70
     1
102
RTVSPropertyOp11
 70
     1
102
RTVSPropertyOp12
 70
     1
102
RTVSPropertyOp13
 70
     1
102
RTVSPropertyOp14
 70
     1
102
RTVSPropertyOp15
 70
     1
102
RTVSPropertyOp16
 70
     1
102
RTVSPropertyOp17
 70
     1
102
RTVSPropertyOp18
 70
     1
102
RTVSPropertyOp19
 70
     1
102
RTVSPropertyOp20
 70
     1
102
RTVSPropertyOp21
 70
     1
102
RTVSPropertyOp22
 70
     1
102
RTVSPropertyOp23
 70
     1
102
RTVSPropertyOp24
 70
     1
102
RTVSPropertyOp25
 70
     1
102
RTVSPropertyOp26
 70
     1
102
RTVSPropertyOp27
 70
     1
102
RTVSPropertyOp28
 70
     1
102
RTVSPropertyOp29
 70
     1
102
RTVSPropertyOp30
 70
     1
102
RTVSPropertyOp31
 70
     1
102
RTVSPropertyOp32
 70
     1
102
RTVSPropertyOp33
 70
     1
102
RTVSPropertyOp34
 70
     1
102
RTVSPropertyOp35
 70
     1
102
RTVSPropertyOp36
 70
     1
102
RTVSPropertyOp37
 70
     1
102
RTVSPropertyOp38
 70
     1
102
RTVSPropertyOp39
 70
     1
102
RTVSPropertyOp40
 70
     1
102
RTVSPropertyOp41
 70
     1
102
RTVSPropertyOp42
 70
     1
102
RTVSPropertyOp43
 70
     1
102
RTVSPropertyOp44
 70
     1
102
RTVSPropertyOp45
 70
     1
102
RTVSPropertyOp46
 70
     1
102
RTVSPropertyOp47
 70
     1
102
RTVSPropertyOp48
 70
     1
102
RTVSPropertyOp49
 70
     1
102
RTVSPropertyOp50
 70
     1
102
RTVSPropertyOp51
 70
     0
102
RTVSPropertyOp52
 70
     0
102
RTVSPropertyOp53
 70
     1
102
RTVSPropertyOp54
 70
     1
102
RTVSPropertyOp55
 70
     1
102
RTVSPropertyOp56
 70
     1
102
RTVSPropertyOp57
 70
     1
102
RTVSPropertyOp58
 70
     1
102
RTVSPropertyOp59
 70
     1
102
RTVSPropertyOp60
 70
     1
102
RTVSPropertyOp61
 70
     1
102
RTVSPropertyOp62
 70
     1
  0
XRECORD
  5
31DA
102
{ACAD_REACTORS
330
31D9
102
}
330
31D9
100
AcDbXrecord
280
     1
102
RTVSPost2010Prop28
280
     0
102
RTVSPost2010PropOp28
 70
     1
102
RTVSPost2010Prop29
280
     1
102
RTVSPost2010PropOp29
 70
     1
102
RTVSPost2010Prop30
280
     1
102
RTVSPost2010PropOp30
 70
     1
102
RTVSPost2010Prop31
280
     0
102
RTVSPost2010PropOp31
 70
     1
102
RTVSPost2010Prop32
280
     0
102
RTVSPost2010PropOp32
 70
     1
102
RTVSPost2010Prop33
280
     0
102
RTVSPost2010PropOp33
 70
     1
102
RTVSPost2010Prop34
280
     0
102
RTVSPost2010PropOp34
 70
     1
102
RTVSPost2010Prop35
280
     0
102
RTVSPost2010PropOp35
 70
     1
102
RTVSPost2010Prop36
280
     0
102
RTVSPost2010PropOp36
 70
     1
102
RTVSPost2010Prop37
 90
       50
102
RTVSPost2010PropOp37
 70
     1
102
RTVSPost2010Prop38
140
0.0
102
RTVSPost2010PropOp38
 70
     1
102
RTVSPost2010Prop39
140
1.0
102
RTVSPost2010PropOp39
 70
     1
102
RTVSPost2010Prop40
 90
        0
102
RTVSPost2010PropOp40
 70
     1
102
RTVSPost2010Prop41ColorIndex
 90
       18
102
RTVSPost2010Prop41ColorRGB
 90
        0
102
RTVSPost2010PropOp41
 70
     1
102
RTVSPost2010Prop42
 90
       50
102
RTVSPost2010PropOp42
 70
     1
102
RTVSPost2010Prop43
 90
        3
102
RTVSPost2010PropOp43
 70
     1
102
RTVSPost2010Prop44ColorIndex
 90
        5
102
RTVSPost2010Prop44ColorRGB
 90
      255
102
RTVSPost2010PropOp44
 70
     1
102
RTVSPost2010Prop45
280
     0
102
RTVSPost2010PropOp45
 70
     1
102
RTVSPost2010Prop46
 90
       50
102
RTVSPost2010PropOp46
 70
     1
102
RTVSPost2010Prop47
 90
       50
102
RTVSPost2010PropOp47
 70
     1
102
RTVSPost2010Prop48
 90
       50
102
RTVSPost2010PropOp48
 70
     1
102
RTVSPost2010Prop49
280
     0
102
RTVSPost2010PropOp49
 70
     1
102
RTVSPost2010Prop50
 90
       50
102
RTVSPost2010PropOp50
 70
     1
102
RTVSPost2010Prop51ColorIndex
 90
      256
102
RTVSPost2010Prop51ColorRGB
 90
-16777216
102
RTVSPost2010PropOp51
 70
     0
102
RTVSPost2010Prop52
140
1.0
102
RTVSPost2010PropOp52
 70
     0
102
RTVSPost2010Prop53
 90
        2
102
RTVSPost2010PropOp53
 70
     1
102
RTVSPost2010Prop54
  1
strokes_ogs.tif
102
RTVSPost2010PropOp54
 70
     1
102
RTVSPost2010Prop55
280
     0
102
RTVSPost2010PropOp55
 70
     1
102
RTVSPost2010Prop56
140
1.0
102
RTVSPost2010PropOp56
 70
     1
102
RTVSPost2010Prop57
140
1.0
102
RTVSPost2010PropOp57
 70
     1
102
RTVSPropertyOp0
 70
     1
102
RTVSPropertyOp1
 70
     1
102
RTVSPropertyOp2
 70
     1
102
RTVSPropertyOp3
 70
     1
102
RTVSPropertyOp4
 70
     1
102
RTVSPropertyOp5
 70
     1
102
RTVSPropertyOp6
 70
     1
102
RTVSPropertyOp7
 70
     1
102
RTVSPropertyOp8
 70
     1
102
RTVSPropertyOp9
 70
     1
102
RTVSPropertyOp10
 70
     1
102
RTVSPropertyOp11
 70
     1
102
RTVSPropertyOp12
 70
     1
102
RTVSPropertyOp13
 70
     1
102
RTVSPropertyOp14
 70
     1
102
RTVSPropertyOp15
 70
     1
102
RTVSPropertyOp16
 70
     1
102
RTVSPropertyOp17
 70
     1
102
RTVSPropertyOp18
 70
     1
102
RTVSPropertyOp19
 70
     1
102
RTVSPropertyOp20
 70
     1
102
RTVSPropertyOp21
 70
     1
102
RTVSPropertyOp22
 70
     1
102
RTVSPropertyOp23
 70
     1
102
RTVSPropertyOp24
 70
     1
102
RTVSPropertyOp25
 70
     1
102
RTVSPropertyOp26
 70
     1
102
RTVSPropertyOp27
 70
     1
102
RTVSPropertyOp28
 70
     1
102
RTVSPropertyOp29
 70
     1
102
RTVSPropertyOp30
 70
     1
102
RTVSPropertyOp31
 70
     1
102
RTVSPropertyOp32
 70
     1
102
RTVSPropertyOp33
 70
     1
102
RTVSPropertyOp34
 70
     1
102
RTVSPropertyOp35
 70
     1
102
RTVSPropertyOp36
 70
     1
102
RTVSPropertyOp37
 70
     1
102
RTVSPropertyOp38
 70
     1
102
RTVSPropertyOp39
 70
     1
102
RTVSPropertyOp40
 70
     1
102
RTVSPropertyOp41
 70
     1
102
RTVSPropertyOp42
 70
     1
102
RTVSPropertyOp43
 70
     1
102
RTVSPropertyOp44
 70
     1
102
RTVSPropertyOp45
 70
     1
102
RTVSPropertyOp46
 70
     1
102
RTVSPropertyOp47
 70
     1
102
RTVSPropertyOp48
 70
     1
102
RTVSPropertyOp49
 70
     1
102
RTVSPropertyOp50
 70
     1
102
RTVSPropertyOp51
 70
     0
102
RTVSPropertyOp52
 70
     0
102
RTVSPropertyOp53
 70
     1
102
RTVSPropertyOp54
 70
     1
102
RTVSPropertyOp55
 70
     1
102
RTVSPropertyOp56
 70
     1
102
RTVSPropertyOp57
 70
     1
102
RTVSPropertyOp58
 70
     1
102
RTVSPropertyOp59
 70
     1
102
RTVSPropertyOp60
 70
     1
102
RTVSPropertyOp61
 70
     1
102
RTVSPropertyOp62
 70
     1
  0
XRECORD
  5
31D8
102
{ACAD_REACTORS
330
31D7
102
}
330
31D7
100
AcDbXrecord
280
     1
102
RTVSPost2010Prop28
280
     0
102
RTVSPost2010PropOp28
 70
     1
102
RTVSPost2010Prop29
280
     1
102
RTVSPost2010PropOp29
 70
     1
102
RTVSPost2010Prop30
280
     1
102
RTVSPost2010PropOp30
 70
     1
102
RTVSPost2010Prop31
280
     0
102
RTVSPost2010PropOp31
 70
     1
102
RTVSPost2010Prop32
280
     0
102
RTVSPost2010PropOp32
 70
     1
102
RTVSPost2010Prop33
280
     0
102
RTVSPost2010PropOp33
 70
     1
102
RTVSPost2010Prop34
280
     0
102
RTVSPost2010PropOp34
 70
     1
102
RTVSPost2010Prop35
280
     0
102
RTVSPost2010PropOp35
 70
     1
102
RTVSPost2010Prop36
280
     0
102
RTVSPost2010PropOp36
 70
     1
102
RTVSPost2010Prop37
 90
       50
102
RTVSPost2010PropOp37
 70
     1
102
RTVSPost2010Prop38
140
0.0
102
RTVSPost2010PropOp38
 70
     1
102
RTVSPost2010Prop39
140
1.0
102
RTVSPost2010PropOp39
 70
     1
102
RTVSPost2010Prop40
 90
        0
102
RTVSPost2010PropOp40
 70
     1
102
RTVSPost2010Prop41ColorIndex
 90
       18
102
RTVSPost2010Prop41ColorRGB
 90
        0
102
RTVSPost2010PropOp41
 70
     1
102
RTVSPost2010Prop42
 90
       50
102
RTVSPost2010PropOp42
 70
     1
102
RTVSPost2010Prop43
 90
        3
102
RTVSPost2010PropOp43
 70
     1
102
RTVSPost2010Prop44ColorIndex
 90
        5
102
RTVSPost2010Prop44ColorRGB
 90
      255
102
RTVSPost2010PropOp44
 70
     1
102
RTVSPost2010Prop45
280
     0
102
RTVSPost2010PropOp45
 70
     1
102
RTVSPost2010Prop46
 90
       50
102
RTVSPost2010PropOp46
 70
     1
102
RTVSPost2010Prop47
 90
       50
102
RTVSPost2010PropOp47
 70
     1
102
RTVSPost2010Prop48
 90
       50
102
RTVSPost2010PropOp48
 70
     1
102
RTVSPost2010Prop49
280
     0
102
RTVSPost2010PropOp49
 70
     1
102
RTVSPost2010Prop50
 90
       50
102
RTVSPost2010PropOp50
 70
     1
102
RTVSPost2010Prop51ColorIndex
 90
      256
102
RTVSPost2010Prop51ColorRGB
 90
-16777216
102
RTVSPost2010PropOp51
 70
     0
102
RTVSPost2010Prop52
140
1.0
102
RTVSPost2010PropOp52
 70
     0
102
RTVSPost2010Prop53
 90
        2
102
RTVSPost2010PropOp53
 70
     1
102
RTVSPost2010Prop54
  1
strokes_ogs.tif
102
RTVSPost2010PropOp54
 70
     1
102
RTVSPost2010Prop55
280
     0
102
RTVSPost2010PropOp55
 70
     1
102
RTVSPost2010Prop56
140
1.0
102
RTVSPost2010PropOp56
 70
     1
102
RTVSPost2010Prop57
140
1.0
102
RTVSPost2010PropOp57
 70
     1
102
RTVSPropertyOp0
 70
     1
102
RTVSPropertyOp1
 70
     1
102
RTVSPropertyOp2
 70
     1
102
RTVSPropertyOp3
 70
     1
102
RTVSPropertyOp4
 70
     1
102
RTVSPropertyOp5
 70
     1
102
RTVSPropertyOp6
 70
     1
102
RTVSPropertyOp7
 70
     1
102
RTVSPropertyOp8
 70
     1
102
RTVSPropertyOp9
 70
     1
102
RTVSPropertyOp10
 70
     1
102
RTVSPropertyOp11
 70
     1
102
RTVSPropertyOp12
 70
     1
102
RTVSPropertyOp13
 70
     1
102
RTVSPropertyOp14
 70
     1
102
RTVSPropertyOp15
 70
     1
102
RTVSPropertyOp16
 70
     1
102
RTVSPropertyOp17
 70
     1
102
RTVSPropertyOp18
 70
     1
102
RTVSPropertyOp19
 70
     1
102
RTVSPropertyOp20
 70
     1
102
RTVSPropertyOp21
 70
     1
102
RTVSPropertyOp22
 70
     1
102
RTVSPropertyOp23
 70
     1
102
RTVSPropertyOp24
 70
     1
102
RTVSPropertyOp25
 70
     1
102
RTVSPropertyOp26
 70
     1
102
RTVSPropertyOp27
 70
     1
102
RTVSPropertyOp28
 70
     1
102
RTVSPropertyOp29
 70
     1
102
RTVSPropertyOp30
 70
     1
102
RTVSPropertyOp31
 70
     1
102
RTVSPropertyOp32
 70
     1
102
RTVSPropertyOp33
 70
     1
102
RTVSPropertyOp34
 70
     1
102
RTVSPropertyOp35
 70
     1
102
RTVSPropertyOp36
 70
     1
102
RTVSPropertyOp37
 70
     1
102
RTVSPropertyOp38
 70
     1
102
RTVSPropertyOp39
 70
     1
102
RTVSPropertyOp40
 70
     1
102
RTVSPropertyOp41
 70
     1
102
RTVSPropertyOp42
 70
     1
102
RTVSPropertyOp43
 70
     1
102
RTVSPropertyOp44
 70
     1
102
RTVSPropertyOp45
 70
     1
102
RTVSPropertyOp46
 70
     1
102
RTVSPropertyOp47
 70
     1
102
RTVSPropertyOp48
 70
     1
102
RTVSPropertyOp49
 70
     1
102
RTVSPropertyOp50
 70
     1
102
RTVSPropertyOp51
 70
     0
102
RTVSPropertyOp52
 70
     0
102
RTVSPropertyOp53
 70
     1
102
RTVSPropertyOp54
 70
     1
102
RTVSPropertyOp55
 70
     1
102
RTVSPropertyOp56
 70
     1
102
RTVSPropertyOp57
 70
     1
102
RTVSPropertyOp58
 70
     1
102
RTVSPropertyOp59
 70
     1
102
RTVSPropertyOp60
 70
     1
102
RTVSPropertyOp61
 70
     1
102
RTVSPropertyOp62
 70
     1
  0
XRECORD
  5
31D2
102
{ACAD_REACTORS
330
31D1
102
}
330
31D1
100
AcDbXrecord
280
     1
102
RTVSPost2010Prop28
280
     0
102
RTVSPost2010PropOp28
 70
     1
102
RTVSPost2010Prop29
280
     1
102
RTVSPost2010PropOp29
 70
     1
102
RTVSPost2010Prop30
280
     1
102
RTVSPost2010PropOp30
 70
     1
102
RTVSPost2010Prop31
280
     0
102
RTVSPost2010PropOp31
 70
     1
102
RTVSPost2010Prop32
280
     0
102
RTVSPost2010PropOp32
 70
     1
102
RTVSPost2010Prop33
280
     0
102
RTVSPost2010PropOp33
 70
     1
102
RTVSPost2010Prop34
280
     0
102
RTVSPost2010PropOp34
 70
     1
102
RTVSPost2010Prop35
280
     0
102
RTVSPost2010PropOp35
 70
     1
102
RTVSPost2010Prop36
280
     0
102
RTVSPost2010PropOp36
 70
     1
102
RTVSPost2010Prop37
 90
       50
102
RTVSPost2010PropOp37
 70
     1
102
RTVSPost2010Prop38
140
0.0
102
RTVSPost2010PropOp38
 70
     1
102
RTVSPost2010Prop39
140
1.0
102
RTVSPost2010PropOp39
 70
     1
102
RTVSPost2010Prop40
 90
        0
102
RTVSPost2010PropOp40
 70
     1
102
RTVSPost2010Prop41ColorIndex
 90
       18
102
RTVSPost2010Prop41ColorRGB
 90
        0
102
RTVSPost2010PropOp41
 70
     1
102
RTVSPost2010Prop42
 90
       50
102
RTVSPost2010PropOp42
 70
     1
102
RTVSPost2010Prop43
 90
        3
102
RTVSPost2010PropOp43
 70
     1
102
RTVSPost2010Prop44ColorIndex
 90
        5
102
RTVSPost2010Prop44ColorRGB
 90
      255
102
RTVSPost2010PropOp44
 70
     1
102
RTVSPost2010Prop45
280
     0
102
RTVSPost2010PropOp45
 70
     1
102
RTVSPost2010Prop46
 90
       50
102
RTVSPost2010PropOp46
 70
     1
102
RTVSPost2010Prop47
 90
       50
102
RTVSPost2010PropOp47
 70
     1
102
RTVSPost2010Prop48
 90
       50
102
RTVSPost2010PropOp48
 70
     1
102
RTVSPost2010Prop49
280
     0
102
RTVSPost2010PropOp49
 70
     1
102
RTVSPost2010Prop50
 90
       50
102
RTVSPost2010PropOp50
 70
     1
102
RTVSPost2010Prop51ColorIndex
 90
      256
102
RTVSPost2010Prop51ColorRGB
 90
-16777216
102
RTVSPost2010PropOp51
 70
     0
102
RTVSPost2010Prop52
140
1.0
102
RTVSPost2010PropOp52
 70
     0
102
RTVSPost2010Prop53
 90
        2
102
RTVSPost2010PropOp53
 70
     1
102
RTVSPost2010Prop54
  1
strokes_ogs.tif
102
RTVSPost2010PropOp54
 70
     1
102
RTVSPost2010Prop55
280
     0
102
RTVSPost2010PropOp55
 70
     1
102
RTVSPost2010Prop56
140
1.0
102
RTVSPost2010PropOp56
 70
     1
102
RTVSPost2010Prop57
140
1.0
102
RTVSPost2010PropOp57
 70
     1
102
RTVSPropertyOp0
 70
     1
102
RTVSPropertyOp1
 70
     1
102
RTVSPropertyOp2
 70
     1
102
RTVSPropertyOp3
 70
     1
102
RTVSPropertyOp4
 70
     1
102
RTVSPropertyOp5
 70
     1
102
RTVSPropertyOp6
 70
     1
102
RTVSPropertyOp7
 70
     1
102
RTVSPropertyOp8
 70
     1
102
RTVSPropertyOp9
 70
     1
102
RTVSPropertyOp10
 70
     1
102
RTVSPropertyOp11
 70
     1
102
RTVSPropertyOp12
 70
     1
102
RTVSPropertyOp13
 70
     1
102
RTVSPropertyOp14
 70
     1
102
RTVSPropertyOp15
 70
     1
102
RTVSPropertyOp16
 70
     1
102
RTVSPropertyOp17
 70
     1
102
RTVSPropertyOp18
 70
     1
102
RTVSPropertyOp19
 70
     1
102
RTVSPropertyOp20
 70
     1
102
RTVSPropertyOp21
 70
     1
102
RTVSPropertyOp22
 70
     1
102
RTVSPropertyOp23
 70
     1
102
RTVSPropertyOp24
 70
     1
102
RTVSPropertyOp25
 70
     1
102
RTVSPropertyOp26
 70
     1
102
RTVSPropertyOp27
 70
     1
102
RTVSPropertyOp28
 70
     1
102
RTVSPropertyOp29
 70
     1
102
RTVSPropertyOp30
 70
     1
102
RTVSPropertyOp31
 70
     1
102
RTVSPropertyOp32
 70
     1
102
RTVSPropertyOp33
 70
     1
102
RTVSPropertyOp34
 70
     1
102
RTVSPropertyOp35
 70
     1
102
RTVSPropertyOp36
 70
     1
102
RTVSPropertyOp37
 70
     1
102
RTVSPropertyOp38
 70
     1
102
RTVSPropertyOp39
 70
     1
102
RTVSPropertyOp40
 70
     1
102
RTVSPropertyOp41
 70
     1
102
RTVSPropertyOp42
 70
     1
102
RTVSPropertyOp43
 70
     1
102
RTVSPropertyOp44
 70
     1
102
RTVSPropertyOp45
 70
     1
102
RTVSPropertyOp46
 70
     1
102
RTVSPropertyOp47
 70
     1
102
RTVSPropertyOp48
 70
     1
102
RTVSPropertyOp49
 70
     1
102
RTVSPropertyOp50
 70
     1
102
RTVSPropertyOp51
 70
     0
102
RTVSPropertyOp52
 70
     0
102
RTVSPropertyOp53
 70
     1
102
RTVSPropertyOp54
 70
     1
102
RTVSPropertyOp55
 70
     1
102
RTVSPropertyOp56
 70
     1
102
RTVSPropertyOp57
 70
     1
102
RTVSPropertyOp58
 70
     1
102
RTVSPropertyOp59
 70
     1
102
RTVSPropertyOp60
 70
     1
102
RTVSPropertyOp61
 70
     1
102
RTVSPropertyOp62
 70
     1
  0
XRECORD
  5
31D4
102
{ACAD_REACTORS
330
31D3
102
}
330
31D3
100
AcDbXrecord
280
     1
102
RTVSPost2010Prop28
280
     0
102
RTVSPost2010PropOp28
 70
     1
102
RTVSPost2010Prop29
280
     1
102
RTVSPost2010PropOp29
 70
     1
102
RTVSPost2010Prop30
280
     1
102
RTVSPost2010PropOp30
 70
     1
102
RTVSPost2010Prop31
280
     0
102
RTVSPost2010PropOp31
 70
     1
102
RTVSPost2010Prop32
280
     0
102
RTVSPost2010PropOp32
 70
     1
102
RTVSPost2010Prop33
280
     0
102
RTVSPost2010PropOp33
 70
     1
102
RTVSPost2010Prop34
280
     0
102
RTVSPost2010PropOp34
 70
     1
102
RTVSPost2010Prop35
280
     0
102
RTVSPost2010PropOp35
 70
     1
102
RTVSPost2010Prop36
280
     0
102
RTVSPost2010PropOp36
 70
     1
102
RTVSPost2010Prop37
 90
       50
102
RTVSPost2010PropOp37
 70
     1
102
RTVSPost2010Prop38
140
0.0
102
RTVSPost2010PropOp38
 70
     1
102
RTVSPost2010Prop39
140
1.0
102
RTVSPost2010PropOp39
 70
     1
102
RTVSPost2010Prop40
 90
        0
102
RTVSPost2010PropOp40
 70
     1
102
RTVSPost2010Prop41ColorIndex
 90
       18
102
RTVSPost2010Prop41ColorRGB
 90
        0
102
RTVSPost2010PropOp41
 70
     1
102
RTVSPost2010Prop42
 90
       50
102
RTVSPost2010PropOp42
 70
     1
102
RTVSPost2010Prop43
 90
        3
102
RTVSPost2010PropOp43
 70
     1
102
RTVSPost2010Prop44ColorIndex
 90
        5
102
RTVSPost2010Prop44ColorRGB
 90
      255
102
RTVSPost2010PropOp44
 70
     1
102
RTVSPost2010Prop45
280
     0
102
RTVSPost2010PropOp45
 70
     1
102
RTVSPost2010Prop46
 90
       50
102
RTVSPost2010PropOp46
 70
     1
102
RTVSPost2010Prop47
 90
       50
102
RTVSPost2010PropOp47
 70
     1
102
RTVSPost2010Prop48
 90
       50
102
RTVSPost2010PropOp48
 70
     1
102
RTVSPost2010Prop49
280
     0
102
RTVSPost2010PropOp49
 70
     1
102
RTVSPost2010Prop50
 90
       50
102
RTVSPost2010PropOp50
 70
     1
102
RTVSPost2010Prop51ColorIndex
 90
      256
102
RTVSPost2010Prop51ColorRGB
 90
-16777216
102
RTVSPost2010PropOp51
 70
     0
102
RTVSPost2010Prop52
140
1.0
102
RTVSPost2010PropOp52
 70
     0
102
RTVSPost2010Prop53
 90
        2
102
RTVSPost2010PropOp53
 70
     1
102
RTVSPost2010Prop54
  1
strokes_ogs.tif
102
RTVSPost2010PropOp54
 70
     1
102
RTVSPost2010Prop55
280
     0
102
RTVSPost2010PropOp55
 70
     1
102
RTVSPost2010Prop56
140
1.0
102
RTVSPost2010PropOp56
 70
     1
102
RTVSPost2010Prop57
140
1.0
102
RTVSPost2010PropOp57
 70
     1
102
RTVSPropertyOp0
 70
     1
102
RTVSPropertyOp1
 70
     1
102
RTVSPropertyOp2
 70
     1
102
RTVSPropertyOp3
 70
     1
102
RTVSPropertyOp4
 70
     1
102
RTVSPropertyOp5
 70
     1
102
RTVSPropertyOp6
 70
     1
102
RTVSPropertyOp7
 70
     1
102
RTVSPropertyOp8
 70
     1
102
RTVSPropertyOp9
 70
     1
102
RTVSPropertyOp10
 70
     1
102
RTVSPropertyOp11
 70
     1
102
RTVSPropertyOp12
 70
     1
102
RTVSPropertyOp13
 70
     1
102
RTVSPropertyOp14
 70
     1
102
RTVSPropertyOp15
 70
     1
102
RTVSPropertyOp16
 70
     1
102
RTVSPropertyOp17
 70
     1
102
RTVSPropertyOp18
 70
     1
102
RTVSPropertyOp19
 70
     1
102
RTVSPropertyOp20
 70
     1
102
RTVSPropertyOp21
 70
     1
102
RTVSPropertyOp22
 70
     1
102
RTVSPropertyOp23
 70
     1
102
RTVSPropertyOp24
 70
     1
102
RTVSPropertyOp25
 70
     1
102
RTVSPropertyOp26
 70
     1
102
RTVSPropertyOp27
 70
     1
102
RTVSPropertyOp28
 70
     1
102
RTVSPropertyOp29
 70
     1
102
RTVSPropertyOp30
 70
     1
102
RTVSPropertyOp31
 70
     1
102
RTVSPropertyOp32
 70
     1
102
RTVSPropertyOp33
 70
     1
102
RTVSPropertyOp34
 70
     1
102
RTVSPropertyOp35
 70
     1
102
RTVSPropertyOp36
 70
     1
102
RTVSPropertyOp37
 70
     1
102
RTVSPropertyOp38
 70
     1
102
RTVSPropertyOp39
 70
     1
102
RTVSPropertyOp40
 70
     1
102
RTVSPropertyOp41
 70
     1
102
RTVSPropertyOp42
 70
     1
102
RTVSPropertyOp43
 70
     1
102
RTVSPropertyOp44
 70
     1
102
RTVSPropertyOp45
 70
     1
102
RTVSPropertyOp46
 70
     1
102
RTVSPropertyOp47
 70
     1
102
RTVSPropertyOp48
 70
     1
102
RTVSPropertyOp49
 70
     1
102
RTVSPropertyOp50
 70
     1
102
RTVSPropertyOp51
 70
     0
102
RTVSPropertyOp52
 70
     0
102
RTVSPropertyOp53
 70
     1
102
RTVSPropertyOp54
 70
     1
102
RTVSPropertyOp55
 70
     1
102
RTVSPropertyOp56
 70
     1
102
RTVSPropertyOp57
 70
     1
102
RTVSPropertyOp58
 70
     1
102
RTVSPropertyOp59
 70
     1
102
RTVSPropertyOp60
 70
     1
102
RTVSPropertyOp61
 70
     1
102
RTVSPropertyOp62
 70
     1
  0
XRECORD
  5
31CA
102
{ACAD_REACTORS
330
31C9
102
}
330
31C9
100
AcDbXrecord
280
     1
102
RTVSPost2010Prop28
280
     0
102
RTVSPost2010PropOp28
 70
     1
102
RTVSPost2010Prop29
280
     1
102
RTVSPost2010PropOp29
 70
     1
102
RTVSPost2010Prop30
280
     1
102
RTVSPost2010PropOp30
 70
     1
102
RTVSPost2010Prop31
280
     0
102
RTVSPost2010PropOp31
 70
     1
102
RTVSPost2010Prop32
280
     0
102
RTVSPost2010PropOp32
 70
     1
102
RTVSPost2010Prop33
280
     0
102
RTVSPost2010PropOp33
 70
     1
102
RTVSPost2010Prop34
280
     0
102
RTVSPost2010PropOp34
 70
     1
102
RTVSPost2010Prop35
280
     0
102
RTVSPost2010PropOp35
 70
     1
102
RTVSPost2010Prop36
280
     0
102
RTVSPost2010PropOp36
 70
     1
102
RTVSPost2010Prop37
 90
       50
102
RTVSPost2010PropOp37
 70
     1
102
RTVSPost2010Prop38
140
0.0
102
RTVSPost2010PropOp38
 70
     1
102
RTVSPost2010Prop39
140
1.0
102
RTVSPost2010PropOp39
 70
     1
102
RTVSPost2010Prop40
 90
        0
102
RTVSPost2010PropOp40
 70
     1
102
RTVSPost2010Prop41ColorIndex
 90
       18
102
RTVSPost2010Prop41ColorRGB
 90
        0
102
RTVSPost2010PropOp41
 70
     1
102
RTVSPost2010Prop42
 90
       50
102
RTVSPost2010PropOp42
 70
     1
102
RTVSPost2010Prop43
 90
        3
102
RTVSPost2010PropOp43
 70
     1
102
RTVSPost2010Prop44ColorIndex
 90
        5
102
RTVSPost2010Prop44ColorRGB
 90
      255
102
RTVSPost2010PropOp44
 70
     1
102
RTVSPost2010Prop45
280
     0
102
RTVSPost2010PropOp45
 70
     1
102
RTVSPost2010Prop46
 90
       50
102
RTVSPost2010PropOp46
 70
     1
102
RTVSPost2010Prop47
 90
       50
102
RTVSPost2010PropOp47
 70
     1
102
RTVSPost2010Prop48
 90
       50
102
RTVSPost2010PropOp48
 70
     1
102
RTVSPost2010Prop49
280
     0
102
RTVSPost2010PropOp49
 70
     1
102
RTVSPost2010Prop50
 90
       50
102
RTVSPost2010PropOp50
 70
     1
102
RTVSPost2010Prop51ColorIndex
 90
      256
102
RTVSPost2010Prop51ColorRGB
 90
-16777216
102
RTVSPost2010PropOp51
 70
     0
102
RTVSPost2010Prop52
140
1.0
102
RTVSPost2010PropOp52
 70
     0
102
RTVSPost2010Prop53
 90
        2
102
RTVSPost2010PropOp53
 70
     1
102
RTVSPost2010Prop54
  1
strokes_ogs.tif
102
RTVSPost2010PropOp54
 70
     1
102
RTVSPost2010Prop55
280
     0
102
RTVSPost2010PropOp55
 70
     1
102
RTVSPost2010Prop56
140
1.0
102
RTVSPost2010PropOp56
 70
     1
102
RTVSPost2010Prop57
140
1.0
102
RTVSPost2010PropOp57
 70
     1
102
RTVSPropertyOp0
 70
     1
102
RTVSPropertyOp1
 70
     1
102
RTVSPropertyOp2
 70
     1
102
RTVSPropertyOp3
 70
     1
102
RTVSPropertyOp4
 70
     1
102
RTVSPropertyOp5
 70
     1
102
RTVSPropertyOp6
 70
     1
102
RTVSPropertyOp7
 70
     1
102
RTVSPropertyOp8
 70
     1
102
RTVSPropertyOp9
 70
     1
102
RTVSPropertyOp10
 70
     1
102
RTVSPropertyOp11
 70
     1
102
RTVSPropertyOp12
 70
     1
102
RTVSPropertyOp13
 70
     1
102
RTVSPropertyOp14
 70
     1
102
RTVSPropertyOp15
 70
     1
102
RTVSPropertyOp16
 70
     1
102
RTVSPropertyOp17
 70
     1
102
RTVSPropertyOp18
 70
     1
102
RTVSPropertyOp19
 70
     1
102
RTVSPropertyOp20
 70
     1
102
RTVSPropertyOp21
 70
     1
102
RTVSPropertyOp22
 70
     1
102
RTVSPropertyOp23
 70
     1
102
RTVSPropertyOp24
 70
     1
102
RTVSPropertyOp25
 70
     1
102
RTVSPropertyOp26
 70
     1
102
RTVSPropertyOp27
 70
     1
102
RTVSPropertyOp28
 70
     1
102
RTVSPropertyOp29
 70
     1
102
RTVSPropertyOp30
 70
     1
102
RTVSPropertyOp31
 70
     1
102
RTVSPropertyOp32
 70
     1
102
RTVSPropertyOp33
 70
     1
102
RTVSPropertyOp34
 70
     1
102
RTVSPropertyOp35
 70
     1
102
RTVSPropertyOp36
 70
     1
102
RTVSPropertyOp37
 70
     1
102
RTVSPropertyOp38
 70
     1
102
RTVSPropertyOp39
 70
     1
102
RTVSPropertyOp40
 70
     1
102
RTVSPropertyOp41
 70
     1
102
RTVSPropertyOp42
 70
     1
102
RTVSPropertyOp43
 70
     1
102
RTVSPropertyOp44
 70
     1
102
RTVSPropertyOp45
 70
     1
102
RTVSPropertyOp46
 70
     1
102
RTVSPropertyOp47
 70
     1
102
RTVSPropertyOp48
 70
     1
102
RTVSPropertyOp49
 70
     1
102
RTVSPropertyOp50
 70
     1
102
RTVSPropertyOp51
 70
     0
102
RTVSPropertyOp52
 70
     0
102
RTVSPropertyOp53
 70
     1
102
RTVSPropertyOp54
 70
     1
102
RTVSPropertyOp55
 70
     1
102
RTVSPropertyOp56
 70
     1
102
RTVSPropertyOp57
 70
     1
102
RTVSPropertyOp58
 70
     1
102
RTVSPropertyOp59
 70
     1
102
RTVSPropertyOp60
 70
     1
102
RTVSPropertyOp61
 70
     1
102
RTVSPropertyOp62
 70
     1
  0
XRECORD
  5
31BE
102
{ACAD_REACTORS
330
31BD
102
}
330
31BD
100
AcDbXrecord
280
     1
102
RTVSPost2010Prop28
280
     0
102
RTVSPost2010PropOp28
 70
     1
102
RTVSPost2010Prop29
280
     1
102
RTVSPost2010PropOp29
 70
     1
102
RTVSPost2010Prop30
280
     1
102
RTVSPost2010PropOp30
 70
     1
102
RTVSPost2010Prop31
280
     0
102
RTVSPost2010PropOp31
 70
     1
102
RTVSPost2010Prop32
280
     0
102
RTVSPost2010PropOp32
 70
     1
102
RTVSPost2010Prop33
280
     0
102
RTVSPost2010PropOp33
 70
     1
102
RTVSPost2010Prop34
280
     0
102
RTVSPost2010PropOp34
 70
     1
102
RTVSPost2010Prop35
280
     0
102
RTVSPost2010PropOp35
 70
     1
102
RTVSPost2010Prop36
280
     0
102
RTVSPost2010PropOp36
 70
     1
102
RTVSPost2010Prop37
 90
       50
102
RTVSPost2010PropOp37
 70
     1
102
RTVSPost2010Prop38
140
0.0
102
RTVSPost2010PropOp38
 70
     1
102
RTVSPost2010Prop39
140
1.0
102
RTVSPost2010PropOp39
 70
     1
102
RTVSPost2010Prop40
 90
        0
102
RTVSPost2010PropOp40
 70
     1
102
RTVSPost2010Prop41ColorIndex
 90
       18
102
RTVSPost2010Prop41ColorRGB
 90
        0
102
RTVSPost2010PropOp41
 70
     1
102
RTVSPost2010Prop42
 90
       50
102
RTVSPost2010PropOp42
 70
     1
102
RTVSPost2010Prop43
 90
        3
102
RTVSPost2010PropOp43
 70
     1
102
RTVSPost2010Prop44ColorIndex
 90
        5
102
RTVSPost2010Prop44ColorRGB
 90
      255
102
RTVSPost2010PropOp44
 70
     1
102
RTVSPost2010Prop45
280
     0
102
RTVSPost2010PropOp45
 70
     1
102
RTVSPost2010Prop46
 90
       50
102
RTVSPost2010PropOp46
 70
     1
102
RTVSPost2010Prop47
 90
       50
102
RTVSPost2010PropOp47
 70
     1
102
RTVSPost2010Prop48
 90
       50
102
RTVSPost2010PropOp48
 70
     1
102
RTVSPost2010Prop49
280
     0
102
RTVSPost2010PropOp49
 70
     1
102
RTVSPost2010Prop50
 90
       50
102
RTVSPost2010PropOp50
 70
     1
102
RTVSPost2010Prop51ColorIndex
 90
      256
102
RTVSPost2010Prop51ColorRGB
 90
-16777216
102
RTVSPost2010PropOp51
 70
     0
102
RTVSPost2010Prop52
140
1.0
102
RTVSPost2010PropOp52
 70
     0
102
RTVSPost2010Prop53
 90
        2
102
RTVSPost2010PropOp53
 70
     1
102
RTVSPost2010Prop54
  1
strokes_ogs.tif
102
RTVSPost2010PropOp54
 70
     1
102
RTVSPost2010Prop55
280
     0
102
RTVSPost2010PropOp55
 70
     1
102
RTVSPost2010Prop56
140
1.0
102
RTVSPost2010PropOp56
 70
     1
102
RTVSPost2010Prop57
140
1.0
102
RTVSPost2010PropOp57
 70
     1
102
RTVSPropertyOp0
 70
     1
102
RTVSPropertyOp1
 70
     1
102
RTVSPropertyOp2
 70
     1
102
RTVSPropertyOp3
 70
     1
102
RTVSPropertyOp4
 70
     1
102
RTVSPropertyOp5
 70
     1
102
RTVSPropertyOp6
 70
     1
102
RTVSPropertyOp7
 70
     1
102
RTVSPropertyOp8
 70
     1
102
RTVSPropertyOp9
 70
     1
102
RTVSPropertyOp10
 70
     1
102
RTVSPropertyOp11
 70
     1
102
RTVSPropertyOp12
 70
     1
102
RTVSPropertyOp13
 70
     1
102
RTVSPropertyOp14
 70
     1
102
RTVSPropertyOp15
 70
     1
102
RTVSPropertyOp16
 70
     1
102
RTVSPropertyOp17
 70
     1
102
RTVSPropertyOp18
 70
     1
102
RTVSPropertyOp19
 70
     1
102
RTVSPropertyOp20
 70
     1
102
RTVSPropertyOp21
 70
     1
102
RTVSPropertyOp22
 70
     1
102
RTVSPropertyOp23
 70
     1
102
RTVSPropertyOp24
 70
     1
102
RTVSPropertyOp25
 70
     1
102
RTVSPropertyOp26
 70
     1
102
RTVSPropertyOp27
 70
     1
102
RTVSPropertyOp28
 70
     1
102
RTVSPropertyOp29
 70
     1
102
RTVSPropertyOp30
 70
     1
102
RTVSPropertyOp31
 70
     1
102
RTVSPropertyOp32
 70
     1
102
RTVSPropertyOp33
 70
     1
102
RTVSPropertyOp34
 70
     1
102
RTVSPropertyOp35
 70
     1
102
RTVSPropertyOp36
 70
     1
102
RTVSPropertyOp37
 70
     1
102
RTVSPropertyOp38
 70
     1
102
RTVSPropertyOp39
 70
     1
102
RTVSPropertyOp40
 70
     1
102
RTVSPropertyOp41
 70
     1
102
RTVSPropertyOp42
 70
     1
102
RTVSPropertyOp43
 70
     1
102
RTVSPropertyOp44
 70
     1
102
RTVSPropertyOp45
 70
     1
102
RTVSPropertyOp46
 70
     1
102
RTVSPropertyOp47
 70
     1
102
RTVSPropertyOp48
 70
     1
102
RTVSPropertyOp49
 70
     1
102
RTVSPropertyOp50
 70
     1
102
RTVSPropertyOp51
 70
     0
102
RTVSPropertyOp52
 70
     0
102
RTVSPropertyOp53
 70
     1
102
RTVSPropertyOp54
 70
     1
102
RTVSPropertyOp55
 70
     1
102
RTVSPropertyOp56
 70
     1
102
RTVSPropertyOp57
 70
     1
102
RTVSPropertyOp58
 70
     1
102
RTVSPropertyOp59
 70
     1
102
RTVSPropertyOp60
 70
     1
102
RTVSPropertyOp61
 70
     1
102
RTVSPropertyOp62
 70
     1
  0
XRECORD
  5
31D6
102
{ACAD_REACTORS
330
31D5
102
}
330
31D5
100
AcDbXrecord
280
     1
102
RTVSPost2010Prop28
280
     0
102
RTVSPost2010PropOp28
 70
     1
102
RTVSPost2010Prop29
280
     1
102
RTVSPost2010PropOp29
 70
     1
102
RTVSPost2010Prop30
280
     1
102
RTVSPost2010PropOp30
 70
     1
102
RTVSPost2010Prop31
280
     0
102
RTVSPost2010PropOp31
 70
     1
102
RTVSPost2010Prop32
280
     0
102
RTVSPost2010PropOp32
 70
     1
102
RTVSPost2010Prop33
280
     0
102
RTVSPost2010PropOp33
 70
     1
102
RTVSPost2010Prop34
280
     0
102
RTVSPost2010PropOp34
 70
     1
102
RTVSPost2010Prop35
280
     0
102
RTVSPost2010PropOp35
 70
     1
102
RTVSPost2010Prop36
280
     0
102
RTVSPost2010PropOp36
 70
     1
102
RTVSPost2010Prop37
 90
       50
102
RTVSPost2010PropOp37
 70
     1
102
RTVSPost2010Prop38
140
0.0
102
RTVSPost2010PropOp38
 70
     1
102
RTVSPost2010Prop39
140
1.0
102
RTVSPost2010PropOp39
 70
     1
102
RTVSPost2010Prop40
 90
        0
102
RTVSPost2010PropOp40
 70
     1
102
RTVSPost2010Prop41ColorIndex
 90
       18
102
RTVSPost2010Prop41ColorRGB
 90
        0
102
RTVSPost2010PropOp41
 70
     1
102
RTVSPost2010Prop42
 90
       50
102
RTVSPost2010PropOp42
 70
     1
102
RTVSPost2010Prop43
 90
        3
102
RTVSPost2010PropOp43
 70
     1
102
RTVSPost2010Prop44ColorIndex
 90
        5
102
RTVSPost2010Prop44ColorRGB
 90
      255
102
RTVSPost2010PropOp44
 70
     1
102
RTVSPost2010Prop45
280
     0
102
RTVSPost2010PropOp45
 70
     1
102
RTVSPost2010Prop46
 90
       50
102
RTVSPost2010PropOp46
 70
     1
102
RTVSPost2010Prop47
 90
       50
102
RTVSPost2010PropOp47
 70
     1
102
RTVSPost2010Prop48
 90
       50
102
RTVSPost2010PropOp48
 70
     1
102
RTVSPost2010Prop49
280
     0
102
RTVSPost2010PropOp49
 70
     1
102
RTVSPost2010Prop50
 90
       50
102
RTVSPost2010PropOp50
 70
     1
102
RTVSPost2010Prop51ColorIndex
 90
      256
102
RTVSPost2010Prop51ColorRGB
 90
-16777216
102
RTVSPost2010PropOp51
 70
     0
102
RTVSPost2010Prop52
140
1.0
102
RTVSPost2010PropOp52
 70
     0
102
RTVSPost2010Prop53
 90
        2
102
RTVSPost2010PropOp53
 70
     1
102
RTVSPost2010Prop54
  1
strokes_ogs.tif
102
RTVSPost2010PropOp54
 70
     1
102
RTVSPost2010Prop55
280
     0
102
RTVSPost2010PropOp55
 70
     1
102
RTVSPost2010Prop56
140
1.0
102
RTVSPost2010PropOp56
 70
     1
102
RTVSPost2010Prop57
140
1.0
102
RTVSPost2010PropOp57
 70
     1
102
RTVSPropertyOp0
 70
     1
102
RTVSPropertyOp1
 70
     1
102
RTVSPropertyOp2
 70
     1
102
RTVSPropertyOp3
 70
     1
102
RTVSPropertyOp4
 70
     1
102
RTVSPropertyOp5
 70
     1
102
RTVSPropertyOp6
 70
     1
102
RTVSPropertyOp7
 70
     1
102
RTVSPropertyOp8
 70
     1
102
RTVSPropertyOp9
 70
     1
102
RTVSPropertyOp10
 70
     1
102
RTVSPropertyOp11
 70
     1
102
RTVSPropertyOp12
 70
     1
102
RTVSPropertyOp13
 70
     1
102
RTVSPropertyOp14
 70
     1
102
RTVSPropertyOp15
 70
     1
102
RTVSPropertyOp16
 70
     1
102
RTVSPropertyOp17
 70
     1
102
RTVSPropertyOp18
 70
     1
102
RTVSPropertyOp19
 70
     1
102
RTVSPropertyOp20
 70
     1
102
RTVSPropertyOp21
 70
     1
102
RTVSPropertyOp22
 70
     1
102
RTVSPropertyOp23
 70
     1
102
RTVSPropertyOp24
 70
     1
102
RTVSPropertyOp25
 70
     1
102
RTVSPropertyOp26
 70
     1
102
RTVSPropertyOp27
 70
     1
102
RTVSPropertyOp28
 70
     1
102
RTVSPropertyOp29
 70
     1
102
RTVSPropertyOp30
 70
     1
102
RTVSPropertyOp31
 70
     1
102
RTVSPropertyOp32
 70
     1
102
RTVSPropertyOp33
 70
     1
102
RTVSPropertyOp34
 70
     1
102
RTVSPropertyOp35
 70
     1
102
RTVSPropertyOp36
 70
     1
102
RTVSPropertyOp37
 70
     1
102
RTVSPropertyOp38
 70
     1
102
RTVSPropertyOp39
 70
     1
102
RTVSPropertyOp40
 70
     1
102
RTVSPropertyOp41
 70
     1
102
RTVSPropertyOp42
 70
     1
102
RTVSPropertyOp43
 70
     1
102
RTVSPropertyOp44
 70
     1
102
RTVSPropertyOp45
 70
     1
102
RTVSPropertyOp46
 70
     1
102
RTVSPropertyOp47
 70
     1
102
RTVSPropertyOp48
 70
     1
102
RTVSPropertyOp49
 70
     1
102
RTVSPropertyOp50
 70
     1
102
RTVSPropertyOp51
 70
     0
102
RTVSPropertyOp52
 70
     0
102
RTVSPropertyOp53
 70
     1
102
RTVSPropertyOp54
 70
     1
102
RTVSPropertyOp55
 70
     1
102
RTVSPropertyOp56
 70
     1
102
RTVSPropertyOp57
 70
     1
102
RTVSPropertyOp58
 70
     1
102
RTVSPropertyOp59
 70
     1
102
RTVSPropertyOp60
 70
     1
102
RTVSPropertyOp61
 70
     1
102
RTVSPropertyOp62
 70
     1
  0
ENDSEC
  0
EOF
