  0
SECTION
  2
HEADER
  9
$ACADVER
  1
AC1015
  9
$ACADMAINTVER
 70
    20
  9
$DWGCODEPAGE
  3
ANSI_932
  9
$INSBASE
 10
0.0
 20
0.0
 30
0.0
  9
$EXTMIN
 10
-102.8159533726236
 20
-71.01122961194642
 30
-0.0015258207003583
  9
$EXTMAX
 10
307.0175731071943
 20
96.01391663846312
 30
0.0000000349246037
  9
$LIMMIN
 10
0.0
 20
0.0
  9
$LIMMAX
 10
420.0
 20
297.0
  9
$ORTHOMODE
 70
     0
  9
$REGENMODE
 70
     1
  9
$FILLMODE
 70
     1
  9
$QTEXTMODE
 70
     0
  9
$MIRRTEXT
 70
     1
  9
$LTSCALE
 40
10.0
  9
$ATTMODE
 70
     1
  9
$TEXTSIZE
 40
3.0
  9
$TRACEWID
 40
1.0
  9
$TEXTSTYLE
  7
YOKO
  9
$CLAYER
  8
245
  9
$CELTYPE
  6
BYLAYER
  9
$CECOLOR
 62
   256
  9
$CELTSCALE
 40
1.0
  9
$DISPSILH
 70
     0
  9
$DIMSCALE
 40
1.0
  9
$DIMASZ
 40
2.0
  9
$DIMEXO
 40
0.5
  9
$DIMDLI
 40
2.5
  9
$DIMRND
 40
0.0
  9
$DIMDLE
 40
0.0
  9
$DIMEXE
 40
1.0
  9
$DIMTP
 40
0.0
  9
$DIMTM
 40
0.0
  9
$DIMTXT
 40
2.799999999999999
  9
$DIMCEN
 40
0.0
  9
$DIMTSZ
 40
0.0
  9
$DIMTOL
 70
     0
  9
$DIMLIM
 70
     0
  9
$DIMTIH
 70
     0
  9
$DIMTOH
 70
     0
  9
$DIMSE1
 70
     0
  9
$DIMSE2
 70
     0
  9
$DIMTAD
 70
     3
  9
$DIMZIN
 70
     8
  9
$DIMBLK
  1

  9
$DIMASO
 70
     1
  9
$DIMSHO
 70
     1
  9
$DIMPOST
  1

  9
$DIMAPOST
  1

  9
$DIMALT
 70
     0
  9
$DIMALTD
 70
     2
  9
$DIMALTF
 40
25.4
  9
$DIMLFAC
 40
1.0
  9
$DIMTOFL
 70
     1
  9
$DIMTVP
 40
0.0
  9
$DIMTIX
 70
     1
  9
$DIMSOXD
 70
     0
  9
$DIMSAH
 70
     1
  9
$DIMBLK1
  1
OPEN
  9
$DIMBLK2
  1
OPEN
  9
$DIMSTYLE
  2
BIGT
  9
$DIMCLRD
 70
   256
  9
$DIMCLRE
 70
   256
  9
$DIMCLRT
 70
    40
  9
$DIMTFAC
 40
1.0
  9
$DIMGAP
 40
1.0
  9
$DIMJUST
 70
     0
  9
$DIMSD1
 70
     0
  9
$DIMSD2
 70
     0
  9
$DIMTOLJ
 70
     1
  9
$DIMTZIN
 70
     8
  9
$DIMALTZ
 70
     0
  9
$DIMALTTZ
 70
     0
  9
$DIMUPT
 70
     0
  9
$DIMDEC
 70
     3
  9
$DIMTDEC
 70
     3
  9
$DIMALTU
 70
     2
  9
$DIMALTTD
 70
     2
  9
$DIMTXSTY
  7
STANDARD
  9
$DIMAUNIT
 70
     0
  9
$DIMADEC
 70
     3
  9
$DIMALTRND
 40
0.0
  9
$DIMAZIN
 70
     2
  9
$DIMDSEP
 70
    46
  9
$DIMATFIT
 70
     3
  9
$DIMFRAC
 70
     0
  9
$DIMLDRBLK
  1
OPEN
  9
$DIMLUNIT
 70
     2
  9
$DIMLWD
 70
    -1
  9
$DIMLWE
 70
    -1
  9
$DIMTMOVE
 70
     0
  9
$LUNITS
 70
     2
  9
$LUPREC
 70
     3
  9
$SKETCHINC
 40
1.0
  9
$FILLETRAD
 40
0.0
  9
$AUNITS
 70
     0
  9
$AUPREC
 70
     3
  9
$MENU
  1
.
  9
$ELEVATION
 40
0.0
  9
$PELEVATION
 40
0.0
  9
$THICKNESS
 40
0.0
  9
$LIMCHECK
 70
     0
  9
$CHAMFERA
 40
10.0
  9
$CHAMFERB
 40
10.0
  9
$CHAMFERC
 40
0.0
  9
$CHAMFERD
 40
0.0
  9
$SKPOLY
 70
     0
  9
$TDCREATE
 40
2455107.560323345
  9
$TDUCREATE
 40
2455107.185323345
  9
$TDUPDATE
 40
2457869.574891181
  9
$TDUUPDATE
 40
2457869.199891181
  9
$TDINDWG
 40
0.0373675231
  9
$TDUSRTIMER
 40
0.0373674769
  9
$USRTIMER
 70
     1
  9
$ANGBASE
 50
0.0
  9
$ANGDIR
 70
     0
  9
$PDMODE
 70
     0
  9
$PDSIZE
 40
-5.0
  9
$PLINEWID
 40
0.0
  9
$SPLFRAME
 70
     0
  9
$SPLINETYPE
 70
     6
  9
$SPLINESEGS
 70
     8
  9
$HANDSEED
  5
5F03
  9
$SURFTAB1
 70
     6
  9
$SURFTAB2
 70
     6
  9
$SURFTYPE
 70
     6
  9
$SURFU
 70
     6
  9
$SURFV
 70
     6
  9
$UCSBASE
  2

  9
$UCSNAME
  2

  9
$UCSORG
 10
0.0
 20
0.0
 30
0.0
  9
$UCSXDIR
 10
1.0
 20
0.0
 30
0.0
  9
$UCSYDIR
 10
0.0
 20
1.0
 30
0.0
  9
$UCSORTHOREF
  2

  9
$UCSORTHOVIEW
 70
     0
  9
$UCSORGTOP
 10
0.0
 20
0.0
 30
0.0
  9
$UCSORGBOTTOM
 10
0.0
 20
0.0
 30
0.0
  9
$UCSORGLEFT
 10
0.0
 20
0.0
 30
0.0
  9
$UCSORGRIGHT
 10
0.0
 20
0.0
 30
0.0
  9
$UCSORGFRONT
 10
0.0
 20
0.0
 30
0.0
  9
$UCSORGBACK
 10
0.0
 20
0.0
 30
0.0
  9
$PUCSBASE
  2

  9
$PUCSNAME
  2

  9
$PUCSORG
 10
0.0
 20
0.0
 30
0.0
  9
$PUCSXDIR
 10
1.0
 20
0.0
 30
0.0
  9
$PUCSYDIR
 10
0.0
 20
1.0
 30
0.0
  9
$PUCSORTHOREF
  2

  9
$PUCSORTHOVIEW
 70
     0
  9
$PUCSORGTOP
 10
0.0
 20
0.0
 30
0.0
  9
$PUCSORGBOTTOM
 10
0.0
 20
0.0
 30
0.0
  9
$PUCSORGLEFT
 10
0.0
 20
0.0
 30
0.0
  9
$PUCSORGRIGHT
 10
0.0
 20
0.0
 30
0.0
  9
$PUCSORGFRONT
 10
0.0
 20
0.0
 30
0.0
  9
$PUCSORGBACK
 10
0.0
 20
0.0
 30
0.0
  9
$USERI1
 70
     1
  9
$USERI2
 70
     0
  9
$USERI3
 70
     0
  9
$USERI4
 70
     0
  9
$USERI5
 70
     0
  9
$USERR1
 40
0.0
  9
$USERR2
 40
0.0
  9
$USERR3
 40
0.0
  9
$USERR4
 40
0.0
  9
$USERR5
 40
0.0
  9
$WORLDVIEW
 70
     1
  9
$SHADEDGE
 70
     3
  9
$SHADEDIF
 70
    70
  9
$TILEMODE
 70
     1
  9
$MAXACTVP
 70
    16
  9
$PINSBASE
 10
0.0
 20
0.0
 30
0.0
  9
$PLIMCHECK
 70
     0
  9
$PEXTMIN
 10
1.000000000000000E+20
 20
1.000000000000000E+20
 30
1.000000000000000E+20
  9
$PEXTMAX
 10
-1.000000000000000E+20
 20
-1.000000000000000E+20
 30
-1.000000000000000E+20
  9
$PLIMMIN
 10
0.0
 20
0.0
  9
$PLIMMAX
 10
420.0
 20
297.0
  9
$UNITMODE
 70
     0
  9
$VISRETAIN
 70
     0
  9
$PLINEGEN
 70
     0
  9
$PSLTSCALE
 70
     1
  9
$TREEDEPTH
 70
  3020
  9
$CMLSTYLE
  2
STANDARD
  9
$CMLJUST
 70
     0
  9
$CMLSCALE
 40
1.0
  9
$PROXYGRAPHICS
 70
     1
  9
$MEASUREMENT
 70
     1
  9
$CELWEIGHT
370
    -1
  9
$ENDCAPS
280
     0
  9
$JOINSTYLE
280
     0
  9
$LWDISPLAY
290
     0
  9
$INSUNITS
 70
     0
  9
$HYPERLINKBASE
  1

  9
$STYLESHEET
  1
BIG.CTB
  9
$XEDIT
290
     1
  9
$CEPSNTYPE
380
     0
  9
$PSTYLEMODE
290
     1
  9
$FINGERPRINTGUID
  2
{51294030-9CB4-11D3-8E18-00A0C925D94D}
  9
$VERSIONGUID
  2
{05BE9402-74C6-459D-968D-41CAEBE089BF}
  9
$EXTNAMES
290
     1
  9
$PSVPSCALE
 40
0.0
  9
$OLESTARTUP
290
     0
  0
ENDSEC
  0
SECTION
  2
CLASSES
  0
CLASS
  1
ACDBDICTIONARYWDFLT
  2
AcDbDictionaryWithDefault
  3
ObjectDBX Classes
 90
        0
280
     0
281
     0
  0
CLASS
  1
ACDBPLACEHOLDER
  2
AcDbPlaceHolder
  3
ObjectDBX Classes
 90
        0
280
     0
281
     0
  0
CLASS
  1
LAYOUT
  2
AcDbLayout
  3
ObjectDBX Classes
 90
        0
280
     0
281
     0
  0
CLASS
  1
PLOTSETTINGS
  2
AcDbPlotSettings
  3
ObjectDBX Classes
 90
        0
280
     0
281
     0
  0
CLASS
  1
MATERIAL
  2
AcDbMaterial
  3
ObjectDBX Classes
 90
     1153
280
     0
281
     0
  0
CLASS
  1
VISUALSTYLE
  2
AcDbVisualStyle
  3
ObjectDBX Classes
 90
     4095
280
     0
281
     0
  0
CLASS
  1
TABLESTYLE
  2
AcDbTableStyle
  3
ObjectDBX Classes
 90
     4095
280
     0
281
     0
  0
CLASS
  1
SCALE
  2
AcDbScale
  3
ObjectDBX Classes
 90
     1153
280
     0
281
     0
  0
CLASS
  1
MLEADERSTYLE
  2
AcDbMLeaderStyle
  3
ACDB_MLEADERSTYLE_CLASS
 90
     4095
280
     0
281
     0
  0
CLASS
  1
ACDBSECTIONVIEWSTYLE
  2
AcDbSectionViewStyle
  3
ObjectDBX Classes
 90
     1025
280
     0
281
     0
  0
CLASS
  1
ACDBDETAILVIEWSTYLE
  2
AcDbDetailViewStyle
  3
ObjectDBX Classes
 90
     1025
280
     0
281
     0
  0
CLASS
  1
DICTIONARYVAR
  2
AcDbDictionaryVar
  3
ObjectDBX Classes
 90
        0
280
     0
281
     0
  0
CLASS
  1
SORTENTSTABLE
  2
AcDbSortentsTable
  3
ObjectDBX Classes
 90
        0
280
     0
281
     0
  0
CLASS
  1
CELLSTYLEMAP
  2
AcDbCellStyleMap
  3
ObjectDBX Classes
 90
     1152
280
     0
281
     0
  0
ENDSEC
  0
SECTION
  2
TABLES
  0
TABLE
  2
VPORT
  5
8
330
0
100
AcDbSymbolTable
 70
     1
  0
VPORT
  5
3854
330
8
100
AcDbSymbolTableRecord
100
AcDbViewportTableRecord
  2
*ACTIVE
 70
     0
 10
0.0
 20
0.0
 11
1.0
 21
1.0
 12
102.1008098672853
 22
12.50134351325835
 13
0.0
 23
0.0
 14
7.0
 24
7.0
 15
7.0
 25
7.0
 16
0.0
 26
0.0
 36
1.0
 17
0.0
 27
0.0
 37
0.0
 40
214.8075165594628
 41
1.914539400665926
 42
50.0
 43
0.0
 44
0.0
 50
0.0
 51
0.0
 71
     0
 72
  2000
 73
     1
 74
     0
 75
     0
 76
     0
 77
     0
 78
     0
281
     0
 65
     1
110
0.0
120
0.0
130
0.0
111
1.0
121
0.0
131
0.0
112
0.0
122
1.0
132
0.0
 79
     0
146
0.0
1001
ACAD_NAV_VCDISPLAY
1070
     3
  0
ENDTAB
  0
TABLE
  2
LTYPE
  5
5
330
0
100
AcDbSymbolTable
 70
     4
  0
LTYPE
  5
14
330
5
100
AcDbSymbolTableRecord
100
AcDbLinetypeTableRecord
  2
BYBLOCK
 70
     0
  3

 72
    65
 73
     0
 40
0.0
  0
LTYPE
  5
15
330
5
100
AcDbSymbolTableRecord
100
AcDbLinetypeTableRecord
  2
BYLAYER
 70
     0
  3

 72
    65
 73
     0
 40
0.0
  0
LTYPE
  5
16
330
5
100
AcDbSymbolTableRecord
100
AcDbLinetypeTableRecord
  2
CONTINUOUS
 70
     0
  3
Solid line
 72
    65
 73
     0
 40
0.0
  0
LTYPE
  5
258
330
5
100
AcDbSymbolTableRecord
100
AcDbLinetypeTableRecord
  2
CENTER2
 70
     0
  3
___ _ ___ _ ___ _ ___ _ ___ _ ___ _ ___ _ ___ _
 72
    65
 73
     4
 40
1.125
 49
0.75
 74
     0
 49
-0.125
 74
     0
 49
0.125
 74
     0
 49
-0.125
 74
     0
  0
LTYPE
  5
25C
330
5
100
AcDbSymbolTableRecord
100
AcDbLinetypeTableRecord
  2
HIDDEN2
 70
     0
  3
_ _ _ _ _ _ _ _ _ _ _ _ _ _ _ _ _ _ _ _ _ _ _ _
 72
    65
 73
     2
 40
0.1875
 49
0.125
 74
     0
 49
-0.0625
 74
     0
  0
LTYPE
  5
25D
330
5
100
AcDbSymbolTableRecord
100
AcDbLinetypeTableRecord
  2
PHANTOM2
 70
     0
  3
___ _ _ ___ _ _ ___ _ _ ___ _ _ ___ _ _ ___ _ _
 72
    65
 73
     6
 40
1.25
 49
0.625
 74
     0
 49
-0.125
 74
     0
 49
0.125
 74
     0
 49
-0.125
 74
     0
 49
0.125
 74
     0
 49
-0.125
 74
     0
  0
ENDTAB
  0
TABLE
  2
LAYER
  5
2
102
{ACAD_XDICTIONARY
360
5097
102
}
330
0
100
AcDbSymbolTable
 70
     8
  0
LAYER
  5
F
102
{ACAD_XDICTIONARY
360
5CDC
102
}
330
2
100
AcDbSymbolTableRecord
100
AcDbLayerTableRecord
  2
0
 70
     0
 62
     7
  6
CONTINUOUS
370
    -3
390
564
  0
LAYER
  5
1AA
102
{ACAD_XDICTIONARY
360
5CDE
102
}
330
2
100
AcDbSymbolTableRecord
100
AcDbLayerTableRecord
  2
240
 70
     0
 62
     4
  6
CONTINUOUS
370
    -3
390
564
  0
LAYER
  5
1AB
102
{ACAD_XDICTIONARY
360
5CE0
102
}
330
2
100
AcDbSymbolTableRecord
100
AcDbLayerTableRecord
  2
241
 70
     0
 62
   211
  6
CONTINUOUS
370
    -3
390
564
  0
LAYER
  5
1AC
102
{ACAD_XDICTIONARY
360
5CE2
102
}
330
2
100
AcDbSymbolTableRecord
100
AcDbLayerTableRecord
  2
242
 70
     0
 62
     3
  6
CONTINUOUS
370
    -3
390
564
  0
LAYER
  5
1AD
102
{ACAD_XDICTIONARY
360
5CE4
102
}
330
2
100
AcDbSymbolTableRecord
100
AcDbLayerTableRecord
  2
243
 70
     0
 62
   211
  6
HIDDEN2
370
    -3
390
564
  0
LAYER
  5
1AF
102
{ACAD_XDICTIONARY
360
5CE6
102
}
330
2
100
AcDbSymbolTableRecord
100
AcDbLayerTableRecord
  2
245
 70
     0
 62
     2
  6
CENTER2
370
    -3
390
564
  0
LAYER
  5
21E
102
{ACAD_XDICTIONARY
360
5CE8
102
}
330
2
100
AcDbSymbolTableRecord
100
AcDbLayerTableRecord
  2
250
 70
     0
 62
     3
  6
CONTINUOUS
370
    -3
390
564
  0
LAYER
  5
5091
102
{ACAD_XDICTIONARY
360
5092
102
}
330
2
100
AcDbSymbolTableRecord
100
AcDbLayerTableRecord
  2
247
 70
     0
 62
    60
  6
CONTINUOUS
370
    -3
390
564
  0
ENDTAB
  0
TABLE
  2
STYLE
  5
3
330
0
100
AcDbSymbolTable
 70
     2
  0
STYLE
  5
10
330
3
100
AcDbSymbolTableRecord
100
AcDbTextStyleTableRecord
  2
STANDARD
 70
     0
 40
0.0
 41
1.0
 50
0.0
 71
     0
 42
3.0
  3
romans.shx
  4
BIGFONT.SHX
  0
STYLE
  5
339
330
3
100
AcDbSymbolTableRecord
100
AcDbTextStyleTableRecord
  2
YOKO
 70
     0
 40
0.0
 41
1.0
 50
0.0
 71
     0
 42
3.0
  3
romans.shx
  4
extfont.shx
  0
ENDTAB
  0
TABLE
  2
VIEW
  5
6
330
0
100
AcDbSymbolTable
 70
     0
  0
ENDTAB
  0
TABLE
  2
UCS
  5
7
330
0
100
AcDbSymbolTable
 70
     0
  0
ENDTAB
  0
TABLE
  2
APPID
  5
9
330
0
100
AcDbSymbolTable
 70
    14
  0
APPID
  5
11
330
9
100
AcDbSymbolTableRecord
100
AcDbRegAppTableRecord
  2
ACAD
 70
     0
  0
APPID
  5
1B1
330
9
100
AcDbSymbolTableRecord
100
AcDbRegAppTableRecord
  2
GLOBAL
 70
     0
  0
APPID
  5
2A4
330
9
100
AcDbSymbolTableRecord
100
AcDbRegAppTableRecord
  2
DETAIL
 70
     0
  0
APPID
  5
5FD
330
9
100
AcDbSymbolTableRecord
100
AcDbRegAppTableRecord
  2
GRPNAME
 70
     0
  0
APPID
  5
5FE
330
9
100
AcDbSymbolTableRecord
100
AcDbRegAppTableRecord
  2
GPARA
 70
     0
  0
APPID
  5
6C4
330
9
100
AcDbSymbolTableRecord
100
AcDbRegAppTableRecord
  2
DCO15
 70
     0
  0
APPID
  5
6C5
330
9
100
AcDbSymbolTableRecord
100
AcDbRegAppTableRecord
  2
ITEMNAME
 70
     0
  0
APPID
  5
6C6
330
9
100
AcDbSymbolTableRecord
100
AcDbRegAppTableRecord
  2
GRADE_0
 70
     0
  0
APPID
  5
2C63
330
9
100
AcDbSymbolTableRecord
100
AcDbRegAppTableRecord
  2
CONTENTBLOCKICON
 70
     0
  0
APPID
  5
38D7
330
9
100
AcDbSymbolTableRecord
100
AcDbRegAppTableRecord
  2
ACAD_NAV_VCDISPLAY
 70
     0
  0
APPID
  5
5095
330
9
100
AcDbSymbolTableRecord
100
AcDbRegAppTableRecord
  2
GENIUS_GENODEF_13
 70
     0
  0
APPID
  5
5096
330
9
100
AcDbSymbolTableRecord
100
AcDbRegAppTableRecord
  2
GENIUS_GENOBJ-N-FIL_13
 70
     0
  0
APPID
  5
5D40
330
9
100
AcDbSymbolTableRecord
100
AcDbRegAppTableRecord
  2
ACAD_MLEADERVER
 70
     0
  0
APPID
  5
5DAB
330
9
100
AcDbSymbolTableRecord
100
AcDbRegAppTableRecord
  2
ACAD_PSEXT
 70
     0
  0
ENDTAB
  0
TABLE
  2
DIMSTYLE
  5
A
330
0
100
AcDbSymbolTable
 70
     1
100
AcDbDimStyleTable
 71
     1
340
725
  0
DIMSTYLE
105
725
330
A
100
AcDbSymbolTableRecord
100
AcDbDimStyleTableRecord
  2
BIGT
 70
     0
 41
2.229999999999999
 42
0.5
 43
2.5
 44
1.0
 73
     0
 74
     0
 77
     3
 78
     8
140
2.799999999999998
141
0.0
147
1.0
172
     1
173
     1
174
     1
176
   256
177
   256
178
    40
271
     3
272
     3
284
     8
340
10
341
594
343
594
344
594
  0
ENDTAB
  0
TABLE
  2
BLOCK_RECORD
  5
1
330
0
100
AcDbSymbolTable
 70
     2
  0
BLOCK_RECORD
  5
1A
102
{ACAD_XDICTIONARY
360
2C61
102
}
330
1
100
AcDbSymbolTableRecord
100
AcDbBlockTableRecord
  2
*MODEL_SPACE
340
38D2
  0
BLOCK_RECORD
  5
17
102
{ACAD_XDICTIONARY
360
2C5F
102
}
330
1
100
AcDbSymbolTableRecord
100
AcDbBlockTableRecord
  2
*PAPER_SPACE
340
38D3
  0
BLOCK_RECORD
  5
594
330
1
100
AcDbSymbolTableRecord
100
AcDbBlockTableRecord
  2
_OPEN
340
0
102
{BLKREFS
331
5CC8
331
5CC9
331
5CCF
331
5CD0
331
5CD5
331
5CD6
331
5CD9
331
5CDA
102
}
  0
BLOCK_RECORD
  5
6E3
330
1
100
AcDbSymbolTableRecord
100
AcDbBlockTableRecord
  2
矢印なし
340
0
102
{BLKREFS
331
6E6
102
}
  0
ENDTAB
  0
ENDSEC
  0
SECTION
  2
BLOCKS
  0
BLOCK
  5
1B
330
1A
100
AcDbEntity
  8
0
100
AcDbBlockBegin
  2
*MODEL_SPACE
 70
     0
 10
0.0
 20
0.0
 30
0.0
  3
*MODEL_SPACE
  1

  0
ENDBLK
  5
1C
330
1A
100
AcDbEntity
  8
0
100
AcDbBlockEnd
  0
BLOCK
  5
18
330
17
100
AcDbEntity
 67
     1
  8
0
100
AcDbBlockBegin
  2
*PAPER_SPACE
 70
     0
 10
0.0
 20
0.0
 30
0.0
  3
*PAPER_SPACE
  1

  0
ENDBLK
  5
19
330
17
100
AcDbEntity
 67
     1
  8
0
100
AcDbBlockEnd
  0
BLOCK
  5
598
330
594
100
AcDbEntity
  8
0
100
AcDbBlockBegin
  2
_OPEN
 70
     0
 10
0.0
 20
0.0
 30
0.0
  3
_OPEN
  1

  0
LINE
  5
595
330
594
100
AcDbEntity
  8
0
  6
ByBlock
 62
     0
100
AcDbLine
 10
-1.0
 20
0.16666667
 30
0.0
 11
0.0
 21
0.0
 31
0.0
  0
LINE
  5
596
330
594
100
AcDbEntity
  8
0
  6
ByBlock
 62
     0
100
AcDbLine
 10
-1.0
 20
-0.16666667
 30
0.0
 11
0.0
 21
0.0
 31
0.0
  0
LINE
  5
597
330
594
100
AcDbEntity
  8
0
  6
ByBlock
 62
     0
100
AcDbLine
 10
0.0
 20
0.0
 30
0.0
 11
-1.0
 21
0.0
 31
0.0
  0
ENDBLK
  5
599
330
594
100
AcDbEntity
  8
0
100
AcDbBlockEnd
  0
BLOCK
  5
6E4
330
6E3
100
AcDbEntity
  8
0
100
AcDbBlockBegin
  2
矢印なし
 70
     0
 10
0.0
 20
0.0
 30
0.0
  3
矢印なし
  1

  0
ENDBLK
  5
6E5
330
6E3
100
AcDbEntity
  8
0
100
AcDbBlockEnd
  0
ENDSEC
  0
SECTION
  2
ENTITIES
  0
INSERT
  5
6E6
330
1A
100
AcDbEntity
  8
245
100
AcDbBlockReference
  2
矢印なし
 10
175.62382697
 20
90.55123571999999
 30
0.0
  0
TEXT
  5
20C3
330
1A
100
AcDbEntity
  8
241
  6
Continuous
100
AcDbText
 10
-101.7999999999999
 20
91.0
 30
0.0
 40
5.0
  1
BBT50M-180-BH25L-140
  7
YOKO
100
AcDbText
  0
LINE
  5
5669
330
1A
100
AcDbEntity
  8
245
  6
CENTER2
100
AcDbLine
 10
-102.8
 20
0.0
 30
0.0
 11
127.0
 21
0.0
 31
0.0
  0
LINE
  5
566A
330
1A
100
AcDbEntity
  8
240
  6
Continuous
100
AcDbLine
 10
95.57680848000002
 20
29.42319151999999
 30
0.0
 11
136.48528137
 21
-11.48528136999999
 31
0.0
  0
LINE
  5
566B
330
1A
100
AcDbEntity
  8
240
  6
Continuous
100
AcDbLine
 10
80.97334295999997
 20
38.72662511
 30
0.0
 11
50.0
 21
50.0
 31
0.0
  0
LINE
  5
566C
330
1A
100
AcDbEntity
  8
240
  6
Continuous
100
AcDbLine
 10
30.70000000000001
 20
50.0
 30
0.0
 11
50.0
 21
50.0
 31
0.0
  0
ARC
  5
566D
330
1A
100
AcDbEntity
  8
240
  6
Continuous
100
AcDbCircle
 10
67.29253722999999
 20
1.138920269999998
 30
0.0
 40
40.0
100
AcDbArc
 50
45.00000000000032
 51
69.99999999999992
  0
LINE
  5
566E
330
1A
100
AcDbEntity
  8
240
  6
Continuous
100
AcDbLine
 10
139.999999952893
 20
-50.0
 30
0.0
 11
30.70000000000001
 21
-50.0
 31
0.0
  0
LINE
  5
566F
330
1A
100
AcDbEntity
  8
245
  6
CENTER2
100
AcDbLine
 10
63.0
 20
-37.49937506000001
 30
0.0
 11
133.0
 21
-37.49937506000001
 31
0.0
  0
LINE
  5
5670
330
1A
100
AcDbEntity
  8
243
  6
HIDDEN2
100
AcDbLine
 10
50.0
 20
-24.99937499999999
 30
0.0
 11
139.99999999
 21
-24.99937516
 31
0.0
  0
CIRCLE
  5
5671
330
1A
100
AcDbEntity
  8
241
  6
Continuous
100
AcDbCircle
 10
70.0
 20
-37.49937506000001
 30
0.0
 40
6.0
  0
CIRCLE
  5
5672
330
1A
100
AcDbEntity
  8
242
  6
Continuous
100
AcDbCircle
 10
70.0
 20
-37.49937506000001
 30
0.0
 40
5.125
  0
LINE
  5
5673
330
1A
100
AcDbEntity
  8
245
  6
CENTER2
100
AcDbLine
 10
70.0
 20
-44.49937506
 30
0.0
 11
70.0
 21
-30.49937506000001
 31
0.0
  0
LINE
  5
5674
330
1A
100
AcDbEntity
  8
243
  6
HIDDEN2
100
AcDbLine
 10
50.0
 20
-24.99937499999999
 30
0.0
 11
50.0
 21
-50.0
 31
0.0
  0
LINE
  5
5675
330
1A
100
AcDbEntity
  8
241
  6
Continuous
100
AcDbLine
 10
67.0
 20
-39.23142587000001
 30
0.0
 11
70.0
 21
-40.96347667999999
 31
0.0
  0
LINE
  5
5676
330
1A
100
AcDbEntity
  8
241
  6
Continuous
100
AcDbLine
 10
70.0
 20
-40.96347667999999
 30
0.0
 11
73.0
 21
-39.23142587000001
 31
0.0
  0
LINE
  5
5677
330
1A
100
AcDbEntity
  8
241
  6
Continuous
100
AcDbLine
 10
73.0
 20
-35.76732425
 30
0.0
 11
70.0
 21
-34.03527345
 31
0.0
  0
LINE
  5
5678
330
1A
100
AcDbEntity
  8
241
  6
Continuous
100
AcDbLine
 10
67.0
 20
-35.76732425
 30
0.0
 11
67.0
 21
-39.23142587000001
 31
0.0
  0
LINE
  5
5679
330
1A
100
AcDbEntity
  8
241
  6
Continuous
100
AcDbLine
 10
70.0
 20
-34.03527345
 30
0.0
 11
67.0
 21
-35.76732425
 31
0.0
  0
LINE
  5
567A
330
1A
100
AcDbEntity
  8
241
  6
Continuous
100
AcDbLine
 10
73.0
 20
-39.23142587000001
 30
0.0
 11
73.0
 21
-35.76732425
 31
0.0
  0
LINE
  5
567B
330
1A
100
AcDbEntity
  8
245
  6
CENTER2
100
AcDbLine
 10
98.0
 20
-44.49937506
 30
0.0
 11
98.0
 21
-30.49937506000001
 31
0.0
  0
CIRCLE
  5
567C
330
1A
100
AcDbEntity
  8
242
  6
Continuous
100
AcDbCircle
 10
98.0
 20
-37.49937506000001
 30
0.0
 40
5.125
  0
CIRCLE
  5
567D
330
1A
100
AcDbEntity
  8
241
  6
Continuous
100
AcDbCircle
 10
98.0
 20
-37.49937506000001
 30
0.0
 40
6.0
  0
LINE
  5
567E
330
1A
100
AcDbEntity
  8
241
  6
Continuous
100
AcDbLine
 10
98.0
 20
-34.03527345
 30
0.0
 11
95.0
 21
-35.76732425
 31
0.0
  0
LINE
  5
567F
330
1A
100
AcDbEntity
  8
241
  6
Continuous
100
AcDbLine
 10
95.0
 20
-39.23142587000001
 30
0.0
 11
98.0
 21
-40.96347667999999
 31
0.0
  0
LINE
  5
5680
330
1A
100
AcDbEntity
  8
241
  6
Continuous
100
AcDbLine
 10
95.0
 20
-35.76732425
 30
0.0
 11
95.0
 21
-39.23142587000001
 31
0.0
  0
LINE
  5
5681
330
1A
100
AcDbEntity
  8
241
  6
Continuous
100
AcDbLine
 10
98.0
 20
-40.96347667999999
 30
0.0
 11
101.0
 21
-39.23142587000001
 31
0.0
  0
LINE
  5
5682
330
1A
100
AcDbEntity
  8
241
  6
Continuous
100
AcDbLine
 10
101.0
 20
-39.23142587000001
 30
0.0
 11
101.0
 21
-35.76732425
 31
0.0
  0
LINE
  5
5683
330
1A
100
AcDbEntity
  8
241
  6
Continuous
100
AcDbLine
 10
101.0
 20
-35.76732425
 30
0.0
 11
98.0
 21
-34.03527345
 31
0.0
  0
LINE
  5
5684
330
1A
100
AcDbEntity
  8
245
  6
CENTER2
100
AcDbLine
 10
126.0
 20
-44.49937506
 30
0.0
 11
126.0
 21
-30.49937506000001
 31
0.0
  0
CIRCLE
  5
5685
330
1A
100
AcDbEntity
  8
242
  6
Continuous
100
AcDbCircle
 10
126.0
 20
-37.49937506000001
 30
0.0
 40
5.125
  0
CIRCLE
  5
5686
330
1A
100
AcDbEntity
  8
241
  6
Continuous
100
AcDbCircle
 10
126.0
 20
-37.49937506000001
 30
0.0
 40
6.0
  0
LINE
  5
5687
330
1A
100
AcDbEntity
  8
240
  6
Continuous
100
AcDbLine
 10
139.999999952893
 20
-50.0
 30
0.0
 11
140.0
 21
-19.97056275
 31
0.0
  0
ARC
  5
5688
330
1A
100
AcDbEntity
  8
240
  6
Continuous
100
AcDbCircle
 10
128.0
 20
-19.97056275
 30
0.0
 40
12.0
100
AcDbArc
 50
0.0
 51
45.00000000000032
  0
LINE
  5
5689
330
1A
100
AcDbEntity
  8
241
  6
Continuous
100
AcDbLine
 10
129.0
 20
-35.76732425
 30
0.0
 11
126.0
 21
-34.03527345
 31
0.0
  0
LINE
  5
568A
330
1A
100
AcDbEntity
  8
241
  6
Continuous
100
AcDbLine
 10
126.0
 20
-40.96347667999999
 30
0.0
 11
129.0
 21
-39.23142587000001
 31
0.0
  0
LINE
  5
568B
330
1A
100
AcDbEntity
  8
241
  6
Continuous
100
AcDbLine
 10
123.0
 20
-39.23142587000001
 30
0.0
 11
126.0
 21
-40.96347667999999
 31
0.0
  0
LINE
  5
568C
330
1A
100
AcDbEntity
  8
241
  6
Continuous
100
AcDbLine
 10
123.0
 20
-35.76732425
 30
0.0
 11
123.0
 21
-39.23142587000001
 31
0.0
  0
LINE
  5
568D
330
1A
100
AcDbEntity
  8
241
  6
Continuous
100
AcDbLine
 10
126.0
 20
-34.03527345
 30
0.0
 11
123.0
 21
-35.76732425
 31
0.0
  0
LINE
  5
568E
330
1A
100
AcDbEntity
  8
241
  6
Continuous
100
AcDbLine
 10
129.0
 20
-39.23142587000001
 30
0.0
 11
129.0
 21
-35.76732425
 31
0.0
  0
LINE
  5
568F
330
1A
100
AcDbEntity
  8
241
  6
Continuous
100
AcDbLine
 10
213.0
 20
18.0
 30
0.0
 11
213.0
 21
-18.0
 31
0.0
  0
ARC
  5
5690
330
1A
100
AcDbEntity
  8
240
  6
Continuous
100
AcDbCircle
 10
245.0
 20
-7.0
 30
0.0
 40
57.0
100
AcDbArc
 50
0.0000175999996218
 51
90.00000000000005
  0
LINE
  5
5691
330
1A
100
AcDbEntity
  8
245
  6
CENTER2
100
AcDbLine
 10
245.0
 20
-61.99999999999999
 30
0.0
 11
245.0
 21
62.0
 31
0.0
  0
CIRCLE
  5
5692
330
1A
100
AcDbEntity
  8
242
  6
PHANTOM2
100
AcDbCircle
 10
245.0
 20
0.0
 30
0.0
 40
60.0
  0
LINE
  5
5693
330
1A
100
AcDbEntity
  8
245
  6
CENTER2
100
AcDbLine
 10
183.0
 20
0.0
 30
0.0
 11
307.0
 21
0.0
 31
0.0
  0
ARC
  5
5696
330
1A
100
AcDbEntity
  8
241
  6
Continuous
100
AcDbCircle
 10
245.0
 20
18.0
 30
0.0
 40
32.0
100
AcDbArc
 50
90.00000000000005
 51
180.0
  0
LINE
  5
5697
330
1A
100
AcDbEntity
  8
241
  6
Continuous
100
AcDbLine
 10
270.0
 20
-24.99999999999997
 30
0.0
 11
245.0
 21
-25.0
 31
0.0
  0
LINE
  5
5699
330
1A
100
AcDbEntity
  8
240
  6
Continuous
100
AcDbLine
 10
275.00000014
 20
-49.99999990999999
 30
0.0
 11
245.00000015
 21
-49.99999999999996
 31
0.0
  0
ARC
  5
575D
330
1A
100
AcDbEntity
  8
241
  6
Continuous
100
AcDbCircle
 10
245.0
 20
-18.0
 30
0.0
 40
31.99999999999999
100
AcDbArc
 50
180.0
 51
270.0
  0
POLYLINE
  5
575E
330
1A
100
AcDbEntity
  8
241
  6
Continuous
100
AcDb3dPolyline
 66
     1
 10
0.0
 20
0.0
 30
0.0
 70
     8
  0
VERTEX
  5
575F
330
575E
100
AcDbEntity
  8
241
  6
Continuous
100
AcDbVertex
100
AcDb3dPolylineVertex
 10
235.53185
 20
-31.6
 30
0.0
 70
    32
  0
VERTEX
  5
5760
330
575E
100
AcDbEntity
  8
241
  6
Continuous
100
AcDbVertex
100
AcDb3dPolylineVertex
 10
235.50581
 20
-31.68269999999998
 30
0.0
 70
    32
  0
VERTEX
  5
5761
330
575E
100
AcDbEntity
  8
241
  6
Continuous
100
AcDbVertex
100
AcDb3dPolylineVertex
 10
235.4791
 20
-31.7652
 30
0.0
 70
    32
  0
VERTEX
  5
5762
330
575E
100
AcDbEntity
  8
241
  6
Continuous
100
AcDbVertex
100
AcDb3dPolylineVertex
 10
235.45171
 20
-31.84729999999999
 30
0.0
 70
    32
  0
VERTEX
  5
5763
330
575E
100
AcDbEntity
  8
241
  6
Continuous
100
AcDbVertex
100
AcDb3dPolylineVertex
 10
235.42364
 20
-31.92909999999998
 30
0.0
 70
    32
  0
VERTEX
  5
5764
330
575E
100
AcDbEntity
  8
241
  6
Continuous
100
AcDbVertex
100
AcDb3dPolylineVertex
 10
235.39489
 20
-32.01059999999998
 30
0.0
 70
    32
  0
VERTEX
  5
5765
330
575E
100
AcDbEntity
  8
241
  6
Continuous
100
AcDbVertex
100
AcDb3dPolylineVertex
 10
235.36548
 20
-32.09179999999998
 30
0.0
 70
    32
  0
VERTEX
  5
5766
330
575E
100
AcDbEntity
  8
241
  6
Continuous
100
AcDbVertex
100
AcDb3dPolylineVertex
 10
235.33539
 20
-32.17269999999999
 30
0.0
 70
    32
  0
VERTEX
  5
5767
330
575E
100
AcDbEntity
  8
241
  6
Continuous
100
AcDbVertex
100
AcDb3dPolylineVertex
 10
235.30464
 20
-32.25319999999999
 30
0.0
 70
    32
  0
VERTEX
  5
5768
330
575E
100
AcDbEntity
  8
241
  6
Continuous
100
AcDbVertex
100
AcDb3dPolylineVertex
 10
235.27323
 20
-32.33339999999998
 30
0.0
 70
    32
  0
VERTEX
  5
5769
330
575E
100
AcDbEntity
  8
241
  6
Continuous
100
AcDbVertex
100
AcDb3dPolylineVertex
 10
235.24116
 20
-32.4133
 30
0.0
 70
    32
  0
VERTEX
  5
576A
330
575E
100
AcDbEntity
  8
241
  6
Continuous
100
AcDbVertex
100
AcDb3dPolylineVertex
 10
235.20843
 20
-32.49269999999999
 30
0.0
 70
    32
  0
VERTEX
  5
576B
330
575E
100
AcDbEntity
  8
241
  6
Continuous
100
AcDbVertex
100
AcDb3dPolylineVertex
 10
235.17504
 20
-32.5719
 30
0.0
 70
    32
  0
VERTEX
  5
576C
330
575E
100
AcDbEntity
  8
241
  6
Continuous
100
AcDbVertex
100
AcDb3dPolylineVertex
 10
235.14101
 20
-32.65059999999998
 30
0.0
 70
    32
  0
VERTEX
  5
576D
330
575E
100
AcDbEntity
  8
241
  6
Continuous
100
AcDbVertex
100
AcDb3dPolylineVertex
 10
235.10632
 20
-32.72899999999999
 30
0.0
 70
    32
  0
VERTEX
  5
576E
330
575E
100
AcDbEntity
  8
241
  6
Continuous
100
AcDbVertex
100
AcDb3dPolylineVertex
 10
235.07099
 20
-32.80699999999999
 30
0.0
 70
    32
  0
VERTEX
  5
576F
330
575E
100
AcDbEntity
  8
241
  6
Continuous
100
AcDbVertex
100
AcDb3dPolylineVertex
 10
235.03502
 20
-32.88459999999998
 30
0.0
 70
    32
  0
VERTEX
  5
5770
330
575E
100
AcDbEntity
  8
241
  6
Continuous
100
AcDbVertex
100
AcDb3dPolylineVertex
 10
234.9984
 20
-32.96179999999998
 30
0.0
 70
    32
  0
VERTEX
  5
5771
330
575E
100
AcDbEntity
  8
241
  6
Continuous
100
AcDbVertex
100
AcDb3dPolylineVertex
 10
234.9612
 20
-33.03859999999999
 30
0.0
 70
    32
  0
VERTEX
  5
5772
330
575E
100
AcDbEntity
  8
241
  6
Continuous
100
AcDbVertex
100
AcDb3dPolylineVertex
 10
234.9233
 20
-33.11489999999999
 30
0.0
 70
    32
  0
VERTEX
  5
5773
330
575E
100
AcDbEntity
  8
241
  6
Continuous
100
AcDbVertex
100
AcDb3dPolylineVertex
 10
234.8848
 20
-33.19089999999999
 30
0.0
 70
    32
  0
VERTEX
  5
5774
330
575E
100
AcDbEntity
  8
241
  6
Continuous
100
AcDbVertex
100
AcDb3dPolylineVertex
 10
234.8457
 20
-33.26639999999998
 30
0.0
 70
    32
  0
VERTEX
  5
5775
330
575E
100
AcDbEntity
  8
241
  6
Continuous
100
AcDbVertex
100
AcDb3dPolylineVertex
 10
234.8059
 20
-33.34150000000001
 30
0.0
 70
    32
  0
VERTEX
  5
5776
330
575E
100
AcDbEntity
  8
241
  6
Continuous
100
AcDbVertex
100
AcDb3dPolylineVertex
 10
234.7655
 20
-33.41619999999999
 30
0.0
 70
    32
  0
VERTEX
  5
5777
330
575E
100
AcDbEntity
  8
241
  6
Continuous
100
AcDbVertex
100
AcDb3dPolylineVertex
 10
234.7245
 20
-33.4904
 30
0.0
 70
    32
  0
VERTEX
  5
5778
330
575E
100
AcDbEntity
  8
241
  6
Continuous
100
AcDbVertex
100
AcDb3dPolylineVertex
 10
234.683
 20
-33.5641
 30
0.0
 70
    32
  0
VERTEX
  5
5779
330
575E
100
AcDbEntity
  8
241
  6
Continuous
100
AcDbVertex
100
AcDb3dPolylineVertex
 10
234.6408
 20
-33.63739999999999
 30
0.0
 70
    32
  0
VERTEX
  5
577A
330
575E
100
AcDbEntity
  8
241
  6
Continuous
100
AcDbVertex
100
AcDb3dPolylineVertex
 10
234.598
 20
-33.7102
 30
0.0
 70
    32
  0
VERTEX
  5
577B
330
575E
100
AcDbEntity
  8
241
  6
Continuous
100
AcDbVertex
100
AcDb3dPolylineVertex
 10
234.5545
 20
-33.78259999999999
 30
0.0
 70
    32
  0
VERTEX
  5
577C
330
575E
100
AcDbEntity
  8
241
  6
Continuous
100
AcDbVertex
100
AcDb3dPolylineVertex
 10
234.5106
 20
-33.85449999999999
 30
0.0
 70
    32
  0
VERTEX
  5
577D
330
575E
100
AcDbEntity
  8
241
  6
Continuous
100
AcDbVertex
100
AcDb3dPolylineVertex
 10
234.466
 20
-33.92579999999998
 30
0.0
 70
    32
  0
VERTEX
  5
577E
330
575E
100
AcDbEntity
  8
241
  6
Continuous
100
AcDbVertex
100
AcDb3dPolylineVertex
 10
234.4208
 20
-33.99669999999999
 30
0.0
 70
    32
  0
VERTEX
  5
577F
330
575E
100
AcDbEntity
  8
241
  6
Continuous
100
AcDbVertex
100
AcDb3dPolylineVertex
 10
234.375
 20
-34.06709999999999
 30
0.0
 70
    32
  0
VERTEX
  5
5780
330
575E
100
AcDbEntity
  8
241
  6
Continuous
100
AcDbVertex
100
AcDb3dPolylineVertex
 10
234.3287
 20
-34.13699999999999
 30
0.0
 70
    32
  0
VERTEX
  5
5781
330
575E
100
AcDbEntity
  8
241
  6
Continuous
100
AcDbVertex
100
AcDb3dPolylineVertex
 10
234.2818
 20
-34.20639999999999
 30
0.0
 70
    32
  0
VERTEX
  5
5782
330
575E
100
AcDbEntity
  8
241
  6
Continuous
100
AcDbVertex
100
AcDb3dPolylineVertex
 10
234.2343
 20
-34.27519999999999
 30
0.0
 70
    32
  0
VERTEX
  5
5783
330
575E
100
AcDbEntity
  8
241
  6
Continuous
100
AcDbVertex
100
AcDb3dPolylineVertex
 10
234.1862
 20
-34.34349999999998
 30
0.0
 70
    32
  0
VERTEX
  5
5784
330
575E
100
AcDbEntity
  8
241
  6
Continuous
100
AcDbVertex
100
AcDb3dPolylineVertex
 10
234.1376
 20
-34.41129999999998
 30
0.0
 70
    32
  0
VERTEX
  5
5785
330
575E
100
AcDbEntity
  8
241
  6
Continuous
100
AcDbVertex
100
AcDb3dPolylineVertex
 10
234.0885
 20
-34.47859999999999
 30
0.0
 70
    32
  0
VERTEX
  5
5786
330
575E
100
AcDbEntity
  8
241
  6
Continuous
100
AcDbVertex
100
AcDb3dPolylineVertex
 10
234.0388
 20
-34.54529999999998
 30
0.0
 70
    32
  0
VERTEX
  5
5787
330
575E
100
AcDbEntity
  8
241
  6
Continuous
100
AcDbVertex
100
AcDb3dPolylineVertex
 10
233.9885
 20
-34.61149999999998
 30
0.0
 70
    32
  0
VERTEX
  5
5788
330
575E
100
AcDbEntity
  8
241
  6
Continuous
100
AcDbVertex
100
AcDb3dPolylineVertex
 10
233.9377
 20
-34.6771
 30
0.0
 70
    32
  0
VERTEX
  5
5789
330
575E
100
AcDbEntity
  8
241
  6
Continuous
100
AcDbVertex
100
AcDb3dPolylineVertex
 10
233.8863
 20
-34.74209999999999
 30
0.0
 70
    32
  0
VERTEX
  5
578A
330
575E
100
AcDbEntity
  8
241
  6
Continuous
100
AcDbVertex
100
AcDb3dPolylineVertex
 10
233.8344
 20
-34.80659999999999
 30
0.0
 70
    32
  0
VERTEX
  5
578B
330
575E
100
AcDbEntity
  8
241
  6
Continuous
100
AcDbVertex
100
AcDb3dPolylineVertex
 10
233.782
 20
-34.87049999999999
 30
0.0
 70
    32
  0
VERTEX
  5
578C
330
575E
100
AcDbEntity
  8
241
  6
Continuous
100
AcDbVertex
100
AcDb3dPolylineVertex
 10
233.7291
 20
-34.93379999999999
 30
0.0
 70
    32
  0
VERTEX
  5
578D
330
575E
100
AcDbEntity
  8
241
  6
Continuous
100
AcDbVertex
100
AcDb3dPolylineVertex
 10
233.6756
 20
-34.99649999999999
 30
0.0
 70
    32
  0
VERTEX
  5
578E
330
575E
100
AcDbEntity
  8
241
  6
Continuous
100
AcDbVertex
100
AcDb3dPolylineVertex
 10
233.6217
 20
-35.05869999999999
 30
0.0
 70
    32
  0
VERTEX
  5
578F
330
575E
100
AcDbEntity
  8
241
  6
Continuous
100
AcDbVertex
100
AcDb3dPolylineVertex
 10
233.5672
 20
-35.12019999999998
 30
0.0
 70
    32
  0
VERTEX
  5
5790
330
575E
100
AcDbEntity
  8
241
  6
Continuous
100
AcDbVertex
100
AcDb3dPolylineVertex
 10
233.5122
 20
-35.18119999999999
 30
0.0
 70
    32
  0
VERTEX
  5
5791
330
575E
100
AcDbEntity
  8
241
  6
Continuous
100
AcDbVertex
100
AcDb3dPolylineVertex
 10
233.4567
 20
-35.24149999999999
 30
0.0
 70
    32
  0
VERTEX
  5
5792
330
575E
100
AcDbEntity
  8
241
  6
Continuous
100
AcDbVertex
100
AcDb3dPolylineVertex
 10
233.4007
 20
-35.3012
 30
0.0
 70
    32
  0
VERTEX
  5
5793
330
575E
100
AcDbEntity
  8
241
  6
Continuous
100
AcDbVertex
100
AcDb3dPolylineVertex
 10
233.3442
 20
-35.3603
 30
0.0
 70
    32
  0
VERTEX
  5
5794
330
575E
100
AcDbEntity
  8
241
  6
Continuous
100
AcDbVertex
100
AcDb3dPolylineVertex
 10
233.2873
 20
-35.41879999999998
 30
0.0
 70
    32
  0
VERTEX
  5
5795
330
575E
100
AcDbEntity
  8
241
  6
Continuous
100
AcDbVertex
100
AcDb3dPolylineVertex
 10
233.2298
 20
-35.4767
 30
0.0
 70
    32
  0
VERTEX
  5
5796
330
575E
100
AcDbEntity
  8
241
  6
Continuous
100
AcDbVertex
100
AcDb3dPolylineVertex
 10
233.1719
 20
-35.53389999999999
 30
0.0
 70
    32
  0
VERTEX
  5
5797
330
575E
100
AcDbEntity
  8
241
  6
Continuous
100
AcDbVertex
100
AcDb3dPolylineVertex
 10
233.1135
 20
-35.59049999999999
 30
0.0
 70
    32
  0
VERTEX
  5
5798
330
575E
100
AcDbEntity
  8
241
  6
Continuous
100
AcDbVertex
100
AcDb3dPolylineVertex
 10
233.0547
 20
-35.64639999999999
 30
0.0
 70
    32
  0
VERTEX
  5
5799
330
575E
100
AcDbEntity
  8
241
  6
Continuous
100
AcDbVertex
100
AcDb3dPolylineVertex
 10
232.9954
 20
-35.70169999999999
 30
0.0
 70
    32
  0
VERTEX
  5
579A
330
575E
100
AcDbEntity
  8
241
  6
Continuous
100
AcDbVertex
100
AcDb3dPolylineVertex
 10
232.9356
 20
-35.75629999999998
 30
0.0
 70
    32
  0
VERTEX
  5
579B
330
575E
100
AcDbEntity
  8
241
  6
Continuous
100
AcDbVertex
100
AcDb3dPolylineVertex
 10
232.8754
 20
-35.81029999999998
 30
0.0
 70
    32
  0
VERTEX
  5
579C
330
575E
100
AcDbEntity
  8
241
  6
Continuous
100
AcDbVertex
100
AcDb3dPolylineVertex
 10
232.8147
 20
-35.86359999999999
 30
0.0
 70
    32
  0
VERTEX
  5
579D
330
575E
100
AcDbEntity
  8
241
  6
Continuous
100
AcDbVertex
100
AcDb3dPolylineVertex
 10
232.7537
 20
-35.91619999999999
 30
0.0
 70
    32
  0
VERTEX
  5
579E
330
575E
100
AcDbEntity
  8
241
  6
Continuous
100
AcDbVertex
100
AcDb3dPolylineVertex
 10
232.6921
 20
-35.96820000000001
 30
0.0
 70
    32
  0
VERTEX
  5
579F
330
575E
100
AcDbEntity
  8
241
  6
Continuous
100
AcDbVertex
100
AcDb3dPolylineVertex
 10
232.6302
 20
-36.01949999999999
 30
0.0
 70
    32
  0
VERTEX
  5
57A0
330
575E
100
AcDbEntity
  8
241
  6
Continuous
100
AcDbVertex
100
AcDb3dPolylineVertex
 10
232.5678
 20
-36.07009999999998
 30
0.0
 70
    32
  0
VERTEX
  5
57A1
330
575E
100
AcDbEntity
  8
241
  6
Continuous
100
AcDbVertex
100
AcDb3dPolylineVertex
 10
232.505
 20
-36.11999999999998
 30
0.0
 70
    32
  0
VERTEX
  5
57A2
330
575E
100
AcDbEntity
  8
241
  6
Continuous
100
AcDbVertex
100
AcDb3dPolylineVertex
 10
232.4418
 20
-36.16919999999999
 30
0.0
 70
    32
  0
VERTEX
  5
57A3
330
575E
100
AcDbEntity
  8
241
  6
Continuous
100
AcDbVertex
100
AcDb3dPolylineVertex
 10
232.3783
 20
-36.21769999999998
 30
0.0
 70
    32
  0
VERTEX
  5
57A4
330
575E
100
AcDbEntity
  8
241
  6
Continuous
100
AcDbVertex
100
AcDb3dPolylineVertex
 10
232.3143
 20
-36.26549999999999
 30
0.0
 70
    32
  0
VERTEX
  5
57A5
330
575E
100
AcDbEntity
  8
241
  6
Continuous
100
AcDbVertex
100
AcDb3dPolylineVertex
 10
232.2499
 20
-36.31259999999999
 30
0.0
 70
    32
  0
VERTEX
  5
57A6
330
575E
100
AcDbEntity
  8
241
  6
Continuous
100
AcDbVertex
100
AcDb3dPolylineVertex
 10
232.1851
 20
-36.35899999999998
 30
0.0
 70
    32
  0
VERTEX
  5
57A7
330
575E
100
AcDbEntity
  8
241
  6
Continuous
100
AcDbVertex
100
AcDb3dPolylineVertex
 10
232.12
 20
-36.40469999999999
 30
0.0
 70
    32
  0
VERTEX
  5
57A8
330
575E
100
AcDbEntity
  8
241
  6
Continuous
100
AcDbVertex
100
AcDb3dPolylineVertex
 10
232.0544
 20
-36.44969999999998
 30
0.0
 70
    32
  0
VERTEX
  5
57A9
330
575E
100
AcDbEntity
  8
241
  6
Continuous
100
AcDbVertex
100
AcDb3dPolylineVertex
 10
231.9885
 20
-36.49389999999999
 30
0.0
 70
    32
  0
VERTEX
  5
57AA
330
575E
100
AcDbEntity
  8
241
  6
Continuous
100
AcDbVertex
100
AcDb3dPolylineVertex
 10
231.9223
 20
-36.5375
 30
0.0
 70
    32
  0
VERTEX
  5
57AB
330
575E
100
AcDbEntity
  8
241
  6
Continuous
100
AcDbVertex
100
AcDb3dPolylineVertex
 10
231.8557
 20
-36.58019999999999
 30
0.0
 70
    32
  0
VERTEX
  5
57AC
330
575E
100
AcDbEntity
  8
241
  6
Continuous
100
AcDbVertex
100
AcDb3dPolylineVertex
 10
231.7887
 20
-36.6223
 30
0.0
 70
    32
  0
VERTEX
  5
57AD
330
575E
100
AcDbEntity
  8
241
  6
Continuous
100
AcDbVertex
100
AcDb3dPolylineVertex
 10
231.7214
 20
-36.66359999999999
 30
0.0
 70
    32
  0
VERTEX
  5
57AE
330
575E
100
AcDbEntity
  8
241
  6
Continuous
100
AcDbVertex
100
AcDb3dPolylineVertex
 10
231.6538
 20
-36.7042
 30
0.0
 70
    32
  0
VERTEX
  5
57AF
330
575E
100
AcDbEntity
  8
241
  6
Continuous
100
AcDbVertex
100
AcDb3dPolylineVertex
 10
231.5858
 20
-36.74399999999999
 30
0.0
 70
    32
  0
VERTEX
  5
57B0
330
575E
100
AcDbEntity
  8
241
  6
Continuous
100
AcDbVertex
100
AcDb3dPolylineVertex
 10
231.5175
 20
-36.78309999999999
 30
0.0
 70
    32
  0
VERTEX
  5
57B1
330
575E
100
AcDbEntity
  8
241
  6
Continuous
100
AcDbVertex
100
AcDb3dPolylineVertex
 10
231.4489
 20
-36.82139999999999
 30
0.0
 70
    32
  0
VERTEX
  5
57B2
330
575E
100
AcDbEntity
  8
241
  6
Continuous
100
AcDbVertex
100
AcDb3dPolylineVertex
 10
231.38
 20
-36.85899999999997
 30
0.0
 70
    32
  0
VERTEX
  5
57B3
330
575E
100
AcDbEntity
  8
241
  6
Continuous
100
AcDbVertex
100
AcDb3dPolylineVertex
 10
231.3107
 20
-36.89579999999998
 30
0.0
 70
    32
  0
VERTEX
  5
57B4
330
575E
100
AcDbEntity
  8
241
  6
Continuous
100
AcDbVertex
100
AcDb3dPolylineVertex
 10
231.2412
 20
-36.93179999999998
 30
0.0
 70
    32
  0
VERTEX
  5
57B5
330
575E
100
AcDbEntity
  8
241
  6
Continuous
100
AcDbVertex
100
AcDb3dPolylineVertex
 10
231.1714
 20
-36.96709999999999
 30
0.0
 70
    32
  0
VERTEX
  5
57B6
330
575E
100
AcDbEntity
  8
241
  6
Continuous
100
AcDbVertex
100
AcDb3dPolylineVertex
 10
231.1012
 20
-37.0016
 30
0.0
 70
    32
  0
VERTEX
  5
57B7
330
575E
100
AcDbEntity
  8
241
  6
Continuous
100
AcDbVertex
100
AcDb3dPolylineVertex
 10
231.0308
 20
-37.03529999999998
 30
0.0
 70
    32
  0
VERTEX
  5
57B8
330
575E
100
AcDbEntity
  8
241
  6
Continuous
100
AcDbVertex
100
AcDb3dPolylineVertex
 10
230.9602
 20
-37.0683
 30
0.0
 70
    32
  0
VERTEX
  5
57B9
330
575E
100
AcDbEntity
  8
241
  6
Continuous
100
AcDbVertex
100
AcDb3dPolylineVertex
 10
230.8892
 20
-37.10039999999998
 30
0.0
 70
    32
  0
VERTEX
  5
57BA
330
575E
100
AcDbEntity
  8
241
  6
Continuous
100
AcDbVertex
100
AcDb3dPolylineVertex
 10
230.818
 20
-37.13179999999999
 30
0.0
 70
    32
  0
VERTEX
  5
57BB
330
575E
100
AcDbEntity
  8
241
  6
Continuous
100
AcDbVertex
100
AcDb3dPolylineVertex
 10
230.7465
 20
-37.16239999999999
 30
0.0
 70
    32
  0
VERTEX
  5
57BC
330
575E
100
AcDbEntity
  8
241
  6
Continuous
100
AcDbVertex
100
AcDb3dPolylineVertex
 10
230.6748
 20
-37.19229999999999
 30
0.0
 70
    32
  0
VERTEX
  5
57BD
330
575E
100
AcDbEntity
  8
241
  6
Continuous
100
AcDbVertex
100
AcDb3dPolylineVertex
 10
230.6029
 20
-37.22129999999999
 30
0.0
 70
    32
  0
VERTEX
  5
57BE
330
575E
100
AcDbEntity
  8
241
  6
Continuous
100
AcDbVertex
100
AcDb3dPolylineVertex
 10
230.5307
 20
-37.24949999999998
 30
0.0
 70
    32
  0
VERTEX
  5
57BF
330
575E
100
AcDbEntity
  8
241
  6
Continuous
100
AcDbVertex
100
AcDb3dPolylineVertex
 10
230.4583
 20
-37.277
 30
0.0
 70
    32
  0
VERTEX
  5
57C0
330
575E
100
AcDbEntity
  8
241
  6
Continuous
100
AcDbVertex
100
AcDb3dPolylineVertex
 10
230.3856
 20
-37.30359999999999
 30
0.0
 70
    32
  0
VERTEX
  5
57C1
330
575E
100
AcDbEntity
  8
241
  6
Continuous
100
AcDbVertex
100
AcDb3dPolylineVertex
 10
230.3128
 20
-37.32950000000001
 30
0.0
 70
    32
  0
VERTEX
  5
57C2
330
575E
100
AcDbEntity
  8
241
  6
Continuous
100
AcDbVertex
100
AcDb3dPolylineVertex
 10
230.2397
 20
-37.35449999999999
 30
0.0
 70
    32
  0
VERTEX
  5
57C3
330
575E
100
AcDbEntity
  8
241
  6
Continuous
100
AcDbVertex
100
AcDb3dPolylineVertex
 10
230.1664
 20
-37.37879999999999
 30
0.0
 70
    32
  0
VERTEX
  5
57C4
330
575E
100
AcDbEntity
  8
241
  6
Continuous
100
AcDbVertex
100
AcDb3dPolylineVertex
 10
230.0929
 20
-37.40219999999999
 30
0.0
 70
    32
  0
VERTEX
  5
57C5
330
575E
100
AcDbEntity
  8
241
  6
Continuous
100
AcDbVertex
100
AcDb3dPolylineVertex
 10
230.0193
 20
-37.42479999999998
 30
0.0
 70
    32
  0
VERTEX
  5
57C6
330
575E
100
AcDbEntity
  8
241
  6
Continuous
100
AcDbVertex
100
AcDb3dPolylineVertex
 10
229.9454
 20
-37.44659999999999
 30
0.0
 70
    32
  0
VERTEX
  5
57C7
330
575E
100
AcDbEntity
  8
241
  6
Continuous
100
AcDbVertex
100
AcDb3dPolylineVertex
 10
229.8714
 20
-37.46759999999998
 30
0.0
 70
    32
  0
VERTEX
  5
57C8
330
575E
100
AcDbEntity
  8
241
  6
Continuous
100
AcDbVertex
100
AcDb3dPolylineVertex
 10
229.7972
 20
-37.4878
 30
0.0
 70
    32
  0
VERTEX
  5
57C9
330
575E
100
AcDbEntity
  8
241
  6
Continuous
100
AcDbVertex
100
AcDb3dPolylineVertex
 10
229.7229
 20
-37.50719999999998
 30
0.0
 70
    32
  0
VERTEX
  5
57CA
330
575E
100
AcDbEntity
  8
241
  6
Continuous
100
AcDbVertex
100
AcDb3dPolylineVertex
 10
229.6484
 20
-37.52569999999999
 30
0.0
 70
    32
  0
VERTEX
  5
57CB
330
575E
100
AcDbEntity
  8
241
  6
Continuous
100
AcDbVertex
100
AcDb3dPolylineVertex
 10
229.5737
 20
-37.54339999999999
 30
0.0
 70
    32
  0
VERTEX
  5
57CC
330
575E
100
AcDbEntity
  8
241
  6
Continuous
100
AcDbVertex
100
AcDb3dPolylineVertex
 10
229.4989
 20
-37.56029999999999
 30
0.0
 70
    32
  0
VERTEX
  5
57CD
330
575E
100
AcDbEntity
  8
241
  6
Continuous
100
AcDbVertex
100
AcDb3dPolylineVertex
 10
229.424
 20
-37.57639999999998
 30
0.0
 70
    32
  0
VERTEX
  5
57CE
330
575E
100
AcDbEntity
  8
241
  6
Continuous
100
AcDbVertex
100
AcDb3dPolylineVertex
 10
229.3489
 20
-37.59169999999999
 30
0.0
 70
    32
  0
VERTEX
  5
57CF
330
575E
100
AcDbEntity
  8
241
  6
Continuous
100
AcDbVertex
100
AcDb3dPolylineVertex
 10
229.2737
 20
-37.60609999999998
 30
0.0
 70
    32
  0
VERTEX
  5
57D0
330
575E
100
AcDbEntity
  8
241
  6
Continuous
100
AcDbVertex
100
AcDb3dPolylineVertex
 10
229.1984
 20
-37.6197
 30
0.0
 70
    32
  0
VERTEX
  5
57D1
330
575E
100
AcDbEntity
  8
241
  6
Continuous
100
AcDbVertex
100
AcDb3dPolylineVertex
 10
229.123
 20
-37.63249999999999
 30
0.0
 70
    32
  0
VERTEX
  5
57D2
330
575E
100
AcDbEntity
  8
241
  6
Continuous
100
AcDbVertex
100
AcDb3dPolylineVertex
 10
229.0475
 20
-37.64439999999999
 30
0.0
 70
    32
  0
VERTEX
  5
57D3
330
575E
100
AcDbEntity
  8
241
  6
Continuous
100
AcDbVertex
100
AcDb3dPolylineVertex
 10
228.9719
 20
-37.65549999999999
 30
0.0
 70
    32
  0
VERTEX
  5
57D4
330
575E
100
AcDbEntity
  8
241
  6
Continuous
100
AcDbVertex
100
AcDb3dPolylineVertex
 10
228.8962
 20
-37.66579999999999
 30
0.0
 70
    32
  0
VERTEX
  5
57D5
330
575E
100
AcDbEntity
  8
241
  6
Continuous
100
AcDbVertex
100
AcDb3dPolylineVertex
 10
228.8204
 20
-37.67519999999999
 30
0.0
 70
    32
  0
VERTEX
  5
57D6
330
575E
100
AcDbEntity
  8
241
  6
Continuous
100
AcDbVertex
100
AcDb3dPolylineVertex
 10
228.7445
 20
-37.68379999999999
 30
0.0
 70
    32
  0
VERTEX
  5
57D7
330
575E
100
AcDbEntity
  8
241
  6
Continuous
100
AcDbVertex
100
AcDb3dPolylineVertex
 10
228.6686
 20
-37.69159999999999
 30
0.0
 70
    32
  0
VERTEX
  5
57D8
330
575E
100
AcDbEntity
  8
241
  6
Continuous
100
AcDbVertex
100
AcDb3dPolylineVertex
 10
228.5926
 20
-37.6985
 30
0.0
 70
    32
  0
VERTEX
  5
57D9
330
575E
100
AcDbEntity
  8
241
  6
Continuous
100
AcDbVertex
100
AcDb3dPolylineVertex
 10
228.5166
 20
-37.70459999999999
 30
0.0
 70
    32
  0
VERTEX
  5
57DA
330
575E
100
AcDbEntity
  8
241
  6
Continuous
100
AcDbVertex
100
AcDb3dPolylineVertex
 10
228.4405
 20
-37.70989999999998
 30
0.0
 70
    32
  0
VERTEX
  5
57DB
330
575E
100
AcDbEntity
  8
241
  6
Continuous
100
AcDbVertex
100
AcDb3dPolylineVertex
 10
228.3644
 20
-37.71429999999997
 30
0.0
 70
    32
  0
VERTEX
  5
57DC
330
575E
100
AcDbEntity
  8
241
  6
Continuous
100
AcDbVertex
100
AcDb3dPolylineVertex
 10
228.2882
 20
-37.71789999999999
 30
0.0
 70
    32
  0
VERTEX
  5
57DD
330
575E
100
AcDbEntity
  8
241
  6
Continuous
100
AcDbVertex
100
AcDb3dPolylineVertex
 10
228.212
 20
-37.72069999999999
 30
0.0
 70
    32
  0
VERTEX
  5
57DE
330
575E
100
AcDbEntity
  8
241
  6
Continuous
100
AcDbVertex
100
AcDb3dPolylineVertex
 10
228.1358
 20
-37.72259999999999
 30
0.0
 70
    32
  0
VERTEX
  5
57DF
330
575E
100
AcDbEntity
  8
241
  6
Continuous
100
AcDbVertex
100
AcDb3dPolylineVertex
 10
228.0596
 20
-37.72369999999998
 30
0.0
 70
    32
  0
SEQEND
  5
57E0
330
575E
100
AcDbEntity
  8
241
  6
Continuous
  0
POLYLINE
  5
57E1
330
1A
100
AcDbEntity
  8
241
  6
Continuous
100
AcDb3dPolyline
 66
     1
 10
0.0
 20
0.0
 30
0.0
 70
     8
  0
VERTEX
  5
57E2
330
57E1
100
AcDbEntity
  8
241
  6
Continuous
100
AcDbVertex
100
AcDb3dPolylineVertex
 10
220.785
 20
-32.25779999999999
 30
0.0
 70
    32
  0
VERTEX
  5
57E3
330
57E1
100
AcDbEntity
  8
241
  6
Continuous
100
AcDbVertex
100
AcDb3dPolylineVertex
 10
220.7982
 20
-32.2884
 30
0.0
 70
    32
  0
VERTEX
  5
57E4
330
57E1
100
AcDbEntity
  8
241
  6
Continuous
100
AcDbVertex
100
AcDb3dPolylineVertex
 10
220.8114
 20
-32.31889999999999
 30
0.0
 70
    32
  0
VERTEX
  5
57E5
330
57E1
100
AcDbEntity
  8
241
  6
Continuous
100
AcDbVertex
100
AcDb3dPolylineVertex
 10
220.8248
 20
-32.34949999999998
 30
0.0
 70
    32
  0
VERTEX
  5
57E6
330
57E1
100
AcDbEntity
  8
241
  6
Continuous
100
AcDbVertex
100
AcDb3dPolylineVertex
 10
220.8382
 20
-32.37989999999999
 30
0.0
 70
    32
  0
VERTEX
  5
57E7
330
57E1
100
AcDbEntity
  8
241
  6
Continuous
100
AcDbVertex
100
AcDb3dPolylineVertex
 10
220.8518
 20
-32.41039999999998
 30
0.0
 70
    32
  0
VERTEX
  5
57E8
330
57E1
100
AcDbEntity
  8
241
  6
Continuous
100
AcDbVertex
100
AcDb3dPolylineVertex
 10
220.8654
 20
-32.4408
 30
0.0
 70
    32
  0
VERTEX
  5
57E9
330
57E1
100
AcDbEntity
  8
241
  6
Continuous
100
AcDbVertex
100
AcDb3dPolylineVertex
 10
220.8792
 20
-32.47109999999998
 30
0.0
 70
    32
  0
VERTEX
  5
57EA
330
57E1
100
AcDbEntity
  8
241
  6
Continuous
100
AcDbVertex
100
AcDb3dPolylineVertex
 10
220.893
 20
-32.50139999999999
 30
0.0
 70
    32
  0
VERTEX
  5
57EB
330
57E1
100
AcDbEntity
  8
241
  6
Continuous
100
AcDbVertex
100
AcDb3dPolylineVertex
 10
220.907
 20
-32.53159999999998
 30
0.0
 70
    32
  0
VERTEX
  5
57EC
330
57E1
100
AcDbEntity
  8
241
  6
Continuous
100
AcDbVertex
100
AcDb3dPolylineVertex
 10
220.9211
 20
-32.56179999999999
 30
0.0
 70
    32
  0
VERTEX
  5
57ED
330
57E1
100
AcDbEntity
  8
241
  6
Continuous
100
AcDbVertex
100
AcDb3dPolylineVertex
 10
220.9352
 20
-32.59199999999998
 30
0.0
 70
    32
  0
VERTEX
  5
57EE
330
57E1
100
AcDbEntity
  8
241
  6
Continuous
100
AcDbVertex
100
AcDb3dPolylineVertex
 10
220.9495
 20
-32.62209999999999
 30
0.0
 70
    32
  0
VERTEX
  5
57EF
330
57E1
100
AcDbEntity
  8
241
  6
Continuous
100
AcDbVertex
100
AcDb3dPolylineVertex
 10
220.9638
 20
-32.65209999999999
 30
0.0
 70
    32
  0
VERTEX
  5
57F0
330
57E1
100
AcDbEntity
  8
241
  6
Continuous
100
AcDbVertex
100
AcDb3dPolylineVertex
 10
220.9783
 20
-32.68219999999999
 30
0.0
 70
    32
  0
VERTEX
  5
57F1
330
57E1
100
AcDbEntity
  8
241
  6
Continuous
100
AcDbVertex
100
AcDb3dPolylineVertex
 10
220.9929
 20
-32.71209999999999
 30
0.0
 70
    32
  0
VERTEX
  5
57F2
330
57E1
100
AcDbEntity
  8
241
  6
Continuous
100
AcDbVertex
100
AcDb3dPolylineVertex
 10
221.0075
 20
-32.74199999999999
 30
0.0
 70
    32
  0
VERTEX
  5
57F3
330
57E1
100
AcDbEntity
  8
241
  6
Continuous
100
AcDbVertex
100
AcDb3dPolylineVertex
 10
221.0223
 20
-32.77189999999999
 30
0.0
 70
    32
  0
VERTEX
  5
57F4
330
57E1
100
AcDbEntity
  8
241
  6
Continuous
100
AcDbVertex
100
AcDb3dPolylineVertex
 10
221.0372
 20
-32.80169999999998
 30
0.0
 70
    32
  0
VERTEX
  5
57F5
330
57E1
100
AcDbEntity
  8
241
  6
Continuous
100
AcDbVertex
100
AcDb3dPolylineVertex
 10
221.0521
 20
-32.83139999999999
 30
0.0
 70
    32
  0
VERTEX
  5
57F6
330
57E1
100
AcDbEntity
  8
241
  6
Continuous
100
AcDbVertex
100
AcDb3dPolylineVertex
 10
221.0672
 20
-32.86109999999999
 30
0.0
 70
    32
  0
VERTEX
  5
57F7
330
57E1
100
AcDbEntity
  8
241
  6
Continuous
100
AcDbVertex
100
AcDb3dPolylineVertex
 10
221.0823
 20
-32.89079999999998
 30
0.0
 70
    32
  0
VERTEX
  5
57F8
330
57E1
100
AcDbEntity
  8
241
  6
Continuous
100
AcDbVertex
100
AcDb3dPolylineVertex
 10
221.0976
 20
-32.9204
 30
0.0
 70
    32
  0
VERTEX
  5
57F9
330
57E1
100
AcDbEntity
  8
241
  6
Continuous
100
AcDbVertex
100
AcDb3dPolylineVertex
 10
221.113
 20
-32.94999999999999
 30
0.0
 70
    32
  0
VERTEX
  5
57FA
330
57E1
100
AcDbEntity
  8
241
  6
Continuous
100
AcDbVertex
100
AcDb3dPolylineVertex
 10
221.1284
 20
-32.97949999999999
 30
0.0
 70
    32
  0
VERTEX
  5
57FB
330
57E1
100
AcDbEntity
  8
241
  6
Continuous
100
AcDbVertex
100
AcDb3dPolylineVertex
 10
221.144
 20
-33.00889999999998
 30
0.0
 70
    32
  0
VERTEX
  5
57FC
330
57E1
100
AcDbEntity
  8
241
  6
Continuous
100
AcDbVertex
100
AcDb3dPolylineVertex
 10
221.1597
 20
-33.0383
 30
0.0
 70
    32
  0
VERTEX
  5
57FD
330
57E1
100
AcDbEntity
  8
241
  6
Continuous
100
AcDbVertex
100
AcDb3dPolylineVertex
 10
221.1754
 20
-33.06769999999999
 30
0.0
 70
    32
  0
VERTEX
  5
57FE
330
57E1
100
AcDbEntity
  8
241
  6
Continuous
100
AcDbVertex
100
AcDb3dPolylineVertex
 10
221.1913
 20
-33.09689999999998
 30
0.0
 70
    32
  0
VERTEX
  5
57FF
330
57E1
100
AcDbEntity
  8
241
  6
Continuous
100
AcDbVertex
100
AcDb3dPolylineVertex
 10
221.2072
 20
-33.12619999999999
 30
0.0
 70
    32
  0
VERTEX
  5
5800
330
57E1
100
AcDbEntity
  8
241
  6
Continuous
100
AcDbVertex
100
AcDb3dPolylineVertex
 10
221.2233
 20
-33.15539999999999
 30
0.0
 70
    32
  0
VERTEX
  5
5801
330
57E1
100
AcDbEntity
  8
241
  6
Continuous
100
AcDbVertex
100
AcDb3dPolylineVertex
 10
221.2394
 20
-33.18449999999999
 30
0.0
 70
    32
  0
VERTEX
  5
5802
330
57E1
100
AcDbEntity
  8
241
  6
Continuous
100
AcDbVertex
100
AcDb3dPolylineVertex
 10
221.2557
 20
-33.21359999999998
 30
0.0
 70
    32
  0
VERTEX
  5
5803
330
57E1
100
AcDbEntity
  8
241
  6
Continuous
100
AcDbVertex
100
AcDb3dPolylineVertex
 10
221.272
 20
-33.24259999999998
 30
0.0
 70
    32
  0
VERTEX
  5
5804
330
57E1
100
AcDbEntity
  8
241
  6
Continuous
100
AcDbVertex
100
AcDb3dPolylineVertex
 10
221.2885
 20
-33.27159999999998
 30
0.0
 70
    32
  0
VERTEX
  5
5805
330
57E1
100
AcDbEntity
  8
241
  6
Continuous
100
AcDbVertex
100
AcDb3dPolylineVertex
 10
221.305
 20
-33.30049999999999
 30
0.0
 70
    32
  0
VERTEX
  5
5806
330
57E1
100
AcDbEntity
  8
241
  6
Continuous
100
AcDbVertex
100
AcDb3dPolylineVertex
 10
221.3216
 20
-33.32939999999999
 30
0.0
 70
    32
  0
VERTEX
  5
5807
330
57E1
100
AcDbEntity
  8
241
  6
Continuous
100
AcDbVertex
100
AcDb3dPolylineVertex
 10
221.3384
 20
-33.35819999999998
 30
0.0
 70
    32
  0
VERTEX
  5
5808
330
57E1
100
AcDbEntity
  8
241
  6
Continuous
100
AcDbVertex
100
AcDb3dPolylineVertex
 10
221.3552
 20
-33.38689999999998
 30
0.0
 70
    32
  0
VERTEX
  5
5809
330
57E1
100
AcDbEntity
  8
241
  6
Continuous
100
AcDbVertex
100
AcDb3dPolylineVertex
 10
221.3721
 20
-33.41559999999998
 30
0.0
 70
    32
  0
VERTEX
  5
580A
330
57E1
100
AcDbEntity
  8
241
  6
Continuous
100
AcDbVertex
100
AcDb3dPolylineVertex
 10
221.3892
 20
-33.44429999999999
 30
0.0
 70
    32
  0
VERTEX
  5
580B
330
57E1
100
AcDbEntity
  8
241
  6
Continuous
100
AcDbVertex
100
AcDb3dPolylineVertex
 10
221.4063
 20
-33.47289999999998
 30
0.0
 70
    32
  0
VERTEX
  5
580C
330
57E1
100
AcDbEntity
  8
241
  6
Continuous
100
AcDbVertex
100
AcDb3dPolylineVertex
 10
221.4235
 20
-33.50139999999999
 30
0.0
 70
    32
  0
VERTEX
  5
580D
330
57E1
100
AcDbEntity
  8
241
  6
Continuous
100
AcDbVertex
100
AcDb3dPolylineVertex
 10
221.4408
 20
-33.52989999999998
 30
0.0
 70
    32
  0
VERTEX
  5
580E
330
57E1
100
AcDbEntity
  8
241
  6
Continuous
100
AcDbVertex
100
AcDb3dPolylineVertex
 10
221.4582
 20
-33.55829999999999
 30
0.0
 70
    32
  0
VERTEX
  5
580F
330
57E1
100
AcDbEntity
  8
241
  6
Continuous
100
AcDbVertex
100
AcDb3dPolylineVertex
 10
221.4757
 20
-33.58659999999999
 30
0.0
 70
    32
  0
VERTEX
  5
5810
330
57E1
100
AcDbEntity
  8
241
  6
Continuous
100
AcDbVertex
100
AcDb3dPolylineVertex
 10
221.4933
 20
-33.61489999999998
 30
0.0
 70
    32
  0
VERTEX
  5
5811
330
57E1
100
AcDbEntity
  8
241
  6
Continuous
100
AcDbVertex
100
AcDb3dPolylineVertex
 10
221.511
 20
-33.64319999999998
 30
0.0
 70
    32
  0
VERTEX
  5
5812
330
57E1
100
AcDbEntity
  8
241
  6
Continuous
100
AcDbVertex
100
AcDb3dPolylineVertex
 10
221.5288
 20
-33.67139999999999
 30
0.0
 70
    32
  0
VERTEX
  5
5813
330
57E1
100
AcDbEntity
  8
241
  6
Continuous
100
AcDbVertex
100
AcDb3dPolylineVertex
 10
221.5467
 20
-33.69949999999999
 30
0.0
 70
    32
  0
VERTEX
  5
5814
330
57E1
100
AcDbEntity
  8
241
  6
Continuous
100
AcDbVertex
100
AcDb3dPolylineVertex
 10
221.5647
 20
-33.72749999999999
 30
0.0
 70
    32
  0
VERTEX
  5
5815
330
57E1
100
AcDbEntity
  8
241
  6
Continuous
100
AcDbVertex
100
AcDb3dPolylineVertex
 10
221.5828
 20
-33.75559999999999
 30
0.0
 70
    32
  0
VERTEX
  5
5816
330
57E1
100
AcDbEntity
  8
241
  6
Continuous
100
AcDbVertex
100
AcDb3dPolylineVertex
 10
221.6009
 20
-33.78349999999997
 30
0.0
 70
    32
  0
VERTEX
  5
5817
330
57E1
100
AcDbEntity
  8
241
  6
Continuous
100
AcDbVertex
100
AcDb3dPolylineVertex
 10
221.6192
 20
-33.81139999999999
 30
0.0
 70
    32
  0
VERTEX
  5
5818
330
57E1
100
AcDbEntity
  8
241
  6
Continuous
100
AcDbVertex
100
AcDb3dPolylineVertex
 10
221.6376
 20
-33.83919999999998
 30
0.0
 70
    32
  0
VERTEX
  5
5819
330
57E1
100
AcDbEntity
  8
241
  6
Continuous
100
AcDbVertex
100
AcDb3dPolylineVertex
 10
221.656
 20
-33.86699999999999
 30
0.0
 70
    32
  0
VERTEX
  5
581A
330
57E1
100
AcDbEntity
  8
241
  6
Continuous
100
AcDbVertex
100
AcDb3dPolylineVertex
 10
221.6746
 20
-33.89469999999999
 30
0.0
 70
    32
  0
VERTEX
  5
581B
330
57E1
100
AcDbEntity
  8
241
  6
Continuous
100
AcDbVertex
100
AcDb3dPolylineVertex
 10
221.6932
 20
-33.92229999999998
 30
0.0
 70
    32
  0
VERTEX
  5
581C
330
57E1
100
AcDbEntity
  8
241
  6
Continuous
100
AcDbVertex
100
AcDb3dPolylineVertex
 10
221.712
 20
-33.94989999999999
 30
0.0
 70
    32
  0
VERTEX
  5
581D
330
57E1
100
AcDbEntity
  8
241
  6
Continuous
100
AcDbVertex
100
AcDb3dPolylineVertex
 10
221.7308
 20
-33.97749999999999
 30
0.0
 70
    32
  0
VERTEX
  5
581E
330
57E1
100
AcDbEntity
  8
241
  6
Continuous
100
AcDbVertex
100
AcDb3dPolylineVertex
 10
221.7497
 20
-34.0049
 30
0.0
 70
    32
  0
VERTEX
  5
581F
330
57E1
100
AcDbEntity
  8
241
  6
Continuous
100
AcDbVertex
100
AcDb3dPolylineVertex
 10
221.7688
 20
-34.03229999999999
 30
0.0
 70
    32
  0
VERTEX
  5
5820
330
57E1
100
AcDbEntity
  8
241
  6
Continuous
100
AcDbVertex
100
AcDb3dPolylineVertex
 10
221.7879
 20
-34.05969999999999
 30
0.0
 70
    32
  0
VERTEX
  5
5821
330
57E1
100
AcDbEntity
  8
241
  6
Continuous
100
AcDbVertex
100
AcDb3dPolylineVertex
 10
221.8071
 20
-34.08699999999999
 30
0.0
 70
    32
  0
VERTEX
  5
5822
330
57E1
100
AcDbEntity
  8
241
  6
Continuous
100
AcDbVertex
100
AcDb3dPolylineVertex
 10
221.8264
 20
-34.11419999999998
 30
0.0
 70
    32
  0
VERTEX
  5
5823
330
57E1
100
AcDbEntity
  8
241
  6
Continuous
100
AcDbVertex
100
AcDb3dPolylineVertex
 10
221.8458
 20
-34.1413
 30
0.0
 70
    32
  0
VERTEX
  5
5824
330
57E1
100
AcDbEntity
  8
241
  6
Continuous
100
AcDbVertex
100
AcDb3dPolylineVertex
 10
221.8652
 20
-34.16839999999999
 30
0.0
 70
    32
  0
VERTEX
  5
5825
330
57E1
100
AcDbEntity
  8
241
  6
Continuous
100
AcDbVertex
100
AcDb3dPolylineVertex
 10
221.8848
 20
-34.19539999999998
 30
0.0
 70
    32
  0
VERTEX
  5
5826
330
57E1
100
AcDbEntity
  8
241
  6
Continuous
100
AcDbVertex
100
AcDb3dPolylineVertex
 10
221.9045
 20
-34.22239999999999
 30
0.0
 70
    32
  0
VERTEX
  5
5827
330
57E1
100
AcDbEntity
  8
241
  6
Continuous
100
AcDbVertex
100
AcDb3dPolylineVertex
 10
221.9243
 20
-34.24929999999998
 30
0.0
 70
    32
  0
VERTEX
  5
5828
330
57E1
100
AcDbEntity
  8
241
  6
Continuous
100
AcDbVertex
100
AcDb3dPolylineVertex
 10
221.9441
 20
-34.2761
 30
0.0
 70
    32
  0
VERTEX
  5
5829
330
57E1
100
AcDbEntity
  8
241
  6
Continuous
100
AcDbVertex
100
AcDb3dPolylineVertex
 10
221.9641
 20
-34.30289999999999
 30
0.0
 70
    32
  0
VERTEX
  5
582A
330
57E1
100
AcDbEntity
  8
241
  6
Continuous
100
AcDbVertex
100
AcDb3dPolylineVertex
 10
221.9841
 20
-34.3296
 30
0.0
 70
    32
  0
VERTEX
  5
582B
330
57E1
100
AcDbEntity
  8
241
  6
Continuous
100
AcDbVertex
100
AcDb3dPolylineVertex
 10
222.0042
 20
-34.35619999999999
 30
0.0
 70
    32
  0
VERTEX
  5
582C
330
57E1
100
AcDbEntity
  8
241
  6
Continuous
100
AcDbVertex
100
AcDb3dPolylineVertex
 10
222.0244
 20
-34.38279999999999
 30
0.0
 70
    32
  0
VERTEX
  5
582D
330
57E1
100
AcDbEntity
  8
241
  6
Continuous
100
AcDbVertex
100
AcDb3dPolylineVertex
 10
222.0447
 20
-34.40919999999998
 30
0.0
 70
    32
  0
VERTEX
  5
582E
330
57E1
100
AcDbEntity
  8
241
  6
Continuous
100
AcDbVertex
100
AcDb3dPolylineVertex
 10
222.065
 20
-34.4356
 30
0.0
 70
    32
  0
VERTEX
  5
582F
330
57E1
100
AcDbEntity
  8
241
  6
Continuous
100
AcDbVertex
100
AcDb3dPolylineVertex
 10
222.0854
 20
-34.46179999999998
 30
0.0
 70
    32
  0
VERTEX
  5
5830
330
57E1
100
AcDbEntity
  8
241
  6
Continuous
100
AcDbVertex
100
AcDb3dPolylineVertex
 10
222.1059
 20
-34.48799999999998
 30
0.0
 70
    32
  0
VERTEX
  5
5831
330
57E1
100
AcDbEntity
  8
241
  6
Continuous
100
AcDbVertex
100
AcDb3dPolylineVertex
 10
222.1264
 20
-34.51409999999999
 30
0.0
 70
    32
  0
VERTEX
  5
5832
330
57E1
100
AcDbEntity
  8
241
  6
Continuous
100
AcDbVertex
100
AcDb3dPolylineVertex
 10
222.147
 20
-34.53999999999999
 30
0.0
 70
    32
  0
VERTEX
  5
5833
330
57E1
100
AcDbEntity
  8
241
  6
Continuous
100
AcDbVertex
100
AcDb3dPolylineVertex
 10
222.1677
 20
-34.56589999999998
 30
0.0
 70
    32
  0
VERTEX
  5
5834
330
57E1
100
AcDbEntity
  8
241
  6
Continuous
100
AcDbVertex
100
AcDb3dPolylineVertex
 10
222.1884
 20
-34.59169999999999
 30
0.0
 70
    32
  0
VERTEX
  5
5835
330
57E1
100
AcDbEntity
  8
241
  6
Continuous
100
AcDbVertex
100
AcDb3dPolylineVertex
 10
222.2092
 20
-34.61739999999999
 30
0.0
 70
    32
  0
VERTEX
  5
5836
330
57E1
100
AcDbEntity
  8
241
  6
Continuous
100
AcDbVertex
100
AcDb3dPolylineVertex
 10
222.2301
 20
-34.643
 30
0.0
 70
    32
  0
VERTEX
  5
5837
330
57E1
100
AcDbEntity
  8
241
  6
Continuous
100
AcDbVertex
100
AcDb3dPolylineVertex
 10
222.251
 20
-34.66849999999999
 30
0.0
 70
    32
  0
VERTEX
  5
5838
330
57E1
100
AcDbEntity
  8
241
  6
Continuous
100
AcDbVertex
100
AcDb3dPolylineVertex
 10
222.272
 20
-34.69389999999999
 30
0.0
 70
    32
  0
VERTEX
  5
5839
330
57E1
100
AcDbEntity
  8
241
  6
Continuous
100
AcDbVertex
100
AcDb3dPolylineVertex
 10
222.2931
 20
-34.71919999999999
 30
0.0
 70
    32
  0
VERTEX
  5
583A
330
57E1
100
AcDbEntity
  8
241
  6
Continuous
100
AcDbVertex
100
AcDb3dPolylineVertex
 10
222.3142
 20
-34.74439999999999
 30
0.0
 70
    32
  0
VERTEX
  5
583B
330
57E1
100
AcDbEntity
  8
241
  6
Continuous
100
AcDbVertex
100
AcDb3dPolylineVertex
 10
222.3354
 20
-34.76959999999998
 30
0.0
 70
    32
  0
VERTEX
  5
583C
330
57E1
100
AcDbEntity
  8
241
  6
Continuous
100
AcDbVertex
100
AcDb3dPolylineVertex
 10
222.3567
 20
-34.79459999999999
 30
0.0
 70
    32
  0
VERTEX
  5
583D
330
57E1
100
AcDbEntity
  8
241
  6
Continuous
100
AcDbVertex
100
AcDb3dPolylineVertex
 10
222.378
 20
-34.81949999999998
 30
0.0
 70
    32
  0
VERTEX
  5
583E
330
57E1
100
AcDbEntity
  8
241
  6
Continuous
100
AcDbVertex
100
AcDb3dPolylineVertex
 10
222.3994
 20
-34.84439999999998
 30
0.0
 70
    32
  0
VERTEX
  5
583F
330
57E1
100
AcDbEntity
  8
241
  6
Continuous
100
AcDbVertex
100
AcDb3dPolylineVertex
 10
222.4208
 20
-34.86909999999999
 30
0.0
 70
    32
  0
VERTEX
  5
5840
330
57E1
100
AcDbEntity
  8
241
  6
Continuous
100
AcDbVertex
100
AcDb3dPolylineVertex
 10
222.4423
 20
-34.89379999999999
 30
0.0
 70
    32
  0
VERTEX
  5
5841
330
57E1
100
AcDbEntity
  8
241
  6
Continuous
100
AcDbVertex
100
AcDb3dPolylineVertex
 10
222.4639
 20
-34.91829999999999
 30
0.0
 70
    32
  0
VERTEX
  5
5842
330
57E1
100
AcDbEntity
  8
241
  6
Continuous
100
AcDbVertex
100
AcDb3dPolylineVertex
 10
222.4855
 20
-34.94279999999998
 30
0.0
 70
    32
  0
VERTEX
  5
5843
330
57E1
100
AcDbEntity
  8
241
  6
Continuous
100
AcDbVertex
100
AcDb3dPolylineVertex
 10
222.5072
 20
-34.96709999999999
 30
0.0
 70
    32
  0
VERTEX
  5
5844
330
57E1
100
AcDbEntity
  8
241
  6
Continuous
100
AcDbVertex
100
AcDb3dPolylineVertex
 10
222.529
 20
-34.99139999999999
 30
0.0
 70
    32
  0
VERTEX
  5
5845
330
57E1
100
AcDbEntity
  8
241
  6
Continuous
100
AcDbVertex
100
AcDb3dPolylineVertex
 10
222.5508
 20
-35.01559999999998
 30
0.0
 70
    32
  0
VERTEX
  5
5846
330
57E1
100
AcDbEntity
  8
241
  6
Continuous
100
AcDbVertex
100
AcDb3dPolylineVertex
 10
222.5727
 20
-35.03959999999998
 30
0.0
 70
    32
  0
VERTEX
  5
5847
330
57E1
100
AcDbEntity
  8
241
  6
Continuous
100
AcDbVertex
100
AcDb3dPolylineVertex
 10
222.5946
 20
-35.06359999999998
 30
0.0
 70
    32
  0
VERTEX
  5
5848
330
57E1
100
AcDbEntity
  8
241
  6
Continuous
100
AcDbVertex
100
AcDb3dPolylineVertex
 10
222.6166
 20
-35.08749999999999
 30
0.0
 70
    32
  0
VERTEX
  5
5849
330
57E1
100
AcDbEntity
  8
241
  6
Continuous
100
AcDbVertex
100
AcDb3dPolylineVertex
 10
222.6387
 20
-35.1113
 30
0.0
 70
    32
  0
VERTEX
  5
584A
330
57E1
100
AcDbEntity
  8
241
  6
Continuous
100
AcDbVertex
100
AcDb3dPolylineVertex
 10
222.6608
 20
-35.13489999999999
 30
0.0
 70
    32
  0
VERTEX
  5
584B
330
57E1
100
AcDbEntity
  8
241
  6
Continuous
100
AcDbVertex
100
AcDb3dPolylineVertex
 10
222.683
 20
-35.15849999999999
 30
0.0
 70
    32
  0
VERTEX
  5
584C
330
57E1
100
AcDbEntity
  8
241
  6
Continuous
100
AcDbVertex
100
AcDb3dPolylineVertex
 10
222.7052
 20
-35.18199999999999
 30
0.0
 70
    32
  0
VERTEX
  5
584D
330
57E1
100
AcDbEntity
  8
241
  6
Continuous
100
AcDbVertex
100
AcDb3dPolylineVertex
 10
222.7275
 20
-35.20539999999999
 30
0.0
 70
    32
  0
VERTEX
  5
584E
330
57E1
100
AcDbEntity
  8
241
  6
Continuous
100
AcDbVertex
100
AcDb3dPolylineVertex
 10
222.7498
 20
-35.22869999999999
 30
0.0
 70
    32
  0
VERTEX
  5
584F
330
57E1
100
AcDbEntity
  8
241
  6
Continuous
100
AcDbVertex
100
AcDb3dPolylineVertex
 10
222.7722
 20
-35.25189999999998
 30
0.0
 70
    32
  0
VERTEX
  5
5850
330
57E1
100
AcDbEntity
  8
241
  6
Continuous
100
AcDbVertex
100
AcDb3dPolylineVertex
 10
222.7947
 20
-35.27499999999998
 30
0.0
 70
    32
  0
VERTEX
  5
5851
330
57E1
100
AcDbEntity
  8
241
  6
Continuous
100
AcDbVertex
100
AcDb3dPolylineVertex
 10
222.8172
 20
-35.29799999999999
 30
0.0
 70
    32
  0
VERTEX
  5
5852
330
57E1
100
AcDbEntity
  8
241
  6
Continuous
100
AcDbVertex
100
AcDb3dPolylineVertex
 10
222.8398
 20
-35.3209
 30
0.0
 70
    32
  0
VERTEX
  5
5853
330
57E1
100
AcDbEntity
  8
241
  6
Continuous
100
AcDbVertex
100
AcDb3dPolylineVertex
 10
222.8624
 20
-35.34369999999999
 30
0.0
 70
    32
  0
VERTEX
  5
5854
330
57E1
100
AcDbEntity
  8
241
  6
Continuous
100
AcDbVertex
100
AcDb3dPolylineVertex
 10
222.8851
 20
-35.36639999999998
 30
0.0
 70
    32
  0
VERTEX
  5
5855
330
57E1
100
AcDbEntity
  8
241
  6
Continuous
100
AcDbVertex
100
AcDb3dPolylineVertex
 10
222.9078
 20
-35.38899999999998
 30
0.0
 70
    32
  0
VERTEX
  5
5856
330
57E1
100
AcDbEntity
  8
241
  6
Continuous
100
AcDbVertex
100
AcDb3dPolylineVertex
 10
222.9306
 20
-35.41149999999999
 30
0.0
 70
    32
  0
VERTEX
  5
5857
330
57E1
100
AcDbEntity
  8
241
  6
Continuous
100
AcDbVertex
100
AcDb3dPolylineVertex
 10
222.9535
 20
-35.4339
 30
0.0
 70
    32
  0
VERTEX
  5
5858
330
57E1
100
AcDbEntity
  8
241
  6
Continuous
100
AcDbVertex
100
AcDb3dPolylineVertex
 10
222.9763
 20
-35.45619999999999
 30
0.0
 70
    32
  0
VERTEX
  5
5859
330
57E1
100
AcDbEntity
  8
241
  6
Continuous
100
AcDbVertex
100
AcDb3dPolylineVertex
 10
222.9993
 20
-35.47839999999999
 30
0.0
 70
    32
  0
VERTEX
  5
585A
330
57E1
100
AcDbEntity
  8
241
  6
Continuous
100
AcDbVertex
100
AcDb3dPolylineVertex
 10
223.0223
 20
-35.50049999999999
 30
0.0
 70
    32
  0
VERTEX
  5
585B
330
57E1
100
AcDbEntity
  8
241
  6
Continuous
100
AcDbVertex
100
AcDb3dPolylineVertex
 10
223.0454
 20
-35.52249999999998
 30
0.0
 70
    32
  0
VERTEX
  5
585C
330
57E1
100
AcDbEntity
  8
241
  6
Continuous
100
AcDbVertex
100
AcDb3dPolylineVertex
 10
223.0685
 20
-35.5444
 30
0.0
 70
    32
  0
VERTEX
  5
585D
330
57E1
100
AcDbEntity
  8
241
  6
Continuous
100
AcDbVertex
100
AcDb3dPolylineVertex
 10
223.0916
 20
-35.56619999999997
 30
0.0
 70
    32
  0
VERTEX
  5
585E
330
57E1
100
AcDbEntity
  8
241
  6
Continuous
100
AcDbVertex
100
AcDb3dPolylineVertex
 10
223.1148
 20
-35.58789999999999
 30
0.0
 70
    32
  0
VERTEX
  5
585F
330
57E1
100
AcDbEntity
  8
241
  6
Continuous
100
AcDbVertex
100
AcDb3dPolylineVertex
 10
223.1381
 20
-35.60949999999998
 30
0.0
 70
    32
  0
VERTEX
  5
5860
330
57E1
100
AcDbEntity
  8
241
  6
Continuous
100
AcDbVertex
100
AcDb3dPolylineVertex
 10
223.1614
 20
-35.63099999999999
 30
0.0
 70
    32
  0
VERTEX
  5
5861
330
57E1
100
AcDbEntity
  8
241
  6
Continuous
100
AcDbVertex
100
AcDb3dPolylineVertex
 10
223.1847
 20
-35.65239999999999
 30
0.0
 70
    32
  0
VERTEX
  5
5862
330
57E1
100
AcDbEntity
  8
241
  6
Continuous
100
AcDbVertex
100
AcDb3dPolylineVertex
 10
223.2082
 20
-35.67369999999999
 30
0.0
 70
    32
  0
VERTEX
  5
5863
330
57E1
100
AcDbEntity
  8
241
  6
Continuous
100
AcDbVertex
100
AcDb3dPolylineVertex
 10
223.2316
 20
-35.69489999999999
 30
0.0
 70
    32
  0
VERTEX
  5
5864
330
57E1
100
AcDbEntity
  8
241
  6
Continuous
100
AcDbVertex
100
AcDb3dPolylineVertex
 10
223.2551
 20
-35.71599999999996
 30
0.0
 70
    32
  0
VERTEX
  5
5865
330
57E1
100
AcDbEntity
  8
241
  6
Continuous
100
AcDbVertex
100
AcDb3dPolylineVertex
 10
223.2787
 20
-35.73699999999997
 30
0.0
 70
    32
  0
VERTEX
  5
5866
330
57E1
100
AcDbEntity
  8
241
  6
Continuous
100
AcDbVertex
100
AcDb3dPolylineVertex
 10
223.3023
 20
-35.75789999999998
 30
0.0
 70
    32
  0
VERTEX
  5
5867
330
57E1
100
AcDbEntity
  8
241
  6
Continuous
100
AcDbVertex
100
AcDb3dPolylineVertex
 10
223.3259
 20
-35.77869999999999
 30
0.0
 70
    32
  0
VERTEX
  5
5868
330
57E1
100
AcDbEntity
  8
241
  6
Continuous
100
AcDbVertex
100
AcDb3dPolylineVertex
 10
223.3496
 20
-35.79939999999999
 30
0.0
 70
    32
  0
VERTEX
  5
5869
330
57E1
100
AcDbEntity
  8
241
  6
Continuous
100
AcDbVertex
100
AcDb3dPolylineVertex
 10
223.3734
 20
-35.81999999999999
 30
0.0
 70
    32
  0
VERTEX
  5
586A
330
57E1
100
AcDbEntity
  8
241
  6
Continuous
100
AcDbVertex
100
AcDb3dPolylineVertex
 10
223.3972
 20
-35.84049999999999
 30
0.0
 70
    32
  0
VERTEX
  5
586B
330
57E1
100
AcDbEntity
  8
241
  6
Continuous
100
AcDbVertex
100
AcDb3dPolylineVertex
 10
223.421
 20
-35.86089999999999
 30
0.0
 70
    32
  0
VERTEX
  5
586C
330
57E1
100
AcDbEntity
  8
241
  6
Continuous
100
AcDbVertex
100
AcDb3dPolylineVertex
 10
223.4449
 20
-35.88119999999998
 30
0.0
 70
    32
  0
VERTEX
  5
586D
330
57E1
100
AcDbEntity
  8
241
  6
Continuous
100
AcDbVertex
100
AcDb3dPolylineVertex
 10
223.4688
 20
-35.90129999999999
 30
0.0
 70
    32
  0
VERTEX
  5
586E
330
57E1
100
AcDbEntity
  8
241
  6
Continuous
100
AcDbVertex
100
AcDb3dPolylineVertex
 10
223.4928
 20
-35.92139999999998
 30
0.0
 70
    32
  0
VERTEX
  5
586F
330
57E1
100
AcDbEntity
  8
241
  6
Continuous
100
AcDbVertex
100
AcDb3dPolylineVertex
 10
223.5168
 20
-35.94139999999999
 30
0.0
 70
    32
  0
VERTEX
  5
5870
330
57E1
100
AcDbEntity
  8
241
  6
Continuous
100
AcDbVertex
100
AcDb3dPolylineVertex
 10
223.5409
 20
-35.9613
 30
0.0
 70
    32
  0
VERTEX
  5
5871
330
57E1
100
AcDbEntity
  8
241
  6
Continuous
100
AcDbVertex
100
AcDb3dPolylineVertex
 10
223.565
 20
-35.981
 30
0.0
 70
    32
  0
VERTEX
  5
5872
330
57E1
100
AcDbEntity
  8
241
  6
Continuous
100
AcDbVertex
100
AcDb3dPolylineVertex
 10
223.5891
 20
-36.0007
 30
0.0
 70
    32
  0
VERTEX
  5
5873
330
57E1
100
AcDbEntity
  8
241
  6
Continuous
100
AcDbVertex
100
AcDb3dPolylineVertex
 10
223.6133
 20
-36.02029999999999
 30
0.0
 70
    32
  0
VERTEX
  5
5874
330
57E1
100
AcDbEntity
  8
241
  6
Continuous
100
AcDbVertex
100
AcDb3dPolylineVertex
 10
223.6376
 20
-36.03979999999999
 30
0.0
 70
    32
  0
VERTEX
  5
5875
330
57E1
100
AcDbEntity
  8
241
  6
Continuous
100
AcDbVertex
100
AcDb3dPolylineVertex
 10
223.6618
 20
-36.0591
 30
0.0
 70
    32
  0
VERTEX
  5
5876
330
57E1
100
AcDbEntity
  8
241
  6
Continuous
100
AcDbVertex
100
AcDb3dPolylineVertex
 10
223.6862
 20
-36.07839999999999
 30
0.0
 70
    32
  0
VERTEX
  5
5877
330
57E1
100
AcDbEntity
  8
241
  6
Continuous
100
AcDbVertex
100
AcDb3dPolylineVertex
 10
223.7105
 20
-36.09749999999998
 30
0.0
 70
    32
  0
VERTEX
  5
5878
330
57E1
100
AcDbEntity
  8
241
  6
Continuous
100
AcDbVertex
100
AcDb3dPolylineVertex
 10
223.7349
 20
-36.11659999999998
 30
0.0
 70
    32
  0
VERTEX
  5
5879
330
57E1
100
AcDbEntity
  8
241
  6
Continuous
100
AcDbVertex
100
AcDb3dPolylineVertex
 10
223.7594
 20
-36.13549999999998
 30
0.0
 70
    32
  0
VERTEX
  5
587A
330
57E1
100
AcDbEntity
  8
241
  6
Continuous
100
AcDbVertex
100
AcDb3dPolylineVertex
 10
223.7839
 20
-36.15439999999998
 30
0.0
 70
    32
  0
VERTEX
  5
587B
330
57E1
100
AcDbEntity
  8
241
  6
Continuous
100
AcDbVertex
100
AcDb3dPolylineVertex
 10
223.8084
 20
-36.17309999999998
 30
0.0
 70
    32
  0
VERTEX
  5
587C
330
57E1
100
AcDbEntity
  8
241
  6
Continuous
100
AcDbVertex
100
AcDb3dPolylineVertex
 10
223.8329
 20
-36.19169999999999
 30
0.0
 70
    32
  0
VERTEX
  5
587D
330
57E1
100
AcDbEntity
  8
241
  6
Continuous
100
AcDbVertex
100
AcDb3dPolylineVertex
 10
223.8576
 20
-36.21029999999999
 30
0.0
 70
    32
  0
VERTEX
  5
587E
330
57E1
100
AcDbEntity
  8
241
  6
Continuous
100
AcDbVertex
100
AcDb3dPolylineVertex
 10
223.8822
 20
-36.22869999999999
 30
0.0
 70
    32
  0
VERTEX
  5
587F
330
57E1
100
AcDbEntity
  8
241
  6
Continuous
100
AcDbVertex
100
AcDb3dPolylineVertex
 10
223.9069
 20
-36.24699999999999
 30
0.0
 70
    32
  0
VERTEX
  5
5880
330
57E1
100
AcDbEntity
  8
241
  6
Continuous
100
AcDbVertex
100
AcDb3dPolylineVertex
 10
223.9316
 20
-36.26519999999999
 30
0.0
 70
    32
  0
VERTEX
  5
5881
330
57E1
100
AcDbEntity
  8
241
  6
Continuous
100
AcDbVertex
100
AcDb3dPolylineVertex
 10
223.9564
 20
-36.28329999999998
 30
0.0
 70
    32
  0
VERTEX
  5
5882
330
57E1
100
AcDbEntity
  8
241
  6
Continuous
100
AcDbVertex
100
AcDb3dPolylineVertex
 10
223.9812
 20
-36.30129999999998
 30
0.0
 70
    32
  0
VERTEX
  5
5883
330
57E1
100
AcDbEntity
  8
241
  6
Continuous
100
AcDbVertex
100
AcDb3dPolylineVertex
 10
224.006
 20
-36.3192
 30
0.0
 70
    32
  0
VERTEX
  5
5884
330
57E1
100
AcDbEntity
  8
241
  6
Continuous
100
AcDbVertex
100
AcDb3dPolylineVertex
 10
224.0309
 20
-36.33699999999999
 30
0.0
 70
    32
  0
VERTEX
  5
5885
330
57E1
100
AcDbEntity
  8
241
  6
Continuous
100
AcDbVertex
100
AcDb3dPolylineVertex
 10
224.0558
 20
-36.35469999999997
 30
0.0
 70
    32
  0
VERTEX
  5
5886
330
57E1
100
AcDbEntity
  8
241
  6
Continuous
100
AcDbVertex
100
AcDb3dPolylineVertex
 10
224.0807
 20
-36.37230000000001
 30
0.0
 70
    32
  0
VERTEX
  5
5887
330
57E1
100
AcDbEntity
  8
241
  6
Continuous
100
AcDbVertex
100
AcDb3dPolylineVertex
 10
224.1057
 20
-36.38979999999996
 30
0.0
 70
    32
  0
VERTEX
  5
5888
330
57E1
100
AcDbEntity
  8
241
  6
Continuous
100
AcDbVertex
100
AcDb3dPolylineVertex
 10
224.1307
 20
-36.40709999999999
 30
0.0
 70
    32
  0
VERTEX
  5
5889
330
57E1
100
AcDbEntity
  8
241
  6
Continuous
100
AcDbVertex
100
AcDb3dPolylineVertex
 10
224.1557
 20
-36.42439999999999
 30
0.0
 70
    32
  0
VERTEX
  5
588A
330
57E1
100
AcDbEntity
  8
241
  6
Continuous
100
AcDbVertex
100
AcDb3dPolylineVertex
 10
224.1808
 20
-36.44149999999999
 30
0.0
 70
    32
  0
VERTEX
  5
588B
330
57E1
100
AcDbEntity
  8
241
  6
Continuous
100
AcDbVertex
100
AcDb3dPolylineVertex
 10
224.2059
 20
-36.45859999999999
 30
0.0
 70
    32
  0
VERTEX
  5
588C
330
57E1
100
AcDbEntity
  8
241
  6
Continuous
100
AcDbVertex
100
AcDb3dPolylineVertex
 10
224.2311
 20
-36.47549999999998
 30
0.0
 70
    32
  0
VERTEX
  5
588D
330
57E1
100
AcDbEntity
  8
241
  6
Continuous
100
AcDbVertex
100
AcDb3dPolylineVertex
 10
224.2563
 20
-36.49239999999999
 30
0.0
 70
    32
  0
VERTEX
  5
588E
330
57E1
100
AcDbEntity
  8
241
  6
Continuous
100
AcDbVertex
100
AcDb3dPolylineVertex
 10
224.2815
 20
-36.50909999999999
 30
0.0
 70
    32
  0
VERTEX
  5
588F
330
57E1
100
AcDbEntity
  8
241
  6
Continuous
100
AcDbVertex
100
AcDb3dPolylineVertex
 10
224.3067
 20
-36.52569999999999
 30
0.0
 70
    32
  0
VERTEX
  5
5890
330
57E1
100
AcDbEntity
  8
241
  6
Continuous
100
AcDbVertex
100
AcDb3dPolylineVertex
 10
224.332
 20
-36.54219999999997
 30
0.0
 70
    32
  0
VERTEX
  5
5891
330
57E1
100
AcDbEntity
  8
241
  6
Continuous
100
AcDbVertex
100
AcDb3dPolylineVertex
 10
224.3573
 20
-36.55859999999999
 30
0.0
 70
    32
  0
VERTEX
  5
5892
330
57E1
100
AcDbEntity
  8
241
  6
Continuous
100
AcDbVertex
100
AcDb3dPolylineVertex
 10
224.3827
 20
-36.57489999999999
 30
0.0
 70
    32
  0
VERTEX
  5
5893
330
57E1
100
AcDbEntity
  8
241
  6
Continuous
100
AcDbVertex
100
AcDb3dPolylineVertex
 10
224.4081
 20
-36.59109999999998
 30
0.0
 70
    32
  0
VERTEX
  5
5894
330
57E1
100
AcDbEntity
  8
241
  6
Continuous
100
AcDbVertex
100
AcDb3dPolylineVertex
 10
224.4335
 20
-36.60719999999998
 30
0.0
 70
    32
  0
VERTEX
  5
5895
330
57E1
100
AcDbEntity
  8
241
  6
Continuous
100
AcDbVertex
100
AcDb3dPolylineVertex
 10
224.4589
 20
-36.62319999999998
 30
0.0
 70
    32
  0
VERTEX
  5
5896
330
57E1
100
AcDbEntity
  8
241
  6
Continuous
100
AcDbVertex
100
AcDb3dPolylineVertex
 10
224.4844
 20
-36.63899999999998
 30
0.0
 70
    32
  0
VERTEX
  5
5897
330
57E1
100
AcDbEntity
  8
241
  6
Continuous
100
AcDbVertex
100
AcDb3dPolylineVertex
 10
224.5099
 20
-36.6548
 30
0.0
 70
    32
  0
VERTEX
  5
5898
330
57E1
100
AcDbEntity
  8
241
  6
Continuous
100
AcDbVertex
100
AcDb3dPolylineVertex
 10
224.5354
 20
-36.6704
 30
0.0
 70
    32
  0
VERTEX
  5
5899
330
57E1
100
AcDbEntity
  8
241
  6
Continuous
100
AcDbVertex
100
AcDb3dPolylineVertex
 10
224.5609
 20
-36.68599999999998
 30
0.0
 70
    32
  0
VERTEX
  5
589A
330
57E1
100
AcDbEntity
  8
241
  6
Continuous
100
AcDbVertex
100
AcDb3dPolylineVertex
 10
224.5865
 20
-36.70139999999998
 30
0.0
 70
    32
  0
VERTEX
  5
589B
330
57E1
100
AcDbEntity
  8
241
  6
Continuous
100
AcDbVertex
100
AcDb3dPolylineVertex
 10
224.6121
 20
-36.71669999999999
 30
0.0
 70
    32
  0
VERTEX
  5
589C
330
57E1
100
AcDbEntity
  8
241
  6
Continuous
100
AcDbVertex
100
AcDb3dPolylineVertex
 10
224.6378
 20
-36.732
 30
0.0
 70
    32
  0
VERTEX
  5
589D
330
57E1
100
AcDbEntity
  8
241
  6
Continuous
100
AcDbVertex
100
AcDb3dPolylineVertex
 10
224.6634
 20
-36.74709999999999
 30
0.0
 70
    32
  0
VERTEX
  5
589E
330
57E1
100
AcDbEntity
  8
241
  6
Continuous
100
AcDbVertex
100
AcDb3dPolylineVertex
 10
224.6891
 20
-36.762
 30
0.0
 70
    32
  0
VERTEX
  5
589F
330
57E1
100
AcDbEntity
  8
241
  6
Continuous
100
AcDbVertex
100
AcDb3dPolylineVertex
 10
224.7148
 20
-36.77689999999998
 30
0.0
 70
    32
  0
VERTEX
  5
58A0
330
57E1
100
AcDbEntity
  8
241
  6
Continuous
100
AcDbVertex
100
AcDb3dPolylineVertex
 10
224.7405
 20
-36.79169999999999
 30
0.0
 70
    32
  0
VERTEX
  5
58A1
330
57E1
100
AcDbEntity
  8
241
  6
Continuous
100
AcDbVertex
100
AcDb3dPolylineVertex
 10
224.7662
 20
-36.80629999999999
 30
0.0
 70
    32
  0
VERTEX
  5
58A2
330
57E1
100
AcDbEntity
  8
241
  6
Continuous
100
AcDbVertex
100
AcDb3dPolylineVertex
 10
224.792
 20
-36.82079999999999
 30
0.0
 70
    32
  0
VERTEX
  5
58A3
330
57E1
100
AcDbEntity
  8
241
  6
Continuous
100
AcDbVertex
100
AcDb3dPolylineVertex
 10
224.8177
 20
-36.8352
 30
0.0
 70
    32
  0
VERTEX
  5
58A4
330
57E1
100
AcDbEntity
  8
241
  6
Continuous
100
AcDbVertex
100
AcDb3dPolylineVertex
 10
224.8435
 20
-36.84949999999998
 30
0.0
 70
    32
  0
VERTEX
  5
58A5
330
57E1
100
AcDbEntity
  8
241
  6
Continuous
100
AcDbVertex
100
AcDb3dPolylineVertex
 10
224.8693
 20
-36.8637
 30
0.0
 70
    32
  0
VERTEX
  5
58A6
330
57E1
100
AcDbEntity
  8
241
  6
Continuous
100
AcDbVertex
100
AcDb3dPolylineVertex
 10
224.8951
 20
-36.87769999999998
 30
0.0
 70
    32
  0
VERTEX
  5
58A7
330
57E1
100
AcDbEntity
  8
241
  6
Continuous
100
AcDbVertex
100
AcDb3dPolylineVertex
 10
224.9209
 20
-36.89169999999999
 30
0.0
 70
    32
  0
VERTEX
  5
58A8
330
57E1
100
AcDbEntity
  8
241
  6
Continuous
100
AcDbVertex
100
AcDb3dPolylineVertex
 10
224.9467
 20
-36.90549999999999
 30
0.0
 70
    32
  0
VERTEX
  5
58A9
330
57E1
100
AcDbEntity
  8
241
  6
Continuous
100
AcDbVertex
100
AcDb3dPolylineVertex
 10
224.9725
 20
-36.91919999999999
 30
0.0
 70
    32
  0
VERTEX
  5
58AA
330
57E1
100
AcDbEntity
  8
241
  6
Continuous
100
AcDbVertex
100
AcDb3dPolylineVertex
 10
224.9984
 20
-36.9328
 30
0.0
 70
    32
  0
VERTEX
  5
58AB
330
57E1
100
AcDbEntity
  8
241
  6
Continuous
100
AcDbVertex
100
AcDb3dPolylineVertex
 10
225.0242
 20
-36.94629999999998
 30
0.0
 70
    32
  0
VERTEX
  5
58AC
330
57E1
100
AcDbEntity
  8
241
  6
Continuous
100
AcDbVertex
100
AcDb3dPolylineVertex
 10
225.0501
 20
-36.95969999999999
 30
0.0
 70
    32
  0
VERTEX
  5
58AD
330
57E1
100
AcDbEntity
  8
241
  6
Continuous
100
AcDbVertex
100
AcDb3dPolylineVertex
 10
225.076
 20
-36.97289999999997
 30
0.0
 70
    32
  0
VERTEX
  5
58AE
330
57E1
100
AcDbEntity
  8
241
  6
Continuous
100
AcDbVertex
100
AcDb3dPolylineVertex
 10
225.1019
 20
-36.98609999999999
 30
0.0
 70
    32
  0
VERTEX
  5
58AF
330
57E1
100
AcDbEntity
  8
241
  6
Continuous
100
AcDbVertex
100
AcDb3dPolylineVertex
 10
225.1278
 20
-36.99909999999999
 30
0.0
 70
    32
  0
VERTEX
  5
58B0
330
57E1
100
AcDbEntity
  8
241
  6
Continuous
100
AcDbVertex
100
AcDb3dPolylineVertex
 10
225.1537
 20
-37.012
 30
0.0
 70
    32
  0
VERTEX
  5
58B1
330
57E1
100
AcDbEntity
  8
241
  6
Continuous
100
AcDbVertex
100
AcDb3dPolylineVertex
 10
225.1797
 20
-37.02479999999999
 30
0.0
 70
    32
  0
VERTEX
  5
58B2
330
57E1
100
AcDbEntity
  8
241
  6
Continuous
100
AcDbVertex
100
AcDb3dPolylineVertex
 10
225.2056
 20
-37.03739999999999
 30
0.0
 70
    32
  0
VERTEX
  5
58B3
330
57E1
100
AcDbEntity
  8
241
  6
Continuous
100
AcDbVertex
100
AcDb3dPolylineVertex
 10
225.2316
 20
-37.04999999999998
 30
0.0
 70
    32
  0
VERTEX
  5
58B4
330
57E1
100
AcDbEntity
  8
241
  6
Continuous
100
AcDbVertex
100
AcDb3dPolylineVertex
 10
225.2575
 20
-37.06239999999997
 30
0.0
 70
    32
  0
VERTEX
  5
58B5
330
57E1
100
AcDbEntity
  8
241
  6
Continuous
100
AcDbVertex
100
AcDb3dPolylineVertex
 10
225.2835
 20
-37.07479999999998
 30
0.0
 70
    32
  0
VERTEX
  5
58B6
330
57E1
100
AcDbEntity
  8
241
  6
Continuous
100
AcDbVertex
100
AcDb3dPolylineVertex
 10
225.3095
 20
-37.08699999999999
 30
0.0
 70
    32
  0
VERTEX
  5
58B7
330
57E1
100
AcDbEntity
  8
241
  6
Continuous
100
AcDbVertex
100
AcDb3dPolylineVertex
 10
225.3355
 20
-37.09909999999999
 30
0.0
 70
    32
  0
VERTEX
  5
58B8
330
57E1
100
AcDbEntity
  8
241
  6
Continuous
100
AcDbVertex
100
AcDb3dPolylineVertex
 10
225.3615
 20
-37.11099999999999
 30
0.0
 70
    32
  0
VERTEX
  5
58B9
330
57E1
100
AcDbEntity
  8
241
  6
Continuous
100
AcDbVertex
100
AcDb3dPolylineVertex
 10
225.3875
 20
-37.12289999999999
 30
0.0
 70
    32
  0
VERTEX
  5
58BA
330
57E1
100
AcDbEntity
  8
241
  6
Continuous
100
AcDbVertex
100
AcDb3dPolylineVertex
 10
225.4135
 20
-37.13459999999998
 30
0.0
 70
    32
  0
VERTEX
  5
58BB
330
57E1
100
AcDbEntity
  8
241
  6
Continuous
100
AcDbVertex
100
AcDb3dPolylineVertex
 10
225.4395
 20
-37.14629999999998
 30
0.0
 70
    32
  0
VERTEX
  5
58BC
330
57E1
100
AcDbEntity
  8
241
  6
Continuous
100
AcDbVertex
100
AcDb3dPolylineVertex
 10
225.4655
 20
-37.15779999999997
 30
0.0
 70
    32
  0
VERTEX
  5
58BD
330
57E1
100
AcDbEntity
  8
241
  6
Continuous
100
AcDbVertex
100
AcDb3dPolylineVertex
 10
225.4916
 20
-37.16919999999999
 30
0.0
 70
    32
  0
VERTEX
  5
58BE
330
57E1
100
AcDbEntity
  8
241
  6
Continuous
100
AcDbVertex
100
AcDb3dPolylineVertex
 10
225.5176
 20
-37.1805
 30
0.0
 70
    32
  0
VERTEX
  5
58BF
330
57E1
100
AcDbEntity
  8
241
  6
Continuous
100
AcDbVertex
100
AcDb3dPolylineVertex
 10
225.5436
 20
-37.1916
 30
0.0
 70
    32
  0
VERTEX
  5
58C0
330
57E1
100
AcDbEntity
  8
241
  6
Continuous
100
AcDbVertex
100
AcDb3dPolylineVertex
 10
225.5697
 20
-37.20269999999999
 30
0.0
 70
    32
  0
VERTEX
  5
58C1
330
57E1
100
AcDbEntity
  8
241
  6
Continuous
100
AcDbVertex
100
AcDb3dPolylineVertex
 10
225.5957
 20
-37.21359999999999
 30
0.0
 70
    32
  0
VERTEX
  5
58C2
330
57E1
100
AcDbEntity
  8
241
  6
Continuous
100
AcDbVertex
100
AcDb3dPolylineVertex
 10
225.6218
 20
-37.22449999999998
 30
0.0
 70
    32
  0
VERTEX
  5
58C3
330
57E1
100
AcDbEntity
  8
241
  6
Continuous
100
AcDbVertex
100
AcDb3dPolylineVertex
 10
225.6479
 20
-37.23519999999999
 30
0.0
 70
    32
  0
VERTEX
  5
58C4
330
57E1
100
AcDbEntity
  8
241
  6
Continuous
100
AcDbVertex
100
AcDb3dPolylineVertex
 10
225.6739
 20
-37.24579999999999
 30
0.0
 70
    32
  0
VERTEX
  5
58C5
330
57E1
100
AcDbEntity
  8
241
  6
Continuous
100
AcDbVertex
100
AcDb3dPolylineVertex
 10
225.7
 20
-37.25619999999998
 30
0.0
 70
    32
  0
VERTEX
  5
58C6
330
57E1
100
AcDbEntity
  8
241
  6
Continuous
100
AcDbVertex
100
AcDb3dPolylineVertex
 10
225.7261
 20
-37.26659999999998
 30
0.0
 70
    32
  0
VERTEX
  5
58C7
330
57E1
100
AcDbEntity
  8
241
  6
Continuous
100
AcDbVertex
100
AcDb3dPolylineVertex
 10
225.7522
 20
-37.27679999999998
 30
0.0
 70
    32
  0
VERTEX
  5
58C8
330
57E1
100
AcDbEntity
  8
241
  6
Continuous
100
AcDbVertex
100
AcDb3dPolylineVertex
 10
225.7782
 20
-37.28699999999998
 30
0.0
 70
    32
  0
VERTEX
  5
58C9
330
57E1
100
AcDbEntity
  8
241
  6
Continuous
100
AcDbVertex
100
AcDb3dPolylineVertex
 10
225.8043
 20
-37.29699999999998
 30
0.0
 70
    32
  0
VERTEX
  5
58CA
330
57E1
100
AcDbEntity
  8
241
  6
Continuous
100
AcDbVertex
100
AcDb3dPolylineVertex
 10
225.8304
 20
-37.30689999999999
 30
0.0
 70
    32
  0
VERTEX
  5
58CB
330
57E1
100
AcDbEntity
  8
241
  6
Continuous
100
AcDbVertex
100
AcDb3dPolylineVertex
 10
225.8565
 20
-37.3166
 30
0.0
 70
    32
  0
VERTEX
  5
58CC
330
57E1
100
AcDbEntity
  8
241
  6
Continuous
100
AcDbVertex
100
AcDb3dPolylineVertex
 10
225.8826
 20
-37.32629999999999
 30
0.0
 70
    32
  0
VERTEX
  5
58CD
330
57E1
100
AcDbEntity
  8
241
  6
Continuous
100
AcDbVertex
100
AcDb3dPolylineVertex
 10
225.9086
 20
-37.33579999999998
 30
0.0
 70
    32
  0
VERTEX
  5
58CE
330
57E1
100
AcDbEntity
  8
241
  6
Continuous
100
AcDbVertex
100
AcDb3dPolylineVertex
 10
225.9347
 20
-37.34529999999998
 30
0.0
 70
    32
  0
VERTEX
  5
58CF
330
57E1
100
AcDbEntity
  8
241
  6
Continuous
100
AcDbVertex
100
AcDb3dPolylineVertex
 10
225.9608
 20
-37.35459999999998
 30
0.0
 70
    32
  0
VERTEX
  5
58D0
330
57E1
100
AcDbEntity
  8
241
  6
Continuous
100
AcDbVertex
100
AcDb3dPolylineVertex
 10
225.9869
 20
-37.36379999999999
 30
0.0
 70
    32
  0
VERTEX
  5
58D1
330
57E1
100
AcDbEntity
  8
241
  6
Continuous
100
AcDbVertex
100
AcDb3dPolylineVertex
 10
226.013
 20
-37.37289999999999
 30
0.0
 70
    32
  0
VERTEX
  5
58D2
330
57E1
100
AcDbEntity
  8
241
  6
Continuous
100
AcDbVertex
100
AcDb3dPolylineVertex
 10
226.0391
 20
-37.38179999999998
 30
0.0
 70
    32
  0
VERTEX
  5
58D3
330
57E1
100
AcDbEntity
  8
241
  6
Continuous
100
AcDbVertex
100
AcDb3dPolylineVertex
 10
226.0652
 20
-37.39069999999998
 30
0.0
 70
    32
  0
VERTEX
  5
58D4
330
57E1
100
AcDbEntity
  8
241
  6
Continuous
100
AcDbVertex
100
AcDb3dPolylineVertex
 10
226.0912
 20
-37.39939999999999
 30
0.0
 70
    32
  0
VERTEX
  5
58D5
330
57E1
100
AcDbEntity
  8
241
  6
Continuous
100
AcDbVertex
100
AcDb3dPolylineVertex
 10
226.1173
 20
-37.40809999999999
 30
0.0
 70
    32
  0
VERTEX
  5
58D6
330
57E1
100
AcDbEntity
  8
241
  6
Continuous
100
AcDbVertex
100
AcDb3dPolylineVertex
 10
226.1434
 20
-37.41659999999999
 30
0.0
 70
    32
  0
VERTEX
  5
58D7
330
57E1
100
AcDbEntity
  8
241
  6
Continuous
100
AcDbVertex
100
AcDb3dPolylineVertex
 10
226.1695
 20
-37.42489999999998
 30
0.0
 70
    32
  0
VERTEX
  5
58D8
330
57E1
100
AcDbEntity
  8
241
  6
Continuous
100
AcDbVertex
100
AcDb3dPolylineVertex
 10
226.1955
 20
-37.43319999999999
 30
0.0
 70
    32
  0
VERTEX
  5
58D9
330
57E1
100
AcDbEntity
  8
241
  6
Continuous
100
AcDbVertex
100
AcDb3dPolylineVertex
 10
226.2216
 20
-37.44139999999999
 30
0.0
 70
    32
  0
VERTEX
  5
58DA
330
57E1
100
AcDbEntity
  8
241
  6
Continuous
100
AcDbVertex
100
AcDb3dPolylineVertex
 10
226.2477
 20
-37.44939999999998
 30
0.0
 70
    32
  0
VERTEX
  5
58DB
330
57E1
100
AcDbEntity
  8
241
  6
Continuous
100
AcDbVertex
100
AcDb3dPolylineVertex
 10
226.2737
 20
-37.45729999999998
 30
0.0
 70
    32
  0
VERTEX
  5
58DC
330
57E1
100
AcDbEntity
  8
241
  6
Continuous
100
AcDbVertex
100
AcDb3dPolylineVertex
 10
226.2998
 20
-37.46509999999998
 30
0.0
 70
    32
  0
VERTEX
  5
58DD
330
57E1
100
AcDbEntity
  8
241
  6
Continuous
100
AcDbVertex
100
AcDb3dPolylineVertex
 10
226.3259
 20
-37.47279999999998
 30
0.0
 70
    32
  0
VERTEX
  5
58DE
330
57E1
100
AcDbEntity
  8
241
  6
Continuous
100
AcDbVertex
100
AcDb3dPolylineVertex
 10
226.3519
 20
-37.48039999999999
 30
0.0
 70
    32
  0
VERTEX
  5
58DF
330
57E1
100
AcDbEntity
  8
241
  6
Continuous
100
AcDbVertex
100
AcDb3dPolylineVertex
 10
226.3779
 20
-37.4879
 30
0.0
 70
    32
  0
VERTEX
  5
58E0
330
57E1
100
AcDbEntity
  8
241
  6
Continuous
100
AcDbVertex
100
AcDb3dPolylineVertex
 10
226.404
 20
-37.49519999999999
 30
0.0
 70
    32
  0
VERTEX
  5
58E1
330
57E1
100
AcDbEntity
  8
241
  6
Continuous
100
AcDbVertex
100
AcDb3dPolylineVertex
 10
226.43
 20
-37.5024
 30
0.0
 70
    32
  0
VERTEX
  5
58E2
330
57E1
100
AcDbEntity
  8
241
  6
Continuous
100
AcDbVertex
100
AcDb3dPolylineVertex
 10
226.456
 20
-37.50959999999998
 30
0.0
 70
    32
  0
VERTEX
  5
58E3
330
57E1
100
AcDbEntity
  8
241
  6
Continuous
100
AcDbVertex
100
AcDb3dPolylineVertex
 10
226.482
 20
-37.51659999999997
 30
0.0
 70
    32
  0
VERTEX
  5
58E4
330
57E1
100
AcDbEntity
  8
241
  6
Continuous
100
AcDbVertex
100
AcDb3dPolylineVertex
 10
226.5081
 20
-37.52339999999998
 30
0.0
 70
    32
  0
VERTEX
  5
58E5
330
57E1
100
AcDbEntity
  8
241
  6
Continuous
100
AcDbVertex
100
AcDb3dPolylineVertex
 10
226.5341
 20
-37.53019999999998
 30
0.0
 70
    32
  0
VERTEX
  5
58E6
330
57E1
100
AcDbEntity
  8
241
  6
Continuous
100
AcDbVertex
100
AcDb3dPolylineVertex
 10
226.56
 20
-37.53679999999999
 30
0.0
 70
    32
  0
VERTEX
  5
58E7
330
57E1
100
AcDbEntity
  8
241
  6
Continuous
100
AcDbVertex
100
AcDb3dPolylineVertex
 10
226.586
 20
-37.54339999999999
 30
0.0
 70
    32
  0
VERTEX
  5
58E8
330
57E1
100
AcDbEntity
  8
241
  6
Continuous
100
AcDbVertex
100
AcDb3dPolylineVertex
 10
226.612
 20
-37.54979999999998
 30
0.0
 70
    32
  0
VERTEX
  5
58E9
330
57E1
100
AcDbEntity
  8
241
  6
Continuous
100
AcDbVertex
100
AcDb3dPolylineVertex
 10
226.638
 20
-37.55609999999999
 30
0.0
 70
    32
  0
VERTEX
  5
58EA
330
57E1
100
AcDbEntity
  8
241
  6
Continuous
100
AcDbVertex
100
AcDb3dPolylineVertex
 10
226.6639
 20
-37.56229999999999
 30
0.0
 70
    32
  0
VERTEX
  5
58EB
330
57E1
100
AcDbEntity
  8
241
  6
Continuous
100
AcDbVertex
100
AcDb3dPolylineVertex
 10
226.6899
 20
-37.56829999999999
 30
0.0
 70
    32
  0
VERTEX
  5
58EC
330
57E1
100
AcDbEntity
  8
241
  6
Continuous
100
AcDbVertex
100
AcDb3dPolylineVertex
 10
226.7158
 20
-37.57429999999999
 30
0.0
 70
    32
  0
VERTEX
  5
58ED
330
57E1
100
AcDbEntity
  8
241
  6
Continuous
100
AcDbVertex
100
AcDb3dPolylineVertex
 10
226.7417
 20
-37.58009999999999
 30
0.0
 70
    32
  0
VERTEX
  5
58EE
330
57E1
100
AcDbEntity
  8
241
  6
Continuous
100
AcDbVertex
100
AcDb3dPolylineVertex
 10
226.7677
 20
-37.58579999999998
 30
0.0
 70
    32
  0
VERTEX
  5
58EF
330
57E1
100
AcDbEntity
  8
241
  6
Continuous
100
AcDbVertex
100
AcDb3dPolylineVertex
 10
226.7936
 20
-37.59139999999999
 30
0.0
 70
    32
  0
VERTEX
  5
58F0
330
57E1
100
AcDbEntity
  8
241
  6
Continuous
100
AcDbVertex
100
AcDb3dPolylineVertex
 10
226.8195
 20
-37.59689999999998
 30
0.0
 70
    32
  0
VERTEX
  5
58F1
330
57E1
100
AcDbEntity
  8
241
  6
Continuous
100
AcDbVertex
100
AcDb3dPolylineVertex
 10
226.8454
 20
-37.60229999999999
 30
0.0
 70
    32
  0
VERTEX
  5
58F2
330
57E1
100
AcDbEntity
  8
241
  6
Continuous
100
AcDbVertex
100
AcDb3dPolylineVertex
 10
226.8712
 20
-37.60759999999999
 30
0.0
 70
    32
  0
VERTEX
  5
58F3
330
57E1
100
AcDbEntity
  8
241
  6
Continuous
100
AcDbVertex
100
AcDb3dPolylineVertex
 10
226.8971
 20
-37.61269999999999
 30
0.0
 70
    32
  0
VERTEX
  5
58F4
330
57E1
100
AcDbEntity
  8
241
  6
Continuous
100
AcDbVertex
100
AcDb3dPolylineVertex
 10
226.9229
 20
-37.61769999999998
 30
0.0
 70
    32
  0
VERTEX
  5
58F5
330
57E1
100
AcDbEntity
  8
241
  6
Continuous
100
AcDbVertex
100
AcDb3dPolylineVertex
 10
226.9488
 20
-37.62259999999998
 30
0.0
 70
    32
  0
VERTEX
  5
58F6
330
57E1
100
AcDbEntity
  8
241
  6
Continuous
100
AcDbVertex
100
AcDb3dPolylineVertex
 10
226.9746
 20
-37.62739999999999
 30
0.0
 70
    32
  0
VERTEX
  5
58F7
330
57E1
100
AcDbEntity
  8
241
  6
Continuous
100
AcDbVertex
100
AcDb3dPolylineVertex
 10
227.0004
 20
-37.63209999999997
 30
0.0
 70
    32
  0
VERTEX
  5
58F8
330
57E1
100
AcDbEntity
  8
241
  6
Continuous
100
AcDbVertex
100
AcDb3dPolylineVertex
 10
227.0262
 20
-37.63659999999999
 30
0.0
 70
    32
  0
VERTEX
  5
58F9
330
57E1
100
AcDbEntity
  8
241
  6
Continuous
100
AcDbVertex
100
AcDb3dPolylineVertex
 10
227.052
 20
-37.6411
 30
0.0
 70
    32
  0
VERTEX
  5
58FA
330
57E1
100
AcDbEntity
  8
241
  6
Continuous
100
AcDbVertex
100
AcDb3dPolylineVertex
 10
227.0777
 20
-37.6454
 30
0.0
 70
    32
  0
VERTEX
  5
58FB
330
57E1
100
AcDbEntity
  8
241
  6
Continuous
100
AcDbVertex
100
AcDb3dPolylineVertex
 10
227.1035
 20
-37.64959999999999
 30
0.0
 70
    32
  0
VERTEX
  5
58FC
330
57E1
100
AcDbEntity
  8
241
  6
Continuous
100
AcDbVertex
100
AcDb3dPolylineVertex
 10
227.1292
 20
-37.65369999999999
 30
0.0
 70
    32
  0
VERTEX
  5
58FD
330
57E1
100
AcDbEntity
  8
241
  6
Continuous
100
AcDbVertex
100
AcDb3dPolylineVertex
 10
227.1549
 20
-37.65769999999998
 30
0.0
 70
    32
  0
VERTEX
  5
58FE
330
57E1
100
AcDbEntity
  8
241
  6
Continuous
100
AcDbVertex
100
AcDb3dPolylineVertex
 10
227.1806
 20
-37.66149999999999
 30
0.0
 70
    32
  0
VERTEX
  5
58FF
330
57E1
100
AcDbEntity
  8
241
  6
Continuous
100
AcDbVertex
100
AcDb3dPolylineVertex
 10
227.2063
 20
-37.66529999999999
 30
0.0
 70
    32
  0
VERTEX
  5
5900
330
57E1
100
AcDbEntity
  8
241
  6
Continuous
100
AcDbVertex
100
AcDb3dPolylineVertex
 10
227.232
 20
-37.66889999999998
 30
0.0
 70
    32
  0
VERTEX
  5
5901
330
57E1
100
AcDbEntity
  8
241
  6
Continuous
100
AcDbVertex
100
AcDb3dPolylineVertex
 10
227.2576
 20
-37.67239999999997
 30
0.0
 70
    32
  0
VERTEX
  5
5902
330
57E1
100
AcDbEntity
  8
241
  6
Continuous
100
AcDbVertex
100
AcDb3dPolylineVertex
 10
227.2832
 20
-37.67579999999997
 30
0.0
 70
    32
  0
VERTEX
  5
5903
330
57E1
100
AcDbEntity
  8
241
  6
Continuous
100
AcDbVertex
100
AcDb3dPolylineVertex
 10
227.3087
 20
-37.67909999999998
 30
0.0
 70
    32
  0
VERTEX
  5
5904
330
57E1
100
AcDbEntity
  8
241
  6
Continuous
100
AcDbVertex
100
AcDb3dPolylineVertex
 10
227.3342
 20
-37.68219999999999
 30
0.0
 70
    32
  0
VERTEX
  5
5905
330
57E1
100
AcDbEntity
  8
241
  6
Continuous
100
AcDbVertex
100
AcDb3dPolylineVertex
 10
227.3597
 20
-37.68529999999998
 30
0.0
 70
    32
  0
VERTEX
  5
5906
330
57E1
100
AcDbEntity
  8
241
  6
Continuous
100
AcDbVertex
100
AcDb3dPolylineVertex
 10
227.3852
 20
-37.6882
 30
0.0
 70
    32
  0
VERTEX
  5
5907
330
57E1
100
AcDbEntity
  8
241
  6
Continuous
100
AcDbVertex
100
AcDb3dPolylineVertex
 10
227.4106
 20
-37.69099999999999
 30
0.0
 70
    32
  0
VERTEX
  5
5908
330
57E1
100
AcDbEntity
  8
241
  6
Continuous
100
AcDbVertex
100
AcDb3dPolylineVertex
 10
227.436
 20
-37.69369999999998
 30
0.0
 70
    32
  0
VERTEX
  5
5909
330
57E1
100
AcDbEntity
  8
241
  6
Continuous
100
AcDbVertex
100
AcDb3dPolylineVertex
 10
227.4614
 20
-37.69629999999998
 30
0.0
 70
    32
  0
VERTEX
  5
590A
330
57E1
100
AcDbEntity
  8
241
  6
Continuous
100
AcDbVertex
100
AcDb3dPolylineVertex
 10
227.4867
 20
-37.69869999999999
 30
0.0
 70
    32
  0
VERTEX
  5
590B
330
57E1
100
AcDbEntity
  8
241
  6
Continuous
100
AcDbVertex
100
AcDb3dPolylineVertex
 10
227.512
 20
-37.70109999999998
 30
0.0
 70
    32
  0
VERTEX
  5
590C
330
57E1
100
AcDbEntity
  8
241
  6
Continuous
100
AcDbVertex
100
AcDb3dPolylineVertex
 10
227.5373
 20
-37.70329999999999
 30
0.0
 70
    32
  0
VERTEX
  5
590D
330
57E1
100
AcDbEntity
  8
241
  6
Continuous
100
AcDbVertex
100
AcDb3dPolylineVertex
 10
227.5625
 20
-37.70539999999999
 30
0.0
 70
    32
  0
VERTEX
  5
590E
330
57E1
100
AcDbEntity
  8
241
  6
Continuous
100
AcDbVertex
100
AcDb3dPolylineVertex
 10
227.5877
 20
-37.70739999999998
 30
0.0
 70
    32
  0
VERTEX
  5
590F
330
57E1
100
AcDbEntity
  8
241
  6
Continuous
100
AcDbVertex
100
AcDb3dPolylineVertex
 10
227.6129
 20
-37.70929999999999
 30
0.0
 70
    32
  0
VERTEX
  5
5910
330
57E1
100
AcDbEntity
  8
241
  6
Continuous
100
AcDbVertex
100
AcDb3dPolylineVertex
 10
227.638
 20
-37.71099999999999
 30
0.0
 70
    32
  0
VERTEX
  5
5911
330
57E1
100
AcDbEntity
  8
241
  6
Continuous
100
AcDbVertex
100
AcDb3dPolylineVertex
 10
227.6631
 20
-37.71269999999999
 30
0.0
 70
    32
  0
VERTEX
  5
5912
330
57E1
100
AcDbEntity
  8
241
  6
Continuous
100
AcDbVertex
100
AcDb3dPolylineVertex
 10
227.6881
 20
-37.71419999999998
 30
0.0
 70
    32
  0
VERTEX
  5
5913
330
57E1
100
AcDbEntity
  8
241
  6
Continuous
100
AcDbVertex
100
AcDb3dPolylineVertex
 10
227.7132
 20
-37.7156
 30
0.0
 70
    32
  0
VERTEX
  5
5914
330
57E1
100
AcDbEntity
  8
241
  6
Continuous
100
AcDbVertex
100
AcDb3dPolylineVertex
 10
227.7381
 20
-37.71689999999998
 30
0.0
 70
    32
  0
VERTEX
  5
5915
330
57E1
100
AcDbEntity
  8
241
  6
Continuous
100
AcDbVertex
100
AcDb3dPolylineVertex
 10
227.7631
 20
-37.71809999999999
 30
0.0
 70
    32
  0
VERTEX
  5
5916
330
57E1
100
AcDbEntity
  8
241
  6
Continuous
100
AcDbVertex
100
AcDb3dPolylineVertex
 10
227.788
 20
-37.7192
 30
0.0
 70
    32
  0
VERTEX
  5
5917
330
57E1
100
AcDbEntity
  8
241
  6
Continuous
100
AcDbVertex
100
AcDb3dPolylineVertex
 10
227.8129
 20
-37.72019999999998
 30
0.0
 70
    32
  0
VERTEX
  5
5918
330
57E1
100
AcDbEntity
  8
241
  6
Continuous
100
AcDbVertex
100
AcDb3dPolylineVertex
 10
227.8377
 20
-37.72099999999998
 30
0.0
 70
    32
  0
VERTEX
  5
5919
330
57E1
100
AcDbEntity
  8
241
  6
Continuous
100
AcDbVertex
100
AcDb3dPolylineVertex
 10
227.8625
 20
-37.72179999999999
 30
0.0
 70
    32
  0
VERTEX
  5
591A
330
57E1
100
AcDbEntity
  8
241
  6
Continuous
100
AcDbVertex
100
AcDb3dPolylineVertex
 10
227.8873
 20
-37.7224
 30
0.0
 70
    32
  0
VERTEX
  5
591B
330
57E1
100
AcDbEntity
  8
241
  6
Continuous
100
AcDbVertex
100
AcDb3dPolylineVertex
 10
227.912
 20
-37.72289999999998
 30
0.0
 70
    32
  0
VERTEX
  5
591C
330
57E1
100
AcDbEntity
  8
241
  6
Continuous
100
AcDbVertex
100
AcDb3dPolylineVertex
 10
227.9367
 20
-37.7233
 30
0.0
 70
    32
  0
VERTEX
  5
591D
330
57E1
100
AcDbEntity
  8
241
  6
Continuous
100
AcDbVertex
100
AcDb3dPolylineVertex
 10
227.9614
 20
-37.72359999999998
 30
0.0
 70
    32
  0
VERTEX
  5
591E
330
57E1
100
AcDbEntity
  8
241
  6
Continuous
100
AcDbVertex
100
AcDb3dPolylineVertex
 10
227.986
 20
-37.72379999999998
 30
0.0
 70
    32
  0
VERTEX
  5
591F
330
57E1
100
AcDbEntity
  8
241
  6
Continuous
100
AcDbVertex
100
AcDb3dPolylineVertex
 10
228.0106
 20
-37.7239
 30
0.0
 70
    32
  0
VERTEX
  5
5920
330
57E1
100
AcDbEntity
  8
241
  6
Continuous
100
AcDbVertex
100
AcDb3dPolylineVertex
 10
228.0351
 20
-37.72379999999998
 30
0.0
 70
    32
  0
VERTEX
  5
5921
330
57E1
100
AcDbEntity
  8
241
  6
Continuous
100
AcDbVertex
100
AcDb3dPolylineVertex
 10
228.0596
 20
-37.72369999999998
 30
0.0
 70
    32
  0
SEQEND
  5
5922
330
57E1
100
AcDbEntity
  8
241
  6
Continuous
  0
LINE
  5
5923
330
1A
100
AcDbEntity
  8
241
  6
Continuous
100
AcDbLine
 10
245.0
 20
-25.0
 30
0.0
 11
245.0
 21
-49.99999999999997
 31
0.0
  0
ARC
  5
5924
330
1A
100
AcDbEntity
  8
241
  6
Continuous
100
AcDbCircle
 10
228.0
 20
-29.26473671
 30
0.0
 40
7.885567943300054
100
AcDbArc
 50
342.7738533100007
 51
161.50920623
  0
POLYLINE
  5
5925
330
1A
100
AcDbEntity
  8
241
  6
Continuous
100
AcDb3dPolyline
 66
     1
 10
0.0
 20
0.0
 30
0.0
 70
     8
  0
VERTEX
  5
5926
330
5925
100
AcDbEntity
  8
241
  6
Continuous
100
AcDbVertex
100
AcDb3dPolylineVertex
 10
234.0
 20
-26.61899999999997
 30
0.0
 70
    32
  0
VERTEX
  5
5927
330
5925
100
AcDbEntity
  8
241
  6
Continuous
100
AcDbVertex
100
AcDb3dPolylineVertex
 10
233.9928
 20
-26.87389999999999
 30
0.0
 70
    32
  0
VERTEX
  5
5928
330
5925
100
AcDbEntity
  8
241
  6
Continuous
100
AcDbVertex
100
AcDb3dPolylineVertex
 10
233.9711
 20
-27.1283
 30
0.0
 70
    32
  0
VERTEX
  5
5929
330
5925
100
AcDbEntity
  8
241
  6
Continuous
100
AcDbVertex
100
AcDb3dPolylineVertex
 10
233.9351
 20
-27.3814
 30
0.0
 70
    32
  0
VERTEX
  5
592A
330
5925
100
AcDbEntity
  8
241
  6
Continuous
100
AcDbVertex
100
AcDb3dPolylineVertex
 10
233.8847
 20
-27.6327
 30
0.0
 70
    32
  0
VERTEX
  5
592B
330
5925
100
AcDbEntity
  8
241
  6
Continuous
100
AcDbVertex
100
AcDb3dPolylineVertex
 10
233.8202
 20
-27.88149999999999
 30
0.0
 70
    32
  0
VERTEX
  5
592C
330
5925
100
AcDbEntity
  8
241
  6
Continuous
100
AcDbVertex
100
AcDb3dPolylineVertex
 10
233.7416
 20
-28.12729999999999
 30
0.0
 70
    32
  0
VERTEX
  5
592D
330
5925
100
AcDbEntity
  8
241
  6
Continuous
100
AcDbVertex
100
AcDb3dPolylineVertex
 10
233.6493
 20
-28.36949999999999
 30
0.0
 70
    32
  0
VERTEX
  5
592E
330
5925
100
AcDbEntity
  8
241
  6
Continuous
100
AcDbVertex
100
AcDb3dPolylineVertex
 10
233.5433
 20
-28.60749999999999
 30
0.0
 70
    32
  0
VERTEX
  5
592F
330
5925
100
AcDbEntity
  8
241
  6
Continuous
100
AcDbVertex
100
AcDb3dPolylineVertex
 10
233.4239
 20
-28.8406
 30
0.0
 70
    32
  0
VERTEX
  5
5930
330
5925
100
AcDbEntity
  8
241
  6
Continuous
100
AcDbVertex
100
AcDb3dPolylineVertex
 10
233.2915
 20
-29.0684
 30
0.0
 70
    32
  0
VERTEX
  5
5931
330
5925
100
AcDbEntity
  8
241
  6
Continuous
100
AcDbVertex
100
AcDb3dPolylineVertex
 10
233.1464
 20
-29.29029999999997
 30
0.0
 70
    32
  0
VERTEX
  5
5932
330
5925
100
AcDbEntity
  8
241
  6
Continuous
100
AcDbVertex
100
AcDb3dPolylineVertex
 10
232.9888
 20
-29.5058
 30
0.0
 70
    32
  0
VERTEX
  5
5933
330
5925
100
AcDbEntity
  8
241
  6
Continuous
100
AcDbVertex
100
AcDb3dPolylineVertex
 10
232.8192
 20
-29.71429999999998
 30
0.0
 70
    32
  0
VERTEX
  5
5934
330
5925
100
AcDbEntity
  8
241
  6
Continuous
100
AcDbVertex
100
AcDb3dPolylineVertex
 10
232.6381
 20
-29.91539999999998
 30
0.0
 70
    32
  0
VERTEX
  5
5935
330
5925
100
AcDbEntity
  8
241
  6
Continuous
100
AcDbVertex
100
AcDb3dPolylineVertex
 10
232.4457
 20
-30.1085
 30
0.0
 70
    32
  0
VERTEX
  5
5936
330
5925
100
AcDbEntity
  8
241
  6
Continuous
100
AcDbVertex
100
AcDb3dPolylineVertex
 10
232.2426
 20
-30.29319999999998
 30
0.0
 70
    32
  0
VERTEX
  5
5937
330
5925
100
AcDbEntity
  8
241
  6
Continuous
100
AcDbVertex
100
AcDb3dPolylineVertex
 10
232.0294
 20
-30.4691
 30
0.0
 70
    32
  0
VERTEX
  5
5938
330
5925
100
AcDbEntity
  8
241
  6
Continuous
100
AcDbVertex
100
AcDb3dPolylineVertex
 10
231.8064
 20
-30.63569999999999
 30
0.0
 70
    32
  0
VERTEX
  5
5939
330
5925
100
AcDbEntity
  8
241
  6
Continuous
100
AcDbVertex
100
AcDb3dPolylineVertex
 10
231.5742
 20
-30.7926
 30
0.0
 70
    32
  0
VERTEX
  5
593A
330
5925
100
AcDbEntity
  8
241
  6
Continuous
100
AcDbVertex
100
AcDb3dPolylineVertex
 10
231.3334
 20
-30.93939999999998
 30
0.0
 70
    32
  0
VERTEX
  5
593B
330
5925
100
AcDbEntity
  8
241
  6
Continuous
100
AcDbVertex
100
AcDb3dPolylineVertex
 10
231.0846
 20
-31.07589999999999
 30
0.0
 70
    32
  0
VERTEX
  5
593C
330
5925
100
AcDbEntity
  8
241
  6
Continuous
100
AcDbVertex
100
AcDb3dPolylineVertex
 10
230.8284
 20
-31.20159999999998
 30
0.0
 70
    32
  0
VERTEX
  5
593D
330
5925
100
AcDbEntity
  8
241
  6
Continuous
100
AcDbVertex
100
AcDb3dPolylineVertex
 10
230.5653
 20
-31.31629999999999
 30
0.0
 70
    32
  0
VERTEX
  5
593E
330
5925
100
AcDbEntity
  8
241
  6
Continuous
100
AcDbVertex
100
AcDb3dPolylineVertex
 10
230.2961
 20
-31.41959999999999
 30
0.0
 70
    32
  0
VERTEX
  5
593F
330
5925
100
AcDbEntity
  8
241
  6
Continuous
100
AcDbVertex
100
AcDb3dPolylineVertex
 10
230.0213
 20
-31.51139999999998
 30
0.0
 70
    32
  0
VERTEX
  5
5940
330
5925
100
AcDbEntity
  8
241
  6
Continuous
100
AcDbVertex
100
AcDb3dPolylineVertex
 10
229.7417
 20
-31.59139999999999
 30
0.0
 70
    32
  0
VERTEX
  5
5941
330
5925
100
AcDbEntity
  8
241
  6
Continuous
100
AcDbVertex
100
AcDb3dPolylineVertex
 10
229.4579
 20
-31.65939999999999
 30
0.0
 70
    32
  0
VERTEX
  5
5942
330
5925
100
AcDbEntity
  8
241
  6
Continuous
100
AcDbVertex
100
AcDb3dPolylineVertex
 10
229.1705
 20
-31.71529999999999
 30
0.0
 70
    32
  0
VERTEX
  5
5943
330
5925
100
AcDbEntity
  8
241
  6
Continuous
100
AcDbVertex
100
AcDb3dPolylineVertex
 10
228.8804
 20
-31.75889999999998
 30
0.0
 70
    32
  0
VERTEX
  5
5944
330
5925
100
AcDbEntity
  8
241
  6
Continuous
100
AcDbVertex
100
AcDb3dPolylineVertex
 10
228.5881
 20
-31.79009999999998
 30
0.0
 70
    32
  0
VERTEX
  5
5945
330
5925
100
AcDbEntity
  8
241
  6
Continuous
100
AcDbVertex
100
AcDb3dPolylineVertex
 10
228.2944
 20
-31.8089
 30
0.0
 70
    32
  0
VERTEX
  5
5946
330
5925
100
AcDbEntity
  8
241
  6
Continuous
100
AcDbVertex
100
AcDb3dPolylineVertex
 10
228.0
 20
-31.81509999999999
 30
0.0
 70
    32
  0
VERTEX
  5
5947
330
5925
100
AcDbEntity
  8
241
  6
Continuous
100
AcDbVertex
100
AcDb3dPolylineVertex
 10
227.7056
 20
-31.8089
 30
0.0
 70
    32
  0
VERTEX
  5
5948
330
5925
100
AcDbEntity
  8
241
  6
Continuous
100
AcDbVertex
100
AcDb3dPolylineVertex
 10
227.4119
 20
-31.79009999999998
 30
0.0
 70
    32
  0
VERTEX
  5
5949
330
5925
100
AcDbEntity
  8
241
  6
Continuous
100
AcDbVertex
100
AcDb3dPolylineVertex
 10
227.1196
 20
-31.75889999999998
 30
0.0
 70
    32
  0
VERTEX
  5
594A
330
5925
100
AcDbEntity
  8
241
  6
Continuous
100
AcDbVertex
100
AcDb3dPolylineVertex
 10
226.8295
 20
-31.71529999999999
 30
0.0
 70
    32
  0
VERTEX
  5
594B
330
5925
100
AcDbEntity
  8
241
  6
Continuous
100
AcDbVertex
100
AcDb3dPolylineVertex
 10
226.5421
 20
-31.65939999999999
 30
0.0
 70
    32
  0
VERTEX
  5
594C
330
5925
100
AcDbEntity
  8
241
  6
Continuous
100
AcDbVertex
100
AcDb3dPolylineVertex
 10
226.2583
 20
-31.59139999999999
 30
0.0
 70
    32
  0
VERTEX
  5
594D
330
5925
100
AcDbEntity
  8
241
  6
Continuous
100
AcDbVertex
100
AcDb3dPolylineVertex
 10
225.9787
 20
-31.51139999999998
 30
0.0
 70
    32
  0
VERTEX
  5
594E
330
5925
100
AcDbEntity
  8
241
  6
Continuous
100
AcDbVertex
100
AcDb3dPolylineVertex
 10
225.7039
 20
-31.41959999999999
 30
0.0
 70
    32
  0
VERTEX
  5
594F
330
5925
100
AcDbEntity
  8
241
  6
Continuous
100
AcDbVertex
100
AcDb3dPolylineVertex
 10
225.4347
 20
-31.31629999999999
 30
0.0
 70
    32
  0
VERTEX
  5
5950
330
5925
100
AcDbEntity
  8
241
  6
Continuous
100
AcDbVertex
100
AcDb3dPolylineVertex
 10
225.1716
 20
-31.20159999999998
 30
0.0
 70
    32
  0
VERTEX
  5
5951
330
5925
100
AcDbEntity
  8
241
  6
Continuous
100
AcDbVertex
100
AcDb3dPolylineVertex
 10
224.9154
 20
-31.07589999999999
 30
0.0
 70
    32
  0
VERTEX
  5
5952
330
5925
100
AcDbEntity
  8
241
  6
Continuous
100
AcDbVertex
100
AcDb3dPolylineVertex
 10
224.6666
 20
-30.93939999999998
 30
0.0
 70
    32
  0
VERTEX
  5
5953
330
5925
100
AcDbEntity
  8
241
  6
Continuous
100
AcDbVertex
100
AcDb3dPolylineVertex
 10
224.4258
 20
-30.7926
 30
0.0
 70
    32
  0
VERTEX
  5
5954
330
5925
100
AcDbEntity
  8
241
  6
Continuous
100
AcDbVertex
100
AcDb3dPolylineVertex
 10
224.1936
 20
-30.63569999999999
 30
0.0
 70
    32
  0
VERTEX
  5
5955
330
5925
100
AcDbEntity
  8
241
  6
Continuous
100
AcDbVertex
100
AcDb3dPolylineVertex
 10
223.9706
 20
-30.4691
 30
0.0
 70
    32
  0
VERTEX
  5
5956
330
5925
100
AcDbEntity
  8
241
  6
Continuous
100
AcDbVertex
100
AcDb3dPolylineVertex
 10
223.7574
 20
-30.29319999999998
 30
0.0
 70
    32
  0
VERTEX
  5
5957
330
5925
100
AcDbEntity
  8
241
  6
Continuous
100
AcDbVertex
100
AcDb3dPolylineVertex
 10
223.5543
 20
-30.1085
 30
0.0
 70
    32
  0
VERTEX
  5
5958
330
5925
100
AcDbEntity
  8
241
  6
Continuous
100
AcDbVertex
100
AcDb3dPolylineVertex
 10
223.3619
 20
-29.91539999999998
 30
0.0
 70
    32
  0
VERTEX
  5
5959
330
5925
100
AcDbEntity
  8
241
  6
Continuous
100
AcDbVertex
100
AcDb3dPolylineVertex
 10
223.1808
 20
-29.71429999999998
 30
0.0
 70
    32
  0
VERTEX
  5
595A
330
5925
100
AcDbEntity
  8
241
  6
Continuous
100
AcDbVertex
100
AcDb3dPolylineVertex
 10
223.0112
 20
-29.5058
 30
0.0
 70
    32
  0
VERTEX
  5
595B
330
5925
100
AcDbEntity
  8
241
  6
Continuous
100
AcDbVertex
100
AcDb3dPolylineVertex
 10
222.8536
 20
-29.29029999999997
 30
0.0
 70
    32
  0
VERTEX
  5
595C
330
5925
100
AcDbEntity
  8
241
  6
Continuous
100
AcDbVertex
100
AcDb3dPolylineVertex
 10
222.7085
 20
-29.0684
 30
0.0
 70
    32
  0
VERTEX
  5
595D
330
5925
100
AcDbEntity
  8
241
  6
Continuous
100
AcDbVertex
100
AcDb3dPolylineVertex
 10
222.5761
 20
-28.8406
 30
0.0
 70
    32
  0
VERTEX
  5
595E
330
5925
100
AcDbEntity
  8
241
  6
Continuous
100
AcDbVertex
100
AcDb3dPolylineVertex
 10
222.4567
 20
-28.60749999999999
 30
0.0
 70
    32
  0
VERTEX
  5
595F
330
5925
100
AcDbEntity
  8
241
  6
Continuous
100
AcDbVertex
100
AcDb3dPolylineVertex
 10
222.3507
 20
-28.36949999999999
 30
0.0
 70
    32
  0
VERTEX
  5
5960
330
5925
100
AcDbEntity
  8
241
  6
Continuous
100
AcDbVertex
100
AcDb3dPolylineVertex
 10
222.2584
 20
-28.12729999999999
 30
0.0
 70
    32
  0
VERTEX
  5
5961
330
5925
100
AcDbEntity
  8
241
  6
Continuous
100
AcDbVertex
100
AcDb3dPolylineVertex
 10
222.1798
 20
-27.88149999999999
 30
0.0
 70
    32
  0
VERTEX
  5
5962
330
5925
100
AcDbEntity
  8
241
  6
Continuous
100
AcDbVertex
100
AcDb3dPolylineVertex
 10
222.1153
 20
-27.6327
 30
0.0
 70
    32
  0
VERTEX
  5
5963
330
5925
100
AcDbEntity
  8
241
  6
Continuous
100
AcDbVertex
100
AcDb3dPolylineVertex
 10
222.0649
 20
-27.3814
 30
0.0
 70
    32
  0
VERTEX
  5
5964
330
5925
100
AcDbEntity
  8
241
  6
Continuous
100
AcDbVertex
100
AcDb3dPolylineVertex
 10
222.0289
 20
-27.1283
 30
0.0
 70
    32
  0
VERTEX
  5
5965
330
5925
100
AcDbEntity
  8
241
  6
Continuous
100
AcDbVertex
100
AcDb3dPolylineVertex
 10
222.0072
 20
-26.87389999999999
 30
0.0
 70
    32
  0
VERTEX
  5
5966
330
5925
100
AcDbEntity
  8
241
  6
Continuous
100
AcDbVertex
100
AcDb3dPolylineVertex
 10
222.0
 20
-26.61899999999997
 30
0.0
 70
    32
  0
VERTEX
  5
5967
330
5925
100
AcDbEntity
  8
241
  6
Continuous
100
AcDbVertex
100
AcDb3dPolylineVertex
 10
222.0072
 20
-26.36399999999998
 30
0.0
 70
    32
  0
VERTEX
  5
5968
330
5925
100
AcDbEntity
  8
241
  6
Continuous
100
AcDbVertex
100
AcDb3dPolylineVertex
 10
222.0289
 20
-26.10969999999998
 30
0.0
 70
    32
  0
VERTEX
  5
5969
330
5925
100
AcDbEntity
  8
241
  6
Continuous
100
AcDbVertex
100
AcDb3dPolylineVertex
 10
222.0649
 20
-25.85659999999999
 30
0.0
 70
    32
  0
VERTEX
  5
596A
330
5925
100
AcDbEntity
  8
241
  6
Continuous
100
AcDbVertex
100
AcDb3dPolylineVertex
 10
222.1153
 20
-25.6053
 30
0.0
 70
    32
  0
VERTEX
  5
596B
330
5925
100
AcDbEntity
  8
241
  6
Continuous
100
AcDbVertex
100
AcDb3dPolylineVertex
 10
222.1798
 20
-25.35639999999998
 30
0.0
 70
    32
  0
VERTEX
  5
596C
330
5925
100
AcDbEntity
  8
241
  6
Continuous
100
AcDbVertex
100
AcDb3dPolylineVertex
 10
222.2584
 20
-25.11059999999998
 30
0.0
 70
    32
  0
VERTEX
  5
596D
330
5925
100
AcDbEntity
  8
241
  6
Continuous
100
AcDbVertex
100
AcDb3dPolylineVertex
 10
222.3507
 20
-24.86849999999999
 30
0.0
 70
    32
  0
VERTEX
  5
596E
330
5925
100
AcDbEntity
  8
241
  6
Continuous
100
AcDbVertex
100
AcDb3dPolylineVertex
 10
222.4567
 20
-24.63049999999999
 30
0.0
 70
    32
  0
VERTEX
  5
596F
330
5925
100
AcDbEntity
  8
241
  6
Continuous
100
AcDbVertex
100
AcDb3dPolylineVertex
 10
222.5761
 20
-24.39729999999997
 30
0.0
 70
    32
  0
VERTEX
  5
5970
330
5925
100
AcDbEntity
  8
241
  6
Continuous
100
AcDbVertex
100
AcDb3dPolylineVertex
 10
222.7085
 20
-24.16949999999997
 30
0.0
 70
    32
  0
VERTEX
  5
5971
330
5925
100
AcDbEntity
  8
241
  6
Continuous
100
AcDbVertex
100
AcDb3dPolylineVertex
 10
222.8536
 20
-23.94759999999999
 30
0.0
 70
    32
  0
VERTEX
  5
5972
330
5925
100
AcDbEntity
  8
241
  6
Continuous
100
AcDbVertex
100
AcDb3dPolylineVertex
 10
223.0112
 20
-23.73219999999998
 30
0.0
 70
    32
  0
VERTEX
  5
5973
330
5925
100
AcDbEntity
  8
241
  6
Continuous
100
AcDbVertex
100
AcDb3dPolylineVertex
 10
223.1808
 20
-23.52359999999999
 30
0.0
 70
    32
  0
VERTEX
  5
5974
330
5925
100
AcDbEntity
  8
241
  6
Continuous
100
AcDbVertex
100
AcDb3dPolylineVertex
 10
223.3619
 20
-23.32259999999999
 30
0.0
 70
    32
  0
VERTEX
  5
5975
330
5925
100
AcDbEntity
  8
241
  6
Continuous
100
AcDbVertex
100
AcDb3dPolylineVertex
 10
223.5543
 20
-23.12949999999998
 30
0.0
 70
    32
  0
VERTEX
  5
5976
330
5925
100
AcDbEntity
  8
241
  6
Continuous
100
AcDbVertex
100
AcDb3dPolylineVertex
 10
223.7574
 20
-22.94479999999999
 30
0.0
 70
    32
  0
VERTEX
  5
5977
330
5925
100
AcDbEntity
  8
241
  6
Continuous
100
AcDbVertex
100
AcDb3dPolylineVertex
 10
223.9706
 20
-22.76889999999998
 30
0.0
 70
    32
  0
VERTEX
  5
5978
330
5925
100
AcDbEntity
  8
241
  6
Continuous
100
AcDbVertex
100
AcDb3dPolylineVertex
 10
224.1936
 20
-22.60229999999999
 30
0.0
 70
    32
  0
VERTEX
  5
5979
330
5925
100
AcDbEntity
  8
241
  6
Continuous
100
AcDbVertex
100
AcDb3dPolylineVertex
 10
224.4258
 20
-22.44539999999998
 30
0.0
 70
    32
  0
VERTEX
  5
597A
330
5925
100
AcDbEntity
  8
241
  6
Continuous
100
AcDbVertex
100
AcDb3dPolylineVertex
 10
224.6666
 20
-22.29849999999999
 30
0.0
 70
    32
  0
VERTEX
  5
597B
330
5925
100
AcDbEntity
  8
241
  6
Continuous
100
AcDbVertex
100
AcDb3dPolylineVertex
 10
224.9154
 20
-22.16209999999998
 30
0.0
 70
    32
  0
VERTEX
  5
597C
330
5925
100
AcDbEntity
  8
241
  6
Continuous
100
AcDbVertex
100
AcDb3dPolylineVertex
 10
225.1716
 20
-22.03639999999999
 30
0.0
 70
    32
  0
VERTEX
  5
597D
330
5925
100
AcDbEntity
  8
241
  6
Continuous
100
AcDbVertex
100
AcDb3dPolylineVertex
 10
225.4347
 20
-21.92169999999999
 30
0.0
 70
    32
  0
VERTEX
  5
597E
330
5925
100
AcDbEntity
  8
241
  6
Continuous
100
AcDbVertex
100
AcDb3dPolylineVertex
 10
225.7039
 20
-21.8184
 30
0.0
 70
    32
  0
VERTEX
  5
597F
330
5925
100
AcDbEntity
  8
241
  6
Continuous
100
AcDbVertex
100
AcDb3dPolylineVertex
 10
225.9787
 20
-21.72659999999999
 30
0.0
 70
    32
  0
VERTEX
  5
5980
330
5925
100
AcDbEntity
  8
241
  6
Continuous
100
AcDbVertex
100
AcDb3dPolylineVertex
 10
226.2583
 20
-21.64659999999998
 30
0.0
 70
    32
  0
VERTEX
  5
5981
330
5925
100
AcDbEntity
  8
241
  6
Continuous
100
AcDbVertex
100
AcDb3dPolylineVertex
 10
226.5421
 20
-21.57859999999999
 30
0.0
 70
    32
  0
VERTEX
  5
5982
330
5925
100
AcDbEntity
  8
241
  6
Continuous
100
AcDbVertex
100
AcDb3dPolylineVertex
 10
226.8295
 20
-21.52269999999999
 30
0.0
 70
    32
  0
VERTEX
  5
5983
330
5925
100
AcDbEntity
  8
241
  6
Continuous
100
AcDbVertex
100
AcDb3dPolylineVertex
 10
227.1196
 20
-21.47909999999999
 30
0.0
 70
    32
  0
VERTEX
  5
5984
330
5925
100
AcDbEntity
  8
241
  6
Continuous
100
AcDbVertex
100
AcDb3dPolylineVertex
 10
227.4119
 20
-21.44789999999998
 30
0.0
 70
    32
  0
VERTEX
  5
5985
330
5925
100
AcDbEntity
  8
241
  6
Continuous
100
AcDbVertex
100
AcDb3dPolylineVertex
 10
227.7056
 20
-21.42909999999998
 30
0.0
 70
    32
  0
VERTEX
  5
5986
330
5925
100
AcDbEntity
  8
241
  6
Continuous
100
AcDbVertex
100
AcDb3dPolylineVertex
 10
228.0
 20
-21.42279999999999
 30
0.0
 70
    32
  0
VERTEX
  5
5987
330
5925
100
AcDbEntity
  8
241
  6
Continuous
100
AcDbVertex
100
AcDb3dPolylineVertex
 10
228.2944
 20
-21.42909999999998
 30
0.0
 70
    32
  0
VERTEX
  5
5988
330
5925
100
AcDbEntity
  8
241
  6
Continuous
100
AcDbVertex
100
AcDb3dPolylineVertex
 10
228.5881
 20
-21.44789999999998
 30
0.0
 70
    32
  0
VERTEX
  5
5989
330
5925
100
AcDbEntity
  8
241
  6
Continuous
100
AcDbVertex
100
AcDb3dPolylineVertex
 10
228.8804
 20
-21.47909999999999
 30
0.0
 70
    32
  0
VERTEX
  5
598A
330
5925
100
AcDbEntity
  8
241
  6
Continuous
100
AcDbVertex
100
AcDb3dPolylineVertex
 10
229.1705
 20
-21.52269999999999
 30
0.0
 70
    32
  0
VERTEX
  5
598B
330
5925
100
AcDbEntity
  8
241
  6
Continuous
100
AcDbVertex
100
AcDb3dPolylineVertex
 10
229.4579
 20
-21.57859999999999
 30
0.0
 70
    32
  0
VERTEX
  5
598C
330
5925
100
AcDbEntity
  8
241
  6
Continuous
100
AcDbVertex
100
AcDb3dPolylineVertex
 10
229.7417
 20
-21.64659999999998
 30
0.0
 70
    32
  0
VERTEX
  5
598D
330
5925
100
AcDbEntity
  8
241
  6
Continuous
100
AcDbVertex
100
AcDb3dPolylineVertex
 10
230.0213
 20
-21.72659999999999
 30
0.0
 70
    32
  0
VERTEX
  5
598E
330
5925
100
AcDbEntity
  8
241
  6
Continuous
100
AcDbVertex
100
AcDb3dPolylineVertex
 10
230.2961
 20
-21.8184
 30
0.0
 70
    32
  0
VERTEX
  5
598F
330
5925
100
AcDbEntity
  8
241
  6
Continuous
100
AcDbVertex
100
AcDb3dPolylineVertex
 10
230.5653
 20
-21.92169999999999
 30
0.0
 70
    32
  0
VERTEX
  5
5990
330
5925
100
AcDbEntity
  8
241
  6
Continuous
100
AcDbVertex
100
AcDb3dPolylineVertex
 10
230.8284
 20
-22.03639999999999
 30
0.0
 70
    32
  0
VERTEX
  5
5991
330
5925
100
AcDbEntity
  8
241
  6
Continuous
100
AcDbVertex
100
AcDb3dPolylineVertex
 10
231.0846
 20
-22.16209999999998
 30
0.0
 70
    32
  0
VERTEX
  5
5992
330
5925
100
AcDbEntity
  8
241
  6
Continuous
100
AcDbVertex
100
AcDb3dPolylineVertex
 10
231.3334
 20
-22.29849999999999
 30
0.0
 70
    32
  0
VERTEX
  5
5993
330
5925
100
AcDbEntity
  8
241
  6
Continuous
100
AcDbVertex
100
AcDb3dPolylineVertex
 10
231.5742
 20
-22.44539999999998
 30
0.0
 70
    32
  0
VERTEX
  5
5994
330
5925
100
AcDbEntity
  8
241
  6
Continuous
100
AcDbVertex
100
AcDb3dPolylineVertex
 10
231.8064
 20
-22.60229999999999
 30
0.0
 70
    32
  0
VERTEX
  5
5995
330
5925
100
AcDbEntity
  8
241
  6
Continuous
100
AcDbVertex
100
AcDb3dPolylineVertex
 10
232.0294
 20
-22.76889999999998
 30
0.0
 70
    32
  0
VERTEX
  5
5996
330
5925
100
AcDbEntity
  8
241
  6
Continuous
100
AcDbVertex
100
AcDb3dPolylineVertex
 10
232.2426
 20
-22.94479999999999
 30
0.0
 70
    32
  0
VERTEX
  5
5997
330
5925
100
AcDbEntity
  8
241
  6
Continuous
100
AcDbVertex
100
AcDb3dPolylineVertex
 10
232.4457
 20
-23.12949999999998
 30
0.0
 70
    32
  0
VERTEX
  5
5998
330
5925
100
AcDbEntity
  8
241
  6
Continuous
100
AcDbVertex
100
AcDb3dPolylineVertex
 10
232.6381
 20
-23.32259999999999
 30
0.0
 70
    32
  0
VERTEX
  5
5999
330
5925
100
AcDbEntity
  8
241
  6
Continuous
100
AcDbVertex
100
AcDb3dPolylineVertex
 10
232.8192
 20
-23.52359999999999
 30
0.0
 70
    32
  0
VERTEX
  5
599A
330
5925
100
AcDbEntity
  8
241
  6
Continuous
100
AcDbVertex
100
AcDb3dPolylineVertex
 10
232.9888
 20
-23.73219999999998
 30
0.0
 70
    32
  0
VERTEX
  5
599B
330
5925
100
AcDbEntity
  8
241
  6
Continuous
100
AcDbVertex
100
AcDb3dPolylineVertex
 10
233.1464
 20
-23.94759999999999
 30
0.0
 70
    32
  0
VERTEX
  5
599C
330
5925
100
AcDbEntity
  8
241
  6
Continuous
100
AcDbVertex
100
AcDb3dPolylineVertex
 10
233.2915
 20
-24.16949999999997
 30
0.0
 70
    32
  0
VERTEX
  5
599D
330
5925
100
AcDbEntity
  8
241
  6
Continuous
100
AcDbVertex
100
AcDb3dPolylineVertex
 10
233.4239
 20
-24.39729999999997
 30
0.0
 70
    32
  0
VERTEX
  5
599E
330
5925
100
AcDbEntity
  8
241
  6
Continuous
100
AcDbVertex
100
AcDb3dPolylineVertex
 10
233.5433
 20
-24.63049999999999
 30
0.0
 70
    32
  0
VERTEX
  5
599F
330
5925
100
AcDbEntity
  8
241
  6
Continuous
100
AcDbVertex
100
AcDb3dPolylineVertex
 10
233.6493
 20
-24.86849999999999
 30
0.0
 70
    32
  0
VERTEX
  5
59A0
330
5925
100
AcDbEntity
  8
241
  6
Continuous
100
AcDbVertex
100
AcDb3dPolylineVertex
 10
233.7416
 20
-25.11059999999998
 30
0.0
 70
    32
  0
VERTEX
  5
59A1
330
5925
100
AcDbEntity
  8
241
  6
Continuous
100
AcDbVertex
100
AcDb3dPolylineVertex
 10
233.8202
 20
-25.35639999999998
 30
0.0
 70
    32
  0
VERTEX
  5
59A2
330
5925
100
AcDbEntity
  8
241
  6
Continuous
100
AcDbVertex
100
AcDb3dPolylineVertex
 10
233.8847
 20
-25.6053
 30
0.0
 70
    32
  0
VERTEX
  5
59A3
330
5925
100
AcDbEntity
  8
241
  6
Continuous
100
AcDbVertex
100
AcDb3dPolylineVertex
 10
233.9351
 20
-25.85659999999999
 30
0.0
 70
    32
  0
VERTEX
  5
59A4
330
5925
100
AcDbEntity
  8
241
  6
Continuous
100
AcDbVertex
100
AcDb3dPolylineVertex
 10
233.9711
 20
-26.10969999999998
 30
0.0
 70
    32
  0
VERTEX
  5
59A5
330
5925
100
AcDbEntity
  8
241
  6
Continuous
100
AcDbVertex
100
AcDb3dPolylineVertex
 10
233.9928
 20
-26.36399999999998
 30
0.0
 70
    32
  0
VERTEX
  5
59A6
330
5925
100
AcDbEntity
  8
241
  6
Continuous
100
AcDbVertex
100
AcDb3dPolylineVertex
 10
234.0
 20
-26.61899999999997
 30
0.0
 70
    32
  0
SEQEND
  5
59A7
330
5925
100
AcDbEntity
  8
241
  6
Continuous
  0
POLYLINE
  5
59A9
330
1A
100
AcDbEntity
  8
241
  6
Continuous
100
AcDb3dPolyline
 66
     1
 10
0.0
 20
0.0
 30
0.0
 70
     8
  0
VERTEX
  5
59AA
330
59A9
100
AcDbEntity
  8
241
  6
Continuous
100
AcDbVertex
100
AcDb3dPolylineVertex
 10
220.5215
 20
-26.76379999999998
 30
0.0
 70
    32
  0
VERTEX
  5
59AB
330
59A9
100
AcDbEntity
  8
241
  6
Continuous
100
AcDbVertex
100
AcDb3dPolylineVertex
 10
220.5184
 20
-26.77329999999998
 30
0.0
 70
    32
  0
VERTEX
  5
59AC
330
59A9
100
AcDbEntity
  8
241
  6
Continuous
100
AcDbVertex
100
AcDb3dPolylineVertex
 10
220.5152
 20
-26.78279999999998
 30
0.0
 70
    32
  0
VERTEX
  5
59AD
330
59A9
100
AcDbEntity
  8
241
  6
Continuous
100
AcDbVertex
100
AcDb3dPolylineVertex
 10
220.512
 20
-26.79239999999999
 30
0.0
 70
    32
  0
VERTEX
  5
59AE
330
59A9
100
AcDbEntity
  8
241
  6
Continuous
100
AcDbVertex
100
AcDb3dPolylineVertex
 10
220.5089
 20
-26.80189999999999
 30
0.0
 70
    32
  0
VERTEX
  5
59AF
330
59A9
100
AcDbEntity
  8
241
  6
Continuous
100
AcDbVertex
100
AcDb3dPolylineVertex
 10
220.5058
 20
-26.81139999999999
 30
0.0
 70
    32
  0
VERTEX
  5
59B0
330
59A9
100
AcDbEntity
  8
241
  6
Continuous
100
AcDbVertex
100
AcDb3dPolylineVertex
 10
220.5027
 20
-26.8209
 30
0.0
 70
    32
  0
VERTEX
  5
59B1
330
59A9
100
AcDbEntity
  8
241
  6
Continuous
100
AcDbVertex
100
AcDb3dPolylineVertex
 10
220.4996
 20
-26.83049999999997
 30
0.0
 70
    32
  0
VERTEX
  5
59B2
330
59A9
100
AcDbEntity
  8
241
  6
Continuous
100
AcDbVertex
100
AcDb3dPolylineVertex
 10
220.4965
 20
-26.83999999999997
 30
0.0
 70
    32
  0
VERTEX
  5
59B3
330
59A9
100
AcDbEntity
  8
241
  6
Continuous
100
AcDbVertex
100
AcDb3dPolylineVertex
 10
220.4935
 20
-26.84949999999998
 30
0.0
 70
    32
  0
VERTEX
  5
59B4
330
59A9
100
AcDbEntity
  8
241
  6
Continuous
100
AcDbVertex
100
AcDb3dPolylineVertex
 10
220.4904
 20
-26.85899999999998
 30
0.0
 70
    32
  0
VERTEX
  5
59B5
330
59A9
100
AcDbEntity
  8
241
  6
Continuous
100
AcDbVertex
100
AcDb3dPolylineVertex
 10
220.4874
 20
-26.86859999999999
 30
0.0
 70
    32
  0
VERTEX
  5
59B6
330
59A9
100
AcDbEntity
  8
241
  6
Continuous
100
AcDbVertex
100
AcDb3dPolylineVertex
 10
220.4844
 20
-26.87809999999999
 30
0.0
 70
    32
  0
VERTEX
  5
59B7
330
59A9
100
AcDbEntity
  8
241
  6
Continuous
100
AcDbVertex
100
AcDb3dPolylineVertex
 10
220.4814
 20
-26.88759999999999
 30
0.0
 70
    32
  0
VERTEX
  5
59B8
330
59A9
100
AcDbEntity
  8
241
  6
Continuous
100
AcDbVertex
100
AcDb3dPolylineVertex
 10
220.4784
 20
-26.8972
 30
0.0
 70
    32
  0
VERTEX
  5
59B9
330
59A9
100
AcDbEntity
  8
241
  6
Continuous
100
AcDbVertex
100
AcDb3dPolylineVertex
 10
220.4754
 20
-26.9067
 30
0.0
 70
    32
  0
VERTEX
  5
59BA
330
59A9
100
AcDbEntity
  8
241
  6
Continuous
100
AcDbVertex
100
AcDb3dPolylineVertex
 10
220.4725
 20
-26.91619999999999
 30
0.0
 70
    32
  0
VERTEX
  5
59BB
330
59A9
100
AcDbEntity
  8
241
  6
Continuous
100
AcDbVertex
100
AcDb3dPolylineVertex
 10
220.4695
 20
-26.92569999999998
 30
0.0
 70
    32
  0
VERTEX
  5
59BC
330
59A9
100
AcDbEntity
  8
241
  6
Continuous
100
AcDbVertex
100
AcDb3dPolylineVertex
 10
220.4666
 20
-26.93529999999999
 30
0.0
 70
    32
  0
VERTEX
  5
59BD
330
59A9
100
AcDbEntity
  8
241
  6
Continuous
100
AcDbVertex
100
AcDb3dPolylineVertex
 10
220.4637
 20
-26.94479999999999
 30
0.0
 70
    32
  0
VERTEX
  5
59BE
330
59A9
100
AcDbEntity
  8
241
  6
Continuous
100
AcDbVertex
100
AcDb3dPolylineVertex
 10
220.4608
 20
-26.95429999999999
 30
0.0
 70
    32
  0
VERTEX
  5
59BF
330
59A9
100
AcDbEntity
  8
241
  6
Continuous
100
AcDbVertex
100
AcDb3dPolylineVertex
 10
220.4579
 20
-26.9639
 30
0.0
 70
    32
  0
VERTEX
  5
59C0
330
59A9
100
AcDbEntity
  8
241
  6
Continuous
100
AcDbVertex
100
AcDb3dPolylineVertex
 10
220.455
 20
-26.9734
 30
0.0
 70
    32
  0
VERTEX
  5
59C1
330
59A9
100
AcDbEntity
  8
241
  6
Continuous
100
AcDbVertex
100
AcDb3dPolylineVertex
 10
220.4522
 20
-26.98289999999996
 30
0.0
 70
    32
  0
VERTEX
  5
59C2
330
59A9
100
AcDbEntity
  8
241
  6
Continuous
100
AcDbVertex
100
AcDb3dPolylineVertex
 10
220.4493
 20
-26.99239999999998
 30
0.0
 70
    32
  0
VERTEX
  5
59C3
330
59A9
100
AcDbEntity
  8
241
  6
Continuous
100
AcDbVertex
100
AcDb3dPolylineVertex
 10
220.4465
 20
-27.00199999999998
 30
0.0
 70
    32
  0
VERTEX
  5
59C4
330
59A9
100
AcDbEntity
  8
241
  6
Continuous
100
AcDbVertex
100
AcDb3dPolylineVertex
 10
220.4437
 20
-27.01149999999998
 30
0.0
 70
    32
  0
VERTEX
  5
59C5
330
59A9
100
AcDbEntity
  8
241
  6
Continuous
100
AcDbVertex
100
AcDb3dPolylineVertex
 10
220.4409
 20
-27.02099999999999
 30
0.0
 70
    32
  0
VERTEX
  5
59C6
330
59A9
100
AcDbEntity
  8
241
  6
Continuous
100
AcDbVertex
100
AcDb3dPolylineVertex
 10
220.4381
 20
-27.03049999999999
 30
0.0
 70
    32
  0
VERTEX
  5
59C7
330
59A9
100
AcDbEntity
  8
241
  6
Continuous
100
AcDbVertex
100
AcDb3dPolylineVertex
 10
220.4353
 20
-27.0401
 30
0.0
 70
    32
  0
VERTEX
  5
59C8
330
59A9
100
AcDbEntity
  8
241
  6
Continuous
100
AcDbVertex
100
AcDb3dPolylineVertex
 10
220.4326
 20
-27.0496
 30
0.0
 70
    32
  0
VERTEX
  5
59C9
330
59A9
100
AcDbEntity
  8
241
  6
Continuous
100
AcDbVertex
100
AcDb3dPolylineVertex
 10
220.4298
 20
-27.0591
 30
0.0
 70
    32
  0
VERTEX
  5
59CA
330
59A9
100
AcDbEntity
  8
241
  6
Continuous
100
AcDbVertex
100
AcDb3dPolylineVertex
 10
220.4271
 20
-27.06859999999998
 30
0.0
 70
    32
  0
VERTEX
  5
59CB
330
59A9
100
AcDbEntity
  8
241
  6
Continuous
100
AcDbVertex
100
AcDb3dPolylineVertex
 10
220.4244
 20
-27.07809999999998
 30
0.0
 70
    32
  0
VERTEX
  5
59CC
330
59A9
100
AcDbEntity
  8
241
  6
Continuous
100
AcDbVertex
100
AcDb3dPolylineVertex
 10
220.4217
 20
-27.08759999999998
 30
0.0
 70
    32
  0
VERTEX
  5
59CD
330
59A9
100
AcDbEntity
  8
241
  6
Continuous
100
AcDbVertex
100
AcDb3dPolylineVertex
 10
220.419
 20
-27.09709999999998
 30
0.0
 70
    32
  0
VERTEX
  5
59CE
330
59A9
100
AcDbEntity
  8
241
  6
Continuous
100
AcDbVertex
100
AcDb3dPolylineVertex
 10
220.4163
 20
-27.10659999999999
 30
0.0
 70
    32
  0
VERTEX
  5
59CF
330
59A9
100
AcDbEntity
  8
241
  6
Continuous
100
AcDbVertex
100
AcDb3dPolylineVertex
 10
220.4137
 20
-27.11609999999999
 30
0.0
 70
    32
  0
VERTEX
  5
59D0
330
59A9
100
AcDbEntity
  8
241
  6
Continuous
100
AcDbVertex
100
AcDb3dPolylineVertex
 10
220.411
 20
-27.12559999999999
 30
0.0
 70
    32
  0
VERTEX
  5
59D1
330
59A9
100
AcDbEntity
  8
241
  6
Continuous
100
AcDbVertex
100
AcDb3dPolylineVertex
 10
220.4084
 20
-27.13509999999999
 30
0.0
 70
    32
  0
VERTEX
  5
59D2
330
59A9
100
AcDbEntity
  8
241
  6
Continuous
100
AcDbVertex
100
AcDb3dPolylineVertex
 10
220.4058
 20
-27.1446
 30
0.0
 70
    32
  0
VERTEX
  5
59D3
330
59A9
100
AcDbEntity
  8
241
  6
Continuous
100
AcDbVertex
100
AcDb3dPolylineVertex
 10
220.4032
 20
-27.15409999999997
 30
0.0
 70
    32
  0
VERTEX
  5
59D4
330
59A9
100
AcDbEntity
  8
241
  6
Continuous
100
AcDbVertex
100
AcDb3dPolylineVertex
 10
220.4006
 20
-27.16359999999998
 30
0.0
 70
    32
  0
VERTEX
  5
59D5
330
59A9
100
AcDbEntity
  8
241
  6
Continuous
100
AcDbVertex
100
AcDb3dPolylineVertex
 10
220.398
 20
-27.17309999999998
 30
0.0
 70
    32
  0
VERTEX
  5
59D6
330
59A9
100
AcDbEntity
  8
241
  6
Continuous
100
AcDbVertex
100
AcDb3dPolylineVertex
 10
220.3955
 20
-27.18259999999998
 30
0.0
 70
    32
  0
VERTEX
  5
59D7
330
59A9
100
AcDbEntity
  8
241
  6
Continuous
100
AcDbVertex
100
AcDb3dPolylineVertex
 10
220.3929
 20
-27.19199999999998
 30
0.0
 70
    32
  0
VERTEX
  5
59D8
330
59A9
100
AcDbEntity
  8
241
  6
Continuous
100
AcDbVertex
100
AcDb3dPolylineVertex
 10
220.3904
 20
-27.20149999999998
 30
0.0
 70
    32
  0
VERTEX
  5
59D9
330
59A9
100
AcDbEntity
  8
241
  6
Continuous
100
AcDbVertex
100
AcDb3dPolylineVertex
 10
220.3879
 20
-27.21099999999998
 30
0.0
 70
    32
  0
VERTEX
  5
59DA
330
59A9
100
AcDbEntity
  8
241
  6
Continuous
100
AcDbVertex
100
AcDb3dPolylineVertex
 10
220.3854
 20
-27.22039999999998
 30
0.0
 70
    32
  0
VERTEX
  5
59DB
330
59A9
100
AcDbEntity
  8
241
  6
Continuous
100
AcDbVertex
100
AcDb3dPolylineVertex
 10
220.3829
 20
-27.22989999999999
 30
0.0
 70
    32
  0
VERTEX
  5
59DC
330
59A9
100
AcDbEntity
  8
241
  6
Continuous
100
AcDbVertex
100
AcDb3dPolylineVertex
 10
220.3804
 20
-27.23939999999999
 30
0.0
 70
    32
  0
VERTEX
  5
59DD
330
59A9
100
AcDbEntity
  8
241
  6
Continuous
100
AcDbVertex
100
AcDb3dPolylineVertex
 10
220.378
 20
-27.24879999999999
 30
0.0
 70
    32
  0
VERTEX
  5
59DE
330
59A9
100
AcDbEntity
  8
241
  6
Continuous
100
AcDbVertex
100
AcDb3dPolylineVertex
 10
220.3755
 20
-27.25819999999999
 30
0.0
 70
    32
  0
VERTEX
  5
59DF
330
59A9
100
AcDbEntity
  8
241
  6
Continuous
100
AcDbVertex
100
AcDb3dPolylineVertex
 10
220.3731
 20
-27.26769999999999
 30
0.0
 70
    32
  0
VERTEX
  5
59E0
330
59A9
100
AcDbEntity
  8
241
  6
Continuous
100
AcDbVertex
100
AcDb3dPolylineVertex
 10
220.3707
 20
-27.27709999999999
 30
0.0
 70
    32
  0
VERTEX
  5
59E1
330
59A9
100
AcDbEntity
  8
241
  6
Continuous
100
AcDbVertex
100
AcDb3dPolylineVertex
 10
220.3683
 20
-27.2866
 30
0.0
 70
    32
  0
VERTEX
  5
59E2
330
59A9
100
AcDbEntity
  8
241
  6
Continuous
100
AcDbVertex
100
AcDb3dPolylineVertex
 10
220.3659
 20
-27.296
 30
0.0
 70
    32
  0
VERTEX
  5
59E3
330
59A9
100
AcDbEntity
  8
241
  6
Continuous
100
AcDbVertex
100
AcDb3dPolylineVertex
 10
220.3635
 20
-27.30539999999999
 30
0.0
 70
    32
  0
VERTEX
  5
59E4
330
59A9
100
AcDbEntity
  8
241
  6
Continuous
100
AcDbVertex
100
AcDb3dPolylineVertex
 10
220.3612
 20
-27.31479999999999
 30
0.0
 70
    32
  0
VERTEX
  5
59E5
330
59A9
100
AcDbEntity
  8
241
  6
Continuous
100
AcDbVertex
100
AcDb3dPolylineVertex
 10
220.3588
 20
-27.32419999999999
 30
0.0
 70
    32
  0
VERTEX
  5
59E6
330
59A9
100
AcDbEntity
  8
241
  6
Continuous
100
AcDbVertex
100
AcDb3dPolylineVertex
 10
220.3565
 20
-27.33359999999999
 30
0.0
 70
    32
  0
VERTEX
  5
59E7
330
59A9
100
AcDbEntity
  8
241
  6
Continuous
100
AcDbVertex
100
AcDb3dPolylineVertex
 10
220.3542
 20
-27.34299999999999
 30
0.0
 70
    32
  0
VERTEX
  5
59E8
330
59A9
100
AcDbEntity
  8
241
  6
Continuous
100
AcDbVertex
100
AcDb3dPolylineVertex
 10
220.3519
 20
-27.35239999999999
 30
0.0
 70
    32
  0
VERTEX
  5
59E9
330
59A9
100
AcDbEntity
  8
241
  6
Continuous
100
AcDbVertex
100
AcDb3dPolylineVertex
 10
220.3496
 20
-27.36179999999999
 30
0.0
 70
    32
  0
VERTEX
  5
59EA
330
59A9
100
AcDbEntity
  8
241
  6
Continuous
100
AcDbVertex
100
AcDb3dPolylineVertex
 10
220.3473
 20
-27.37119999999999
 30
0.0
 70
    32
  0
VERTEX
  5
59EB
330
59A9
100
AcDbEntity
  8
241
  6
Continuous
100
AcDbVertex
100
AcDb3dPolylineVertex
 10
220.3451
 20
-27.38049999999998
 30
0.0
 70
    32
  0
VERTEX
  5
59EC
330
59A9
100
AcDbEntity
  8
241
  6
Continuous
100
AcDbVertex
100
AcDb3dPolylineVertex
 10
220.3429
 20
-27.38989999999998
 30
0.0
 70
    32
  0
VERTEX
  5
59ED
330
59A9
100
AcDbEntity
  8
241
  6
Continuous
100
AcDbVertex
100
AcDb3dPolylineVertex
 10
220.3406
 20
-27.39929999999998
 30
0.0
 70
    32
  0
VERTEX
  5
59EE
330
59A9
100
AcDbEntity
  8
241
  6
Continuous
100
AcDbVertex
100
AcDb3dPolylineVertex
 10
220.3384
 20
-27.40859999999998
 30
0.0
 70
    32
  0
VERTEX
  5
59EF
330
59A9
100
AcDbEntity
  8
241
  6
Continuous
100
AcDbVertex
100
AcDb3dPolylineVertex
 10
220.3362
 20
-27.41799999999998
 30
0.0
 70
    32
  0
VERTEX
  5
59F0
330
59A9
100
AcDbEntity
  8
241
  6
Continuous
100
AcDbVertex
100
AcDb3dPolylineVertex
 10
220.334
 20
-27.42729999999998
 30
0.0
 70
    32
  0
VERTEX
  5
59F1
330
59A9
100
AcDbEntity
  8
241
  6
Continuous
100
AcDbVertex
100
AcDb3dPolylineVertex
 10
220.3319
 20
-27.4366
 30
0.0
 70
    32
  0
VERTEX
  5
59F2
330
59A9
100
AcDbEntity
  8
241
  6
Continuous
100
AcDbVertex
100
AcDb3dPolylineVertex
 10
220.3297
 20
-27.44599999999997
 30
0.0
 70
    32
  0
VERTEX
  5
59F3
330
59A9
100
AcDbEntity
  8
241
  6
Continuous
100
AcDbVertex
100
AcDb3dPolylineVertex
 10
220.3276
 20
-27.4553
 30
0.0
 70
    32
  0
VERTEX
  5
59F4
330
59A9
100
AcDbEntity
  8
241
  6
Continuous
100
AcDbVertex
100
AcDb3dPolylineVertex
 10
220.3254
 20
-27.46459999999999
 30
0.0
 70
    32
  0
VERTEX
  5
59F5
330
59A9
100
AcDbEntity
  8
241
  6
Continuous
100
AcDbVertex
100
AcDb3dPolylineVertex
 10
220.3233
 20
-27.47389999999999
 30
0.0
 70
    32
  0
VERTEX
  5
59F6
330
59A9
100
AcDbEntity
  8
241
  6
Continuous
100
AcDbVertex
100
AcDb3dPolylineVertex
 10
220.3212
 20
-27.48319999999998
 30
0.0
 70
    32
  0
VERTEX
  5
59F7
330
59A9
100
AcDbEntity
  8
241
  6
Continuous
100
AcDbVertex
100
AcDb3dPolylineVertex
 10
220.3191
 20
-27.49249999999998
 30
0.0
 70
    32
  0
VERTEX
  5
59F8
330
59A9
100
AcDbEntity
  8
241
  6
Continuous
100
AcDbVertex
100
AcDb3dPolylineVertex
 10
220.3171
 20
-27.50169999999997
 30
0.0
 70
    32
  0
VERTEX
  5
59F9
330
59A9
100
AcDbEntity
  8
241
  6
Continuous
100
AcDbVertex
100
AcDb3dPolylineVertex
 10
220.315
 20
-27.511
 30
0.0
 70
    32
  0
VERTEX
  5
59FA
330
59A9
100
AcDbEntity
  8
241
  6
Continuous
100
AcDbVertex
100
AcDb3dPolylineVertex
 10
220.313
 20
-27.52029999999999
 30
0.0
 70
    32
  0
VERTEX
  5
59FB
330
59A9
100
AcDbEntity
  8
241
  6
Continuous
100
AcDbVertex
100
AcDb3dPolylineVertex
 10
220.311
 20
-27.52949999999998
 30
0.0
 70
    32
  0
VERTEX
  5
59FC
330
59A9
100
AcDbEntity
  8
241
  6
Continuous
100
AcDbVertex
100
AcDb3dPolylineVertex
 10
220.3089
 20
-27.53869999999998
 30
0.0
 70
    32
  0
VERTEX
  5
59FD
330
59A9
100
AcDbEntity
  8
241
  6
Continuous
100
AcDbVertex
100
AcDb3dPolylineVertex
 10
220.3069
 20
-27.548
 30
0.0
 70
    32
  0
VERTEX
  5
59FE
330
59A9
100
AcDbEntity
  8
241
  6
Continuous
100
AcDbVertex
100
AcDb3dPolylineVertex
 10
220.305
 20
-27.5572
 30
0.0
 70
    32
  0
VERTEX
  5
59FF
330
59A9
100
AcDbEntity
  8
241
  6
Continuous
100
AcDbVertex
100
AcDb3dPolylineVertex
 10
220.303
 20
-27.56639999999999
 30
0.0
 70
    32
  0
VERTEX
  5
5A00
330
59A9
100
AcDbEntity
  8
241
  6
Continuous
100
AcDbVertex
100
AcDb3dPolylineVertex
 10
220.301
 20
-27.57559999999998
 30
0.0
 70
    32
  0
VERTEX
  5
5A01
330
59A9
100
AcDbEntity
  8
241
  6
Continuous
100
AcDbVertex
100
AcDb3dPolylineVertex
 10
220.2991
 20
-27.58479999999997
 30
0.0
 70
    32
  0
VERTEX
  5
5A02
330
59A9
100
AcDbEntity
  8
241
  6
Continuous
100
AcDbVertex
100
AcDb3dPolylineVertex
 10
220.2972
 20
-27.59399999999999
 30
0.0
 70
    32
  0
VERTEX
  5
5A03
330
59A9
100
AcDbEntity
  8
241
  6
Continuous
100
AcDbVertex
100
AcDb3dPolylineVertex
 10
220.2953
 20
-27.60319999999999
 30
0.0
 70
    32
  0
VERTEX
  5
5A04
330
59A9
100
AcDbEntity
  8
241
  6
Continuous
100
AcDbVertex
100
AcDb3dPolylineVertex
 10
220.2934
 20
-27.61229999999998
 30
0.0
 70
    32
  0
VERTEX
  5
5A05
330
59A9
100
AcDbEntity
  8
241
  6
Continuous
100
AcDbVertex
100
AcDb3dPolylineVertex
 10
220.2915
 20
-27.6215
 30
0.0
 70
    32
  0
VERTEX
  5
5A06
330
59A9
100
AcDbEntity
  8
241
  6
Continuous
100
AcDbVertex
100
AcDb3dPolylineVertex
 10
220.2896
 20
-27.63069999999999
 30
0.0
 70
    32
  0
VERTEX
  5
5A07
330
59A9
100
AcDbEntity
  8
241
  6
Continuous
100
AcDbVertex
100
AcDb3dPolylineVertex
 10
220.2878
 20
-27.63979999999998
 30
0.0
 70
    32
  0
VERTEX
  5
5A08
330
59A9
100
AcDbEntity
  8
241
  6
Continuous
100
AcDbVertex
100
AcDb3dPolylineVertex
 10
220.2859
 20
-27.6489
 30
0.0
 70
    32
  0
VERTEX
  5
5A09
330
59A9
100
AcDbEntity
  8
241
  6
Continuous
100
AcDbVertex
100
AcDb3dPolylineVertex
 10
220.2841
 20
-27.65799999999999
 30
0.0
 70
    32
  0
VERTEX
  5
5A0A
330
59A9
100
AcDbEntity
  8
241
  6
Continuous
100
AcDbVertex
100
AcDb3dPolylineVertex
 10
220.2823
 20
-27.66709999999998
 30
0.0
 70
    32
  0
VERTEX
  5
5A0B
330
59A9
100
AcDbEntity
  8
241
  6
Continuous
100
AcDbVertex
100
AcDb3dPolylineVertex
 10
220.2805
 20
-27.67619999999999
 30
0.0
 70
    32
  0
VERTEX
  5
5A0C
330
59A9
100
AcDbEntity
  8
241
  6
Continuous
100
AcDbVertex
100
AcDb3dPolylineVertex
 10
220.2787
 20
-27.68529999999998
 30
0.0
 70
    32
  0
VERTEX
  5
5A0D
330
59A9
100
AcDbEntity
  8
241
  6
Continuous
100
AcDbVertex
100
AcDb3dPolylineVertex
 10
220.2769
 20
-27.69439999999998
 30
0.0
 70
    32
  0
VERTEX
  5
5A0E
330
59A9
100
AcDbEntity
  8
241
  6
Continuous
100
AcDbVertex
100
AcDb3dPolylineVertex
 10
220.2752
 20
-27.70349999999999
 30
0.0
 70
    32
  0
VERTEX
  5
5A0F
330
59A9
100
AcDbEntity
  8
241
  6
Continuous
100
AcDbVertex
100
AcDb3dPolylineVertex
 10
220.2734
 20
-27.71249999999998
 30
0.0
 70
    32
  0
VERTEX
  5
5A10
330
59A9
100
AcDbEntity
  8
241
  6
Continuous
100
AcDbVertex
100
AcDb3dPolylineVertex
 10
220.2717
 20
-27.72159999999999
 30
0.0
 70
    32
  0
VERTEX
  5
5A11
330
59A9
100
AcDbEntity
  8
241
  6
Continuous
100
AcDbVertex
100
AcDb3dPolylineVertex
 10
220.27
 20
-27.73069999999999
 30
0.0
 70
    32
  0
VERTEX
  5
5A12
330
59A9
100
AcDbEntity
  8
241
  6
Continuous
100
AcDbVertex
100
AcDb3dPolylineVertex
 10
220.2682
 20
-27.73979999999998
 30
0.0
 70
    32
  0
VERTEX
  5
5A13
330
59A9
100
AcDbEntity
  8
241
  6
Continuous
100
AcDbVertex
100
AcDb3dPolylineVertex
 10
220.2665
 20
-27.74900000000001
 30
0.0
 70
    32
  0
VERTEX
  5
5A14
330
59A9
100
AcDbEntity
  8
241
  6
Continuous
100
AcDbVertex
100
AcDb3dPolylineVertex
 10
220.2648
 20
-27.75809999999999
 30
0.0
 70
    32
  0
VERTEX
  5
5A15
330
59A9
100
AcDbEntity
  8
241
  6
Continuous
100
AcDbVertex
100
AcDb3dPolylineVertex
 10
220.2631
 20
-27.76729999999998
 30
0.0
 70
    32
  0
VERTEX
  5
5A16
330
59A9
100
AcDbEntity
  8
241
  6
Continuous
100
AcDbVertex
100
AcDb3dPolylineVertex
 10
220.2615
 20
-27.7765
 30
0.0
 70
    32
  0
VERTEX
  5
5A17
330
59A9
100
AcDbEntity
  8
241
  6
Continuous
100
AcDbVertex
100
AcDb3dPolylineVertex
 10
220.2598
 20
-27.78569999999999
 30
0.0
 70
    32
  0
VERTEX
  5
5A18
330
59A9
100
AcDbEntity
  8
241
  6
Continuous
100
AcDbVertex
100
AcDb3dPolylineVertex
 10
220.2581
 20
-27.79499999999999
 30
0.0
 70
    32
  0
VERTEX
  5
5A19
330
59A9
100
AcDbEntity
  8
241
  6
Continuous
100
AcDbVertex
100
AcDb3dPolylineVertex
 10
220.2565
 20
-27.80419999999998
 30
0.0
 70
    32
  0
VERTEX
  5
5A1A
330
59A9
100
AcDbEntity
  8
241
  6
Continuous
100
AcDbVertex
100
AcDb3dPolylineVertex
 10
220.2548
 20
-27.81349999999998
 30
0.0
 70
    32
  0
VERTEX
  5
5A1B
330
59A9
100
AcDbEntity
  8
241
  6
Continuous
100
AcDbVertex
100
AcDb3dPolylineVertex
 10
220.2532
 20
-27.82279999999996
 30
0.0
 70
    32
  0
VERTEX
  5
5A1C
330
59A9
100
AcDbEntity
  8
241
  6
Continuous
100
AcDbVertex
100
AcDb3dPolylineVertex
 10
220.2516
 20
-27.8321
 30
0.0
 70
    32
  0
VERTEX
  5
5A1D
330
59A9
100
AcDbEntity
  8
241
  6
Continuous
100
AcDbVertex
100
AcDb3dPolylineVertex
 10
220.2499
 20
-27.84139999999999
 30
0.0
 70
    32
  0
VERTEX
  5
5A1E
330
59A9
100
AcDbEntity
  8
241
  6
Continuous
100
AcDbVertex
100
AcDb3dPolylineVertex
 10
220.2483
 20
-27.85079999999999
 30
0.0
 70
    32
  0
VERTEX
  5
5A1F
330
59A9
100
AcDbEntity
  8
241
  6
Continuous
100
AcDbVertex
100
AcDb3dPolylineVertex
 10
220.2467
 20
-27.86019999999999
 30
0.0
 70
    32
  0
VERTEX
  5
5A20
330
59A9
100
AcDbEntity
  8
241
  6
Continuous
100
AcDbVertex
100
AcDb3dPolylineVertex
 10
220.2451
 20
-27.86949999999999
 30
0.0
 70
    32
  0
VERTEX
  5
5A21
330
59A9
100
AcDbEntity
  8
241
  6
Continuous
100
AcDbVertex
100
AcDb3dPolylineVertex
 10
220.2436
 20
-27.87889999999999
 30
0.0
 70
    32
  0
VERTEX
  5
5A22
330
59A9
100
AcDbEntity
  8
241
  6
Continuous
100
AcDbVertex
100
AcDb3dPolylineVertex
 10
220.242
 20
-27.88839999999999
 30
0.0
 70
    32
  0
VERTEX
  5
5A23
330
59A9
100
AcDbEntity
  8
241
  6
Continuous
100
AcDbVertex
100
AcDb3dPolylineVertex
 10
220.2404
 20
-27.89779999999999
 30
0.0
 70
    32
  0
VERTEX
  5
5A24
330
59A9
100
AcDbEntity
  8
241
  6
Continuous
100
AcDbVertex
100
AcDb3dPolylineVertex
 10
220.2389
 20
-27.90719999999999
 30
0.0
 70
    32
  0
VERTEX
  5
5A25
330
59A9
100
AcDbEntity
  8
241
  6
Continuous
100
AcDbVertex
100
AcDb3dPolylineVertex
 10
220.2373
 20
-27.91669999999999
 30
0.0
 70
    32
  0
VERTEX
  5
5A26
330
59A9
100
AcDbEntity
  8
241
  6
Continuous
100
AcDbVertex
100
AcDb3dPolylineVertex
 10
220.2358
 20
-27.92619999999999
 30
0.0
 70
    32
  0
VERTEX
  5
5A27
330
59A9
100
AcDbEntity
  8
241
  6
Continuous
100
AcDbVertex
100
AcDb3dPolylineVertex
 10
220.2343
 20
-27.9357
 30
0.0
 70
    32
  0
VERTEX
  5
5A28
330
59A9
100
AcDbEntity
  8
241
  6
Continuous
100
AcDbVertex
100
AcDb3dPolylineVertex
 10
220.2327
 20
-27.9452
 30
0.0
 70
    32
  0
VERTEX
  5
5A29
330
59A9
100
AcDbEntity
  8
241
  6
Continuous
100
AcDbVertex
100
AcDb3dPolylineVertex
 10
220.2312
 20
-27.95469999999998
 30
0.0
 70
    32
  0
VERTEX
  5
5A2A
330
59A9
100
AcDbEntity
  8
241
  6
Continuous
100
AcDbVertex
100
AcDb3dPolylineVertex
 10
220.2298
 20
-27.96429999999998
 30
0.0
 70
    32
  0
VERTEX
  5
5A2B
330
59A9
100
AcDbEntity
  8
241
  6
Continuous
100
AcDbVertex
100
AcDb3dPolylineVertex
 10
220.2283
 20
-27.97389999999999
 30
0.0
 70
    32
  0
VERTEX
  5
5A2C
330
59A9
100
AcDbEntity
  8
241
  6
Continuous
100
AcDbVertex
100
AcDb3dPolylineVertex
 10
220.2268
 20
-27.98339999999999
 30
0.0
 70
    32
  0
VERTEX
  5
5A2D
330
59A9
100
AcDbEntity
  8
241
  6
Continuous
100
AcDbVertex
100
AcDb3dPolylineVertex
 10
220.2253
 20
-27.99300000000001
 30
0.0
 70
    32
  0
VERTEX
  5
5A2E
330
59A9
100
AcDbEntity
  8
241
  6
Continuous
100
AcDbVertex
100
AcDb3dPolylineVertex
 10
220.2239
 20
-28.00259999999997
 30
0.0
 70
    32
  0
VERTEX
  5
5A2F
330
59A9
100
AcDbEntity
  8
241
  6
Continuous
100
AcDbVertex
100
AcDb3dPolylineVertex
 10
220.2224
 20
-28.01219999999998
 30
0.0
 70
    32
  0
VERTEX
  5
5A30
330
59A9
100
AcDbEntity
  8
241
  6
Continuous
100
AcDbVertex
100
AcDb3dPolylineVertex
 10
220.221
 20
-28.02189999999999
 30
0.0
 70
    32
  0
VERTEX
  5
5A31
330
59A9
100
AcDbEntity
  8
241
  6
Continuous
100
AcDbVertex
100
AcDb3dPolylineVertex
 10
220.2196
 20
-28.0315
 30
0.0
 70
    32
  0
VERTEX
  5
5A32
330
59A9
100
AcDbEntity
  8
241
  6
Continuous
100
AcDbVertex
100
AcDb3dPolylineVertex
 10
220.2182
 20
-28.04119999999997
 30
0.0
 70
    32
  0
VERTEX
  5
5A33
330
59A9
100
AcDbEntity
  8
241
  6
Continuous
100
AcDbVertex
100
AcDb3dPolylineVertex
 10
220.2168
 20
-28.05089999999998
 30
0.0
 70
    32
  0
VERTEX
  5
5A34
330
59A9
100
AcDbEntity
  8
241
  6
Continuous
100
AcDbVertex
100
AcDb3dPolylineVertex
 10
220.2154
 20
-28.06049999999999
 30
0.0
 70
    32
  0
VERTEX
  5
5A35
330
59A9
100
AcDbEntity
  8
241
  6
Continuous
100
AcDbVertex
100
AcDb3dPolylineVertex
 10
220.214
 20
-28.0702
 30
0.0
 70
    32
  0
VERTEX
  5
5A36
330
59A9
100
AcDbEntity
  8
241
  6
Continuous
100
AcDbVertex
100
AcDb3dPolylineVertex
 10
220.2126
 20
-28.07999999999998
 30
0.0
 70
    32
  0
VERTEX
  5
5A37
330
59A9
100
AcDbEntity
  8
241
  6
Continuous
100
AcDbVertex
100
AcDb3dPolylineVertex
 10
220.2113
 20
-28.0897
 30
0.0
 70
    32
  0
VERTEX
  5
5A38
330
59A9
100
AcDbEntity
  8
241
  6
Continuous
100
AcDbVertex
100
AcDb3dPolylineVertex
 10
220.2099
 20
-28.09939999999997
 30
0.0
 70
    32
  0
VERTEX
  5
5A39
330
59A9
100
AcDbEntity
  8
241
  6
Continuous
100
AcDbVertex
100
AcDb3dPolylineVertex
 10
220.2086
 20
-28.10919999999999
 30
0.0
 70
    32
  0
VERTEX
  5
5A3A
330
59A9
100
AcDbEntity
  8
241
  6
Continuous
100
AcDbVertex
100
AcDb3dPolylineVertex
 10
220.2073
 20
-28.1189
 30
0.0
 70
    32
  0
VERTEX
  5
5A3B
330
59A9
100
AcDbEntity
  8
241
  6
Continuous
100
AcDbVertex
100
AcDb3dPolylineVertex
 10
220.2059
 20
-28.12869999999998
 30
0.0
 70
    32
  0
VERTEX
  5
5A3C
330
59A9
100
AcDbEntity
  8
241
  6
Continuous
100
AcDbVertex
100
AcDb3dPolylineVertex
 10
220.2046
 20
-28.1385
 30
0.0
 70
    32
  0
VERTEX
  5
5A3D
330
59A9
100
AcDbEntity
  8
241
  6
Continuous
100
AcDbVertex
100
AcDb3dPolylineVertex
 10
220.2034
 20
-28.14829999999998
 30
0.0
 70
    32
  0
VERTEX
  5
5A3E
330
59A9
100
AcDbEntity
  8
241
  6
Continuous
100
AcDbVertex
100
AcDb3dPolylineVertex
 10
220.2021
 20
-28.15809999999999
 30
0.0
 70
    32
  0
VERTEX
  5
5A3F
330
59A9
100
AcDbEntity
  8
241
  6
Continuous
100
AcDbVertex
100
AcDb3dPolylineVertex
 10
220.2008
 20
-28.16789999999997
 30
0.0
 70
    32
  0
VERTEX
  5
5A40
330
59A9
100
AcDbEntity
  8
241
  6
Continuous
100
AcDbVertex
100
AcDb3dPolylineVertex
 10
220.1995
 20
-28.17769999999999
 30
0.0
 70
    32
  0
VERTEX
  5
5A41
330
59A9
100
AcDbEntity
  8
241
  6
Continuous
100
AcDbVertex
100
AcDb3dPolylineVertex
 10
220.1983
 20
-28.18759999999997
 30
0.0
 70
    32
  0
VERTEX
  5
5A42
330
59A9
100
AcDbEntity
  8
241
  6
Continuous
100
AcDbVertex
100
AcDb3dPolylineVertex
 10
220.1971
 20
-28.19739999999999
 30
0.0
 70
    32
  0
VERTEX
  5
5A43
330
59A9
100
AcDbEntity
  8
241
  6
Continuous
100
AcDbVertex
100
AcDb3dPolylineVertex
 10
220.1958
 20
-28.20729999999997
 30
0.0
 70
    32
  0
VERTEX
  5
5A44
330
59A9
100
AcDbEntity
  8
241
  6
Continuous
100
AcDbVertex
100
AcDb3dPolylineVertex
 10
220.1946
 20
-28.21709999999999
 30
0.0
 70
    32
  0
VERTEX
  5
5A45
330
59A9
100
AcDbEntity
  8
241
  6
Continuous
100
AcDbVertex
100
AcDb3dPolylineVertex
 10
220.1934
 20
-28.22699999999997
 30
0.0
 70
    32
  0
VERTEX
  5
5A46
330
59A9
100
AcDbEntity
  8
241
  6
Continuous
100
AcDbVertex
100
AcDb3dPolylineVertex
 10
220.1922
 20
-28.23689999999999
 30
0.0
 70
    32
  0
VERTEX
  5
5A47
330
59A9
100
AcDbEntity
  8
241
  6
Continuous
100
AcDbVertex
100
AcDb3dPolylineVertex
 10
220.1911
 20
-28.24679999999998
 30
0.0
 70
    32
  0
VERTEX
  5
5A48
330
59A9
100
AcDbEntity
  8
241
  6
Continuous
100
AcDbVertex
100
AcDb3dPolylineVertex
 10
220.1899
 20
-28.2567
 30
0.0
 70
    32
  0
VERTEX
  5
5A49
330
59A9
100
AcDbEntity
  8
241
  6
Continuous
100
AcDbVertex
100
AcDb3dPolylineVertex
 10
220.1888
 20
-28.26659999999998
 30
0.0
 70
    32
  0
VERTEX
  5
5A4A
330
59A9
100
AcDbEntity
  8
241
  6
Continuous
100
AcDbVertex
100
AcDb3dPolylineVertex
 10
220.1876
 20
-28.2765
 30
0.0
 70
    32
  0
VERTEX
  5
5A4B
330
59A9
100
AcDbEntity
  8
241
  6
Continuous
100
AcDbVertex
100
AcDb3dPolylineVertex
 10
220.1865
 20
-28.28639999999999
 30
0.0
 70
    32
  0
VERTEX
  5
5A4C
330
59A9
100
AcDbEntity
  8
241
  6
Continuous
100
AcDbVertex
100
AcDb3dPolylineVertex
 10
220.1854
 20
-28.29639999999998
 30
0.0
 70
    32
  0
VERTEX
  5
5A4D
330
59A9
100
AcDbEntity
  8
241
  6
Continuous
100
AcDbVertex
100
AcDb3dPolylineVertex
 10
220.1843
 20
-28.30629999999999
 30
0.0
 70
    32
  0
VERTEX
  5
5A4E
330
59A9
100
AcDbEntity
  8
241
  6
Continuous
100
AcDbVertex
100
AcDb3dPolylineVertex
 10
220.1832
 20
-28.31619999999998
 30
0.0
 70
    32
  0
VERTEX
  5
5A4F
330
59A9
100
AcDbEntity
  8
241
  6
Continuous
100
AcDbVertex
100
AcDb3dPolylineVertex
 10
220.1821
 20
-28.32619999999997
 30
0.0
 70
    32
  0
VERTEX
  5
5A50
330
59A9
100
AcDbEntity
  8
241
  6
Continuous
100
AcDbVertex
100
AcDb3dPolylineVertex
 10
220.181
 20
-28.33619999999999
 30
0.0
 70
    32
  0
VERTEX
  5
5A51
330
59A9
100
AcDbEntity
  8
241
  6
Continuous
100
AcDbVertex
100
AcDb3dPolylineVertex
 10
220.18
 20
-28.34609999999998
 30
0.0
 70
    32
  0
VERTEX
  5
5A52
330
59A9
100
AcDbEntity
  8
241
  6
Continuous
100
AcDbVertex
100
AcDb3dPolylineVertex
 10
220.1789
 20
-28.3561
 30
0.0
 70
    32
  0
VERTEX
  5
5A53
330
59A9
100
AcDbEntity
  8
241
  6
Continuous
100
AcDbVertex
100
AcDb3dPolylineVertex
 10
220.1779
 20
-28.36609999999999
 30
0.0
 70
    32
  0
VERTEX
  5
5A54
330
59A9
100
AcDbEntity
  8
241
  6
Continuous
100
AcDbVertex
100
AcDb3dPolylineVertex
 10
220.1769
 20
-28.37609999999998
 30
0.0
 70
    32
  0
VERTEX
  5
5A55
330
59A9
100
AcDbEntity
  8
241
  6
Continuous
100
AcDbVertex
100
AcDb3dPolylineVertex
 10
220.1759
 20
-28.3861
 30
0.0
 70
    32
  0
VERTEX
  5
5A56
330
59A9
100
AcDbEntity
  8
241
  6
Continuous
100
AcDbVertex
100
AcDb3dPolylineVertex
 10
220.1749
 20
-28.39609999999999
 30
0.0
 70
    32
  0
VERTEX
  5
5A57
330
59A9
100
AcDbEntity
  8
241
  6
Continuous
100
AcDbVertex
100
AcDb3dPolylineVertex
 10
220.1739
 20
-28.40609999999998
 30
0.0
 70
    32
  0
VERTEX
  5
5A58
330
59A9
100
AcDbEntity
  8
241
  6
Continuous
100
AcDbVertex
100
AcDb3dPolylineVertex
 10
220.173
 20
-28.41609999999997
 30
0.0
 70
    32
  0
VERTEX
  5
5A59
330
59A9
100
AcDbEntity
  8
241
  6
Continuous
100
AcDbVertex
100
AcDb3dPolylineVertex
 10
220.172
 20
-28.42609999999999
 30
0.0
 70
    32
  0
VERTEX
  5
5A5A
330
59A9
100
AcDbEntity
  8
241
  6
Continuous
100
AcDbVertex
100
AcDb3dPolylineVertex
 10
220.1711
 20
-28.43609999999998
 30
0.0
 70
    32
  0
VERTEX
  5
5A5B
330
59A9
100
AcDbEntity
  8
241
  6
Continuous
100
AcDbVertex
100
AcDb3dPolylineVertex
 10
220.1701
 20
-28.4461
 30
0.0
 70
    32
  0
VERTEX
  5
5A5C
330
59A9
100
AcDbEntity
  8
241
  6
Continuous
100
AcDbVertex
100
AcDb3dPolylineVertex
 10
220.1692
 20
-28.4562
 30
0.0
 70
    32
  0
VERTEX
  5
5A5D
330
59A9
100
AcDbEntity
  8
241
  6
Continuous
100
AcDbVertex
100
AcDb3dPolylineVertex
 10
220.1683
 20
-28.46619999999999
 30
0.0
 70
    32
  0
VERTEX
  5
5A5E
330
59A9
100
AcDbEntity
  8
241
  6
Continuous
100
AcDbVertex
100
AcDb3dPolylineVertex
 10
220.1674
 20
-28.47619999999998
 30
0.0
 70
    32
  0
VERTEX
  5
5A5F
330
59A9
100
AcDbEntity
  8
241
  6
Continuous
100
AcDbVertex
100
AcDb3dPolylineVertex
 10
220.1666
 20
-28.48629999999997
 30
0.0
 70
    32
  0
VERTEX
  5
5A60
330
59A9
100
AcDbEntity
  8
241
  6
Continuous
100
AcDbVertex
100
AcDb3dPolylineVertex
 10
220.1657
 20
-28.49629999999999
 30
0.0
 70
    32
  0
VERTEX
  5
5A61
330
59A9
100
AcDbEntity
  8
241
  6
Continuous
100
AcDbVertex
100
AcDb3dPolylineVertex
 10
220.1649
 20
-28.50639999999998
 30
0.0
 70
    32
  0
VERTEX
  5
5A62
330
59A9
100
AcDbEntity
  8
241
  6
Continuous
100
AcDbVertex
100
AcDb3dPolylineVertex
 10
220.164
 20
-28.51639999999998
 30
0.0
 70
    32
  0
VERTEX
  5
5A63
330
59A9
100
AcDbEntity
  8
241
  6
Continuous
100
AcDbVertex
100
AcDb3dPolylineVertex
 10
220.1632
 20
-28.5265
 30
0.0
 70
    32
  0
VERTEX
  5
5A64
330
59A9
100
AcDbEntity
  8
241
  6
Continuous
100
AcDbVertex
100
AcDb3dPolylineVertex
 10
220.1624
 20
-28.53649999999999
 30
0.0
 70
    32
  0
VERTEX
  5
5A65
330
59A9
100
AcDbEntity
  8
241
  6
Continuous
100
AcDbVertex
100
AcDb3dPolylineVertex
 10
220.1616
 20
-28.54659999999999
 30
0.0
 70
    32
  0
VERTEX
  5
5A66
330
59A9
100
AcDbEntity
  8
241
  6
Continuous
100
AcDbVertex
100
AcDb3dPolylineVertex
 10
220.1608
 20
-28.55659999999998
 30
0.0
 70
    32
  0
VERTEX
  5
5A67
330
59A9
100
AcDbEntity
  8
241
  6
Continuous
100
AcDbVertex
100
AcDb3dPolylineVertex
 10
220.1601
 20
-28.5667
 30
0.0
 70
    32
  0
VERTEX
  5
5A68
330
59A9
100
AcDbEntity
  8
241
  6
Continuous
100
AcDbVertex
100
AcDb3dPolylineVertex
 10
220.1593
 20
-28.57679999999999
 30
0.0
 70
    32
  0
VERTEX
  5
5A69
330
59A9
100
AcDbEntity
  8
241
  6
Continuous
100
AcDbVertex
100
AcDb3dPolylineVertex
 10
220.1586
 20
-28.58679999999998
 30
0.0
 70
    32
  0
VERTEX
  5
5A6A
330
59A9
100
AcDbEntity
  8
241
  6
Continuous
100
AcDbVertex
100
AcDb3dPolylineVertex
 10
220.1579
 20
-28.59689999999998
 30
0.0
 70
    32
  0
VERTEX
  5
5A6B
330
59A9
100
AcDbEntity
  8
241
  6
Continuous
100
AcDbVertex
100
AcDb3dPolylineVertex
 10
220.1572
 20
-28.60699999999997
 30
0.0
 70
    32
  0
VERTEX
  5
5A6C
330
59A9
100
AcDbEntity
  8
241
  6
Continuous
100
AcDbVertex
100
AcDb3dPolylineVertex
 10
220.1565
 20
-28.61699999999999
 30
0.0
 70
    32
  0
VERTEX
  5
5A6D
330
59A9
100
AcDbEntity
  8
241
  6
Continuous
100
AcDbVertex
100
AcDb3dPolylineVertex
 10
220.1558
 20
-28.62709999999998
 30
0.0
 70
    32
  0
VERTEX
  5
5A6E
330
59A9
100
AcDbEntity
  8
241
  6
Continuous
100
AcDbVertex
100
AcDb3dPolylineVertex
 10
220.1551
 20
-28.63719999999998
 30
0.0
 70
    32
  0
VERTEX
  5
5A6F
330
59A9
100
AcDbEntity
  8
241
  6
Continuous
100
AcDbVertex
100
AcDb3dPolylineVertex
 10
220.1545
 20
-28.6472
 30
0.0
 70
    32
  0
VERTEX
  5
5A70
330
59A9
100
AcDbEntity
  8
241
  6
Continuous
100
AcDbVertex
100
AcDb3dPolylineVertex
 10
220.1538
 20
-28.65729999999999
 30
0.0
 70
    32
  0
VERTEX
  5
5A71
330
59A9
100
AcDbEntity
  8
241
  6
Continuous
100
AcDbVertex
100
AcDb3dPolylineVertex
 10
220.1532
 20
-28.66739999999999
 30
0.0
 70
    32
  0
VERTEX
  5
5A72
330
59A9
100
AcDbEntity
  8
241
  6
Continuous
100
AcDbVertex
100
AcDb3dPolylineVertex
 10
220.1526
 20
-28.67739999999998
 30
0.0
 70
    32
  0
VERTEX
  5
5A73
330
59A9
100
AcDbEntity
  8
241
  6
Continuous
100
AcDbVertex
100
AcDb3dPolylineVertex
 10
220.152
 20
-28.6875
 30
0.0
 70
    32
  0
VERTEX
  5
5A74
330
59A9
100
AcDbEntity
  8
241
  6
Continuous
100
AcDbVertex
100
AcDb3dPolylineVertex
 10
220.1514
 20
-28.69759999999999
 30
0.0
 70
    32
  0
VERTEX
  5
5A75
330
59A9
100
AcDbEntity
  8
241
  6
Continuous
100
AcDbVertex
100
AcDb3dPolylineVertex
 10
220.1509
 20
-28.70759999999999
 30
0.0
 70
    32
  0
VERTEX
  5
5A76
330
59A9
100
AcDbEntity
  8
241
  6
Continuous
100
AcDbVertex
100
AcDb3dPolylineVertex
 10
220.1503
 20
-28.71769999999998
 30
0.0
 70
    32
  0
VERTEX
  5
5A77
330
59A9
100
AcDbEntity
  8
241
  6
Continuous
100
AcDbVertex
100
AcDb3dPolylineVertex
 10
220.1498
 20
-28.72769999999997
 30
0.0
 70
    32
  0
VERTEX
  5
5A78
330
59A9
100
AcDbEntity
  8
241
  6
Continuous
100
AcDbVertex
100
AcDb3dPolylineVertex
 10
220.1492
 20
-28.7378
 30
0.0
 70
    32
  0
VERTEX
  5
5A79
330
59A9
100
AcDbEntity
  8
241
  6
Continuous
100
AcDbVertex
100
AcDb3dPolylineVertex
 10
220.1487
 20
-28.74789999999999
 30
0.0
 70
    32
  0
VERTEX
  5
5A7A
330
59A9
100
AcDbEntity
  8
241
  6
Continuous
100
AcDbVertex
100
AcDb3dPolylineVertex
 10
220.1482
 20
-28.75789999999998
 30
0.0
 70
    32
  0
VERTEX
  5
5A7B
330
59A9
100
AcDbEntity
  8
241
  6
Continuous
100
AcDbVertex
100
AcDb3dPolylineVertex
 10
220.1477
 20
-28.76799999999997
 30
0.0
 70
    32
  0
VERTEX
  5
5A7C
330
59A9
100
AcDbEntity
  8
241
  6
Continuous
100
AcDbVertex
100
AcDb3dPolylineVertex
 10
220.1473
 20
-28.77799999999999
 30
0.0
 70
    32
  0
VERTEX
  5
5A7D
330
59A9
100
AcDbEntity
  8
241
  6
Continuous
100
AcDbVertex
100
AcDb3dPolylineVertex
 10
220.1468
 20
-28.78809999999999
 30
0.0
 70
    32
  0
VERTEX
  5
5A7E
330
59A9
100
AcDbEntity
  8
241
  6
Continuous
100
AcDbVertex
100
AcDb3dPolylineVertex
 10
220.1464
 20
-28.79809999999998
 30
0.0
 70
    32
  0
VERTEX
  5
5A7F
330
59A9
100
AcDbEntity
  8
241
  6
Continuous
100
AcDbVertex
100
AcDb3dPolylineVertex
 10
220.1459
 20
-28.8081
 30
0.0
 70
    32
  0
VERTEX
  5
5A80
330
59A9
100
AcDbEntity
  8
241
  6
Continuous
100
AcDbVertex
100
AcDb3dPolylineVertex
 10
220.1455
 20
-28.81819999999999
 30
0.0
 70
    32
  0
VERTEX
  5
5A81
330
59A9
100
AcDbEntity
  8
241
  6
Continuous
100
AcDbVertex
100
AcDb3dPolylineVertex
 10
220.1451
 20
-28.82819999999998
 30
0.0
 70
    32
  0
VERTEX
  5
5A82
330
59A9
100
AcDbEntity
  8
241
  6
Continuous
100
AcDbVertex
100
AcDb3dPolylineVertex
 10
220.1447
 20
-28.83819999999996
 30
0.0
 70
    32
  0
VERTEX
  5
5A83
330
59A9
100
AcDbEntity
  8
241
  6
Continuous
100
AcDbVertex
100
AcDb3dPolylineVertex
 10
220.1443
 20
-28.8483
 30
0.0
 70
    32
  0
VERTEX
  5
5A84
330
59A9
100
AcDbEntity
  8
241
  6
Continuous
100
AcDbVertex
100
AcDb3dPolylineVertex
 10
220.144
 20
-28.85829999999998
 30
0.0
 70
    32
  0
VERTEX
  5
5A85
330
59A9
100
AcDbEntity
  8
241
  6
Continuous
100
AcDbVertex
100
AcDb3dPolylineVertex
 10
220.1436
 20
-28.86829999999998
 30
0.0
 70
    32
  0
VERTEX
  5
5A86
330
59A9
100
AcDbEntity
  8
241
  6
Continuous
100
AcDbVertex
100
AcDb3dPolylineVertex
 10
220.1433
 20
-28.8783
 30
0.0
 70
    32
  0
VERTEX
  5
5A87
330
59A9
100
AcDbEntity
  8
241
  6
Continuous
100
AcDbVertex
100
AcDb3dPolylineVertex
 10
220.143
 20
-28.88829999999999
 30
0.0
 70
    32
  0
VERTEX
  5
5A88
330
59A9
100
AcDbEntity
  8
241
  6
Continuous
100
AcDbVertex
100
AcDb3dPolylineVertex
 10
220.1426
 20
-28.89829999999998
 30
0.0
 70
    32
  0
VERTEX
  5
5A89
330
59A9
100
AcDbEntity
  8
241
  6
Continuous
100
AcDbVertex
100
AcDb3dPolylineVertex
 10
220.1423
 20
-28.9083
 30
0.0
 70
    32
  0
VERTEX
  5
5A8A
330
59A9
100
AcDbEntity
  8
241
  6
Continuous
100
AcDbVertex
100
AcDb3dPolylineVertex
 10
220.1421
 20
-28.91829999999999
 30
0.0
 70
    32
  0
VERTEX
  5
5A8B
330
59A9
100
AcDbEntity
  8
241
  6
Continuous
100
AcDbVertex
100
AcDb3dPolylineVertex
 10
220.1418
 20
-28.92829999999998
 30
0.0
 70
    32
  0
VERTEX
  5
5A8C
330
59A9
100
AcDbEntity
  8
241
  6
Continuous
100
AcDbVertex
100
AcDb3dPolylineVertex
 10
220.1415
 20
-28.9382
 30
0.0
 70
    32
  0
VERTEX
  5
5A8D
330
59A9
100
AcDbEntity
  8
241
  6
Continuous
100
AcDbVertex
100
AcDb3dPolylineVertex
 10
220.1413
 20
-28.94819999999999
 30
0.0
 70
    32
  0
VERTEX
  5
5A8E
330
59A9
100
AcDbEntity
  8
241
  6
Continuous
100
AcDbVertex
100
AcDb3dPolylineVertex
 10
220.141
 20
-28.95819999999998
 30
0.0
 70
    32
  0
VERTEX
  5
5A8F
330
59A9
100
AcDbEntity
  8
241
  6
Continuous
100
AcDbVertex
100
AcDb3dPolylineVertex
 10
220.1408
 20
-28.96809999999999
 30
0.0
 70
    32
  0
VERTEX
  5
5A90
330
59A9
100
AcDbEntity
  8
241
  6
Continuous
100
AcDbVertex
100
AcDb3dPolylineVertex
 10
220.1406
 20
-28.97809999999998
 30
0.0
 70
    32
  0
VERTEX
  5
5A91
330
59A9
100
AcDbEntity
  8
241
  6
Continuous
100
AcDbVertex
100
AcDb3dPolylineVertex
 10
220.1404
 20
-28.98800000000001
 30
0.0
 70
    32
  0
VERTEX
  5
5A92
330
59A9
100
AcDbEntity
  8
241
  6
Continuous
100
AcDbVertex
100
AcDb3dPolylineVertex
 10
220.1402
 20
-28.99789999999999
 30
0.0
 70
    32
  0
VERTEX
  5
5A93
330
59A9
100
AcDbEntity
  8
241
  6
Continuous
100
AcDbVertex
100
AcDb3dPolylineVertex
 10
220.1401
 20
-29.00789999999998
 30
0.0
 70
    32
  0
VERTEX
  5
5A94
330
59A9
100
AcDbEntity
  8
241
  6
Continuous
100
AcDbVertex
100
AcDb3dPolylineVertex
 10
220.1399
 20
-29.0178
 30
0.0
 70
    32
  0
VERTEX
  5
5A95
330
59A9
100
AcDbEntity
  8
241
  6
Continuous
100
AcDbVertex
100
AcDb3dPolylineVertex
 10
220.1398
 20
-29.02769999999998
 30
0.0
 70
    32
  0
VERTEX
  5
5A96
330
59A9
100
AcDbEntity
  8
241
  6
Continuous
100
AcDbVertex
100
AcDb3dPolylineVertex
 10
220.1396
 20
-29.0376
 30
0.0
 70
    32
  0
VERTEX
  5
5A97
330
59A9
100
AcDbEntity
  8
241
  6
Continuous
100
AcDbVertex
100
AcDb3dPolylineVertex
 10
220.1395
 20
-29.04749999999999
 30
0.0
 70
    32
  0
VERTEX
  5
5A98
330
59A9
100
AcDbEntity
  8
241
  6
Continuous
100
AcDbVertex
100
AcDb3dPolylineVertex
 10
220.1394
 20
-29.0573
 30
0.0
 70
    32
  0
VERTEX
  5
5A99
330
59A9
100
AcDbEntity
  8
241
  6
Continuous
100
AcDbVertex
100
AcDb3dPolylineVertex
 10
220.1393
 20
-29.06719999999999
 30
0.0
 70
    32
  0
VERTEX
  5
5A9A
330
59A9
100
AcDbEntity
  8
241
  6
Continuous
100
AcDbVertex
100
AcDb3dPolylineVertex
 10
220.1392
 20
-29.07709999999998
 30
0.0
 70
    32
  0
VERTEX
  5
5A9B
330
59A9
100
AcDbEntity
  8
241
  6
Continuous
100
AcDbVertex
100
AcDb3dPolylineVertex
 10
220.1391
 20
-29.08689999999999
 30
0.0
 70
    32
  0
VERTEX
  5
5A9C
330
59A9
100
AcDbEntity
  8
241
  6
Continuous
100
AcDbVertex
100
AcDb3dPolylineVertex
 10
220.1391
 20
-29.09679999999998
 30
0.0
 70
    32
  0
VERTEX
  5
5A9D
330
59A9
100
AcDbEntity
  8
241
  6
Continuous
100
AcDbVertex
100
AcDb3dPolylineVertex
 10
220.139
 20
-29.10659999999999
 30
0.0
 70
    32
  0
VERTEX
  5
5A9E
330
59A9
100
AcDbEntity
  8
241
  6
Continuous
100
AcDbVertex
100
AcDb3dPolylineVertex
 10
220.139
 20
-29.1164
 30
0.0
 70
    32
  0
VERTEX
  5
5A9F
330
59A9
100
AcDbEntity
  8
241
  6
Continuous
100
AcDbVertex
100
AcDb3dPolylineVertex
 10
220.139
 20
-29.12619999999999
 30
0.0
 70
    32
  0
VERTEX
  5
5AA0
330
59A9
100
AcDbEntity
  8
241
  6
Continuous
100
AcDbVertex
100
AcDb3dPolylineVertex
 10
220.139
 20
-29.136
 30
0.0
 70
    32
  0
VERTEX
  5
5AA1
330
59A9
100
AcDbEntity
  8
241
  6
Continuous
100
AcDbVertex
100
AcDb3dPolylineVertex
 10
220.139
 20
-29.14579999999998
 30
0.0
 70
    32
  0
VERTEX
  5
5AA2
330
59A9
100
AcDbEntity
  8
241
  6
Continuous
100
AcDbVertex
100
AcDb3dPolylineVertex
 10
220.139
 20
-29.15559999999999
 30
0.0
 70
    32
  0
VERTEX
  5
5AA3
330
59A9
100
AcDbEntity
  8
241
  6
Continuous
100
AcDbVertex
100
AcDb3dPolylineVertex
 10
220.139
 20
-29.16529999999998
 30
0.0
 70
    32
  0
VERTEX
  5
5AA4
330
59A9
100
AcDbEntity
  8
241
  6
Continuous
100
AcDbVertex
100
AcDb3dPolylineVertex
 10
220.1391
 20
-29.17509999999999
 30
0.0
 70
    32
  0
VERTEX
  5
5AA5
330
59A9
100
AcDbEntity
  8
241
  6
Continuous
100
AcDbVertex
100
AcDb3dPolylineVertex
 10
220.1391
 20
-29.1848
 30
0.0
 70
    32
  0
VERTEX
  5
5AA6
330
59A9
100
AcDbEntity
  8
241
  6
Continuous
100
AcDbVertex
100
AcDb3dPolylineVertex
 10
220.1392
 20
-29.19459999999998
 30
0.0
 70
    32
  0
VERTEX
  5
5AA7
330
59A9
100
AcDbEntity
  8
241
  6
Continuous
100
AcDbVertex
100
AcDb3dPolylineVertex
 10
220.1392
 20
-29.20429999999999
 30
0.0
 70
    32
  0
VERTEX
  5
5AA8
330
59A9
100
AcDbEntity
  8
241
  6
Continuous
100
AcDbVertex
100
AcDb3dPolylineVertex
 10
220.1393
 20
-29.214
 30
0.0
 70
    32
  0
VERTEX
  5
5AA9
330
59A9
100
AcDbEntity
  8
241
  6
Continuous
100
AcDbVertex
100
AcDb3dPolylineVertex
 10
220.1394
 20
-29.22369999999998
 30
0.0
 70
    32
  0
VERTEX
  5
5AAA
330
59A9
100
AcDbEntity
  8
241
  6
Continuous
100
AcDbVertex
100
AcDb3dPolylineVertex
 10
220.1395
 20
-29.23339999999999
 30
0.0
 70
    32
  0
VERTEX
  5
5AAB
330
59A9
100
AcDbEntity
  8
241
  6
Continuous
100
AcDbVertex
100
AcDb3dPolylineVertex
 10
220.1397
 20
-29.243
 30
0.0
 70
    32
  0
VERTEX
  5
5AAC
330
59A9
100
AcDbEntity
  8
241
  6
Continuous
100
AcDbVertex
100
AcDb3dPolylineVertex
 10
220.1398
 20
-29.25269999999997
 30
0.0
 70
    32
  0
VERTEX
  5
5AAD
330
59A9
100
AcDbEntity
  8
241
  6
Continuous
100
AcDbVertex
100
AcDb3dPolylineVertex
 10
220.1399
 20
-29.26229999999998
 30
0.0
 70
    32
  0
VERTEX
  5
5AAE
330
59A9
100
AcDbEntity
  8
241
  6
Continuous
100
AcDbVertex
100
AcDb3dPolylineVertex
 10
220.1401
 20
-29.27189999999999
 30
0.0
 70
    32
  0
VERTEX
  5
5AAF
330
59A9
100
AcDbEntity
  8
241
  6
Continuous
100
AcDbVertex
100
AcDb3dPolylineVertex
 10
220.1403
 20
-29.2815
 30
0.0
 70
    32
  0
VERTEX
  5
5AB0
330
59A9
100
AcDbEntity
  8
241
  6
Continuous
100
AcDbVertex
100
AcDb3dPolylineVertex
 10
220.1404
 20
-29.29109999999997
 30
0.0
 70
    32
  0
VERTEX
  5
5AB1
330
59A9
100
AcDbEntity
  8
241
  6
Continuous
100
AcDbVertex
100
AcDb3dPolylineVertex
 10
220.1406
 20
-29.30069999999998
 30
0.0
 70
    32
  0
VERTEX
  5
5AB2
330
59A9
100
AcDbEntity
  8
241
  6
Continuous
100
AcDbVertex
100
AcDb3dPolylineVertex
 10
220.1408
 20
-29.31029999999998
 30
0.0
 70
    32
  0
VERTEX
  5
5AB3
330
59A9
100
AcDbEntity
  8
241
  6
Continuous
100
AcDbVertex
100
AcDb3dPolylineVertex
 10
220.1411
 20
-29.31979999999999
 30
0.0
 70
    32
  0
VERTEX
  5
5AB4
330
59A9
100
AcDbEntity
  8
241
  6
Continuous
100
AcDbVertex
100
AcDb3dPolylineVertex
 10
220.1413
 20
-29.32939999999999
 30
0.0
 70
    32
  0
VERTEX
  5
5AB5
330
59A9
100
AcDbEntity
  8
241
  6
Continuous
100
AcDbVertex
100
AcDb3dPolylineVertex
 10
220.1415
 20
-29.3389
 30
0.0
 70
    32
  0
VERTEX
  5
5AB6
330
59A9
100
AcDbEntity
  8
241
  6
Continuous
100
AcDbVertex
100
AcDb3dPolylineVertex
 10
220.1418
 20
-29.3484
 30
0.0
 70
    32
  0
VERTEX
  5
5AB7
330
59A9
100
AcDbEntity
  8
241
  6
Continuous
100
AcDbVertex
100
AcDb3dPolylineVertex
 10
220.142
 20
-29.35789999999997
 30
0.0
 70
    32
  0
VERTEX
  5
5AB8
330
59A9
100
AcDbEntity
  8
241
  6
Continuous
100
AcDbVertex
100
AcDb3dPolylineVertex
 10
220.1423
 20
-29.3673
 30
0.0
 70
    32
  0
VERTEX
  5
5AB9
330
59A9
100
AcDbEntity
  8
241
  6
Continuous
100
AcDbVertex
100
AcDb3dPolylineVertex
 10
220.1426
 20
-29.37679999999998
 30
0.0
 70
    32
  0
VERTEX
  5
5ABA
330
59A9
100
AcDbEntity
  8
241
  6
Continuous
100
AcDbVertex
100
AcDb3dPolylineVertex
 10
220.1429
 20
-29.38619999999998
 30
0.0
 70
    32
  0
VERTEX
  5
5ABB
330
59A9
100
AcDbEntity
  8
241
  6
Continuous
100
AcDbVertex
100
AcDb3dPolylineVertex
 10
220.1432
 20
-29.39569999999998
 30
0.0
 70
    32
  0
VERTEX
  5
5ABC
330
59A9
100
AcDbEntity
  8
241
  6
Continuous
100
AcDbVertex
100
AcDb3dPolylineVertex
 10
220.1435
 20
-29.40509999999998
 30
0.0
 70
    32
  0
VERTEX
  5
5ABD
330
59A9
100
AcDbEntity
  8
241
  6
Continuous
100
AcDbVertex
100
AcDb3dPolylineVertex
 10
220.1438
 20
-29.4144
 30
0.0
 70
    32
  0
VERTEX
  5
5ABE
330
59A9
100
AcDbEntity
  8
241
  6
Continuous
100
AcDbVertex
100
AcDb3dPolylineVertex
 10
220.1442
 20
-29.42379999999997
 30
0.0
 70
    32
  0
VERTEX
  5
5ABF
330
59A9
100
AcDbEntity
  8
241
  6
Continuous
100
AcDbVertex
100
AcDb3dPolylineVertex
 10
220.1445
 20
-29.4332
 30
0.0
 70
    32
  0
VERTEX
  5
5AC0
330
59A9
100
AcDbEntity
  8
241
  6
Continuous
100
AcDbVertex
100
AcDb3dPolylineVertex
 10
220.1449
 20
-29.4425
 30
0.0
 70
    32
  0
VERTEX
  5
5AC1
330
59A9
100
AcDbEntity
  8
241
  6
Continuous
100
AcDbVertex
100
AcDb3dPolylineVertex
 10
220.1452
 20
-29.45179999999999
 30
0.0
 70
    32
  0
VERTEX
  5
5AC2
330
59A9
100
AcDbEntity
  8
241
  6
Continuous
100
AcDbVertex
100
AcDb3dPolylineVertex
 10
220.1456
 20
-29.46109999999999
 30
0.0
 70
    32
  0
VERTEX
  5
5AC3
330
59A9
100
AcDbEntity
  8
241
  6
Continuous
100
AcDbVertex
100
AcDb3dPolylineVertex
 10
220.146
 20
-29.47039999999999
 30
0.0
 70
    32
  0
VERTEX
  5
5AC4
330
59A9
100
AcDbEntity
  8
241
  6
Continuous
100
AcDbVertex
100
AcDb3dPolylineVertex
 10
220.1464
 20
-29.47959999999998
 30
0.0
 70
    32
  0
VERTEX
  5
5AC5
330
59A9
100
AcDbEntity
  8
241
  6
Continuous
100
AcDbVertex
100
AcDb3dPolylineVertex
 10
220.1468
 20
-29.4889
 30
0.0
 70
    32
  0
VERTEX
  5
5AC6
330
59A9
100
AcDbEntity
  8
241
  6
Continuous
100
AcDbVertex
100
AcDb3dPolylineVertex
 10
220.1473
 20
-29.49809999999999
 30
0.0
 70
    32
  0
VERTEX
  5
5AC7
330
59A9
100
AcDbEntity
  8
241
  6
Continuous
100
AcDbVertex
100
AcDb3dPolylineVertex
 10
220.1477
 20
-29.50729999999999
 30
0.0
 70
    32
  0
VERTEX
  5
5AC8
330
59A9
100
AcDbEntity
  8
241
  6
Continuous
100
AcDbVertex
100
AcDb3dPolylineVertex
 10
220.1481
 20
-29.51649999999998
 30
0.0
 70
    32
  0
VERTEX
  5
5AC9
330
59A9
100
AcDbEntity
  8
241
  6
Continuous
100
AcDbVertex
100
AcDb3dPolylineVertex
 10
220.1486
 20
-29.52569999999997
 30
0.0
 70
    32
  0
VERTEX
  5
5ACA
330
59A9
100
AcDbEntity
  8
241
  6
Continuous
100
AcDbVertex
100
AcDb3dPolylineVertex
 10
220.1491
 20
-29.535
 30
0.0
 70
    32
  0
VERTEX
  5
5ACB
330
59A9
100
AcDbEntity
  8
241
  6
Continuous
100
AcDbVertex
100
AcDb3dPolylineVertex
 10
220.1496
 20
-29.54419999999999
 30
0.0
 70
    32
  0
VERTEX
  5
5ACC
330
59A9
100
AcDbEntity
  8
241
  6
Continuous
100
AcDbVertex
100
AcDb3dPolylineVertex
 10
220.1501
 20
-29.55349999999999
 30
0.0
 70
    32
  0
VERTEX
  5
5ACD
330
59A9
100
AcDbEntity
  8
241
  6
Continuous
100
AcDbVertex
100
AcDb3dPolylineVertex
 10
220.1506
 20
-29.56279999999998
 30
0.0
 70
    32
  0
VERTEX
  5
5ACE
330
59A9
100
AcDbEntity
  8
241
  6
Continuous
100
AcDbVertex
100
AcDb3dPolylineVertex
 10
220.1511
 20
-29.57219999999998
 30
0.0
 70
    32
  0
VERTEX
  5
5ACF
330
59A9
100
AcDbEntity
  8
241
  6
Continuous
100
AcDbVertex
100
AcDb3dPolylineVertex
 10
220.1516
 20
-29.58159999999998
 30
0.0
 70
    32
  0
VERTEX
  5
5AD0
330
59A9
100
AcDbEntity
  8
241
  6
Continuous
100
AcDbVertex
100
AcDb3dPolylineVertex
 10
220.1522
 20
-29.59089999999998
 30
0.0
 70
    32
  0
VERTEX
  5
5AD1
330
59A9
100
AcDbEntity
  8
241
  6
Continuous
100
AcDbVertex
100
AcDb3dPolylineVertex
 10
220.1528
 20
-29.60039999999998
 30
0.0
 70
    32
  0
VERTEX
  5
5AD2
330
59A9
100
AcDbEntity
  8
241
  6
Continuous
100
AcDbVertex
100
AcDb3dPolylineVertex
 10
220.1533
 20
-29.60979999999998
 30
0.0
 70
    32
  0
VERTEX
  5
5AD3
330
59A9
100
AcDbEntity
  8
241
  6
Continuous
100
AcDbVertex
100
AcDb3dPolylineVertex
 10
220.1539
 20
-29.61929999999998
 30
0.0
 70
    32
  0
VERTEX
  5
5AD4
330
59A9
100
AcDbEntity
  8
241
  6
Continuous
100
AcDbVertex
100
AcDb3dPolylineVertex
 10
220.1545
 20
-29.62879999999998
 30
0.0
 70
    32
  0
VERTEX
  5
5AD5
330
59A9
100
AcDbEntity
  8
241
  6
Continuous
100
AcDbVertex
100
AcDb3dPolylineVertex
 10
220.1552
 20
-29.63829999999999
 30
0.0
 70
    32
  0
VERTEX
  5
5AD6
330
59A9
100
AcDbEntity
  8
241
  6
Continuous
100
AcDbVertex
100
AcDb3dPolylineVertex
 10
220.1558
 20
-29.64779999999999
 30
0.0
 70
    32
  0
VERTEX
  5
5AD7
330
59A9
100
AcDbEntity
  8
241
  6
Continuous
100
AcDbVertex
100
AcDb3dPolylineVertex
 10
220.1564
 20
-29.65729999999999
 30
0.0
 70
    32
  0
VERTEX
  5
5AD8
330
59A9
100
AcDbEntity
  8
241
  6
Continuous
100
AcDbVertex
100
AcDb3dPolylineVertex
 10
220.1571
 20
-29.6669
 30
0.0
 70
    32
  0
VERTEX
  5
5AD9
330
59A9
100
AcDbEntity
  8
241
  6
Continuous
100
AcDbVertex
100
AcDb3dPolylineVertex
 10
220.1578
 20
-29.67649999999998
 30
0.0
 70
    32
  0
VERTEX
  5
5ADA
330
59A9
100
AcDbEntity
  8
241
  6
Continuous
100
AcDbVertex
100
AcDb3dPolylineVertex
 10
220.1584
 20
-29.68609999999998
 30
0.0
 70
    32
  0
VERTEX
  5
5ADB
330
59A9
100
AcDbEntity
  8
241
  6
Continuous
100
AcDbVertex
100
AcDb3dPolylineVertex
 10
220.1591
 20
-29.69569999999999
 30
0.0
 70
    32
  0
VERTEX
  5
5ADC
330
59A9
100
AcDbEntity
  8
241
  6
Continuous
100
AcDbVertex
100
AcDb3dPolylineVertex
 10
220.1598
 20
-29.7054
 30
0.0
 70
    32
  0
VERTEX
  5
5ADD
330
59A9
100
AcDbEntity
  8
241
  6
Continuous
100
AcDbVertex
100
AcDb3dPolylineVertex
 10
220.1606
 20
-29.71499999999998
 30
0.0
 70
    32
  0
VERTEX
  5
5ADE
330
59A9
100
AcDbEntity
  8
241
  6
Continuous
100
AcDbVertex
100
AcDb3dPolylineVertex
 10
220.1613
 20
-29.72469999999999
 30
0.0
 70
    32
  0
VERTEX
  5
5ADF
330
59A9
100
AcDbEntity
  8
241
  6
Continuous
100
AcDbVertex
100
AcDb3dPolylineVertex
 10
220.1621
 20
-29.7344
 30
0.0
 70
    32
  0
VERTEX
  5
5AE0
330
59A9
100
AcDbEntity
  8
241
  6
Continuous
100
AcDbVertex
100
AcDb3dPolylineVertex
 10
220.1628
 20
-29.74409999999997
 30
0.0
 70
    32
  0
VERTEX
  5
5AE1
330
59A9
100
AcDbEntity
  8
241
  6
Continuous
100
AcDbVertex
100
AcDb3dPolylineVertex
 10
220.1636
 20
-29.75379999999999
 30
0.0
 70
    32
  0
VERTEX
  5
5AE2
330
59A9
100
AcDbEntity
  8
241
  6
Continuous
100
AcDbVertex
100
AcDb3dPolylineVertex
 10
220.1644
 20
-29.7636
 30
0.0
 70
    32
  0
VERTEX
  5
5AE3
330
59A9
100
AcDbEntity
  8
241
  6
Continuous
100
AcDbVertex
100
AcDb3dPolylineVertex
 10
220.1652
 20
-29.77329999999998
 30
0.0
 70
    32
  0
VERTEX
  5
5AE4
330
59A9
100
AcDbEntity
  8
241
  6
Continuous
100
AcDbVertex
100
AcDb3dPolylineVertex
 10
220.166
 20
-29.78309999999999
 30
0.0
 70
    32
  0
VERTEX
  5
5AE5
330
59A9
100
AcDbEntity
  8
241
  6
Continuous
100
AcDbVertex
100
AcDb3dPolylineVertex
 10
220.1668
 20
-29.79289999999997
 30
0.0
 70
    32
  0
VERTEX
  5
5AE6
330
59A9
100
AcDbEntity
  8
241
  6
Continuous
100
AcDbVertex
100
AcDb3dPolylineVertex
 10
220.1677
 20
-29.80269999999999
 30
0.0
 70
    32
  0
VERTEX
  5
5AE7
330
59A9
100
AcDbEntity
  8
241
  6
Continuous
100
AcDbVertex
100
AcDb3dPolylineVertex
 10
220.1685
 20
-29.8125
 30
0.0
 70
    32
  0
VERTEX
  5
5AE8
330
59A9
100
AcDbEntity
  8
241
  6
Continuous
100
AcDbVertex
100
AcDb3dPolylineVertex
 10
220.1694
 20
-29.82239999999999
 30
0.0
 70
    32
  0
VERTEX
  5
5AE9
330
59A9
100
AcDbEntity
  8
241
  6
Continuous
100
AcDbVertex
100
AcDb3dPolylineVertex
 10
220.1703
 20
-29.8322
 30
0.0
 70
    32
  0
VERTEX
  5
5AEA
330
59A9
100
AcDbEntity
  8
241
  6
Continuous
100
AcDbVertex
100
AcDb3dPolylineVertex
 10
220.1712
 20
-29.84209999999999
 30
0.0
 70
    32
  0
VERTEX
  5
5AEB
330
59A9
100
AcDbEntity
  8
241
  6
Continuous
100
AcDbVertex
100
AcDb3dPolylineVertex
 10
220.1721
 20
-29.8519
 30
0.0
 70
    32
  0
VERTEX
  5
5AEC
330
59A9
100
AcDbEntity
  8
241
  6
Continuous
100
AcDbVertex
100
AcDb3dPolylineVertex
 10
220.173
 20
-29.86179999999999
 30
0.0
 70
    32
  0
VERTEX
  5
5AED
330
59A9
100
AcDbEntity
  8
241
  6
Continuous
100
AcDbVertex
100
AcDb3dPolylineVertex
 10
220.1739
 20
-29.87169999999998
 30
0.0
 70
    32
  0
VERTEX
  5
5AEE
330
59A9
100
AcDbEntity
  8
241
  6
Continuous
100
AcDbVertex
100
AcDb3dPolylineVertex
 10
220.1749
 20
-29.88159999999999
 30
0.0
 70
    32
  0
VERTEX
  5
5AEF
330
59A9
100
AcDbEntity
  8
241
  6
Continuous
100
AcDbVertex
100
AcDb3dPolylineVertex
 10
220.1758
 20
-29.89149999999998
 30
0.0
 70
    32
  0
VERTEX
  5
5AF0
330
59A9
100
AcDbEntity
  8
241
  6
Continuous
100
AcDbVertex
100
AcDb3dPolylineVertex
 10
220.1768
 20
-29.9014
 30
0.0
 70
    32
  0
VERTEX
  5
5AF1
330
59A9
100
AcDbEntity
  8
241
  6
Continuous
100
AcDbVertex
100
AcDb3dPolylineVertex
 10
220.1778
 20
-29.91139999999999
 30
0.0
 70
    32
  0
VERTEX
  5
5AF2
330
59A9
100
AcDbEntity
  8
241
  6
Continuous
100
AcDbVertex
100
AcDb3dPolylineVertex
 10
220.1788
 20
-29.92129999999998
 30
0.0
 70
    32
  0
VERTEX
  5
5AF3
330
59A9
100
AcDbEntity
  8
241
  6
Continuous
100
AcDbVertex
100
AcDb3dPolylineVertex
 10
220.1798
 20
-29.93119999999999
 30
0.0
 70
    32
  0
VERTEX
  5
5AF4
330
59A9
100
AcDbEntity
  8
241
  6
Continuous
100
AcDbVertex
100
AcDb3dPolylineVertex
 10
220.1809
 20
-29.94119999999998
 30
0.0
 70
    32
  0
VERTEX
  5
5AF5
330
59A9
100
AcDbEntity
  8
241
  6
Continuous
100
AcDbVertex
100
AcDb3dPolylineVertex
 10
220.1819
 20
-29.95119999999997
 30
0.0
 70
    32
  0
VERTEX
  5
5AF6
330
59A9
100
AcDbEntity
  8
241
  6
Continuous
100
AcDbVertex
100
AcDb3dPolylineVertex
 10
220.183
 20
-29.96109999999999
 30
0.0
 70
    32
  0
VERTEX
  5
5AF7
330
59A9
100
AcDbEntity
  8
241
  6
Continuous
100
AcDbVertex
100
AcDb3dPolylineVertex
 10
220.184
 20
-29.97109999999998
 30
0.0
 70
    32
  0
VERTEX
  5
5AF8
330
59A9
100
AcDbEntity
  8
241
  6
Continuous
100
AcDbVertex
100
AcDb3dPolylineVertex
 10
220.1851
 20
-29.9811
 30
0.0
 70
    32
  0
VERTEX
  5
5AF9
330
59A9
100
AcDbEntity
  8
241
  6
Continuous
100
AcDbVertex
100
AcDb3dPolylineVertex
 10
220.1862
 20
-29.99109999999999
 30
0.0
 70
    32
  0
VERTEX
  5
5AFA
330
59A9
100
AcDbEntity
  8
241
  6
Continuous
100
AcDbVertex
100
AcDb3dPolylineVertex
 10
220.1873
 20
-30.00109999999998
 30
0.0
 70
    32
  0
VERTEX
  5
5AFB
330
59A9
100
AcDbEntity
  8
241
  6
Continuous
100
AcDbVertex
100
AcDb3dPolylineVertex
 10
220.1884
 20
-30.011
 30
0.0
 70
    32
  0
VERTEX
  5
5AFC
330
59A9
100
AcDbEntity
  8
241
  6
Continuous
100
AcDbVertex
100
AcDb3dPolylineVertex
 10
220.1896
 20
-30.02099999999999
 30
0.0
 70
    32
  0
VERTEX
  5
5AFD
330
59A9
100
AcDbEntity
  8
241
  6
Continuous
100
AcDbVertex
100
AcDb3dPolylineVertex
 10
220.1907
 20
-30.03099999999998
 30
0.0
 70
    32
  0
VERTEX
  5
5AFE
330
59A9
100
AcDbEntity
  8
241
  6
Continuous
100
AcDbVertex
100
AcDb3dPolylineVertex
 10
220.1919
 20
-30.04109999999997
 30
0.0
 70
    32
  0
VERTEX
  5
5AFF
330
59A9
100
AcDbEntity
  8
241
  6
Continuous
100
AcDbVertex
100
AcDb3dPolylineVertex
 10
220.1931
 20
-30.05109999999999
 30
0.0
 70
    32
  0
VERTEX
  5
5B00
330
59A9
100
AcDbEntity
  8
241
  6
Continuous
100
AcDbVertex
100
AcDb3dPolylineVertex
 10
220.1943
 20
-30.06109999999998
 30
0.0
 70
    32
  0
VERTEX
  5
5B01
330
59A9
100
AcDbEntity
  8
241
  6
Continuous
100
AcDbVertex
100
AcDb3dPolylineVertex
 10
220.1955
 20
-30.0711
 30
0.0
 70
    32
  0
VERTEX
  5
5B02
330
59A9
100
AcDbEntity
  8
241
  6
Continuous
100
AcDbVertex
100
AcDb3dPolylineVertex
 10
220.1967
 20
-30.08109999999999
 30
0.0
 70
    32
  0
VERTEX
  5
5B03
330
59A9
100
AcDbEntity
  8
241
  6
Continuous
100
AcDbVertex
100
AcDb3dPolylineVertex
 10
220.1979
 20
-30.09109999999998
 30
0.0
 70
    32
  0
VERTEX
  5
5B04
330
59A9
100
AcDbEntity
  8
241
  6
Continuous
100
AcDbVertex
100
AcDb3dPolylineVertex
 10
220.1992
 20
-30.10109999999997
 30
0.0
 70
    32
  0
VERTEX
  5
5B05
330
59A9
100
AcDbEntity
  8
241
  6
Continuous
100
AcDbVertex
100
AcDb3dPolylineVertex
 10
220.2004
 20
-30.1112
 30
0.0
 70
    32
  0
VERTEX
  5
5B06
330
59A9
100
AcDbEntity
  8
241
  6
Continuous
100
AcDbVertex
100
AcDb3dPolylineVertex
 10
220.2017
 20
-30.12119999999999
 30
0.0
 70
    32
  0
VERTEX
  5
5B07
330
59A9
100
AcDbEntity
  8
241
  6
Continuous
100
AcDbVertex
100
AcDb3dPolylineVertex
 10
220.203
 20
-30.13119999999998
 30
0.0
 70
    32
  0
VERTEX
  5
5B08
330
59A9
100
AcDbEntity
  8
241
  6
Continuous
100
AcDbVertex
100
AcDb3dPolylineVertex
 10
220.2043
 20
-30.1412
 30
0.0
 70
    32
  0
VERTEX
  5
5B09
330
59A9
100
AcDbEntity
  8
241
  6
Continuous
100
AcDbVertex
100
AcDb3dPolylineVertex
 10
220.2056
 20
-30.1512
 30
0.0
 70
    32
  0
VERTEX
  5
5B0A
330
59A9
100
AcDbEntity
  8
241
  6
Continuous
100
AcDbVertex
100
AcDb3dPolylineVertex
 10
220.2069
 20
-30.16119999999998
 30
0.0
 70
    32
  0
VERTEX
  5
5B0B
330
59A9
100
AcDbEntity
  8
241
  6
Continuous
100
AcDbVertex
100
AcDb3dPolylineVertex
 10
220.2083
 20
-30.1712
 30
0.0
 70
    32
  0
VERTEX
  5
5B0C
330
59A9
100
AcDbEntity
  8
241
  6
Continuous
100
AcDbVertex
100
AcDb3dPolylineVertex
 10
220.2096
 20
-30.18129999999999
 30
0.0
 70
    32
  0
VERTEX
  5
5B0D
330
59A9
100
AcDbEntity
  8
241
  6
Continuous
100
AcDbVertex
100
AcDb3dPolylineVertex
 10
220.211
 20
-30.19129999999999
 30
0.0
 70
    32
  0
VERTEX
  5
5B0E
330
59A9
100
AcDbEntity
  8
241
  6
Continuous
100
AcDbVertex
100
AcDb3dPolylineVertex
 10
220.2124
 20
-30.20129999999998
 30
0.0
 70
    32
  0
VERTEX
  5
5B0F
330
59A9
100
AcDbEntity
  8
241
  6
Continuous
100
AcDbVertex
100
AcDb3dPolylineVertex
 10
220.2137
 20
-30.21129999999999
 30
0.0
 70
    32
  0
VERTEX
  5
5B10
330
59A9
100
AcDbEntity
  8
241
  6
Continuous
100
AcDbVertex
100
AcDb3dPolylineVertex
 10
220.2151
 20
-30.22119999999998
 30
0.0
 70
    32
  0
VERTEX
  5
5B11
330
59A9
100
AcDbEntity
  8
241
  6
Continuous
100
AcDbVertex
100
AcDb3dPolylineVertex
 10
220.2166
 20
-30.2312
 30
0.0
 70
    32
  0
VERTEX
  5
5B12
330
59A9
100
AcDbEntity
  8
241
  6
Continuous
100
AcDbVertex
100
AcDb3dPolylineVertex
 10
220.218
 20
-30.24119999999999
 30
0.0
 70
    32
  0
VERTEX
  5
5B13
330
59A9
100
AcDbEntity
  8
241
  6
Continuous
100
AcDbVertex
100
AcDb3dPolylineVertex
 10
220.2194
 20
-30.25119999999998
 30
0.0
 70
    32
  0
VERTEX
  5
5B14
330
59A9
100
AcDbEntity
  8
241
  6
Continuous
100
AcDbVertex
100
AcDb3dPolylineVertex
 10
220.2209
 20
-30.26119999999997
 30
0.0
 70
    32
  0
VERTEX
  5
5B15
330
59A9
100
AcDbEntity
  8
241
  6
Continuous
100
AcDbVertex
100
AcDb3dPolylineVertex
 10
220.2224
 20
-30.27109999999999
 30
0.0
 70
    32
  0
VERTEX
  5
5B16
330
59A9
100
AcDbEntity
  8
241
  6
Continuous
100
AcDbVertex
100
AcDb3dPolylineVertex
 10
220.2238
 20
-30.28109999999998
 30
0.0
 70
    32
  0
VERTEX
  5
5B17
330
59A9
100
AcDbEntity
  8
241
  6
Continuous
100
AcDbVertex
100
AcDb3dPolylineVertex
 10
220.2253
 20
-30.291
 30
0.0
 70
    32
  0
VERTEX
  5
5B18
330
59A9
100
AcDbEntity
  8
241
  6
Continuous
100
AcDbVertex
100
AcDb3dPolylineVertex
 10
220.2268
 20
-30.30099999999999
 30
0.0
 70
    32
  0
VERTEX
  5
5B19
330
59A9
100
AcDbEntity
  8
241
  6
Continuous
100
AcDbVertex
100
AcDb3dPolylineVertex
 10
220.2284
 20
-30.31089999999998
 30
0.0
 70
    32
  0
VERTEX
  5
5B1A
330
59A9
100
AcDbEntity
  8
241
  6
Continuous
100
AcDbVertex
100
AcDb3dPolylineVertex
 10
220.2299
 20
-30.32079999999999
 30
0.0
 70
    32
  0
VERTEX
  5
5B1B
330
59A9
100
AcDbEntity
  8
241
  6
Continuous
100
AcDbVertex
100
AcDb3dPolylineVertex
 10
220.2314
 20
-30.33069999999999
 30
0.0
 70
    32
  0
VERTEX
  5
5B1C
330
59A9
100
AcDbEntity
  8
241
  6
Continuous
100
AcDbVertex
100
AcDb3dPolylineVertex
 10
220.233
 20
-30.3406
 30
0.0
 70
    32
  0
VERTEX
  5
5B1D
330
59A9
100
AcDbEntity
  8
241
  6
Continuous
100
AcDbVertex
100
AcDb3dPolylineVertex
 10
220.2345
 20
-30.35049999999998
 30
0.0
 70
    32
  0
VERTEX
  5
5B1E
330
59A9
100
AcDbEntity
  8
241
  6
Continuous
100
AcDbVertex
100
AcDb3dPolylineVertex
 10
220.2361
 20
-30.36039999999997
 30
0.0
 70
    32
  0
VERTEX
  5
5B1F
330
59A9
100
AcDbEntity
  8
241
  6
Continuous
100
AcDbVertex
100
AcDb3dPolylineVertex
 10
220.2377
 20
-30.37029999999999
 30
0.0
 70
    32
  0
VERTEX
  5
5B20
330
59A9
100
AcDbEntity
  8
241
  6
Continuous
100
AcDbVertex
100
AcDb3dPolylineVertex
 10
220.2393
 20
-30.38019999999998
 30
0.0
 70
    32
  0
VERTEX
  5
5B21
330
59A9
100
AcDbEntity
  8
241
  6
Continuous
100
AcDbVertex
100
AcDb3dPolylineVertex
 10
220.2409
 20
-30.38999999999999
 30
0.0
 70
    32
  0
VERTEX
  5
5B22
330
59A9
100
AcDbEntity
  8
241
  6
Continuous
100
AcDbVertex
100
AcDb3dPolylineVertex
 10
220.2425
 20
-30.39979999999997
 30
0.0
 70
    32
  0
VERTEX
  5
5B23
330
59A9
100
AcDbEntity
  8
241
  6
Continuous
100
AcDbVertex
100
AcDb3dPolylineVertex
 10
220.2441
 20
-30.40969999999999
 30
0.0
 70
    32
  0
VERTEX
  5
5B24
330
59A9
100
AcDbEntity
  8
241
  6
Continuous
100
AcDbVertex
100
AcDb3dPolylineVertex
 10
220.2457
 20
-30.41949999999997
 30
0.0
 70
    32
  0
VERTEX
  5
5B25
330
59A9
100
AcDbEntity
  8
241
  6
Continuous
100
AcDbVertex
100
AcDb3dPolylineVertex
 10
220.2474
 20
-30.42929999999998
 30
0.0
 70
    32
  0
VERTEX
  5
5B26
330
59A9
100
AcDbEntity
  8
241
  6
Continuous
100
AcDbVertex
100
AcDb3dPolylineVertex
 10
220.249
 20
-30.4391
 30
0.0
 70
    32
  0
VERTEX
  5
5B27
330
59A9
100
AcDbEntity
  8
241
  6
Continuous
100
AcDbVertex
100
AcDb3dPolylineVertex
 10
220.2507
 20
-30.44879999999998
 30
0.0
 70
    32
  0
VERTEX
  5
5B28
330
59A9
100
AcDbEntity
  8
241
  6
Continuous
100
AcDbVertex
100
AcDb3dPolylineVertex
 10
220.2524
 20
-30.45859999999999
 30
0.0
 70
    32
  0
VERTEX
  5
5B29
330
59A9
100
AcDbEntity
  8
241
  6
Continuous
100
AcDbVertex
100
AcDb3dPolylineVertex
 10
220.2541
 20
-30.4683
 30
0.0
 70
    32
  0
VERTEX
  5
5B2A
330
59A9
100
AcDbEntity
  8
241
  6
Continuous
100
AcDbVertex
100
AcDb3dPolylineVertex
 10
220.2558
 20
-30.47799999999998
 30
0.0
 70
    32
  0
VERTEX
  5
5B2B
330
59A9
100
AcDbEntity
  8
241
  6
Continuous
100
AcDbVertex
100
AcDb3dPolylineVertex
 10
220.2575
 20
-30.48779999999999
 30
0.0
 70
    32
  0
VERTEX
  5
5B2C
330
59A9
100
AcDbEntity
  8
241
  6
Continuous
100
AcDbVertex
100
AcDb3dPolylineVertex
 10
220.2592
 20
-30.49739999999997
 30
0.0
 70
    32
  0
VERTEX
  5
5B2D
330
59A9
100
AcDbEntity
  8
241
  6
Continuous
100
AcDbVertex
100
AcDb3dPolylineVertex
 10
220.2609
 20
-30.50709999999998
 30
0.0
 70
    32
  0
VERTEX
  5
5B2E
330
59A9
100
AcDbEntity
  8
241
  6
Continuous
100
AcDbVertex
100
AcDb3dPolylineVertex
 10
220.2626
 20
-30.51679999999999
 30
0.0
 70
    32
  0
VERTEX
  5
5B2F
330
59A9
100
AcDbEntity
  8
241
  6
Continuous
100
AcDbVertex
100
AcDb3dPolylineVertex
 10
220.2644
 20
-30.5264
 30
0.0
 70
    32
  0
VERTEX
  5
5B30
330
59A9
100
AcDbEntity
  8
241
  6
Continuous
100
AcDbVertex
100
AcDb3dPolylineVertex
 10
220.2661
 20
-30.53599999999998
 30
0.0
 70
    32
  0
VERTEX
  5
5B31
330
59A9
100
AcDbEntity
  8
241
  6
Continuous
100
AcDbVertex
100
AcDb3dPolylineVertex
 10
220.2679
 20
-30.54559999999999
 30
0.0
 70
    32
  0
VERTEX
  5
5B32
330
59A9
100
AcDbEntity
  8
241
  6
Continuous
100
AcDbVertex
100
AcDb3dPolylineVertex
 10
220.2696
 20
-30.5552
 30
0.0
 70
    32
  0
VERTEX
  5
5B33
330
59A9
100
AcDbEntity
  8
241
  6
Continuous
100
AcDbVertex
100
AcDb3dPolylineVertex
 10
220.2714
 20
-30.56479999999999
 30
0.0
 70
    32
  0
VERTEX
  5
5B34
330
59A9
100
AcDbEntity
  8
241
  6
Continuous
100
AcDbVertex
100
AcDb3dPolylineVertex
 10
220.2732
 20
-30.5743
 30
0.0
 70
    32
  0
VERTEX
  5
5B35
330
59A9
100
AcDbEntity
  8
241
  6
Continuous
100
AcDbVertex
100
AcDb3dPolylineVertex
 10
220.275
 20
-30.58389999999997
 30
0.0
 70
    32
  0
VERTEX
  5
5B36
330
59A9
100
AcDbEntity
  8
241
  6
Continuous
100
AcDbVertex
100
AcDb3dPolylineVertex
 10
220.2768
 20
-30.59339999999997
 30
0.0
 70
    32
  0
VERTEX
  5
5B37
330
59A9
100
AcDbEntity
  8
241
  6
Continuous
100
AcDbVertex
100
AcDb3dPolylineVertex
 10
220.2786
 20
-30.60289999999998
 30
0.0
 70
    32
  0
VERTEX
  5
5B38
330
59A9
100
AcDbEntity
  8
241
  6
Continuous
100
AcDbVertex
100
AcDb3dPolylineVertex
 10
220.2804
 20
-30.61229999999998
 30
0.0
 70
    32
  0
VERTEX
  5
5B39
330
59A9
100
AcDbEntity
  8
241
  6
Continuous
100
AcDbVertex
100
AcDb3dPolylineVertex
 10
220.2822
 20
-30.62179999999998
 30
0.0
 70
    32
  0
VERTEX
  5
5B3A
330
59A9
100
AcDbEntity
  8
241
  6
Continuous
100
AcDbVertex
100
AcDb3dPolylineVertex
 10
220.284
 20
-30.63119999999998
 30
0.0
 70
    32
  0
VERTEX
  5
5B3B
330
59A9
100
AcDbEntity
  8
241
  6
Continuous
100
AcDbVertex
100
AcDb3dPolylineVertex
 10
220.2859
 20
-30.64059999999998
 30
0.0
 70
    32
  0
VERTEX
  5
5B3C
330
59A9
100
AcDbEntity
  8
241
  6
Continuous
100
AcDbVertex
100
AcDb3dPolylineVertex
 10
220.2877
 20
-30.64989999999998
 30
0.0
 70
    32
  0
VERTEX
  5
5B3D
330
59A9
100
AcDbEntity
  8
241
  6
Continuous
100
AcDbVertex
100
AcDb3dPolylineVertex
 10
220.2896
 20
-30.65929999999998
 30
0.0
 70
    32
  0
VERTEX
  5
5B3E
330
59A9
100
AcDbEntity
  8
241
  6
Continuous
100
AcDbVertex
100
AcDb3dPolylineVertex
 10
220.2914
 20
-30.6686
 30
0.0
 70
    32
  0
VERTEX
  5
5B3F
330
59A9
100
AcDbEntity
  8
241
  6
Continuous
100
AcDbVertex
100
AcDb3dPolylineVertex
 10
220.2933
 20
-30.6779
 30
0.0
 70
    32
  0
VERTEX
  5
5B40
330
59A9
100
AcDbEntity
  8
241
  6
Continuous
100
AcDbVertex
100
AcDb3dPolylineVertex
 10
220.2951
 20
-30.68719999999999
 30
0.0
 70
    32
  0
VERTEX
  5
5B41
330
59A9
100
AcDbEntity
  8
241
  6
Continuous
100
AcDbVertex
100
AcDb3dPolylineVertex
 10
220.297
 20
-30.69639999999998
 30
0.0
 70
    32
  0
VERTEX
  5
5B42
330
59A9
100
AcDbEntity
  8
241
  6
Continuous
100
AcDbVertex
100
AcDb3dPolylineVertex
 10
220.2989
 20
-30.70569999999998
 30
0.0
 70
    32
  0
VERTEX
  5
5B43
330
59A9
100
AcDbEntity
  8
241
  6
Continuous
100
AcDbVertex
100
AcDb3dPolylineVertex
 10
220.3008
 20
-30.7149
 30
0.0
 70
    32
  0
VERTEX
  5
5B44
330
59A9
100
AcDbEntity
  8
241
  6
Continuous
100
AcDbVertex
100
AcDb3dPolylineVertex
 10
220.3027
 20
-30.72399999999999
 30
0.0
 70
    32
  0
VERTEX
  5
5B45
330
59A9
100
AcDbEntity
  8
241
  6
Continuous
100
AcDbVertex
100
AcDb3dPolylineVertex
 10
220.3046
 20
-30.73319999999998
 30
0.0
 70
    32
  0
VERTEX
  5
5B46
330
59A9
100
AcDbEntity
  8
241
  6
Continuous
100
AcDbVertex
100
AcDb3dPolylineVertex
 10
220.3065
 20
-30.7423
 30
0.0
 70
    32
  0
VERTEX
  5
5B47
330
59A9
100
AcDbEntity
  8
241
  6
Continuous
100
AcDbVertex
100
AcDb3dPolylineVertex
 10
220.3084
 20
-30.75139999999999
 30
0.0
 70
    32
  0
VERTEX
  5
5B48
330
59A9
100
AcDbEntity
  8
241
  6
Continuous
100
AcDbVertex
100
AcDb3dPolylineVertex
 10
220.3103
 20
-30.76039999999998
 30
0.0
 70
    32
  0
VERTEX
  5
5B49
330
59A9
100
AcDbEntity
  8
241
  6
Continuous
100
AcDbVertex
100
AcDb3dPolylineVertex
 10
220.3122
 20
-30.7695
 30
0.0
 70
    32
  0
VERTEX
  5
5B4A
330
59A9
100
AcDbEntity
  8
241
  6
Continuous
100
AcDbVertex
100
AcDb3dPolylineVertex
 10
220.3142
 20
-30.77849999999998
 30
0.0
 70
    32
  0
VERTEX
  5
5B4B
330
59A9
100
AcDbEntity
  8
241
  6
Continuous
100
AcDbVertex
100
AcDb3dPolylineVertex
 10
220.3161
 20
-30.78749999999999
 30
0.0
 70
    32
  0
VERTEX
  5
5B4C
330
59A9
100
AcDbEntity
  8
241
  6
Continuous
100
AcDbVertex
100
AcDb3dPolylineVertex
 10
220.3181
 20
-30.79649999999998
 30
0.0
 70
    32
  0
VERTEX
  5
5B4D
330
59A9
100
AcDbEntity
  8
241
  6
Continuous
100
AcDbVertex
100
AcDb3dPolylineVertex
 10
220.32
 20
-30.8055
 30
0.0
 70
    32
  0
VERTEX
  5
5B4E
330
59A9
100
AcDbEntity
  8
241
  6
Continuous
100
AcDbVertex
100
AcDb3dPolylineVertex
 10
220.322
 20
-30.81449999999998
 30
0.0
 70
    32
  0
VERTEX
  5
5B4F
330
59A9
100
AcDbEntity
  8
241
  6
Continuous
100
AcDbVertex
100
AcDb3dPolylineVertex
 10
220.324
 20
-30.8236
 30
0.0
 70
    32
  0
VERTEX
  5
5B50
330
59A9
100
AcDbEntity
  8
241
  6
Continuous
100
AcDbVertex
100
AcDb3dPolylineVertex
 10
220.326
 20
-30.83259999999999
 30
0.0
 70
    32
  0
VERTEX
  5
5B51
330
59A9
100
AcDbEntity
  8
241
  6
Continuous
100
AcDbVertex
100
AcDb3dPolylineVertex
 10
220.328
 20
-30.84169999999998
 30
0.0
 70
    32
  0
VERTEX
  5
5B52
330
59A9
100
AcDbEntity
  8
241
  6
Continuous
100
AcDbVertex
100
AcDb3dPolylineVertex
 10
220.33
 20
-30.85069999999999
 30
0.0
 70
    32
  0
VERTEX
  5
5B53
330
59A9
100
AcDbEntity
  8
241
  6
Continuous
100
AcDbVertex
100
AcDb3dPolylineVertex
 10
220.3321
 20
-30.85979999999998
 30
0.0
 70
    32
  0
VERTEX
  5
5B54
330
59A9
100
AcDbEntity
  8
241
  6
Continuous
100
AcDbVertex
100
AcDb3dPolylineVertex
 10
220.3341
 20
-30.8689
 30
0.0
 70
    32
  0
VERTEX
  5
5B55
330
59A9
100
AcDbEntity
  8
241
  6
Continuous
100
AcDbVertex
100
AcDb3dPolylineVertex
 10
220.3362
 20
-30.87789999999998
 30
0.0
 70
    32
  0
VERTEX
  5
5B56
330
59A9
100
AcDbEntity
  8
241
  6
Continuous
100
AcDbVertex
100
AcDb3dPolylineVertex
 10
220.3383
 20
-30.88699999999998
 30
0.0
 70
    32
  0
VERTEX
  5
5B57
330
59A9
100
AcDbEntity
  8
241
  6
Continuous
100
AcDbVertex
100
AcDb3dPolylineVertex
 10
220.3404
 20
-30.89609999999999
 30
0.0
 70
    32
  0
VERTEX
  5
5B58
330
59A9
100
AcDbEntity
  8
241
  6
Continuous
100
AcDbVertex
100
AcDb3dPolylineVertex
 10
220.3425
 20
-30.90519999999998
 30
0.0
 70
    32
  0
VERTEX
  5
5B59
330
59A9
100
AcDbEntity
  8
241
  6
Continuous
100
AcDbVertex
100
AcDb3dPolylineVertex
 10
220.3446
 20
-30.9144
 30
0.0
 70
    32
  0
VERTEX
  5
5B5A
330
59A9
100
AcDbEntity
  8
241
  6
Continuous
100
AcDbVertex
100
AcDb3dPolylineVertex
 10
220.3467
 20
-30.92349999999999
 30
0.0
 70
    32
  0
VERTEX
  5
5B5B
330
59A9
100
AcDbEntity
  8
241
  6
Continuous
100
AcDbVertex
100
AcDb3dPolylineVertex
 10
220.3489
 20
-30.93259999999998
 30
0.0
 70
    32
  0
VERTEX
  5
5B5C
330
59A9
100
AcDbEntity
  8
241
  6
Continuous
100
AcDbVertex
100
AcDb3dPolylineVertex
 10
220.351
 20
-30.9417
 30
0.0
 70
    32
  0
VERTEX
  5
5B5D
330
59A9
100
AcDbEntity
  8
241
  6
Continuous
100
AcDbVertex
100
AcDb3dPolylineVertex
 10
220.3532
 20
-30.95089999999999
 30
0.0
 70
    32
  0
VERTEX
  5
5B5E
330
59A9
100
AcDbEntity
  8
241
  6
Continuous
100
AcDbVertex
100
AcDb3dPolylineVertex
 10
220.3554
 20
-30.95999999999998
 30
0.0
 70
    32
  0
VERTEX
  5
5B5F
330
59A9
100
AcDbEntity
  8
241
  6
Continuous
100
AcDbVertex
100
AcDb3dPolylineVertex
 10
220.3576
 20
-30.9692
 30
0.0
 70
    32
  0
VERTEX
  5
5B60
330
59A9
100
AcDbEntity
  8
241
  6
Continuous
100
AcDbVertex
100
AcDb3dPolylineVertex
 10
220.3598
 20
-30.97829999999999
 30
0.0
 70
    32
  0
VERTEX
  5
5B61
330
59A9
100
AcDbEntity
  8
241
  6
Continuous
100
AcDbVertex
100
AcDb3dPolylineVertex
 10
220.362
 20
-30.98749999999999
 30
0.0
 70
    32
  0
VERTEX
  5
5B62
330
59A9
100
AcDbEntity
  8
241
  6
Continuous
100
AcDbVertex
100
AcDb3dPolylineVertex
 10
220.3643
 20
-30.99669999999998
 30
0.0
 70
    32
  0
VERTEX
  5
5B63
330
59A9
100
AcDbEntity
  8
241
  6
Continuous
100
AcDbVertex
100
AcDb3dPolylineVertex
 10
220.3665
 20
-31.0059
 30
0.0
 70
    32
  0
VERTEX
  5
5B64
330
59A9
100
AcDbEntity
  8
241
  6
Continuous
100
AcDbVertex
100
AcDb3dPolylineVertex
 10
220.3688
 20
-31.01509999999999
 30
0.0
 70
    32
  0
VERTEX
  5
5B65
330
59A9
100
AcDbEntity
  8
241
  6
Continuous
100
AcDbVertex
100
AcDb3dPolylineVertex
 10
220.3711
 20
-31.02419999999999
 30
0.0
 70
    32
  0
VERTEX
  5
5B66
330
59A9
100
AcDbEntity
  8
241
  6
Continuous
100
AcDbVertex
100
AcDb3dPolylineVertex
 10
220.3733
 20
-31.03339999999997
 30
0.0
 70
    32
  0
VERTEX
  5
5B67
330
59A9
100
AcDbEntity
  8
241
  6
Continuous
100
AcDbVertex
100
AcDb3dPolylineVertex
 10
220.3756
 20
-31.0426
 30
0.0
 70
    32
  0
VERTEX
  5
5B68
330
59A9
100
AcDbEntity
  8
241
  6
Continuous
100
AcDbVertex
100
AcDb3dPolylineVertex
 10
220.378
 20
-31.05189999999999
 30
0.0
 70
    32
  0
VERTEX
  5
5B69
330
59A9
100
AcDbEntity
  8
241
  6
Continuous
100
AcDbVertex
100
AcDb3dPolylineVertex
 10
220.3803
 20
-31.06109999999998
 30
0.0
 70
    32
  0
VERTEX
  5
5B6A
330
59A9
100
AcDbEntity
  8
241
  6
Continuous
100
AcDbVertex
100
AcDb3dPolylineVertex
 10
220.3826
 20
-31.07029999999998
 30
0.0
 70
    32
  0
VERTEX
  5
5B6B
330
59A9
100
AcDbEntity
  8
241
  6
Continuous
100
AcDbVertex
100
AcDb3dPolylineVertex
 10
220.385
 20
-31.0795
 30
0.0
 70
    32
  0
VERTEX
  5
5B6C
330
59A9
100
AcDbEntity
  8
241
  6
Continuous
100
AcDbVertex
100
AcDb3dPolylineVertex
 10
220.3874
 20
-31.08879999999999
 30
0.0
 70
    32
  0
VERTEX
  5
5B6D
330
59A9
100
AcDbEntity
  8
241
  6
Continuous
100
AcDbVertex
100
AcDb3dPolylineVertex
 10
220.3897
 20
-31.09799999999999
 30
0.0
 70
    32
  0
VERTEX
  5
5B6E
330
59A9
100
AcDbEntity
  8
241
  6
Continuous
100
AcDbVertex
100
AcDb3dPolylineVertex
 10
220.3921
 20
-31.10719999999998
 30
0.0
 70
    32
  0
VERTEX
  5
5B6F
330
59A9
100
AcDbEntity
  8
241
  6
Continuous
100
AcDbVertex
100
AcDb3dPolylineVertex
 10
220.3945
 20
-31.11649999999997
 30
0.0
 70
    32
  0
VERTEX
  5
5B70
330
59A9
100
AcDbEntity
  8
241
  6
Continuous
100
AcDbVertex
100
AcDb3dPolylineVertex
 10
220.397
 20
-31.1258
 30
0.0
 70
    32
  0
VERTEX
  5
5B71
330
59A9
100
AcDbEntity
  8
241
  6
Continuous
100
AcDbVertex
100
AcDb3dPolylineVertex
 10
220.3994
 20
-31.13499999999999
 30
0.0
 70
    32
  0
VERTEX
  5
5B72
330
59A9
100
AcDbEntity
  8
241
  6
Continuous
100
AcDbVertex
100
AcDb3dPolylineVertex
 10
220.4018
 20
-31.14429999999999
 30
0.0
 70
    32
  0
VERTEX
  5
5B73
330
59A9
100
AcDbEntity
  8
241
  6
Continuous
100
AcDbVertex
100
AcDb3dPolylineVertex
 10
220.4043
 20
-31.15349999999998
 30
0.0
 70
    32
  0
VERTEX
  5
5B74
330
59A9
100
AcDbEntity
  8
241
  6
Continuous
100
AcDbVertex
100
AcDb3dPolylineVertex
 10
220.4068
 20
-31.16279999999998
 30
0.0
 70
    32
  0
VERTEX
  5
5B75
330
59A9
100
AcDbEntity
  8
241
  6
Continuous
100
AcDbVertex
100
AcDb3dPolylineVertex
 10
220.4092
 20
-31.1721
 30
0.0
 70
    32
  0
VERTEX
  5
5B76
330
59A9
100
AcDbEntity
  8
241
  6
Continuous
100
AcDbVertex
100
AcDb3dPolylineVertex
 10
220.4117
 20
-31.1814
 30
0.0
 70
    32
  0
VERTEX
  5
5B77
330
59A9
100
AcDbEntity
  8
241
  6
Continuous
100
AcDbVertex
100
AcDb3dPolylineVertex
 10
220.4143
 20
-31.19069999999999
 30
0.0
 70
    32
  0
VERTEX
  5
5B78
330
59A9
100
AcDbEntity
  8
241
  6
Continuous
100
AcDbVertex
100
AcDb3dPolylineVertex
 10
220.4168
 20
-31.19999999999999
 30
0.0
 70
    32
  0
VERTEX
  5
5B79
330
59A9
100
AcDbEntity
  8
241
  6
Continuous
100
AcDbVertex
100
AcDb3dPolylineVertex
 10
220.4193
 20
-31.20929999999999
 30
0.0
 70
    32
  0
VERTEX
  5
5B7A
330
59A9
100
AcDbEntity
  8
241
  6
Continuous
100
AcDbVertex
100
AcDb3dPolylineVertex
 10
220.4219
 20
-31.21859999999998
 30
0.0
 70
    32
  0
VERTEX
  5
5B7B
330
59A9
100
AcDbEntity
  8
241
  6
Continuous
100
AcDbVertex
100
AcDb3dPolylineVertex
 10
220.4244
 20
-31.22789999999998
 30
0.0
 70
    32
  0
VERTEX
  5
5B7C
330
59A9
100
AcDbEntity
  8
241
  6
Continuous
100
AcDbVertex
100
AcDb3dPolylineVertex
 10
220.427
 20
-31.23719999999997
 30
0.0
 70
    32
  0
VERTEX
  5
5B7D
330
59A9
100
AcDbEntity
  8
241
  6
Continuous
100
AcDbVertex
100
AcDb3dPolylineVertex
 10
220.4296
 20
-31.2465
 30
0.0
 70
    32
  0
VERTEX
  5
5B7E
330
59A9
100
AcDbEntity
  8
241
  6
Continuous
100
AcDbVertex
100
AcDb3dPolylineVertex
 10
220.4322
 20
-31.25579999999999
 30
0.0
 70
    32
  0
VERTEX
  5
5B7F
330
59A9
100
AcDbEntity
  8
241
  6
Continuous
100
AcDbVertex
100
AcDb3dPolylineVertex
 10
220.4348
 20
-31.26509999999999
 30
0.0
 70
    32
  0
VERTEX
  5
5B80
330
59A9
100
AcDbEntity
  8
241
  6
Continuous
100
AcDbVertex
100
AcDb3dPolylineVertex
 10
220.4374
 20
-31.27449999999999
 30
0.0
 70
    32
  0
VERTEX
  5
5B81
330
59A9
100
AcDbEntity
  8
241
  6
Continuous
100
AcDbVertex
100
AcDb3dPolylineVertex
 10
220.4401
 20
-31.28379999999999
 30
0.0
 70
    32
  0
VERTEX
  5
5B82
330
59A9
100
AcDbEntity
  8
241
  6
Continuous
100
AcDbVertex
100
AcDb3dPolylineVertex
 10
220.4427
 20
-31.29309999999998
 30
0.0
 70
    32
  0
VERTEX
  5
5B83
330
59A9
100
AcDbEntity
  8
241
  6
Continuous
100
AcDbVertex
100
AcDb3dPolylineVertex
 10
220.4454
 20
-31.30249999999998
 30
0.0
 70
    32
  0
VERTEX
  5
5B84
330
59A9
100
AcDbEntity
  8
241
  6
Continuous
100
AcDbVertex
100
AcDb3dPolylineVertex
 10
220.4481
 20
-31.31179999999999
 30
0.0
 70
    32
  0
VERTEX
  5
5B85
330
59A9
100
AcDbEntity
  8
241
  6
Continuous
100
AcDbVertex
100
AcDb3dPolylineVertex
 10
220.4508
 20
-31.32119999999999
 30
0.0
 70
    32
  0
VERTEX
  5
5B86
330
59A9
100
AcDbEntity
  8
241
  6
Continuous
100
AcDbVertex
100
AcDb3dPolylineVertex
 10
220.4535
 20
-31.33049999999999
 30
0.0
 70
    32
  0
VERTEX
  5
5B87
330
59A9
100
AcDbEntity
  8
241
  6
Continuous
100
AcDbVertex
100
AcDb3dPolylineVertex
 10
220.4562
 20
-31.33989999999999
 30
0.0
 70
    32
  0
VERTEX
  5
5B88
330
59A9
100
AcDbEntity
  8
241
  6
Continuous
100
AcDbVertex
100
AcDb3dPolylineVertex
 10
220.4589
 20
-31.34919999999998
 30
0.0
 70
    32
  0
VERTEX
  5
5B89
330
59A9
100
AcDbEntity
  8
241
  6
Continuous
100
AcDbVertex
100
AcDb3dPolylineVertex
 10
220.4617
 20
-31.35859999999998
 30
0.0
 70
    32
  0
VERTEX
  5
5B8A
330
59A9
100
AcDbEntity
  8
241
  6
Continuous
100
AcDbVertex
100
AcDb3dPolylineVertex
 10
220.4644
 20
-31.36789999999999
 30
0.0
 70
    32
  0
VERTEX
  5
5B8B
330
59A9
100
AcDbEntity
  8
241
  6
Continuous
100
AcDbVertex
100
AcDb3dPolylineVertex
 10
220.4672
 20
-31.37729999999999
 30
0.0
 70
    32
  0
VERTEX
  5
5B8C
330
59A9
100
AcDbEntity
  8
241
  6
Continuous
100
AcDbVertex
100
AcDb3dPolylineVertex
 10
220.47
 20
-31.38669999999999
 30
0.0
 70
    32
  0
VERTEX
  5
5B8D
330
59A9
100
AcDbEntity
  8
241
  6
Continuous
100
AcDbVertex
100
AcDb3dPolylineVertex
 10
220.4728
 20
-31.39599999999999
 30
0.0
 70
    32
  0
VERTEX
  5
5B8E
330
59A9
100
AcDbEntity
  8
241
  6
Continuous
100
AcDbVertex
100
AcDb3dPolylineVertex
 10
220.4756
 20
-31.40539999999999
 30
0.0
 70
    32
  0
VERTEX
  5
5B8F
330
59A9
100
AcDbEntity
  8
241
  6
Continuous
100
AcDbVertex
100
AcDb3dPolylineVertex
 10
220.4784
 20
-31.41479999999999
 30
0.0
 70
    32
  0
VERTEX
  5
5B90
330
59A9
100
AcDbEntity
  8
241
  6
Continuous
100
AcDbVertex
100
AcDb3dPolylineVertex
 10
220.4813
 20
-31.42409999999998
 30
0.0
 70
    32
  0
VERTEX
  5
5B91
330
59A9
100
AcDbEntity
  8
241
  6
Continuous
100
AcDbVertex
100
AcDb3dPolylineVertex
 10
220.4841
 20
-31.43349999999998
 30
0.0
 70
    32
  0
VERTEX
  5
5B92
330
59A9
100
AcDbEntity
  8
241
  6
Continuous
100
AcDbVertex
100
AcDb3dPolylineVertex
 10
220.487
 20
-31.44289999999998
 30
0.0
 70
    32
  0
VERTEX
  5
5B93
330
59A9
100
AcDbEntity
  8
241
  6
Continuous
100
AcDbVertex
100
AcDb3dPolylineVertex
 10
220.4899
 20
-31.45229999999998
 30
0.0
 70
    32
  0
VERTEX
  5
5B94
330
59A9
100
AcDbEntity
  8
241
  6
Continuous
100
AcDbVertex
100
AcDb3dPolylineVertex
 10
220.4928
 20
-31.46169999999998
 30
0.0
 70
    32
  0
VERTEX
  5
5B95
330
59A9
100
AcDbEntity
  8
241
  6
Continuous
100
AcDbVertex
100
AcDb3dPolylineVertex
 10
220.4957
 20
-31.47099999999999
 30
0.0
 70
    32
  0
VERTEX
  5
5B96
330
59A9
100
AcDbEntity
  8
241
  6
Continuous
100
AcDbVertex
100
AcDb3dPolylineVertex
 10
220.4986
 20
-31.48039999999999
 30
0.0
 70
    32
  0
VERTEX
  5
5B97
330
59A9
100
AcDbEntity
  8
241
  6
Continuous
100
AcDbVertex
100
AcDb3dPolylineVertex
 10
220.5015
 20
-31.48979999999999
 30
0.0
 70
    32
  0
VERTEX
  5
5B98
330
59A9
100
AcDbEntity
  8
241
  6
Continuous
100
AcDbVertex
100
AcDb3dPolylineVertex
 10
220.5045
 20
-31.49919999999999
 30
0.0
 70
    32
  0
VERTEX
  5
5B99
330
59A9
100
AcDbEntity
  8
241
  6
Continuous
100
AcDbVertex
100
AcDb3dPolylineVertex
 10
220.5074
 20
-31.50859999999999
 30
0.0
 70
    32
  0
VERTEX
  5
5B9A
330
59A9
100
AcDbEntity
  8
241
  6
Continuous
100
AcDbVertex
100
AcDb3dPolylineVertex
 10
220.5104
 20
-31.51799999999999
 30
0.0
 70
    32
  0
VERTEX
  5
5B9B
330
59A9
100
AcDbEntity
  8
241
  6
Continuous
100
AcDbVertex
100
AcDb3dPolylineVertex
 10
220.5134
 20
-31.52739999999999
 30
0.0
 70
    32
  0
VERTEX
  5
5B9C
330
59A9
100
AcDbEntity
  8
241
  6
Continuous
100
AcDbVertex
100
AcDb3dPolylineVertex
 10
220.5164
 20
-31.53679999999999
 30
0.0
 70
    32
  0
VERTEX
  5
5B9D
330
59A9
100
AcDbEntity
  8
241
  6
Continuous
100
AcDbVertex
100
AcDb3dPolylineVertex
 10
220.5194
 20
-31.54619999999999
 30
0.0
 70
    32
  0
VERTEX
  5
5B9E
330
59A9
100
AcDbEntity
  8
241
  6
Continuous
100
AcDbVertex
100
AcDb3dPolylineVertex
 10
220.5224
 20
-31.55559999999999
 30
0.0
 70
    32
  0
VERTEX
  5
5B9F
330
59A9
100
AcDbEntity
  8
241
  6
Continuous
100
AcDbVertex
100
AcDb3dPolylineVertex
 10
220.5254
 20
-31.56499999999998
 30
0.0
 70
    32
  0
VERTEX
  5
5BA0
330
59A9
100
AcDbEntity
  8
241
  6
Continuous
100
AcDbVertex
100
AcDb3dPolylineVertex
 10
220.5285
 20
-31.57439999999998
 30
0.0
 70
    32
  0
VERTEX
  5
5BA1
330
59A9
100
AcDbEntity
  8
241
  6
Continuous
100
AcDbVertex
100
AcDb3dPolylineVertex
 10
220.5316
 20
-31.58379999999998
 30
0.0
 70
    32
  0
VERTEX
  5
5BA2
330
59A9
100
AcDbEntity
  8
241
  6
Continuous
100
AcDbVertex
100
AcDb3dPolylineVertex
 10
220.5346
 20
-31.59319999999998
 30
0.0
 70
    32
  0
VERTEX
  5
5BA3
330
59A9
100
AcDbEntity
  8
241
  6
Continuous
100
AcDbVertex
100
AcDb3dPolylineVertex
 10
220.5377
 20
-31.60259999999998
 30
0.0
 70
    32
  0
VERTEX
  5
5BA4
330
59A9
100
AcDbEntity
  8
241
  6
Continuous
100
AcDbVertex
100
AcDb3dPolylineVertex
 10
220.5408
 20
-31.61199999999998
 30
0.0
 70
    32
  0
VERTEX
  5
5BA5
330
59A9
100
AcDbEntity
  8
241
  6
Continuous
100
AcDbVertex
100
AcDb3dPolylineVertex
 10
220.5439
 20
-31.62139999999999
 30
0.0
 70
    32
  0
VERTEX
  5
5BA6
330
59A9
100
AcDbEntity
  8
241
  6
Continuous
100
AcDbVertex
100
AcDb3dPolylineVertex
 10
220.5471
 20
-31.63079999999999
 30
0.0
 70
    32
  0
VERTEX
  5
5BA7
330
59A9
100
AcDbEntity
  8
241
  6
Continuous
100
AcDbVertex
100
AcDb3dPolylineVertex
 10
220.5502
 20
-31.64019999999999
 30
0.0
 70
    32
  0
VERTEX
  5
5BA8
330
59A9
100
AcDbEntity
  8
241
  6
Continuous
100
AcDbVertex
100
AcDb3dPolylineVertex
 10
220.5534
 20
-31.64959999999999
 30
0.0
 70
    32
  0
VERTEX
  5
5BA9
330
59A9
100
AcDbEntity
  8
241
  6
Continuous
100
AcDbVertex
100
AcDb3dPolylineVertex
 10
220.5565
 20
-31.65899999999999
 30
0.0
 70
    32
  0
VERTEX
  5
5BAA
330
59A9
100
AcDbEntity
  8
241
  6
Continuous
100
AcDbVertex
100
AcDb3dPolylineVertex
 10
220.5597
 20
-31.66839999999999
 30
0.0
 70
    32
  0
VERTEX
  5
5BAB
330
59A9
100
AcDbEntity
  8
241
  6
Continuous
100
AcDbVertex
100
AcDb3dPolylineVertex
 10
220.5629
 20
-31.67779999999999
 30
0.0
 70
    32
  0
VERTEX
  5
5BAC
330
59A9
100
AcDbEntity
  8
241
  6
Continuous
100
AcDbVertex
100
AcDb3dPolylineVertex
 10
220.5661
 20
-31.68719999999999
 30
0.0
 70
    32
  0
VERTEX
  5
5BAD
330
59A9
100
AcDbEntity
  8
241
  6
Continuous
100
AcDbVertex
100
AcDb3dPolylineVertex
 10
220.5693
 20
-31.69659999999999
 30
0.0
 70
    32
  0
VERTEX
  5
5BAE
330
59A9
100
AcDbEntity
  8
241
  6
Continuous
100
AcDbVertex
100
AcDb3dPolylineVertex
 10
220.5726
 20
-31.70599999999999
 30
0.0
 70
    32
  0
VERTEX
  5
5BAF
330
59A9
100
AcDbEntity
  8
241
  6
Continuous
100
AcDbVertex
100
AcDb3dPolylineVertex
 10
220.5758
 20
-31.71539999999999
 30
0.0
 70
    32
  0
VERTEX
  5
5BB0
330
59A9
100
AcDbEntity
  8
241
  6
Continuous
100
AcDbVertex
100
AcDb3dPolylineVertex
 10
220.5791
 20
-31.72489999999999
 30
0.0
 70
    32
  0
VERTEX
  5
5BB1
330
59A9
100
AcDbEntity
  8
241
  6
Continuous
100
AcDbVertex
100
AcDb3dPolylineVertex
 10
220.5823
 20
-31.73429999999999
 30
0.0
 70
    32
  0
VERTEX
  5
5BB2
330
59A9
100
AcDbEntity
  8
241
  6
Continuous
100
AcDbVertex
100
AcDb3dPolylineVertex
 10
220.5856
 20
-31.74369999999999
 30
0.0
 70
    32
  0
VERTEX
  5
5BB3
330
59A9
100
AcDbEntity
  8
241
  6
Continuous
100
AcDbVertex
100
AcDb3dPolylineVertex
 10
220.5889
 20
-31.75309999999999
 30
0.0
 70
    32
  0
VERTEX
  5
5BB4
330
59A9
100
AcDbEntity
  8
241
  6
Continuous
100
AcDbVertex
100
AcDb3dPolylineVertex
 10
220.5922
 20
-31.7625
 30
0.0
 70
    32
  0
VERTEX
  5
5BB5
330
59A9
100
AcDbEntity
  8
241
  6
Continuous
100
AcDbVertex
100
AcDb3dPolylineVertex
 10
220.5955
 20
-31.77189999999999
 30
0.0
 70
    32
  0
VERTEX
  5
5BB6
330
59A9
100
AcDbEntity
  8
241
  6
Continuous
100
AcDbVertex
100
AcDb3dPolylineVertex
 10
220.5989
 20
-31.78129999999999
 30
0.0
 70
    32
  0
VERTEX
  5
5BB7
330
59A9
100
AcDbEntity
  8
241
  6
Continuous
100
AcDbVertex
100
AcDb3dPolylineVertex
 10
220.6022
 20
-31.79069999999999
 30
0.0
 70
    32
  0
VERTEX
  5
5BB8
330
59A9
100
AcDbEntity
  8
241
  6
Continuous
100
AcDbVertex
100
AcDb3dPolylineVertex
 10
220.6056
 20
-31.80009999999999
 30
0.0
 70
    32
  0
VERTEX
  5
5BB9
330
59A9
100
AcDbEntity
  8
241
  6
Continuous
100
AcDbVertex
100
AcDb3dPolylineVertex
 10
220.6089
 20
-31.80949999999999
 30
0.0
 70
    32
  0
VERTEX
  5
5BBA
330
59A9
100
AcDbEntity
  8
241
  6
Continuous
100
AcDbVertex
100
AcDb3dPolylineVertex
 10
220.6123
 20
-31.81889999999999
 30
0.0
 70
    32
  0
VERTEX
  5
5BBB
330
59A9
100
AcDbEntity
  8
241
  6
Continuous
100
AcDbVertex
100
AcDb3dPolylineVertex
 10
220.6157
 20
-31.82829999999999
 30
0.0
 70
    32
  0
VERTEX
  5
5BBC
330
59A9
100
AcDbEntity
  8
241
  6
Continuous
100
AcDbVertex
100
AcDb3dPolylineVertex
 10
220.6191
 20
-31.83769999999999
 30
0.0
 70
    32
  0
VERTEX
  5
5BBD
330
59A9
100
AcDbEntity
  8
241
  6
Continuous
100
AcDbVertex
100
AcDb3dPolylineVertex
 10
220.6225
 20
-31.84709999999999
 30
0.0
 70
    32
  0
VERTEX
  5
5BBE
330
59A9
100
AcDbEntity
  8
241
  6
Continuous
100
AcDbVertex
100
AcDb3dPolylineVertex
 10
220.626
 20
-31.85639999999998
 30
0.0
 70
    32
  0
VERTEX
  5
5BBF
330
59A9
100
AcDbEntity
  8
241
  6
Continuous
100
AcDbVertex
100
AcDb3dPolylineVertex
 10
220.6294
 20
-31.86579999999998
 30
0.0
 70
    32
  0
VERTEX
  5
5BC0
330
59A9
100
AcDbEntity
  8
241
  6
Continuous
100
AcDbVertex
100
AcDb3dPolylineVertex
 10
220.6329
 20
-31.87519999999998
 30
0.0
 70
    32
  0
VERTEX
  5
5BC1
330
59A9
100
AcDbEntity
  8
241
  6
Continuous
100
AcDbVertex
100
AcDb3dPolylineVertex
 10
220.6363
 20
-31.88459999999998
 30
0.0
 70
    32
  0
VERTEX
  5
5BC2
330
59A9
100
AcDbEntity
  8
241
  6
Continuous
100
AcDbVertex
100
AcDb3dPolylineVertex
 10
220.6398
 20
-31.89399999999999
 30
0.0
 70
    32
  0
VERTEX
  5
5BC3
330
59A9
100
AcDbEntity
  8
241
  6
Continuous
100
AcDbVertex
100
AcDb3dPolylineVertex
 10
220.6433
 20
-31.90339999999999
 30
0.0
 70
    32
  0
VERTEX
  5
5BC4
330
59A9
100
AcDbEntity
  8
241
  6
Continuous
100
AcDbVertex
100
AcDb3dPolylineVertex
 10
220.6468
 20
-31.91279999999999
 30
0.0
 70
    32
  0
VERTEX
  5
5BC5
330
59A9
100
AcDbEntity
  8
241
  6
Continuous
100
AcDbVertex
100
AcDb3dPolylineVertex
 10
220.6503
 20
-31.92209999999999
 30
0.0
 70
    32
  0
VERTEX
  5
5BC6
330
59A9
100
AcDbEntity
  8
241
  6
Continuous
100
AcDbVertex
100
AcDb3dPolylineVertex
 10
220.6539
 20
-31.93149999999999
 30
0.0
 70
    32
  0
VERTEX
  5
5BC7
330
59A9
100
AcDbEntity
  8
241
  6
Continuous
100
AcDbVertex
100
AcDb3dPolylineVertex
 10
220.6574
 20
-31.94089999999999
 30
0.0
 70
    32
  0
VERTEX
  5
5BC8
330
59A9
100
AcDbEntity
  8
241
  6
Continuous
100
AcDbVertex
100
AcDb3dPolylineVertex
 10
220.661
 20
-31.95029999999999
 30
0.0
 70
    32
  0
VERTEX
  5
5BC9
330
59A9
100
AcDbEntity
  8
241
  6
Continuous
100
AcDbVertex
100
AcDb3dPolylineVertex
 10
220.6645
 20
-31.95959999999998
 30
0.0
 70
    32
  0
VERTEX
  5
5BCA
330
59A9
100
AcDbEntity
  8
241
  6
Continuous
100
AcDbVertex
100
AcDb3dPolylineVertex
 10
220.6681
 20
-31.96899999999999
 30
0.0
 70
    32
  0
VERTEX
  5
5BCB
330
59A9
100
AcDbEntity
  8
241
  6
Continuous
100
AcDbVertex
100
AcDb3dPolylineVertex
 10
220.6717
 20
-31.97839999999999
 30
0.0
 70
    32
  0
VERTEX
  5
5BCC
330
59A9
100
AcDbEntity
  8
241
  6
Continuous
100
AcDbVertex
100
AcDb3dPolylineVertex
 10
220.6753
 20
-31.98769999999999
 30
0.0
 70
    32
  0
VERTEX
  5
5BCD
330
59A9
100
AcDbEntity
  8
241
  6
Continuous
100
AcDbVertex
100
AcDb3dPolylineVertex
 10
220.6789
 20
-31.99709999999999
 30
0.0
 70
    32
  0
VERTEX
  5
5BCE
330
59A9
100
AcDbEntity
  8
241
  6
Continuous
100
AcDbVertex
100
AcDb3dPolylineVertex
 10
220.6826
 20
-32.00639999999999
 30
0.0
 70
    32
  0
VERTEX
  5
5BCF
330
59A9
100
AcDbEntity
  8
241
  6
Continuous
100
AcDbVertex
100
AcDb3dPolylineVertex
 10
220.6862
 20
-32.01579999999998
 30
0.0
 70
    32
  0
VERTEX
  5
5BD0
330
59A9
100
AcDbEntity
  8
241
  6
Continuous
100
AcDbVertex
100
AcDb3dPolylineVertex
 10
220.6899
 20
-32.02519999999998
 30
0.0
 70
    32
  0
VERTEX
  5
5BD1
330
59A9
100
AcDbEntity
  8
241
  6
Continuous
100
AcDbVertex
100
AcDb3dPolylineVertex
 10
220.6935
 20
-32.03449999999998
 30
0.0
 70
    32
  0
VERTEX
  5
5BD2
330
59A9
100
AcDbEntity
  8
241
  6
Continuous
100
AcDbVertex
100
AcDb3dPolylineVertex
 10
220.6972
 20
-32.04379999999999
 30
0.0
 70
    32
  0
VERTEX
  5
5BD3
330
59A9
100
AcDbEntity
  8
241
  6
Continuous
100
AcDbVertex
100
AcDb3dPolylineVertex
 10
220.7009
 20
-32.05319999999999
 30
0.0
 70
    32
  0
VERTEX
  5
5BD4
330
59A9
100
AcDbEntity
  8
241
  6
Continuous
100
AcDbVertex
100
AcDb3dPolylineVertex
 10
220.7046
 20
-32.06249999999999
 30
0.0
 70
    32
  0
VERTEX
  5
5BD5
330
59A9
100
AcDbEntity
  8
241
  6
Continuous
100
AcDbVertex
100
AcDb3dPolylineVertex
 10
220.7083
 20
-32.07189999999999
 30
0.0
 70
    32
  0
VERTEX
  5
5BD6
330
59A9
100
AcDbEntity
  8
241
  6
Continuous
100
AcDbVertex
100
AcDb3dPolylineVertex
 10
220.712
 20
-32.0812
 30
0.0
 70
    32
  0
VERTEX
  5
5BD7
330
59A9
100
AcDbEntity
  8
241
  6
Continuous
100
AcDbVertex
100
AcDb3dPolylineVertex
 10
220.7158
 20
-32.09049999999999
 30
0.0
 70
    32
  0
VERTEX
  5
5BD8
330
59A9
100
AcDbEntity
  8
241
  6
Continuous
100
AcDbVertex
100
AcDb3dPolylineVertex
 10
220.7195
 20
-32.09989999999999
 30
0.0
 70
    32
  0
VERTEX
  5
5BD9
330
59A9
100
AcDbEntity
  8
241
  6
Continuous
100
AcDbVertex
100
AcDb3dPolylineVertex
 10
220.7233
 20
-32.10919999999999
 30
0.0
 70
    32
  0
VERTEX
  5
5BDA
330
59A9
100
AcDbEntity
  8
241
  6
Continuous
100
AcDbVertex
100
AcDb3dPolylineVertex
 10
220.727
 20
-32.11849999999998
 30
0.0
 70
    32
  0
VERTEX
  5
5BDB
330
59A9
100
AcDbEntity
  8
241
  6
Continuous
100
AcDbVertex
100
AcDb3dPolylineVertex
 10
220.7308
 20
-32.12779999999998
 30
0.0
 70
    32
  0
VERTEX
  5
5BDC
330
59A9
100
AcDbEntity
  8
241
  6
Continuous
100
AcDbVertex
100
AcDb3dPolylineVertex
 10
220.7346
 20
-32.13709999999998
 30
0.0
 70
    32
  0
VERTEX
  5
5BDD
330
59A9
100
AcDbEntity
  8
241
  6
Continuous
100
AcDbVertex
100
AcDb3dPolylineVertex
 10
220.7384
 20
-32.14639999999999
 30
0.0
 70
    32
  0
VERTEX
  5
5BDE
330
59A9
100
AcDbEntity
  8
241
  6
Continuous
100
AcDbVertex
100
AcDb3dPolylineVertex
 10
220.7423
 20
-32.1557
 30
0.0
 70
    32
  0
VERTEX
  5
5BDF
330
59A9
100
AcDbEntity
  8
241
  6
Continuous
100
AcDbVertex
100
AcDb3dPolylineVertex
 10
220.7461
 20
-32.16499999999999
 30
0.0
 70
    32
  0
VERTEX
  5
5BE0
330
59A9
100
AcDbEntity
  8
241
  6
Continuous
100
AcDbVertex
100
AcDb3dPolylineVertex
 10
220.7499
 20
-32.17429999999999
 30
0.0
 70
    32
  0
VERTEX
  5
5BE1
330
59A9
100
AcDbEntity
  8
241
  6
Continuous
100
AcDbVertex
100
AcDb3dPolylineVertex
 10
220.7538
 20
-32.18359999999999
 30
0.0
 70
    32
  0
VERTEX
  5
5BE2
330
59A9
100
AcDbEntity
  8
241
  6
Continuous
100
AcDbVertex
100
AcDb3dPolylineVertex
 10
220.7576
 20
-32.19289999999998
 30
0.0
 70
    32
  0
VERTEX
  5
5BE3
330
59A9
100
AcDbEntity
  8
241
  6
Continuous
100
AcDbVertex
100
AcDb3dPolylineVertex
 10
220.7615
 20
-32.20219999999998
 30
0.0
 70
    32
  0
VERTEX
  5
5BE4
330
59A9
100
AcDbEntity
  8
241
  6
Continuous
100
AcDbVertex
100
AcDb3dPolylineVertex
 10
220.7654
 20
-32.21139999999998
 30
0.0
 70
    32
  0
VERTEX
  5
5BE5
330
59A9
100
AcDbEntity
  8
241
  6
Continuous
100
AcDbVertex
100
AcDb3dPolylineVertex
 10
220.7693
 20
-32.22069999999999
 30
0.0
 70
    32
  0
VERTEX
  5
5BE6
330
59A9
100
AcDbEntity
  8
241
  6
Continuous
100
AcDbVertex
100
AcDb3dPolylineVertex
 10
220.7732
 20
-32.22999999999999
 30
0.0
 70
    32
  0
VERTEX
  5
5BE7
330
59A9
100
AcDbEntity
  8
241
  6
Continuous
100
AcDbVertex
100
AcDb3dPolylineVertex
 10
220.7771
 20
-32.23919999999998
 30
0.0
 70
    32
  0
VERTEX
  5
5BE8
330
59A9
100
AcDbEntity
  8
241
  6
Continuous
100
AcDbVertex
100
AcDb3dPolylineVertex
 10
220.7811
 20
-32.24849999999998
 30
0.0
 70
    32
  0
VERTEX
  5
5BE9
330
59A9
100
AcDbEntity
  8
241
  6
Continuous
100
AcDbVertex
100
AcDb3dPolylineVertex
 10
220.785
 20
-32.25779999999999
 30
0.0
 70
    32
  0
SEQEND
  5
5BEA
330
59A9
100
AcDbEntity
  8
241
  6
Continuous
  0
ARC
  5
5BEC
330
1A
100
AcDbEntity
  8
240
  6
Continuous
100
AcDbCircle
 10
245.0
 20
0.0
 30
0.0
 40
60.0
100
AcDbArc
 50
306.8698978100006
 51
334.1580672399997
  0
LINE
  5
5BEE
330
1A
100
AcDbEntity
  8
241
  6
Continuous
100
AcDbLine
 10
270.0
 20
-24.99999999999997
 30
0.0
 11
270.0000000000001
 21
-49.99999992499998
 31
0.0
  0
ARC
  5
5BEF
330
1A
100
AcDbEntity
  8
240
  6
Continuous
100
AcDbCircle
 10
275.00000012
 20
-39.99999990999999
 30
0.0
 40
10.0
100
AcDbArc
 50
270.00000017
 51
306.8698978100006
  0
ARC
  5
5BF1
330
1A
100
AcDbEntity
  8
240
  6
Continuous
100
AcDbCircle
 10
272.0
 20
-13.07669682999997
 30
0.0
 40
30.0
100
AcDbArc
 50
334.1580672399997
 51
0.0
  0
LINE
  5
5BF2
330
1A
100
AcDbEntity
  8
240
  6
Continuous
100
AcDbLine
 10
302.0
 20
-13.07669682999997
 30
0.0
 11
302.0
 21
-7.0
 31
0.0
  0
LINE
  5
5BF3
330
1A
100
AcDbEntity
  8
240
  6
Continuous
100
AcDbLine
 10
0.0
 20
34.92500000000001
 30
0.0
 11
-101.7999999999999
 21
20.07916666518844
 31
0.0
  0
LINE
  5
5BF4
330
1A
100
AcDbEntity
  8
240
  6
Continuous
100
AcDbLine
 10
0.0
 20
-34.92500000000001
 30
0.0
 11
-101.7999999999999
 21
-20.07916666518844
 31
0.0
  0
LINE
  5
5BF5
330
1A
100
AcDbEntity
  8
240
  6
Continuous
100
AcDbLine
 10
-101.7999999999999
 20
-20.07916666518844
 30
0.0
 11
-101.7999999999999
 21
20.07916666518844
 31
0.0
  0
LINE
  5
5BF6
330
1A
100
AcDbEntity
  8
241
  6
Continuous
100
AcDbLine
 10
30.70000000000006
 20
-50.0
 30
0.0
 11
30.70000000000006
 21
-8.539906322671839
 31
0.0
  0
LINE
  5
5BF7
330
1A
100
AcDbEntity
  8
241
  6
Continuous
100
AcDbLine
 10
26.36987297999997
 20
-42.5
 30
0.0
 11
26.36987297999997
 21
-11.64415681647546
 31
0.0
  0
LINE
  5
5BF8
330
1A
100
AcDbEntity
  8
241
  6
Continuous
100
AcDbLine
 10
20.03012702000001
 20
-42.5
 30
0.0
 11
20.03012702000001
 21
-12.6999999999999
 31
0.0
  0
LINE
  5
5BF9
330
1A
100
AcDbEntity
  8
241
  6
Continuous
100
AcDbLine
 10
15.70000000000004
 20
-50.0
 30
0.0
 11
15.70000000000004
 21
-12.6999999999999
 31
0.0
  0
LINE
  5
5BFA
330
1A
100
AcDbEntity
  8
241
  6
Continuous
100
AcDbLine
 10
15.70000000000004
 20
50.0
 30
0.0
 11
15.70000000000004
 21
12.69999999999999
 31
0.0
  0
LINE
  5
5BFB
330
1A
100
AcDbEntity
  8
241
  6
Continuous
100
AcDbLine
 10
20.03012702000001
 20
42.5
 30
0.0
 11
20.03012702000001
 21
12.69999999999999
 31
0.0
  0
LINE
  5
5BFC
330
1A
100
AcDbEntity
  8
241
  6
Continuous
100
AcDbLine
 10
30.70000000000006
 20
50.0
 30
0.0
 11
30.70000000000006
 21
8.539906322671951
 31
0.0
  0
LINE
  5
5BFD
330
1A
100
AcDbEntity
  8
241
  6
Continuous
100
AcDbLine
 10
26.36987297999997
 20
42.5
 30
0.0
 11
26.36987297999997
 21
11.64415681647557
 31
0.0
  0
LINE
  5
5BFE
330
1A
100
AcDbEntity
  8
240
  6
Continuous
100
AcDbLine
 10
1.5
 20
50.0
 30
0.0
 11
1.5
 21
34.92500000000001
 31
0.0
  0
LINE
  5
5BFF
330
1A
100
AcDbEntity
  8
241
  6
Continuous
100
AcDbLine
 10
38.0
 20
50.0
 30
0.0
 11
38.0
 21
-50.0
 31
0.0
  0
LINE
  5
5C00
330
1A
100
AcDbEntity
  8
240
  6
Continuous
100
AcDbLine
 10
38.0
 20
50.0
 30
0.0
 11
30.70000000000006
 21
50.0
 31
0.0
  0
LINE
  5
5C01
330
1A
100
AcDbEntity
  8
240
  6
Continuous
100
AcDbLine
 10
1.5
 20
50.0
 30
0.0
 11
15.70000000000004
 21
50.0
 31
0.0
  0
LINE
  5
5C02
330
1A
100
AcDbEntity
  8
240
  6
Continuous
100
AcDbLine
 10
26.36987297999997
 20
42.5
 30
0.0
 11
20.03012702000001
 21
42.5
 31
0.0
  0
LINE
  5
5C03
330
1A
100
AcDbEntity
  8
240
  6
Continuous
100
AcDbLine
 10
20.03012702000001
 20
42.5
 30
0.0
 11
15.70000000000004
 21
50.0
 31
0.0
  0
LINE
  5
5C04
330
1A
100
AcDbEntity
  8
240
  6
Continuous
100
AcDbLine
 10
26.36987297999997
 20
42.5
 30
0.0
 11
30.70000000000006
 21
50.0
 31
0.0
  0
LINE
  5
5C05
330
1A
100
AcDbEntity
  8
241
  6
Continuous
100
AcDbLine
 10
1.5
 20
34.92500000000001
 30
0.0
 11
1.5
 21
-34.92500000000001
 31
0.0
  0
LINE
  5
5C06
330
1A
100
AcDbEntity
  8
241
  6
Continuous
100
AcDbLine
 10
0.0
 20
34.92500000000001
 30
0.0
 11
0.0
 21
-34.92500000000001
 31
0.0
  0
LINE
  5
5C07
330
1A
100
AcDbEntity
  8
240
  6
Continuous
100
AcDbLine
 10
0.0
 20
34.92500000000001
 30
0.0
 11
1.5
 21
34.92500000000001
 31
0.0
  0
LINE
  5
5C08
330
1A
100
AcDbEntity
  8
240
  6
Continuous
100
AcDbLine
 10
30.70000000000006
 20
-50.0
 30
0.0
 11
38.0
 21
-50.0
 31
0.0
  0
LINE
  5
5C09
330
1A
100
AcDbEntity
  8
240
  6
Continuous
100
AcDbLine
 10
1.5
 20
-50.0
 30
0.0
 11
1.5
 21
-34.92500000000001
 31
0.0
  0
LINE
  5
5C0A
330
1A
100
AcDbEntity
  8
240
  6
Continuous
100
AcDbLine
 10
0.0
 20
-34.92500000000001
 30
0.0
 11
1.5
 21
-34.92500000000001
 31
0.0
  0
LINE
  5
5C0B
330
1A
100
AcDbEntity
  8
240
  6
Continuous
100
AcDbLine
 10
15.70000000000004
 20
-50.0
 30
0.0
 11
1.5
 21
-50.0
 31
0.0
  0
LINE
  5
5C0C
330
1A
100
AcDbEntity
  8
240
  6
Continuous
100
AcDbLine
 10
26.36987297999997
 20
-42.5
 30
0.0
 11
20.03012702000001
 21
-42.5
 31
0.0
  0
LINE
  5
5C0D
330
1A
100
AcDbEntity
  8
240
  6
Continuous
100
AcDbLine
 10
20.03012702000001
 20
-42.5
 30
0.0
 11
15.70000000000004
 21
-50.0
 31
0.0
  0
LINE
  5
5C0E
330
1A
100
AcDbEntity
  8
240
  6
Continuous
100
AcDbLine
 10
26.36987297999997
 20
-42.5
 30
0.0
 11
30.70000000000006
 21
-50.0
 31
0.0
  0
LINE
  5
5C0F
330
1A
100
AcDbEntity
  8
241
  6
Continuous
100
AcDbLine
 10
21.30000000000066
 20
12.69999999999999
 30
0.0
 11
1.5
 21
12.69999999999999
 31
0.0
  0
ARC
  5
5C10
330
1A
100
AcDbEntity
  8
241
  6
Continuous
100
AcDbCircle
 10
21.30000000000066
 20
0.0000000000000568
 30
0.0
 40
12.7
100
AcDbArc
 50
270.0
 51
90.00000000000005
  0
LINE
  5
5C11
330
1A
100
AcDbEntity
  8
241
  6
Continuous
100
AcDbLine
 10
21.3000000000007
 20
-12.6999999999999
 30
0.0
 11
1.5
 21
-12.69999999999993
 31
0.0
  0
ARC
  5
5C12
330
1A
100
AcDbEntity
  8
240
  6
Continuous
100
AcDbCircle
 10
245.0
 20
0.0
 30
0.0
 40
50.0
100
AcDbArc
 50
90.00000000000005
 51
270.0
  0
ARC
  5
5C13
330
1A
100
AcDbEntity
  8
242
  6
PHANTOM2
100
AcDbCircle
 10
134.0000000000007
 20
54.00000000000023
 30
0.0
 40
6.0
100
AcDbArc
 50
0.0
 51
90.00000000000005
  0
LINE
  5
5C14
330
1A
100
AcDbEntity
  8
242
  6
PHANTOM2
100
AcDbLine
 10
53.00000000000075
 20
-59.99999999999989
 30
0.0
 11
134.0000000000007
 21
-59.99999999999989
 31
0.0
  0
LINE
  5
5C15
330
1A
100
AcDbEntity
  8
242
  6
PHANTOM2
100
AcDbLine
 10
53.00000000000075
 20
60.00000000000024
 30
0.0
 11
134.0000000000007
 21
60.00000000000024
 31
0.0
  0
ARC
  5
5C16
330
1A
100
AcDbEntity
  8
242
  6
PHANTOM2
100
AcDbCircle
 10
53.00000000000075
 20
55.00000000000023
 30
0.0
 40
5.0
100
AcDbArc
 50
90.00000000000005
 51
180.0
  0
ARC
  5
5C17
330
1A
100
AcDbEntity
  8
242
  6
PHANTOM2
100
AcDbCircle
 10
134.0000000000007
 20
-54.00000000000023
 30
0.0
 40
6.0
100
AcDbArc
 50
270.0
 51
0.0
  0
ARC
  5
5C18
330
1A
100
AcDbEntity
  8
242
  6
PHANTOM2
100
AcDbCircle
 10
53.00000000000075
 20
-55.00000000000023
 30
0.0
 40
5.0
100
AcDbArc
 50
180.0
 51
270.0
  0
LINE
  5
5C19
330
1A
100
AcDbEntity
  8
250
  6
Continuous
100
AcDbLine
 10
-52.78156984999992
 20
-37.79107178000004
 30
0.0
 11
-70.51490317999998
 21
-37.79107178000004
 31
0.0
1001
ITEMNAME
1000
LNSP2
  0
TEXT
  5
5C1A
330
1A
100
AcDbEntity
  8
250
  6
Continuous
100
AcDbText
 10
-68.24823651333327
 20
-36.79107178000004
 30
0.0
 40
2.799999999999998
  1
BBT50
  7
YOKO
100
AcDbText
1001
ITEMNAME
1000
LNSP3
  0
LINE
  5
5C1B
330
1A
100
AcDbEntity
  8
250
  6
Continuous
100
AcDbLine
 10
-48.36743449422534
 20
-29.47889840120632
 30
0.0
 11
-47.07875935999993
 21
-27.91351426
 31
0.0
  0
LINE
  5
5C1C
330
1A
100
AcDbEntity
  8
250
  6
Continuous
100
AcDbLine
 10
-47.79008422495699
 20
-29.81223173440345
 30
0.0
 11
-47.07875935999993
 21
-27.91351426
 31
0.0
  0
LINE
  5
5C1D
330
1A
100
AcDbEntity
  8
250
  6
Continuous
100
AcDbLine
 10
-47.07875935999993
 20
-27.91351426
 30
0.0
 11
-48.07875935959117
 21
-29.64556506780491
 31
0.0
  0
LINE
  5
5C1E
330
1A
100
AcDbEntity
  8
250
  6
Continuous
100
AcDbLine
 10
-48.07875935959117
 20
-29.64556506780491
 30
0.0
 11
-52.78156984999992
 21
-37.79107178000004
 31
0.0
1001
ACAD
1000
DSTYLE
1002
{
1070
     6
1000
OPEN
1070
    41
1040
2.0
1070
   343
1005
0
1002
}
  0
LINE
  5
5C1F
330
1A
100
AcDbEntity
  8
247
  6
Continuous
100
AcDbLine
 10
10.5
 20
-26.25000000007004
 30
0.0
 11
10.5
 21
-19.55769230803003
 31
0.0
  0
ARC
  5
5C20
330
1A
100
AcDbEntity
  8
247
  6
Continuous
100
AcDbCircle
 10
8.750000000070031
 20
-26.25000000007004
 30
0.0
 40
1.749999999929999
100
AcDbArc
 50
180.0
 51
0.0
  0
ARC
  5
5C21
330
1A
100
AcDbEntity
  8
247
  6
Continuous
100
AcDbCircle
 10
8.750000000070031
 20
-19.55769230803003
 30
0.0
 40
1.749999999929999
100
AcDbArc
 50
0.0
 51
180.0
  0
LINE
  5
5C22
330
1A
100
AcDbEntity
  8
247
  6
Continuous
100
AcDbLine
 10
7.000000000140062
 20
-25.38461538472001
 30
0.0
 11
10.00000000002001
 21
-26.24485154196202
 31
0.0
  0
LINE
  5
5C23
330
1A
100
AcDbEntity
  8
247
  6
Continuous
100
AcDbLine
 10
8.423076923160008
 20
-24.48498381833582
 30
0.0
 11
8.423076923160008
 21
-25.79267612597585
 31
0.0
  0
ARC
  5
5C24
330
1A
100
AcDbEntity
  8
247
  6
Continuous
100
AcDbCircle
 10
7.549598667702977
 20
-24.14514381608979
 30
0.0
 40
0.5538165441895348
100
AcDbArc
 50
72.9978896752952
 51
172.9241662185135
  0
ARC
  5
5C25
330
1A
100
AcDbEntity
  8
247
  6
Continuous
100
AcDbCircle
 10
7.43603304446583
 20
-24.56687832302879
 30
0.0
 40
0.9904354236226808
100
AcDbArc
 50
4.742936852202213
 51
73.84922627326654
1001
GENIUS_GENOBJ-N-FIL_13
1002
{
1000
OWNER
1000
GEN
1002
}
1001
GENIUS_GENODEF_13
1002
{
1000
HIER
1070
     0
1002
}
1002
{
1000
MANEDIT
1070
     0
1002
}
1002
{
1000
NOSEL
1070
     0
1002
}
1002
{
1000
BEHIND
1070
     0
1002
}
1002
{
1000
OTHER
1070
     0
1002
}
1002
{
1000
REACTOR
1002
}
  0
LINE
  5
5C26
330
1A
100
AcDbEntity
  8
247
  6
Continuous
100
AcDbLine
 10
10.00000000002001
 20
-24.937159234322
 30
0.0
 11
10.00000000002001
 21
-26.24485154196202
 31
0.0
  0
LINE
  5
5C27
330
1A
100
AcDbEntity
  8
247
  6
Continuous
100
AcDbLine
 10
7.000000000140062
 20
-25.38461538472001
 30
0.0
 11
7.000000000140062
 21
-24.07692307707999
 31
0.0
  0
ARC
  5
5C28
330
1A
100
AcDbEntity
  8
247
  6
Continuous
100
AcDbCircle
 10
8.982024232665594
 20
-24.56091963654694
 30
0.0
 40
0.5640818586791229
100
AcDbArc
 50
65.99094165252903
 51
172.263443459069
  0
ARC
  5
5C29
330
1A
100
AcDbEntity
  8
247
  6
Continuous
100
AcDbCircle
 10
8.987429039186622
 20
-25.03826268534709
 30
0.0
 40
1.017605944623098
100
AcDbArc
 50
5.701985164256502
 51
77.2773384368223
1001
GENIUS_GENOBJ-N-FIL_13
1002
{
1000
OWNER
1000
GEN
1002
}
1001
GENIUS_GENODEF_13
1002
{
1000
HIER
1070
     0
1002
}
1002
{
1000
MANEDIT
1070
     0
1002
}
1002
{
1000
NOSEL
1070
     0
1002
}
1002
{
1000
BEHIND
1070
     0
1002
}
1002
{
1000
OTHER
1070
     0
1002
}
1002
{
1000
REACTOR
1002
}
  0
LINE
  5
5C2A
330
1A
100
AcDbEntity
  8
247
  6
Continuous
100
AcDbLine
 10
10.00000000002001
 20
-23.28331308054203
 30
0.0
 11
7.000000000140062
 21
-22.42307692330002
 31
0.0
  0
LINE
  5
5C2B
330
1A
100
AcDbEntity
  8
247
  6
Continuous
100
AcDbLine
 10
7.000000000140062
 20
-20.00000000031997
 30
0.0
 11
7.000000000140062
 21
-20.56573661945657
 31
0.0
  0
LINE
  5
5C2C
330
1A
100
AcDbEntity
  8
247
  6
Continuous
100
AcDbLine
 10
10.00000000002001
 20
-21.46153846179999
 30
0.0
 11
10.00000000002001
 21
-20.84615384644002
 31
0.0
  0
ARC
  5
5C2D
330
1A
100
AcDbEntity
  8
247
  6
Continuous
100
AcDbCircle
 10
9.083285135973367
 20
-19.70879120912286
 30
0.0
 40
2.252650082342209
100
AcDbArc
 50
202.3594881415258
 51
254.9932485428464
  0
ARC
  5
5C2E
330
1A
100
AcDbEntity
  8
247
  6
Continuous
100
AcDbCircle
 10
7.808312655194526
 20
-20.37406947921323
 30
0.0
 40
0.8906723995727782
100
AcDbArc
 50
94.99458931907524
 51
155.166328957304
1001
GENIUS_GENOBJ-N-FIL_13
1002
{
1000
OWNER
1000
GEN
1002
}
1001
GENIUS_GENODEF_13
1002
{
1000
HIER
1070
     0
1002
}
1002
{
1000
MANEDIT
1070
     0
1002
}
1002
{
1000
NOSEL
1070
     0
1002
}
1002
{
1000
BEHIND
1070
     0
1002
}
1002
{
1000
OTHER
1070
     0
1002
}
1002
{
1000
REACTOR
1002
}
  0
ARC
  5
5C2F
330
1A
100
AcDbEntity
  8
247
  6
Continuous
100
AcDbCircle
 10
8.660145888667782
 20
-21.22645888621258
 30
0.0
 40
1.392781735586712
100
AcDbArc
 50
15.84609655578072
 51
82.32513700416919
  0
ARC
  5
5C30
330
1A
100
AcDbEntity
  8
247
  6
Continuous
100
AcDbCircle
 10
8.959243431527283
 20
-20.64221272584035
 30
0.0
 40
1.324563662670287
100
AcDbArc
 50
249.7136016704966
 51
321.7887456564069
1001
GENIUS_GENOBJ-N-FIL_13
1002
{
1000
OWNER
1000
GEN
1002
}
1001
GENIUS_GENODEF_13
1002
{
1000
HIER
1070
     0
1002
}
1002
{
1000
MANEDIT
1070
     0
1002
}
1002
{
1000
NOSEL
1070
     0
1002
}
1002
{
1000
BEHIND
1070
     0
1002
}
1002
{
1000
OTHER
1070
     0
1002
}
1002
{
1000
REACTOR
1002
}
  0
LINE
  5
5C31
330
1A
100
AcDbEntity
  8
247
  6
Continuous
100
AcDbLine
 10
8.846153846219975
 20
-20.53846153875998
 30
0.0
 11
8.846153846219975
 21
-19.84615384647998
 31
0.0
  0
LINE
  5
5C32
330
1A
100
AcDbEntity
  8
247
  6
Continuous
100
AcDbLine
 10
7.000000000140062
 20
-26.25000000007004
 30
0.0
 11
7.000000000140062
 21
-25.57692307702007
 31
0.0
  0
LINE
  5
5CC5
330
1A
100
AcDbEntity
  8
250
  6
Continuous
100
AcDbLine
 10
140.499999952893
 20
-50.0
 30
0.0
 11
162.0
 21
-50.0
 31
0.0
  0
LINE
  5
5CC6
330
1A
100
AcDbEntity
  8
250
  6
Continuous
100
AcDbLine
 10
127.5
 20
-0.0000000000000001
 30
0.0
 11
162.0
 21
-0.0000000000000099
 31
0.0
  0
LINE
  5
5CC7
330
1A
100
AcDbEntity
  8
250
  6
Continuous
100
AcDbLine
 10
161.0
 20
-48.0
 30
0.0
 11
161.0
 21
-2.000000000000006
 31
0.0
  0
INSERT
  5
5CC8
330
1A
100
AcDbEntity
  8
250
  6
Continuous
100
AcDbBlockReference
  2
_OPEN
 10
161.0
 20
-50.0
 30
0.0
 41
2.0
 42
2.0
 43
2.0
 50
270.0
  0
INSERT
  5
5CC9
330
1A
100
AcDbEntity
  8
250
  6
Continuous
100
AcDbBlockReference
  2
_OPEN
 10
161.0
 20
-0.0000000000000096
 30
0.0
 41
2.0
 42
2.0
 43
2.0
 50
90.0
  0
MTEXT
  5
5CCA
330
1A
100
AcDbEntity
  8
250
  6
Continuous
370
    -3
100
AcDbMText
 10
158.6
 20
-24.99999999999998
 30
0.0
 40
2.799999999999998
 41
0.0
 71
     5
 72
     1
  1
\A1;50
 11
0.0000000000000001
 21
1.0
 31
0.0
 73
     1
 44
1.0
1001
ACAD
1000
MTEXTBEGIN
1070
    73
1070
     1
1070
    44
1040
1.0
1070
    74
1070
     0
1000
MTEXTEND
  0
LINE
  5
5CCC
330
1A
100
AcDbEntity
  8
250
  6
Continuous
100
AcDbLine
 10
0.0
 20
35.42500000000001
 30
0.0
 11
0.0000000000000026
 21
78.0
 31
0.0
  0
LINE
  5
5CCD
330
1A
100
AcDbEntity
  8
250
  6
Continuous
100
AcDbLine
 10
139.99999996
 20
-19.46958294999999
 30
0.0
 11
139.99999996
 21
78.0
 31
0.0
  0
LINE
  5
5CCE
330
1A
100
AcDbEntity
  8
250
  6
Continuous
100
AcDbLine
 10
2.230000000000002
 20
77.0
 30
0.0
 11
137.76999996
 21
77.0
 31
0.0
  0
INSERT
  5
5CCF
330
1A
100
AcDbEntity
  8
250
  6
Continuous
100
AcDbBlockReference
  2
_OPEN
 10
0.0000000000000026
 20
77.0
 30
0.0
 41
2.229999999999999
 42
2.229999999999999
 43
2.229999999999999
 50
180.0
  0
INSERT
  5
5CD0
330
1A
100
AcDbEntity
  8
250
  6
Continuous
100
AcDbBlockReference
  2
_OPEN
 10
139.99999996
 20
77.0
 30
0.0
 41
2.229999999999999
 42
2.229999999999999
 43
2.229999999999999
  0
MTEXT
  5
5CD1
330
1A
100
AcDbEntity
  8
250
  6
Continuous
100
AcDbMText
 10
69.99999997999998
 20
79.40000000000002
 30
0.0
 40
2.799999999999998
 41
0.0
 71
     5
 72
     1
  1
\A1;140
 73
     1
 44
1.0
1001
ACAD
1000
MTEXTBEGIN
1070
    73
1070
     1
1070
    44
1040
1.0
1070
    74
1070
     0
1000
MTEXTEND
  0
LINE
  5
5CD2
330
1A
100
AcDbEntity
  8
250
  6
Continuous
100
AcDbLine
 10
245.0
 20
-62.5
 30
0.0
 11
245.0
 21
-71.0
 31
0.0
  0
LINE
  5
5CD3
330
1A
100
AcDbEntity
  8
250
  6
Continuous
100
AcDbLine
 10
270.0
 20
-50.29999993000001
 30
0.0
 11
270.0
 21
-71.0
 31
0.0
  0
LINE
  5
5CD4
330
1A
100
AcDbEntity
  8
250
  6
Continuous
100
AcDbLine
 10
247.23
 20
-70.0
 30
0.0
 11
267.77
 21
-70.0
 31
0.0
  0
INSERT
  5
5CD5
330
1A
100
AcDbEntity
  8
250
  6
Continuous
100
AcDbBlockReference
  2
_OPEN
 10
245.0
 20
-70.0
 30
0.0
 41
2.229999999999999
 42
2.229999999999999
 43
2.229999999999999
 50
180.0
  0
INSERT
  5
5CD6
330
1A
100
AcDbEntity
  8
250
  6
Continuous
100
AcDbBlockReference
  2
_OPEN
 10
270.0
 20
-70.0
 30
0.0
 41
2.229999999999999
 42
2.229999999999999
 43
2.229999999999999
  0
MTEXT
  5
5CD7
330
1A
100
AcDbEntity
  8
250
  6
Continuous
100
AcDbMText
 10
257.5
 20
-67.59999999999999
 30
0.0
 40
2.799999999999998
 41
0.0
 71
     5
 72
     1
  1
\A1;□25
 73
     1
 44
1.0
1001
ACAD
1000
MTEXTBEGIN
1070
    73
1070
     1
1070
    44
1040
1.0
1070
    74
1070
     0
1000
MTEXTEND
  0
LINE
  5
5CD8
330
1A
100
AcDbEntity
  8
250
  6
Continuous
100
AcDbLine
 10
292.5000744763417
 20
-32.88032580738172
 30
0.0
 11
197.4999255236581
 21
32.88032580738163
 31
0.0
  0
INSERT
  5
5CD9
330
1A
100
AcDbEntity
  8
250
  6
Continuous
100
AcDbBlockReference
  2
_OPEN
 10
294.3336414847367
 20
-34.14955077787565
 30
0.0
 41
2.229999999999999
 42
2.229999999999999
 43
2.229999999999999
 50
325.3083864192128
  0
INSERT
  5
5CDA
330
1A
100
AcDbEntity
  8
250
  6
Continuous
100
AcDbBlockReference
  2
_OPEN
 10
195.666358515263
 20
34.14955077787555
 30
0.0
 41
2.229999999999999
 42
2.229999999999999
 43
2.229999999999999
 50
145.3083864192127
  0
MTEXT
  5
5CDB
102
{ACAD_XDICTIONARY
360
5D4B
102
}
330
1A
100
AcDbEntity
  8
250
  6
Continuous
100
AcDbMText
 10
230.7282788102352
 20
12.79801872445186
 30
0.0
 40
2.799999999999998
 41
0.0
 71
     5
 72
     1
  1
\A1;（{\H2.8;\U+2205}120）
 11
0.8222273580246744
 21
-0.5691591795936916
 31
0.0
 73
     1
 44
1.0
1001
ACAD
1000
MTEXTBEGIN
1070
    73
1070
     1
1070
    44
1040
1.0
1070
    74
1070
     0
1000
MTEXTEND
  0
LINE
  5
5D55
330
1A
100
AcDbEntity
  8
241
  6
Continuous
100
AcDbLine
 10
218.3366492737475
 20
35.69366349993273
 30
0.0
 11
282.7657397247096
 21
35.69366349993273
 31
0.0
  0
LINE
  5
5D56
330
1A
100
AcDbEntity
  8
241
  6
Continuous
100
AcDbLine
 10
213.0
 20
-15.00000000779727
 30
0.0
 11
302.0
 21
-15.00000000779727
 31
0.0
  0
VIEWPORT
  5
22
102
{ACAD_XDICTIONARY
360
5EB7
102
}
330
17
100
AcDbEntity
 67
     1
  8
0
100
AcDbViewport
 10
261.51769912
 20
148.5
 30
0.0
 40
523.03539823
 41
297.0
 68
     1
 69
     1
 12
261.51769912
 22
148.5
 13
0.0
 23
0.0
 14
1.0
 24
1.0
 15
10.0
 25
10.0
 16
0.0
 26
0.0
 36
1.0
 17
0.0
 27
0.0
 37
0.0
 42
50.0
 43
0.0
 44
0.0
 45
297.0
 50
0.0
 51
0.0
 72
   100
 90
    32800
  1

281
     0
 71
     1
 74
     0
110
0.0
120
0.0
130
0.0
111
1.0
121
0.0
131
0.0
112
0.0
122
1.0
132
0.0
 79
     0
146
0.0
  0
ENDSEC
  0
SECTION
  2
OBJECTS
  0
DICTIONARY
  5
C
330
0
100
AcDbDictionary
281
     1
  3
ACAD_CIP_PREVIOUS_PRODUCT_INFO
350
38D6
  3
ACAD_COLOR
350
38B7
  3
ACAD_DETAILVIEWSTYLE
350
38D0
  3
ACAD_GROUP
350
D
  3
ACAD_LAYOUT
350
565
  3
ACAD_MATERIAL
350
3885
  3
ACAD_MLEADERSTYLE
350
38CC
  3
ACAD_MLINESTYLE
350
E
  3
ACAD_PLOTSETTINGS
350
566
  3
ACAD_PLOTSTYLENAME
350
563
  3
ACAD_SCALELIST
350
38BA
  3
ACAD_SECTIONVIEWSTYLE
350
38CE
  3
ACAD_TABLESTYLE
350
38B8
  3
ACAD_VISUALSTYLE
350
389E
  3
ACDB_RECOMPOSE_DATA
350
5EB5
  3
AcDbVariableDictionary
350
5CEC
  3
DWGPROPS
350
5EB6
  3
GRADE_DWG
350
540
  0
DICTIONARY
  5
5097
330
2
100
AcDbDictionary
280
     1
281
     1
  3
ACAD_LAYERSTATES
360
5098
  0
DICTIONARY
  5
5CDC
330
F
100
AcDbDictionary
280
     1
281
     1
  3
ADSK_XREC_LAYER_RECONCILED
360
5CDD
  0
DICTIONARY
  5
5CDE
330
1AA
100
AcDbDictionary
280
     1
281
     1
  3
ADSK_XREC_LAYER_RECONCILED
360
5CDF
  0
DICTIONARY
  5
5CE0
330
1AB
100
AcDbDictionary
280
     1
281
     1
  3
ADSK_XREC_LAYER_RECONCILED
360
5CE1
  0
DICTIONARY
  5
5CE2
330
1AC
100
AcDbDictionary
280
     1
281
     1
  3
ADSK_XREC_LAYER_RECONCILED
360
5CE3
  0
DICTIONARY
  5
5CE4
330
1AD
100
AcDbDictionary
280
     1
281
     1
  3
ADSK_XREC_LAYER_RECONCILED
360
5CE5
  0
DICTIONARY
  5
5CE6
330
1AF
100
AcDbDictionary
280
     1
281
     1
  3
ADSK_XREC_LAYER_RECONCILED
360
5CE7
  0
DICTIONARY
  5
5CE8
330
21E
100
AcDbDictionary
280
     1
281
     1
  3
ADSK_XREC_LAYER_RECONCILED
360
5CE9
  0
DICTIONARY
  5
5092
330
5091
100
AcDbDictionary
280
     1
281
     1
  3
ADSK_XREC_LAYER_RECONCILED
360
5CEA
  0
DICTIONARY
  5
2C61
330
1A
100
AcDbDictionary
280
     1
281
     1
  3
ACAD_LAYOUTSELFREF
360
3877
  3
ACAD_SORTENTS
360
5CCB
  0
DICTIONARY
  5
2C5F
330
17
100
AcDbDictionary
280
     1
281
     1
  3
ACAD_LAYOUTSELFREF
360
3876
  0
DICTIONARY
  5
5D4B
330
5CDB
100
AcDbDictionary
280
     1
281
     1
  3
ACAD_MTEXT_RT
360
5F02
  0
DICTIONARY
  5
5EB7
330
22
100
AcDbDictionary
280
     1
281
     1
  3
ACAD_XREC_ROUNDTRIP
360
5EB8
  0
XRECORD
  5
38D6
102
{ACAD_REACTORS
330
C
102
}
330
C
100
AcDbXrecord
280
     1
300
ACD
300
2014
300
ACD_F_S
  0
DICTIONARY
  5
38B7
102
{ACAD_REACTORS
330
C
102
}
330
C
100
AcDbDictionary
281
     1
  0
DICTIONARY
  5
38D0
102
{ACAD_REACTORS
330
C
102
}
330
C
100
AcDbDictionary
281
     1
  3
Metric50
350
38D1
  0
DICTIONARY
  5
D
102
{ACAD_REACTORS
330
C
102
}
330
C
100
AcDbDictionary
281
     1
  0
DICTIONARY
  5
565
102
{ACAD_REACTORS
330
C
102
}
330
C
100
AcDbDictionary
281
     1
  3
Model
350
38D2
  3
レイアウト1
350
38D3
  0
DICTIONARY
  5
3885
102
{ACAD_REACTORS
330
C
102
}
330
C
100
AcDbDictionary
281
     1
  3
ByBlock
350
388E
  3
ByLayer
350
3886
  3
Global
350
3896
  0
DICTIONARY
  5
38CC
102
{ACAD_REACTORS
330
C
102
}
330
C
100
AcDbDictionary
281
     1
  3
Standard
350
38CD
  0
DICTIONARY
  5
E
102
{ACAD_REACTORS
330
C
102
}
330
C
100
AcDbDictionary
281
     1
  3
STANDARD
350
13
  0
DICTIONARY
  5
566
102
{ACAD_REACTORS
330
C
102
}
330
C
100
AcDbDictionary
281
     1
  3
A3_0_5倍_
350
758
  3
A3_1倍_
350
757
  3
A3_1倍__2000_
350
707
  3
A3_2倍_
350
759
  3
A4_0_5倍_
350
755
  3
A4_1倍_
350
754
  3
A4_1倍__2000_
350
708
  3
A4_2倍_
350
756
  0
ACDBDICTIONARYWDFLT
  5
563
102
{ACAD_REACTORS
330
C
102
}
330
C
100
AcDbDictionary
281
     1
  3
Normal
350
564
100
AcDbDictionaryWithDefault
340
564
  0
DICTIONARY
  5
38BA
102
{ACAD_REACTORS
330
C
102
}
330
C
100
AcDbDictionary
281
     1
  3
A0
350
38BB
  3
A1
350
38BC
  3
A2
350
38BD
  3
A3
350
38BE
  3
A4
350
38BF
  3
A5
350
38C0
  3
A6
350
38C1
  3
A7
350
38C2
  3
A8
350
38C3
  3
A9
350
38C4
  3
B0
350
38C5
  3
B1
350
38C6
  3
B2
350
38C7
  3
B3
350
38C8
  3
B4
350
38C9
  3
B5
350
38CA
  3
B6
350
38CB
  0
DICTIONARY
  5
38CE
102
{ACAD_REACTORS
330
C
102
}
330
C
100
AcDbDictionary
281
     1
  3
Metric50
350
38CF
  0
DICTIONARY
  5
38B8
102
{ACAD_REACTORS
330
C
102
}
330
C
100
AcDbDictionary
281
     1
  3
Standard
350
38B9
  0
DICTIONARY
  5
389E
102
{ACAD_REACTORS
330
C
102
}
330
C
100
AcDbDictionary
281
     1
  3
2dWireframe
350
38A4
  3
Basic
350
38A3
  3
Brighten
350
38AA
  3
ColorChange
350
38AE
  3
Conceptual
350
38A7
  3
Dim
350
38A9
  3
EdgeColorOff
350
38B6
  3
Facepattern
350
38AD
  3
Flat
350
389F
  3
FlatWithEdges
350
38A0
  3
Gouraud
350
38A1
  3
GouraudWithEdges
350
38A2
  3
Hidden
350
38A6
  3
JitterOff
350
38B4
  3
Linepattern
350
38AC
  3
OverhangOff
350
38B5
  3
Realistic
350
38A8
  3
Shaded
350
38B3
  3
Shaded with edges
350
38B2
  3
Shades of Gray
350
38AF
  3
Sketchy
350
38B0
  3
Thicken
350
38AB
  3
Wireframe
350
38A5
  3
X-Ray
350
38B1
  0
XRECORD
  5
5EB5
102
{ACAD_REACTORS
330
C
102
}
330
C
100
AcDbXrecord
280
     1
 90
        1
330
38B9
  0
DICTIONARY
  5
5CEC
102
{ACAD_REACTORS
330
C
102
}
330
C
100
AcDbDictionary
281
     1
  3
CANNOSCALE
350
5CF1
  3
CMLEADERSTYLE
350
5CEE
  3
CTABLESTYLE
350
5CED
  3
CVIEWDETAILSTYLE
350
5CEF
  3
CVIEWSECTIONSTYLE
350
5CF0
  3
DIMASSOC
350
5CF4
  3
INDEXCTL
350
5CF3
  3
SORTENTS
350
5CF2
  3
XCLIPFRAME
350
5E64
  0
XRECORD
  5
5EB6
102
{ACAD_REACTORS
330
C
102
}
330
C
100
AcDbXrecord
280
     1
  1
DWGPROPS COOKIE
  2

  3

  4

  6

  7

  8
AWTEC
  9

300
=
301
=
302
=
303
=
304
=
305
=
306
=
307
=
308
=
309
=
 40
0.0373668634259259
 41
2455107.560323345
 42
2457869.574891181
  1

 90
        0
  0
DICTIONARY
  5
540
102
{ACAD_REACTORS
330
C
102
}
330
C
100
AcDbDictionary
281
     1
  3
VERSION
350
560
  0
DICTIONARY
  5
5098
102
{ACAD_REACTORS
330
5097
102
}
330
5097
100
AcDbDictionary
281
     1
  0
XRECORD
  5
5CDD
102
{ACAD_REACTORS
330
5CDC
102
}
330
5CDC
100
AcDbXrecord
280
     1
290
     1
  0
XRECORD
  5
5CDF
102
{ACAD_REACTORS
330
5CDE
102
}
330
5CDE
100
AcDbXrecord
280
     1
290
     1
  0
XRECORD
  5
5CE1
102
{ACAD_REACTORS
330
5CE0
102
}
330
5CE0
100
AcDbXrecord
280
     1
290
     1
  0
XRECORD
  5
5CE3
102
{ACAD_REACTORS
330
5CE2
102
}
330
5CE2
100
AcDbXrecord
280
     1
290
     1
  0
XRECORD
  5
5CE5
102
{ACAD_REACTORS
330
5CE4
102
}
330
5CE4
100
AcDbXrecord
280
     1
290
     1
  0
XRECORD
  5
5CE7
102
{ACAD_REACTORS
330
5CE6
102
}
330
5CE6
100
AcDbXrecord
280
     1
290
     1
  0
XRECORD
  5
5CE9
102
{ACAD_REACTORS
330
5CE8
102
}
330
5CE8
100
AcDbXrecord
280
     1
290
     1
  0
XRECORD
  5
5CEA
102
{ACAD_REACTORS
330
5092
102
}
330
5092
100
AcDbXrecord
280
     1
290
     1
  0
XRECORD
  5
3877
102
{ACAD_REACTORS
330
2C61
102
}
330
2C61
100
AcDbXrecord
280
     1
340
1A
  0
SORTENTSTABLE
  5
5CCB
102
{ACAD_REACTORS
330
2C61
102
}
330
2C61
100
AcDbSortentsTable
330
1A
331
5C0E
  5
5C0E
331
5C0A
  5
5C0A
331
5C06
  5
5C06
331
5C02
  5
5C02
331
575E
  5
575E
331
5BFE
  5
5BFE
331
5CC5
  5
5CD6
331
5BFA
  5
5BFA
331
5BF6
  5
5BF6
331
5BF2
  5
5BF2
331
5C31
  5
5C31
331
5696
  5
5696
331
5692
  5
5692
331
568E
  5
568E
331
568A
  5
568A
331
5BEE
  5
5BEE
331
5C2D
  5
5C2D
331
5CD5
  5
5CD3
331
5C29
  5
5C29
331
5CD1
  5
5CC8
331
5C25
  5
5C25
331
5CCD
  5
5C81
331
5C21
  5
5C21
331
5CC9
  5
5CDA
331
5CD8
  5
5CCC
331
5686
  5
5686
331
5682
  5
5682
331
567E
  5
567E
331
567A
  5
567A
331
5C1D
  5
5C1D
331
5C19
  5
5C19
331
5C15
  5
5C15
331
5C11
  5
5C11
331
5676
  5
5676
331
5672
  5
5672
331
566E
  5
566E
331
566A
  5
566A
331
5C0D
  5
5C0D
331
5C09
  5
5C09
331
5C05
  5
5C05
331
5C01
  5
5C01
331
575D
  5
575D
331
5699
  5
5699
331
5BFD
  5
5BFD
331
5BF9
  5
5BF9
331
5BF5
  5
5BF5
331
5BF1
  5
5BF1
331
5C30
  5
5C30
331
5691
  5
5691
331
5925
  5
5925
331
568D
  5
568D
331
5689
  5
5689
331
5C2C
  5
5C2C
331
5C28
  5
5C28
331
5CD4
  5
5CD2
331
5CD0
  5
5CC7
331
5C24
  5
5C24
331
5CCC
  5
5C80
331
5C20
  5
5C20
331
5CC8
  5
5CD9
331
5CDB
  5
5CCF
331
5685
  5
5685
331
5681
  5
5681
331
567D
  5
567D
331
5679
  5
5679
331
5C1C
  5
5C1C
331
5C18
  5
5C18
331
5C14
  5
5C14
331
5C10
  5
5C10
331
5675
  5
5675
331
5671
  5
5671
331
566D
  5
566D
331
5669
  5
5669
331
5C0C
  5
5C0C
331
5C08
  5
5C08
331
5C04
  5
5C04
331
5C00
  5
5C00
331
20C3
  5
20C3
331
5CC7
  5
5CD8
331
5BFC
  5
5BFC
331
5BF8
  5
5BF8
331
5BF4
  5
5BF4
331
5690
  5
5690
331
5924
  5
5924
331
568C
  5
568C
331
5688
  5
5688
331
5C2F
  5
5C2F
331
5BEC
  5
5BEC
331
5CD7
  5
5CD5
331
5C2B
  5
5C2B
331
5C27
  5
5C27
331
5CD3
  5
5CD1
331
5CCF
  5
5CC6
331
5C23
  5
5C23
331
5CDA
  5
5CCE
331
5684
  5
5684
331
5680
  5
5680
331
567C
  5
567C
331
5678
  5
5678
331
5C1F
  5
5C1F
331
5C1B
  5
5C1B
331
5C17
  5
5C17
331
5C13
  5
5C13
331
5674
  5
5674
331
5670
  5
5670
331
57E1
  5
57E1
331
566C
  5
566C
331
5C0F
  5
5C0F
331
5C0B
  5
5C0B
331
5C07
  5
5C07
331
5C03
  5
5C03
331
59A9
  5
59A9
331
5BFF
  5
5BFF
331
5CC6
  5
5CD7
331
5BFB
  5
5BFB
331
5BF7
  5
5BF7
331
5BF3
  5
5BF3
331
6E6
  5
6E6
331
5C32
  5
5C32
331
5697
  5
5697
331
5693
  5
5693
331
568F
  5
568F
331
5923
  5
5923
331
568B
  5
568B
331
5BEF
  5
5BEF
331
5C2E
  5
5C2E
331
5CD6
  5
5CD4
331
5C2A
  5
5C2A
331
5C26
  5
5C26
331
5CD2
  5
5CD0
331
5CCE
  5
5CC5
331
5C22
  5
5C22
331
5CCA
  5
5CDB
331
5CD9
  5
5CCD
331
5687
  5
5687
331
5683
  5
5683
331
567F
  5
567F
331
567B
  5
567B
331
5C1E
  5
5C1E
331
5C1A
  5
5C1A
331
5C16
  5
5C16
331
5C12
  5
5C12
331
5677
  5
5677
331
5673
  5
5673
331
566F
  5
566F
331
566B
  5
566B
  0
XRECORD
  5
3876
102
{ACAD_REACTORS
330
2C5F
102
}
330
2C5F
100
AcDbXrecord
280
     1
340
17
  0
XRECORD
  5
5F02
102
{ACAD_REACTORS
330
5D4B
102
}
330
5D4B
100
AcDbXrecord
280
     1
 40
17849.0
  1
\A1;（{\H2.8;\U+2205}120）
  0
XRECORD
  5
5EB8
102
{ACAD_REACTORS
330
5EB7
102
}
330
5EB7
100
AcDbXrecord
280
     1
102
SHADEPLOT
 70
     0
  0
ACDBDETAILVIEWSTYLE
  5
38D1
102
{ACAD_XDICTIONARY
360
5EFC
102
}
102
{ACAD_REACTORS
330
38D0
102
}
330
38D0
100
AcDbModelDocViewStyle
 70
     0
  3
Metric50
290
     0
100
AcDbDetailViewStyle
 70
     0
 71
     0
 90
        3
 71
     1
340
10
 40
5.0
340
0
 40
5.0
300

 40
0.0
280
     1
 71
     2
340
16
 90
       25
 71
     3
340
10
 40
5.0
 90
        0
 40
15.0
 90
        1
300
%<\AcVar ViewDetailId>% (%<\AcVar ViewScale \f "%sn">%)
 71
     4
340
16
 90
       25
340
16
 90
       25
280
     0
  0
LAYOUT
  5
38D2
102
{ACAD_XDICTIONARY
360
5EFE
102
}
102
{ACAD_REACTORS
330
565
102
}
330
565
100
AcDbPlotSettings
  1

  2
Canon LBP5610
  4
A4
  6

 40
5.789083003997802
 41
5.7890625
 42
5.789077758789062
 43
5.789093017578125
 44
209.9733276367186
 45
296.9259948730469
 46
41.05170038787314
 47
0.0
 48
0.0
 49
0.0
140
0.0
141
0.0
142
1.0
143
1.436259434820082
 70
 11956
 72
     1
 73
     1
 74
     1
  7
big.ctb
 75
     0
147
0.696253041585949
148
102.8159533726236
149
71.01122961194642
100
AcDbLayout
  1
Model
 70
     1
 71
     0
 10
0.0
 20
0.0
 11
12.0
 21
9.0
 12
0.0
 22
0.0
 32
0.0
 14
0.0
 24
0.0
 34
0.0
 15
0.0
 25
0.0
 35
0.0
146
0.0
 13
0.0
 23
0.0
 33
0.0
 16
1.0
 26
0.0
 36
0.0
 17
0.0
 27
1.0
 37
0.0
 76
     0
330
1A
331
3854
1001
ACAD_PSEXT
1000
Canon LBP5610
1000
Canon LBP5610
1000
IP_192.168.120.151
1000

1070
     0
  0
LAYOUT
  5
38D3
102
{ACAD_XDICTIONARY
360
5F00
102
}
102
{ACAD_REACTORS
330
565
102
}
330
565
100
AcDbPlotSettings
  1

  2
CubePDF
  4

  6

 40
0.0
 41
0.0
 42
0.0
 43
0.0
 44
0.0
 45
0.0
 46
0.0
 47
0.0
 48
0.0
 49
0.0
140
0.0
141
0.0
142
1.0
143
1.0
 70
   688
 72
     0
 73
     0
 74
     5
  7
big.ctb
 75
    16
147
1.0
148
0.0
149
0.0
100
AcDbLayout
  1
レイアウト1
 70
     1
 71
     1
 10
0.0
 20
0.0
 11
420.0
 21
297.0
 12
0.0
 22
0.0
 32
0.0
 14
1.000000000000000E+20
 24
1.000000000000000E+20
 34
1.000000000000000E+20
 15
-1.000000000000000E+20
 25
-1.000000000000000E+20
 35
-1.000000000000000E+20
146
0.0
 13
0.0
 23
0.0
 33
0.0
 16
1.0
 26
0.0
 36
0.0
 17
0.0
 27
1.0
 37
0.0
 76
     0
330
17
331
22
  0
MATERIAL
  5
388E
102
{ACAD_XDICTIONARY
360
388F
102
}
102
{ACAD_REACTORS
330
3885
102
}
330
3885
100
AcDbMaterial
  1
ByBlock
 72
     0
 43
0.0208333333333333
 43
0.0
 43
0.0
 43
0.0
 43
0.0
 43
0.0208333333333333
 43
0.0
 43
0.0
 43
0.0
 43
0.0
 43
1.0
 43
0.0
 43
0.0
 43
0.0
 43
0.0
 43
1.0
 77
     0
 47
0.0208333333333333
 47
0.0
 47
0.0
 47
0.0
 47
0.0
 47
0.0208333333333333
 47
0.0
 47
0.0
 47
0.0
 47
0.0
 47
1.0
 47
0.0
 47
0.0
 47
0.0
 47
0.0
 47
1.0
171
     0
 49
0.0208333333333333
 49
0.0
 49
0.0
 49
0.0
 49
0.0
 49
0.0208333333333333
 49
0.0
 49
0.0
 49
0.0
 49
0.0
 49
1.0
 49
0.0
 49
0.0
 49
0.0
 49
0.0
 49
1.0
175
     0
142
0.0208333333333333
142
0.0
142
0.0
142
0.0
142
0.0
142
0.0208333333333333
142
0.0
142
0.0
142
0.0
142
0.0
142
1.0
142
0.0
142
0.0
142
0.0
142
0.0
142
1.0
179
     0
144
0.0208333333333333
144
0.0
144
0.0
144
0.0
144
0.0
144
0.0208333333333333
144
0.0
144
0.0
144
0.0
144
0.0
144
1.0
144
0.0
144
0.0
144
0.0
144
0.0
144
1.0
147
0.0208333333333333
147
0.0
147
0.0
147
0.0
147
0.0
147
0.0208333333333333
147
0.0
147
0.0
147
0.0
147
0.0
147
1.0
147
0.0
147
0.0
147
0.0
147
0.0
147
1.0
  0
MATERIAL
  5
3886
102
{ACAD_XDICTIONARY
360
3887
102
}
102
{ACAD_REACTORS
330
3885
102
}
330
3885
100
AcDbMaterial
  1
ByLayer
 72
     0
 43
0.0208333333333333
 43
0.0
 43
0.0
 43
0.0
 43
0.0
 43
0.0208333333333333
 43
0.0
 43
0.0
 43
0.0
 43
0.0
 43
1.0
 43
0.0
 43
0.0
 43
0.0
 43
0.0
 43
1.0
 77
     0
 47
0.0208333333333333
 47
0.0
 47
0.0
 47
0.0
 47
0.0
 47
0.0208333333333333
 47
0.0
 47
0.0
 47
0.0
 47
0.0
 47
1.0
 47
0.0
 47
0.0
 47
0.0
 47
0.0
 47
1.0
171
     0
 49
0.0208333333333333
 49
0.0
 49
0.0
 49
0.0
 49
0.0
 49
0.0208333333333333
 49
0.0
 49
0.0
 49
0.0
 49
0.0
 49
1.0
 49
0.0
 49
0.0
 49
0.0
 49
0.0
 49
1.0
175
     0
142
0.0208333333333333
142
0.0
142
0.0
142
0.0
142
0.0
142
0.0208333333333333
142
0.0
142
0.0
142
0.0
142
0.0
142
1.0
142
0.0
142
0.0
142
0.0
142
0.0
142
1.0
179
     0
144
0.0208333333333333
144
0.0
144
0.0
144
0.0
144
0.0
144
0.0208333333333333
144
0.0
144
0.0
144
0.0
144
0.0
144
1.0
144
0.0
144
0.0
144
0.0
144
0.0
144
1.0
147
0.0208333333333333
147
0.0
147
0.0
147
0.0
147
0.0
147
0.0208333333333333
147
0.0
147
0.0
147
0.0
147
0.0
147
1.0
147
0.0
147
0.0
147
0.0
147
0.0
147
1.0
  0
MATERIAL
  5
3896
102
{ACAD_XDICTIONARY
360
3897
102
}
102
{ACAD_REACTORS
330
3885
102
}
330
3885
100
AcDbMaterial
  1
Global
 72
     0
 43
0.0208333333333333
 43
0.0
 43
0.0
 43
0.0
 43
0.0
 43
0.0208333333333333
 43
0.0
 43
0.0
 43
0.0
 43
0.0
 43
1.0
 43
0.0
 43
0.0
 43
0.0
 43
0.0
 43
1.0
 77
     0
 47
0.0208333333333333
 47
0.0
 47
0.0
 47
0.0
 47
0.0
 47
0.0208333333333333
 47
0.0
 47
0.0
 47
0.0
 47
0.0
 47
1.0
 47
0.0
 47
0.0
 47
0.0
 47
0.0
 47
1.0
171
     0
 49
0.0208333333333333
 49
0.0
 49
0.0
 49
0.0
 49
0.0
 49
0.0208333333333333
 49
0.0
 49
0.0
 49
0.0
 49
0.0
 49
1.0
 49
0.0
 49
0.0
 49
0.0
 49
0.0
 49
1.0
175
     0
142
0.0208333333333333
142
0.0
142
0.0
142
0.0
142
0.0
142
0.0208333333333333
142
0.0
142
0.0
142
0.0
142
0.0
142
1.0
142
0.0
142
0.0
142
0.0
142
0.0
142
1.0
179
     0
144
0.0208333333333333
144
0.0
144
0.0
144
0.0
144
0.0
144
0.0208333333333333
144
0.0
144
0.0
144
0.0
144
0.0
144
1.0
144
0.0
144
0.0
144
0.0
144
0.0
144
1.0
147
0.0208333333333333
147
0.0
147
0.0
147
0.0
147
0.0
147
0.0208333333333333
147
0.0
147
0.0
147
0.0
147
0.0
147
1.0
147
0.0
147
0.0
147
0.0
147
0.0
147
1.0
  0
MLEADERSTYLE
  5
38CD
102
{ACAD_REACTORS
330
38CC
102
}
330
38CC
100
AcDbMLeaderStyle
170
     2
171
     1
172
     0
 90
        2
 40
0.0
 41
0.0
173
     1
 91
-1056964608
340
14
 92
       -2
290
     1
 42
2.0
291
     1
 43
0.36
  3
Standard
 44
4.0
300

342
10
174
     1
178
     6
175
     1
176
     0
 93
-1056964608
 45
4.0
292
     0
297
     0
 46
4.0
 94
-1056964608
 47
1.0
 49
1.0
140
1.0
293
     1
141
0.0
294
     1
177
     0
142
1.0
295
     0
296
     0
143
0.125
1001
ACAD_MLEADERVER
1070
     2
  0
MLINESTYLE
  5
13
102
{ACAD_REACTORS
330
E
102
}
330
E
100
AcDbMlineStyle
  2
STANDARD
 70
     0
  3

 62
     0
 51
90.0
 52
90.0
 71
     2
 49
0.5
 62
   256
  6
BYLAYER
 49
-0.5
 62
   256
  6
BYLAYER
  0
PLOTSETTINGS
  5
758
102
{ACAD_XDICTIONARY
360
5EC5
102
}
102
{ACAD_REACTORS
330
566
102
}
330
566
100
AcDbPlotSettings
  1
A3(0.5倍)
  2
\\AWTECPC05\HP DeskJet 1120C
  4
A3
  6

 40
5.958416459999997
 41
13.49375153
 42
6.043090819999997
 43
3.67242432
 44
296.92599487
 45
419.94665527
 46
89.96
 47
127.14
 48
0.0
 49
0.0
140
0.0
141
0.0
142
1.0
143
2.0
 70
  1716
 72
     1
 73
     1
 74
     2
  7
big.ctb
 75
    17
147
0.5
148
0.0
149
0.0
  0
PLOTSETTINGS
  5
757
102
{ACAD_XDICTIONARY
360
5EC3
102
}
102
{ACAD_REACTORS
330
566
102
}
330
566
100
AcDbPlotSettings
  1
A3(1倍)
  2
\\AWTECPC05\HP DeskJet 1120C
  4
A3
  6

 40
5.958416459999997
 41
13.49375153
 42
6.043090819999997
 43
3.67242432
 44
296.92599487
 45
419.94665527
 46
37.46
 47
52.89
 48
0.0
 49
0.0
140
0.0
141
0.0
142
1.0
143
1.0
 70
  1716
 72
     1
 73
     1
 74
     2
  7
big.ctb
 75
    16
147
1.0
148
0.0
149
0.0
  0
PLOTSETTINGS
  5
707
102
{ACAD_XDICTIONARY
360
5EB9
102
}
102
{ACAD_REACTORS
330
566
102
}
330
566
100
AcDbPlotSettings
  1
A3(1倍)(2000)
  2
SII LS-1300 (D-SCAN)
  4
User258
  6

 40
3.17499995
 41
3.17499995
 42
3.174987789999998
 43
3.174987789999998
 44
419.98898315
 45
296.98950195
 46
58.32
 47
40.32
 48
0.0
 49
0.0
140
0.0
141
0.0
142
1.0
143
1.0
 70
  1716
 72
     1
 73
     0
 74
     2
  7
big.ctb
 75
    16
147
1.0
148
0.0
149
0.0
  0
PLOTSETTINGS
  5
759
102
{ACAD_XDICTIONARY
360
5EC7
102
}
102
{ACAD_REACTORS
330
566
102
}
330
566
100
AcDbPlotSettings
  1
A3(2倍)
  2
\\AWTECPC05\HP DeskJet 1120C
  4
A3
  6

 40
5.958416459999997
 41
13.49375153
 42
6.043090819999997
 43
3.67242432
 44
296.92599487
 45
419.94665527
 46
-67.54000000000001
 47
-95.60999999999999
 48
0.0
 49
0.0
140
0.0
141
0.0
142
1.0
143
0.5
 70
  1716
 72
     1
 73
     1
 74
     2
  7
big.ctb
 75
    27
147
2.0
148
0.0
149
0.0
  0
PLOTSETTINGS
  5
755
102
{ACAD_XDICTIONARY
360
5EBF
102
}
102
{ACAD_REACTORS
330
566
102
}
330
566
100
AcDbPlotSettings
  1
A4(0.5倍)
  2
\\AWTECPC05\HP DeskJet 1120C
  4
A4
  6

 40
4.18041658
 41
13.49374962
 42
4.180404659999997
 43
3.926422119999998
 44
209.97332764
 45
296.92599487
 46
48.31
 47
65.5
 48
0.0
 49
0.0
140
0.0
141
0.0
142
1.0
143
2.0
 70
  1716
 72
     1
 73
     1
 74
     2
  7
big.ctb
 75
    17
147
0.5
148
0.0
149
0.0
  0
PLOTSETTINGS
  5
754
102
{ACAD_XDICTIONARY
360
5EBD
102
}
102
{ACAD_REACTORS
330
566
102
}
330
566
100
AcDbPlotSettings
  1
A4(1倍)
  2
\\AWTECPC05\HP DeskJet 1120C
  4
A4
  6

 40
4.18041658
 41
13.49374962
 42
4.180404659999997
 43
3.926422119999998
 44
209.97332764
 45
296.92599487
 46
-4.19
 47
-8.75
 48
0.0
 49
0.0
140
0.0
141
0.0
142
1.0
143
1.0
 70
  1716
 72
     1
 73
     1
 74
     2
  7
big.ctb
 75
    16
147
1.0
148
0.0
149
0.0
  0
PLOTSETTINGS
  5
708
102
{ACAD_XDICTIONARY
360
5EBB
102
}
102
{ACAD_REACTORS
330
566
102
}
330
566
100
AcDbPlotSettings
  1
A4(1倍)(2000)
  2
SII LS-1300 (D-SCAN)
  4
User259
  6

 40
3.17499995
 41
3.17499995
 42
3.174987789999998
 43
3.175003049999998
 44
296.98950195
 45
209.99449158
 46
-3.18
 47
-3.18
 48
0.0
 49
0.0
140
0.0
141
0.0
142
1.0
143
1.0
 70
  1716
 72
     1
 73
     0
 74
     2
  7
big.ctb
 75
    16
147
1.0
148
0.0
149
0.0
  0
PLOTSETTINGS
  5
756
102
{ACAD_XDICTIONARY
360
5EC1
102
}
102
{ACAD_REACTORS
330
566
102
}
330
566
100
AcDbPlotSettings
  1
A4(2倍)
  2
\\AWTECPC05\HP DeskJet 1120C
  4
A4
  6

 40
4.18041658
 41
13.49374962
 42
4.180404659999997
 43
3.926422119999998
 44
209.97332764
 45
296.92599487
 46
-109.19
 47
-157.25
 48
0.0
 49
0.0
140
0.0
141
0.0
142
1.0
143
0.5
 70
  1716
 72
     1
 73
     1
 74
     2
  7
big.ctb
 75
    27
147
2.0
148
0.0
149
0.0
  0
ACDBPLACEHOLDER
  5
564
102
{ACAD_REACTORS
330
563
102
}
330
563
  0
SCALE
  5
38BB
102
{ACAD_REACTORS
330
38BA
102
}
330
38BA
100
AcDbScale
 70
     0
300
1:1
140
1.0
141
1.0
290
     1
  0
SCALE
  5
38BC
102
{ACAD_REACTORS
330
38BA
102
}
330
38BA
100
AcDbScale
 70
     0
300
1:2
140
1.0
141
2.0
290
     0
  0
SCALE
  5
38BD
102
{ACAD_REACTORS
330
38BA
102
}
330
38BA
100
AcDbScale
 70
     0
300
1:4
140
1.0
141
4.0
290
     0
  0
SCALE
  5
38BE
102
{ACAD_REACTORS
330
38BA
102
}
330
38BA
100
AcDbScale
 70
     0
300
1:5
140
1.0
141
5.0
290
     0
  0
SCALE
  5
38BF
102
{ACAD_REACTORS
330
38BA
102
}
330
38BA
100
AcDbScale
 70
     0
300
1:8
140
1.0
141
8.0
290
     0
  0
SCALE
  5
38C0
102
{ACAD_REACTORS
330
38BA
102
}
330
38BA
100
AcDbScale
 70
     0
300
1:10
140
1.0
141
10.0
290
     0
  0
SCALE
  5
38C1
102
{ACAD_REACTORS
330
38BA
102
}
330
38BA
100
AcDbScale
 70
     0
300
1:16
140
1.0
141
16.0
290
     0
  0
SCALE
  5
38C2
102
{ACAD_REACTORS
330
38BA
102
}
330
38BA
100
AcDbScale
 70
     0
300
1:20
140
1.0
141
20.0
290
     0
  0
SCALE
  5
38C3
102
{ACAD_REACTORS
330
38BA
102
}
330
38BA
100
AcDbScale
 70
     0
300
1:30
140
1.0
141
30.0
290
     0
  0
SCALE
  5
38C4
102
{ACAD_REACTORS
330
38BA
102
}
330
38BA
100
AcDbScale
 70
     0
300
1:40
140
1.0
141
40.0
290
     0
  0
SCALE
  5
38C5
102
{ACAD_REACTORS
330
38BA
102
}
330
38BA
100
AcDbScale
 70
     0
300
1:50
140
1.0
141
50.0
290
     0
  0
SCALE
  5
38C6
102
{ACAD_REACTORS
330
38BA
102
}
330
38BA
100
AcDbScale
 70
     0
300
1:100
140
1.0
141
100.0
290
     0
  0
SCALE
  5
38C7
102
{ACAD_REACTORS
330
38BA
102
}
330
38BA
100
AcDbScale
 70
     0
300
2:1
140
2.0
141
1.0
290
     0
  0
SCALE
  5
38C8
102
{ACAD_REACTORS
330
38BA
102
}
330
38BA
100
AcDbScale
 70
     0
300
4:1
140
4.0
141
1.0
290
     0
  0
SCALE
  5
38C9
102
{ACAD_REACTORS
330
38BA
102
}
330
38BA
100
AcDbScale
 70
     0
300
8:1
140
8.0
141
1.0
290
     0
  0
SCALE
  5
38CA
102
{ACAD_REACTORS
330
38BA
102
}
330
38BA
100
AcDbScale
 70
     0
300
10:1
140
10.0
141
1.0
290
     0
  0
SCALE
  5
38CB
102
{ACAD_REACTORS
330
38BA
102
}
330
38BA
100
AcDbScale
 70
     0
300
100:1
140
100.0
141
1.0
290
     0
  0
ACDBSECTIONVIEWSTYLE
  5
38CF
102
{ACAD_XDICTIONARY
360
5EFA
102
}
102
{ACAD_REACTORS
330
38CE
102
}
330
38CE
100
AcDbModelDocViewStyle
 70
     0
  3
Metric50
290
     0
100
AcDbSectionViewStyle
 70
     0
 71
     0
 90
      102
 71
     1
340
10
 40
5.0
340
0
340
0
 40
5.0
300
I, O, Q, S, X, Z
 40
10.0
 90
        0
 40
2.5
 90
        0
 71
     2
340
16
 90
       25
340
16
 90
       50
 40
5.0
 40
2.5
 40
5.0
 71
     3
340
10
 40
5.0
 90
        0
 40
15.0
 90
        1
300
%<\AcVar ViewSectionStartId>%-%<\AcVar ViewSectionEndId>% (%<\AcVar ViewScale \f "%sn">%)
 71
     4
300
ANSI31
 40
1.0
 90
        0
290
     0
290
     0
 90
        6
 40
0.0
 40
1.570796326794896
 40
0.2617993877991494
 40
1.308996938995747
 40
-0.2617993877991494
 40
1.832595714594044
  0
TABLESTYLE
  5
38B9
102
{ACAD_XDICTIONARY
360
5CF6
102
}
102
{ACAD_REACTORS
330
38B8
102
}
330
38B8
100
AcDbTableStyle
  3
Standard
 70
     0
 71
     0
 40
1.5
 41
1.5
280
     0
281
     0
  7
STANDARD
140
4.5
170
     2
 62
     0
 63
     7
283
     0
274
    -2
284
     1
 64
     0
275
    -2
285
     1
 65
     0
276
    -2
286
     1
 66
     0
277
    -2
287
     1
 67
     0
278
    -2
288
     1
 68
     0
279
    -2
289
     1
 69
     0
  7
STANDARD
140
6.0
170
     5
 62
     0
 63
     7
283
     0
274
    -2
284
     1
 64
     0
275
    -2
285
     1
 65
     0
276
    -2
286
     1
 66
     0
277
    -2
287
     1
 67
     0
278
    -2
288
     1
 68
     0
279
    -2
289
     1
 69
     0
  7
STANDARD
140
4.5
170
     5
 62
     0
 63
     7
283
     0
274
    -2
284
     1
 64
     0
275
    -2
285
     1
 65
     0
276
    -2
286
     1
 66
     0
277
    -2
287
     1
 67
     0
278
    -2
288
     1
 68
     0
279
    -2
289
     1
 69
     0
  0
VISUALSTYLE
  5
38A4
102
{ACAD_XDICTIONARY
360
5ED3
102
}
102
{ACAD_REACTORS
330
389E
102
}
330
389E
100
AcDbVisualStyle
  2

 70
     4
 71
     0
 72
     2
 73
     0
 90
        0
 40
-0.6
 41
-30.0
 62
     5
 63
     7
 74
     1
 91
        4
 64
     7
 65
   257
 75
     1
175
     1
 42
1.0
 92
        0
 66
   257
 43
1.0
 76
     1
 77
     6
 78
     2
 67
     7
 79
     5
170
     0
171
     0
290
     0
174
     0
 93
        1
 44
0.0
173
     0
291
     0
 45
0.0
1001
ACAD
1000
AcDbSavedByObjectVersion
1070
     0
  0
VISUALSTYLE
  5
38A3
102
{ACAD_XDICTIONARY
360
5ED1
102
}
102
{ACAD_REACTORS
330
389E
102
}
330
389E
100
AcDbVisualStyle
  2

 70
     7
 71
     1
 72
     0
 73
     1
 90
        0
 40
-0.6
 41
-30.0
 62
     5
 63
     7
 74
     0
 91
        4
 64
     7
 65
   257
 75
     1
175
     1
 42
1.0
 92
        8
 66
     7
 43
1.0
 76
     1
 77
     6
 78
     2
 67
     7
 79
     5
170
     0
171
     0
290
     0
174
     0
 93
        1
 44
0.0
173
     0
291
     1
 45
0.0
1001
ACAD
1000
AcDbSavedByObjectVersion
1070
     0
  0
VISUALSTYLE
  5
38AA
102
{ACAD_XDICTIONARY
360
5EDF
102
}
102
{ACAD_REACTORS
330
389E
102
}
330
389E
100
AcDbVisualStyle
  2

 70
    12
 71
     2
 72
     2
 73
     0
 90
        0
 40
-0.6
 41
-30.0
 62
     5
 63
     7
 74
     1
 91
        4
 64
     7
 65
   257
 75
     1
175
     1
 42
1.0
 92
        8
 66
     7
 43
1.0
 76
     1
 77
     6
 78
     2
 67
     7
 79
     5
170
     0
171
     0
290
     0
174
     0
 93
        1
 44
50.0
173
     0
291
     1
 45
0.0
1001
ACAD
1000
AcDbSavedByObjectVersion
1070
     0
  0
VISUALSTYLE
  5
38AE
102
{ACAD_XDICTIONARY
360
5EE7
102
}
102
{ACAD_REACTORS
330
389E
102
}
330
389E
100
AcDbVisualStyle
  2

 70
    16
 71
     2
 72
     2
 73
     3
 90
        0
 40
-0.6
 41
-30.0
 62
     5
 63
     8
 74
     1
 91
        4
 64
     7
 65
   257
 75
     1
175
     1
 42
1.0
 92
        8
 66
     8
 43
1.0
 76
     1
 77
     6
 78
     2
 67
     7
 79
     5
170
     0
171
     0
290
     0
174
     0
 93
        1
 44
0.0
173
     0
291
     1
 45
0.0
1001
ACAD
1000
AcDbSavedByObjectVersion
1070
     0
  0
VISUALSTYLE
  5
38A7
102
{ACAD_XDICTIONARY
360
5ED9
102
}
102
{ACAD_REACTORS
330
389E
102
}
330
389E
100
AcDbVisualStyle
  2

 70
     9
 71
     3
 72
     2
 73
     0
 90
        0
 40
-0.6
 41
-30.0
 62
     5
 63
     7
 74
     2
 91
        2
 64
     7
 65
   257
 75
     1
175
     1
 42
179.0
 92
        8
 66
     7
 43
1.0
 76
     1
 77
     6
 78
     2
 67
     7
 79
     3
170
     0
171
     0
290
     0
174
     0
 93
        1
 44
0.0
173
     0
291
     0
 45
0.0
1001
ACAD
1000
AcDbSavedByObjectVersion
1070
     0
  0
VISUALSTYLE
  5
38A9
102
{ACAD_XDICTIONARY
360
5EDD
102
}
102
{ACAD_REACTORS
330
389E
102
}
330
389E
100
AcDbVisualStyle
  2

 70
    11
 71
     2
 72
     2
 73
     0
 90
        0
 40
-0.6
 41
-30.0
 62
     5
 63
     7
 74
     1
 91
        4
 64
     7
 65
   257
 75
     1
175
     1
 42
1.0
 92
        8
 66
     7
 43
1.0
 76
     1
 77
     6
 78
     2
 67
     7
 79
     5
170
     0
171
     0
290
     0
174
     0
 93
        1
 44
-50.0
173
     0
291
     1
 45
0.0
1001
ACAD
1000
AcDbSavedByObjectVersion
1070
     0
  0
VISUALSTYLE
  5
38B6
102
{ACAD_XDICTIONARY
360
5EF7
102
}
102
{ACAD_REACTORS
330
389E
102
}
330
389E
100
AcDbVisualStyle
  2

 70
    22
 71
     2
 72
     2
 73
     0
 90
        0
 40
-0.6
 41
-30.0
 62
     5
 63
     7
 74
     1
 91
        4
 64
     7
 65
   257
 75
     1
175
     1
 42
1.0
 92
        8
 66
     7
 43
1.0
 76
     1
 77
     6
 78
     2
 67
     7
 79
     5
170
     0
171
     0
290
     0
174
     0
 93
        1
 44
0.0
173
     0
291
     1
 45
0.0
1001
ACAD
1000
AcDbSavedByObjectVersion
1070
     0
  0
VISUALSTYLE
  5
38AD
102
{ACAD_XDICTIONARY
360
5EE5
102
}
102
{ACAD_REACTORS
330
389E
102
}
330
389E
100
AcDbVisualStyle
  2

 70
    15
 71
     2
 72
     2
 73
     0
 90
        0
 40
-0.6
 41
-30.0
 62
     5
 63
     7
 74
     1
 91
        4
 64
     7
 65
   257
 75
     1
175
     1
 42
1.0
 92
        8
 66
     7
 43
1.0
 76
     1
 77
     6
 78
     2
 67
     7
 79
     5
170
     0
171
     0
290
     0
174
     0
 93
        1
 44
0.0
173
     0
291
     1
 45
0.0
1001
ACAD
1000
AcDbSavedByObjectVersion
1070
     0
  0
VISUALSTYLE
  5
389F
102
{ACAD_XDICTIONARY
360
5EC9
102
}
102
{ACAD_REACTORS
330
389E
102
}
330
389E
100
AcDbVisualStyle
  2

 70
     0
 71
     2
 72
     1
 73
     1
 90
        2
 40
-0.6
 41
30.0
 62
     5
 63
     7
 74
     0
 91
        0
 64
     7
 65
   257
 75
     1
175
     1
 42
1.0
 92
        8
 66
     7
 43
1.0
 76
     1
 77
     6
 78
     2
 67
     7
 79
     5
170
     0
171
     0
290
     0
174
     0
 93
       13
 44
0.0
173
     0
291
     1
 45
0.0
1001
ACAD
1000
AcDbSavedByObjectVersion
1070
     0
  0
VISUALSTYLE
  5
38A0
102
{ACAD_XDICTIONARY
360
5ECB
102
}
102
{ACAD_REACTORS
330
389E
102
}
330
389E
100
AcDbVisualStyle
  2

 70
     1
 71
     2
 72
     1
 73
     1
 90
        2
 40
-0.6
 41
30.0
 62
     5
 63
     7
 74
     1
 91
        0
 64
     7
 65
   257
 75
     1
175
     1
 42
1.0
 92
        0
 66
   257
 43
1.0
 76
     1
 77
     6
 78
     2
 67
     7
 79
     5
170
     0
171
     0
290
     0
174
     0
 93
       13
 44
0.0
173
     0
291
     1
 45
0.0
1001
ACAD
1000
AcDbSavedByObjectVersion
1070
     0
  0
VISUALSTYLE
  5
38A1
102
{ACAD_XDICTIONARY
360
5ECD
102
}
102
{ACAD_REACTORS
330
389E
102
}
330
389E
100
AcDbVisualStyle
  2

 70
     2
 71
     2
 72
     2
 73
     1
 90
        2
 40
-0.6
 41
30.0
 62
     5
 63
     7
 74
     0
 91
        0
 64
     7
 65
   257
 75
     1
175
     1
 42
1.0
 92
        0
 66
     7
 43
1.0
 76
     1
 77
     6
 78
     2
 67
     7
 79
     5
170
     0
171
     0
290
     0
174
     0
 93
       13
 44
0.0
173
     0
291
     1
 45
0.0
1001
ACAD
1000
AcDbSavedByObjectVersion
1070
     0
  0
VISUALSTYLE
  5
38A2
102
{ACAD_XDICTIONARY
360
5ECF
102
}
102
{ACAD_REACTORS
330
389E
102
}
330
389E
100
AcDbVisualStyle
  2

 70
     3
 71
     2
 72
     2
 73
     1
 90
        2
 40
-0.6
 41
30.0
 62
     5
 63
     7
 74
     1
 91
        0
 64
     7
 65
   257
 75
     1
175
     1
 42
1.0
 92
        0
 66
   257
 43
1.0
 76
     1
 77
     6
 78
     2
 67
     7
 79
     5
170
     0
171
     0
290
     0
174
     0
 93
       13
 44
0.0
173
     0
291
     1
 45
0.0
1001
ACAD
1000
AcDbSavedByObjectVersion
1070
     0
  0
VISUALSTYLE
  5
38A6
102
{ACAD_XDICTIONARY
360
5ED7
102
}
102
{ACAD_REACTORS
330
389E
102
}
330
389E
100
AcDbVisualStyle
  2

 70
     6
 71
     1
 72
     2
 73
     2
 90
        0
 40
-0.6
 41
-30.0
 62
     5
 63
     7
 74
     2
 91
        2
 64
     7
 65
   257
 75
     2
175
     1
 42
40.0
 92
        0
 66
   257
 43
1.0
 76
     1
 77
     6
 78
     2
 67
     7
 79
     3
170
     0
171
     0
290
     0
174
     0
 93
        1
 44
0.0
173
     0
291
     0
 45
0.0
1001
ACAD
1000
AcDbSavedByObjectVersion
1070
     0
  0
VISUALSTYLE
  5
38B4
102
{ACAD_XDICTIONARY
360
5EF3
102
}
102
{ACAD_REACTORS
330
389E
102
}
330
389E
100
AcDbVisualStyle
  2

 70
    20
 71
     2
 72
     2
 73
     0
 90
        0
 40
-0.6
 41
-30.0
 62
     5
 63
     7
 74
     1
 91
        4
 64
     7
 65
   257
 75
     1
175
     1
 42
1.0
 92
       10
 66
     7
 43
1.0
 76
     1
 77
     6
 78
     2
 67
     7
 79
     5
170
     0
171
     0
290
     0
174
     0
 93
        1
 44
0.0
173
     0
291
     1
 45
0.0
1001
ACAD
1000
AcDbSavedByObjectVersion
1070
     0
  0
VISUALSTYLE
  5
38AC
102
{ACAD_XDICTIONARY
360
5EE3
102
}
102
{ACAD_REACTORS
330
389E
102
}
330
389E
100
AcDbVisualStyle
  2

 70
    14
 71
     2
 72
     2
 73
     0
 90
        0
 40
-0.6
 41
-30.0
 62
     5
 63
     7
 74
     1
 91
        4
 64
     7
 65
   257
 75
     7
175
     7
 42
1.0
 92
        8
 66
     7
 43
1.0
 76
     1
 77
     6
 78
     2
 67
     7
 79
     5
170
     0
171
     0
290
     0
174
     0
 93
        1
 44
0.0
173
     0
291
     1
 45
0.0
1001
ACAD
1000
AcDbSavedByObjectVersion
1070
     0
  0
VISUALSTYLE
  5
38B5
102
{ACAD_XDICTIONARY
360
5EF5
102
}
102
{ACAD_REACTORS
330
389E
102
}
330
389E
100
AcDbVisualStyle
  2

 70
    21
 71
     2
 72
     2
 73
     0
 90
        0
 40
-0.6
 41
-30.0
 62
     5
 63
     7
 74
     1
 91
        4
 64
     7
 65
   257
 75
     1
175
     1
 42
1.0
 92
        9
 66
     7
 43
1.0
 76
     1
 77
     6
 78
     2
 67
     7
 79
     5
170
     0
171
     0
290
     0
174
     0
 93
        1
 44
0.0
173
     0
291
     1
 45
0.0
1001
ACAD
1000
AcDbSavedByObjectVersion
1070
     0
  0
VISUALSTYLE
  5
38A8
102
{ACAD_XDICTIONARY
360
5EDB
102
}
102
{ACAD_REACTORS
330
389E
102
}
330
389E
100
AcDbVisualStyle
  2

 70
     8
 71
     2
 72
     3
 73
     0
 90
        2
 40
-0.6
 41
30.0
 62
     5
 63
     7
 74
     0
 91
        0
 64
     7
 65
   257
 75
     1
175
     1
 42
1.0
 92
        8
 66
   257
 43
1.0
 76
     1
 77
     6
 78
     2
 67
     7
 79
     3
170
     0
171
     0
290
     0
174
     0
 93
       13
 44
0.0
173
     0
291
     0
 45
0.0
1001
ACAD
1000
AcDbSavedByObjectVersion
1070
     0
  0
VISUALSTYLE
  5
38B3
102
{ACAD_XDICTIONARY
360
5EF1
102
}
102
{ACAD_REACTORS
330
389E
102
}
330
389E
100
AcDbVisualStyle
  2

 70
    27
 71
     2
 72
     2
 73
     1
 90
        2
 40
-0.6
 41
30.0
 62
     5
 63
     7
 74
     0
 91
        4
 64
     7
 65
   257
 75
     1
175
     1
 42
1.0
 92
        8
 66
   257
 43
1.0
 76
     1
 77
     6
 78
     2
 67
     8
 79
     3
170
     0
171
     0
290
     0
174
     0
 93
        5
 44
0.0
173
     0
291
     0
 45
0.0
1001
ACAD
1000
AcDbSavedByObjectVersion
1070
     0
  0
VISUALSTYLE
  5
38B2
102
{ACAD_XDICTIONARY
360
5EEF
102
}
102
{ACAD_REACTORS
330
389E
102
}
330
389E
100
AcDbVisualStyle
  2

 70
    26
 71
     2
 72
     2
 73
     1
 90
        2
 40
-0.6
 41
30.0
 62
     5
 63
     7
 74
     1
 91
       10
 64
     7
 65
   257
 75
     2
175
     1
 42
1.0
 92
        8
 66
   257
 43
1.0
 76
     1
 77
     6
 78
     2
 67
     7
 79
     3
170
     0
171
     0
290
     0
174
     0
 93
        5
 44
0.0
173
     0
291
     0
 45
0.0
1001
ACAD
1000
AcDbSavedByObjectVersion
1070
     0
  0
VISUALSTYLE
  5
38AF
102
{ACAD_XDICTIONARY
360
5EE9
102
}
102
{ACAD_REACTORS
330
389E
102
}
330
389E
100
AcDbVisualStyle
  2

 70
    23
 71
     2
 72
     2
 73
     3
 90
        0
 40
-0.6
 41
-30.0
 62
     5
 63
     7
 74
     2
 91
        2
 64
     7
 65
     7
 75
     1
175
     1
 42
40.0
 92
        8
 66
     7
 43
1.0
 76
     1
 77
     6
 78
     2
 67
     7
 79
     3
170
     0
171
     0
290
     0
174
     0
 93
        1
 44
0.0
173
     0
291
     0
 45
0.0
1001
ACAD
1000
AcDbSavedByObjectVersion
1070
     0
  0
VISUALSTYLE
  5
38B0
102
{ACAD_XDICTIONARY
360
5EEB
102
}
102
{ACAD_REACTORS
330
389E
102
}
330
389E
100
AcDbVisualStyle
  2

 70
    24
 71
     1
 72
     2
 73
     2
 90
        0
 40
-0.6
 41
-30.0
 62
     5
 63
     7
 74
     2
 91
        2
 64
     7
 65
     7
 75
     1
175
     1
 42
40.0
 92
       11
 66
     7
 43
1.0
 76
     1
 77
     6
 78
     2
 67
     7
 79
     6
170
     0
171
     0
290
     0
174
     0
 93
        1
 44
0.0
173
     0
291
     0
 45
0.0
1001
ACAD
1000
AcDbSavedByObjectVersion
1070
     0
  0
VISUALSTYLE
  5
38AB
102
{ACAD_XDICTIONARY
360
5EE1
102
}
102
{ACAD_REACTORS
330
389E
102
}
330
389E
100
AcDbVisualStyle
  2

 70
    13
 71
     2
 72
     2
 73
     0
 90
        0
 40
-0.6
 41
-30.0
 62
     5
 63
     7
 74
     1
 91
        4
 64
     7
 65
   257
 75
     1
175
     1
 42
1.0
 92
       12
 66
     7
 43
1.0
 76
     1
 77
     6
 78
     2
 67
     7
 79
     5
170
     0
171
     0
290
     0
174
     0
 93
        1
 44
0.0
173
     0
291
     1
 45
0.0
1001
ACAD
1000
AcDbSavedByObjectVersion
1070
     0
  0
VISUALSTYLE
  5
38A5
102
{ACAD_XDICTIONARY
360
5ED5
102
}
102
{ACAD_REACTORS
330
389E
102
}
330
389E
100
AcDbVisualStyle
  2

 70
     5
 71
     0
 72
     2
 73
     0
 90
        0
 40
-0.6
 41
-30.0
 62
     5
 63
     7
 74
     1
 91
        4
 64
     7
 65
   257
 75
     1
175
     1
 42
1.0
 92
        0
 66
   257
 43
1.0
 76
     1
 77
     6
 78
     2
 67
     7
 79
     3
170
     0
171
     0
290
     0
174
     0
 93
        1
 44
0.0
173
     0
291
     0
 45
0.0
1001
ACAD
1000
AcDbSavedByObjectVersion
1070
     0
  0
VISUALSTYLE
  5
38B1
102
{ACAD_XDICTIONARY
360
5EED
102
}
102
{ACAD_REACTORS
330
389E
102
}
330
389E
100
AcDbVisualStyle
  2

 70
    25
 71
     2
 72
     2
 73
     1
 90
        1
 40
0.5
 41
-30.0
 62
     5
 63
     7
 74
     1
 91
        0
 64
     7
 65
   257
 75
     1
175
     1
 42
1.0
 92
        8
 66
     7
 43
1.0
 76
     1
 77
     6
 78
     2
 67
     7
 79
     3
170
     0
171
     0
290
     0
174
     0
 93
       13
 44
0.0
173
     0
291
     0
 45
0.0
1001
ACAD
1000
AcDbSavedByObjectVersion
1070
     0
  0
DICTIONARYVAR
  5
5CF1
102
{ACAD_REACTORS
330
5CEC
102
}
330
5CEC
100
DictionaryVariables
280
     0
  1
1:1
  0
DICTIONARYVAR
  5
5CEE
102
{ACAD_REACTORS
330
5CEC
102
}
330
5CEC
100
DictionaryVariables
280
     0
  1
STANDARD
  0
DICTIONARYVAR
  5
5CED
102
{ACAD_REACTORS
330
5CEC
102
}
330
5CEC
100
DictionaryVariables
280
     0
  1
STANDARD
  0
DICTIONARYVAR
  5
5CEF
102
{ACAD_REACTORS
330
5CEC
102
}
330
5CEC
100
DictionaryVariables
280
     0
  1
Metric50
  0
DICTIONARYVAR
  5
5CF0
102
{ACAD_REACTORS
330
5CEC
102
}
330
5CEC
100
DictionaryVariables
280
     0
  1
Metric50
  0
DICTIONARYVAR
  5
5CF4
102
{ACAD_REACTORS
330
5CEC
102
}
330
5CEC
100
DictionaryVariables
280
     0
  1
1
  0
DICTIONARYVAR
  5
5CF3
102
{ACAD_REACTORS
330
5CEC
102
}
330
5CEC
100
DictionaryVariables
280
     0
  1
0
  0
DICTIONARYVAR
  5
5CF2
102
{ACAD_REACTORS
330
5CEC
102
}
330
5CEC
100
DictionaryVariables
280
     0
  1
127
  0
DICTIONARYVAR
  5
5E64
102
{ACAD_REACTORS
330
5CEC
102
}
330
5CEC
100
DictionaryVariables
280
     0
  1
2
  0
XRECORD
  5
560
102
{ACAD_REACTORS
330
540
102
}
330
540
100
AcDbXrecord
280
     1
  1
2.0.0
  0
DICTIONARY
  5
5EFC
330
38D1
100
AcDbDictionary
280
     1
281
     1
  3
ACAD_XREC_ROUNDTRIP
360
5EFD
  0
DICTIONARY
  5
5EFE
330
38D2
100
AcDbDictionary
280
     1
281
     1
  3
ACAD_XREC_ROUNDTRIP
360
5EFF
  0
DICTIONARY
  5
5F00
330
38D3
100
AcDbDictionary
280
     1
281
     1
  3
ACAD_XREC_ROUNDTRIP
360
5F01
  0
DICTIONARY
  5
388F
330
388E
100
AcDbDictionary
280
     1
281
     1
  3
ACAD_XREC_ROUNDTRIP
360
5D0D
  3
BUMPTILE
360
3891
  3
DIFFUSETILE
360
3890
  3
OPACITYTILE
360
3894
  3
REFLECTIONTILE
360
3893
  3
REFRACTIONTILE
360
3895
  3
SPECULARTILE
360
3892
  0
DICTIONARY
  5
3887
330
3886
100
AcDbDictionary
280
     1
281
     1
  3
ACAD_XREC_ROUNDTRIP
360
5D0C
  3
BUMPTILE
360
3889
  3
DIFFUSETILE
360
3888
  3
OPACITYTILE
360
388C
  3
REFLECTIONTILE
360
388B
  3
REFRACTIONTILE
360
388D
  3
SPECULARTILE
360
388A
  0
DICTIONARY
  5
3897
330
3896
100
AcDbDictionary
280
     1
281
     1
  3
ACAD_XREC_ROUNDTRIP
360
5D0E
  3
BUMPTILE
360
3899
  3
DIFFUSETILE
360
3898
  3
OPACITYTILE
360
389C
  3
REFLECTIONTILE
360
389B
  3
REFRACTIONTILE
360
389D
  3
SPECULARTILE
360
389A
  0
DICTIONARY
  5
5EC5
330
758
100
AcDbDictionary
280
     1
281
     1
  3
ACAD_XREC_ROUNDTRIP
360
5EC6
  0
DICTIONARY
  5
5EC3
330
757
100
AcDbDictionary
280
     1
281
     1
  3
ACAD_XREC_ROUNDTRIP
360
5EC4
  0
DICTIONARY
  5
5EB9
330
707
100
AcDbDictionary
280
     1
281
     1
  3
ACAD_XREC_ROUNDTRIP
360
5EBA
  0
DICTIONARY
  5
5EC7
330
759
100
AcDbDictionary
280
     1
281
     1
  3
ACAD_XREC_ROUNDTRIP
360
5EC8
  0
DICTIONARY
  5
5EBF
330
755
100
AcDbDictionary
280
     1
281
     1
  3
ACAD_XREC_ROUNDTRIP
360
5EC0
  0
DICTIONARY
  5
5EBD
330
754
100
AcDbDictionary
280
     1
281
     1
  3
ACAD_XREC_ROUNDTRIP
360
5EBE
  0
DICTIONARY
  5
5EBB
330
708
100
AcDbDictionary
280
     1
281
     1
  3
ACAD_XREC_ROUNDTRIP
360
5EBC
  0
DICTIONARY
  5
5EC1
330
756
100
AcDbDictionary
280
     1
281
     1
  3
ACAD_XREC_ROUNDTRIP
360
5EC2
  0
DICTIONARY
  5
5EFA
330
38CF
100
AcDbDictionary
280
     1
281
     1
  3
ACAD_XREC_ROUNDTRIP
360
5EFB
  0
DICTIONARY
  5
5CF6
330
38B9
100
AcDbDictionary
280
     1
281
     1
  3
ACAD_ROUNDTRIP_2008_TABLESTYLE_CELLSTYLEMAP
360
5EB4
  3
ACAD_XREC_ROUNDTRIP
360
5EF9
  0
DICTIONARY
  5
5ED3
330
38A4
100
AcDbDictionary
280
     1
281
     1
  3
ACAD_XREC_ROUNDTRIP
360
5ED4
  0
DICTIONARY
  5
5ED1
330
38A3
100
AcDbDictionary
280
     1
281
     1
  3
ACAD_XREC_ROUNDTRIP
360
5ED2
  0
DICTIONARY
  5
5EDF
330
38AA
100
AcDbDictionary
280
     1
281
     1
  3
ACAD_XREC_ROUNDTRIP
360
5EE0
  0
DICTIONARY
  5
5EE7
330
38AE
100
AcDbDictionary
280
     1
281
     1
  3
ACAD_XREC_ROUNDTRIP
360
5EE8
  0
DICTIONARY
  5
5ED9
330
38A7
100
AcDbDictionary
280
     1
281
     1
  3
ACAD_XREC_ROUNDTRIP
360
5EDA
  0
DICTIONARY
  5
5EDD
330
38A9
100
AcDbDictionary
280
     1
281
     1
  3
ACAD_XREC_ROUNDTRIP
360
5EDE
  0
DICTIONARY
  5
5EF7
330
38B6
100
AcDbDictionary
280
     1
281
     1
  3
ACAD_XREC_ROUNDTRIP
360
5EF8
  0
DICTIONARY
  5
5EE5
330
38AD
100
AcDbDictionary
280
     1
281
     1
  3
ACAD_XREC_ROUNDTRIP
360
5EE6
  0
DICTIONARY
  5
5EC9
330
389F
100
AcDbDictionary
280
     1
281
     1
  3
ACAD_XREC_ROUNDTRIP
360
5ECA
  0
DICTIONARY
  5
5ECB
330
38A0
100
AcDbDictionary
280
     1
281
     1
  3
ACAD_XREC_ROUNDTRIP
360
5ECC
  0
DICTIONARY
  5
5ECD
330
38A1
100
AcDbDictionary
280
     1
281
     1
  3
ACAD_XREC_ROUNDTRIP
360
5ECE
  0
DICTIONARY
  5
5ECF
330
38A2
100
AcDbDictionary
280
     1
281
     1
  3
ACAD_XREC_ROUNDTRIP
360
5ED0
  0
DICTIONARY
  5
5ED7
330
38A6
100
AcDbDictionary
280
     1
281
     1
  3
ACAD_XREC_ROUNDTRIP
360
5ED8
  0
DICTIONARY
  5
5EF3
330
38B4
100
AcDbDictionary
280
     1
281
     1
  3
ACAD_XREC_ROUNDTRIP
360
5EF4
  0
DICTIONARY
  5
5EE3
330
38AC
100
AcDbDictionary
280
     1
281
     1
  3
ACAD_XREC_ROUNDTRIP
360
5EE4
  0
DICTIONARY
  5
5EF5
330
38B5
100
AcDbDictionary
280
     1
281
     1
  3
ACAD_XREC_ROUNDTRIP
360
5EF6
  0
DICTIONARY
  5
5EDB
330
38A8
100
AcDbDictionary
280
     1
281
     1
  3
ACAD_XREC_ROUNDTRIP
360
5EDC
  0
DICTIONARY
  5
5EF1
330
38B3
100
AcDbDictionary
280
     1
281
     1
  3
ACAD_XREC_ROUNDTRIP
360
5EF2
  0
DICTIONARY
  5
5EEF
330
38B2
100
AcDbDictionary
280
     1
281
     1
  3
ACAD_XREC_ROUNDTRIP
360
5EF0
  0
DICTIONARY
  5
5EE9
330
38AF
100
AcDbDictionary
280
     1
281
     1
  3
ACAD_XREC_ROUNDTRIP
360
5EEA
  0
DICTIONARY
  5
5EEB
330
38B0
100
AcDbDictionary
280
     1
281
     1
  3
ACAD_XREC_ROUNDTRIP
360
5EEC
  0
DICTIONARY
  5
5EE1
330
38AB
100
AcDbDictionary
280
     1
281
     1
  3
ACAD_XREC_ROUNDTRIP
360
5EE2
  0
DICTIONARY
  5
5ED5
330
38A5
100
AcDbDictionary
280
     1
281
     1
  3
ACAD_XREC_ROUNDTRIP
360
5ED6
  0
DICTIONARY
  5
5EED
330
38B1
100
AcDbDictionary
280
     1
281
     1
  3
ACAD_XREC_ROUNDTRIP
360
5EEE
  0
XRECORD
  5
5EFD
102
{ACAD_REACTORS
330
5EFC
102
}
330
5EFC
100
AcDbXrecord
280
     1
102
DISPLAYNAME
  1
Metric50
102
FLAGS
 90
        0
  0
XRECORD
  5
5EFF
102
{ACAD_REACTORS
330
5EFE
102
}
330
5EFE
100
AcDbXrecord
280
     1
102
SHADEPLOT
 70
     0
102
SHADEPLOTRESLEVEL
 70
     2
102
SHADEPLOTCUSTOMDPI
 70
   300
  0
XRECORD
  5
5F01
102
{ACAD_REACTORS
330
5F00
102
}
330
5F00
100
AcDbXrecord
280
     1
102
SHADEPLOT
 70
     0
102
SHADEPLOTRESLEVEL
 70
     2
102
SHADEPLOTCUSTOMDPI
 70
   300
  0
XRECORD
  5
5D0D
102
{ACAD_REACTORS
330
388F
102
}
330
388F
100
AcDbXrecord
280
     1
102
MATERIAL
148
0.0
149
0.0
149
0.0
 93
        0
 94
      127
282
     0
 72
     0
 77
     0
171
     0
175
     0
179
     0
273
     0
  0
XRECORD
  5
3891
102
{ACAD_REACTORS
330
388F
102
}
330
388F
100
AcDbXrecord
280
     1
270
     1
271
     1
  0
XRECORD
  5
3890
102
{ACAD_REACTORS
330
388F
102
}
330
388F
100
AcDbXrecord
280
     1
270
     1
271
     1
  0
XRECORD
  5
3894
102
{ACAD_REACTORS
330
388F
102
}
330
388F
100
AcDbXrecord
280
     1
270
     1
271
     1
  0
XRECORD
  5
3893
102
{ACAD_REACTORS
330
388F
102
}
330
388F
100
AcDbXrecord
280
     1
270
     1
271
     1
  0
XRECORD
  5
3895
102
{ACAD_REACTORS
330
388F
102
}
330
388F
100
AcDbXrecord
280
     1
270
     1
271
     1
  0
XRECORD
  5
3892
102
{ACAD_REACTORS
330
388F
102
}
330
388F
100
AcDbXrecord
280
     1
270
     1
271
     1
  0
XRECORD
  5
5D0C
102
{ACAD_REACTORS
330
3887
102
}
330
3887
100
AcDbXrecord
280
     1
102
MATERIAL
148
0.0
149
0.0
149
0.0
 93
        0
 94
      127
282
     0
 72
     0
 77
     0
171
     0
175
     0
179
     0
273
     0
  0
XRECORD
  5
3889
102
{ACAD_REACTORS
330
3887
102
}
330
3887
100
AcDbXrecord
280
     1
270
     1
271
     1
  0
XRECORD
  5
3888
102
{ACAD_REACTORS
330
3887
102
}
330
3887
100
AcDbXrecord
280
     1
270
     1
271
     1
  0
XRECORD
  5
388C
102
{ACAD_REACTORS
330
3887
102
}
330
3887
100
AcDbXrecord
280
     1
270
     1
271
     1
  0
XRECORD
  5
388B
102
{ACAD_REACTORS
330
3887
102
}
330
3887
100
AcDbXrecord
280
     1
270
     1
271
     1
  0
XRECORD
  5
388D
102
{ACAD_REACTORS
330
3887
102
}
330
3887
100
AcDbXrecord
280
     1
270
     1
271
     1
  0
XRECORD
  5
388A
102
{ACAD_REACTORS
330
3887
102
}
330
3887
100
AcDbXrecord
280
     1
270
     1
271
     1
  0
XRECORD
  5
5D0E
102
{ACAD_REACTORS
330
3897
102
}
330
3897
100
AcDbXrecord
280
     1
102
MATERIAL
148
0.0
149
0.0
149
0.0
 93
        0
 94
      127
282
     0
 72
     0
 77
     0
171
     0
175
     0
179
     0
273
     0
  0
XRECORD
  5
3899
102
{ACAD_REACTORS
330
3897
102
}
330
3897
100
AcDbXrecord
280
     1
270
     1
271
     1
  0
XRECORD
  5
3898
102
{ACAD_REACTORS
330
3897
102
}
330
3897
100
AcDbXrecord
280
     1
270
     1
271
     1
  0
XRECORD
  5
389C
102
{ACAD_REACTORS
330
3897
102
}
330
3897
100
AcDbXrecord
280
     1
270
     1
271
     1
  0
XRECORD
  5
389B
102
{ACAD_REACTORS
330
3897
102
}
330
3897
100
AcDbXrecord
280
     1
270
     1
271
     1
  0
XRECORD
  5
389D
102
{ACAD_REACTORS
330
3897
102
}
330
3897
100
AcDbXrecord
280
     1
270
     1
271
     1
  0
XRECORD
  5
389A
102
{ACAD_REACTORS
330
3897
102
}
330
3897
100
AcDbXrecord
280
     1
270
     1
271
     1
  0
XRECORD
  5
5EC6
102
{ACAD_REACTORS
330
5EC5
102
}
330
5EC5
100
AcDbXrecord
280
     1
102
SHADEPLOT
 70
     0
102
SHADEPLOTRESLEVEL
 70
     2
102
SHADEPLOTCUSTOMDPI
 70
   300
  0
XRECORD
  5
5EC4
102
{ACAD_REACTORS
330
5EC3
102
}
330
5EC3
100
AcDbXrecord
280
     1
102
SHADEPLOT
 70
     0
102
SHADEPLOTRESLEVEL
 70
     2
102
SHADEPLOTCUSTOMDPI
 70
   300
  0
XRECORD
  5
5EBA
102
{ACAD_REACTORS
330
5EB9
102
}
330
5EB9
100
AcDbXrecord
280
     1
102
SHADEPLOT
 70
     0
102
SHADEPLOTRESLEVEL
 70
     2
102
SHADEPLOTCUSTOMDPI
 70
   300
  0
XRECORD
  5
5EC8
102
{ACAD_REACTORS
330
5EC7
102
}
330
5EC7
100
AcDbXrecord
280
     1
102
SHADEPLOT
 70
     0
102
SHADEPLOTRESLEVEL
 70
     2
102
SHADEPLOTCUSTOMDPI
 70
   300
  0
XRECORD
  5
5EC0
102
{ACAD_REACTORS
330
5EBF
102
}
330
5EBF
100
AcDbXrecord
280
     1
102
SHADEPLOT
 70
     0
102
SHADEPLOTRESLEVEL
 70
     2
102
SHADEPLOTCUSTOMDPI
 70
   300
  0
XRECORD
  5
5EBE
102
{ACAD_REACTORS
330
5EBD
102
}
330
5EBD
100
AcDbXrecord
280
     1
102
SHADEPLOT
 70
     0
102
SHADEPLOTRESLEVEL
 70
     2
102
SHADEPLOTCUSTOMDPI
 70
   300
  0
XRECORD
  5
5EBC
102
{ACAD_REACTORS
330
5EBB
102
}
330
5EBB
100
AcDbXrecord
280
     1
102
SHADEPLOT
 70
     0
102
SHADEPLOTRESLEVEL
 70
     2
102
SHADEPLOTCUSTOMDPI
 70
   300
  0
XRECORD
  5
5EC2
102
{ACAD_REACTORS
330
5EC1
102
}
330
5EC1
100
AcDbXrecord
280
     1
102
SHADEPLOT
 70
     0
102
SHADEPLOTRESLEVEL
 70
     2
102
SHADEPLOTCUSTOMDPI
 70
   300
  0
XRECORD
  5
5EFB
102
{ACAD_REACTORS
330
5EFA
102
}
330
5EFA
100
AcDbXrecord
280
     1
102
DISPLAYNAME
  1
Metric50
102
FLAGS
 90
        0
  0
CELLSTYLEMAP
  5
5EB4
102
{ACAD_REACTORS
330
5CF6
102
}
330
5CF6
100
AcDbCellStyleMap
 90
        3
300
CELLSTYLE
  1
TABLEFORMAT_BEGIN
 90
        5
170
     1
 91
        0
 92
    32768
 62
   257
 93
        1
300
CONTENTFORMAT
  1
CONTENTFORMAT_BEGIN
 90
        0
 91
        0
 92
      512
 93
        0
300

 40
0.0
140
1.0
 94
        5
 62
     0
340
10
144
6.0
309
CONTENTFORMAT_END
171
     1
301
MARGIN
  1
CELLMARGIN_BEGIN
 40
1.5
 40
1.5
 40
1.5
 40
1.5
 40
0.18
 40
0.18
309
CELLMARGIN_END
 94
        6
 95
        1
302
GRIDFORMAT
  1
GRIDFORMAT_BEGIN
 90
        0
 91
        1
 62
     0
 92
       -2
340
0
 93
        0
 40
1.125
309
GRIDFORMAT_END
 95
        2
302
GRIDFORMAT
  1
GRIDFORMAT_BEGIN
 90
        0
 91
        1
 62
     0
 92
       -2
340
0
 93
        0
 40
1.125
309
GRIDFORMAT_END
 95
        4
302
GRIDFORMAT
  1
GRIDFORMAT_BEGIN
 90
        0
 91
        1
 62
     0
 92
       -2
340
0
 93
        0
 40
1.125
309
GRIDFORMAT_END
 95
        8
302
GRIDFORMAT
  1
GRIDFORMAT_BEGIN
 90
        0
 91
        1
 62
     0
 92
       -2
340
0
 93
        0
 40
1.125
309
GRIDFORMAT_END
 95
       16
302
GRIDFORMAT
  1
GRIDFORMAT_BEGIN
 90
        0
 91
        1
 62
     0
 92
       -2
340
0
 93
        0
 40
1.125
309
GRIDFORMAT_END
 95
       32
302
GRIDFORMAT
  1
GRIDFORMAT_BEGIN
 90
        0
 91
        1
 62
     0
 92
       -2
340
0
 93
        0
 40
1.125
309
GRIDFORMAT_END
309
TABLEFORMAT_END
  1
CELLSTYLE_BEGIN
 90
        1
 91
        1
300
_TITLE
309
CELLSTYLE_END
300
CELLSTYLE
  1
TABLEFORMAT_BEGIN
 90
        5
170
     1
 91
        0
 92
        0
 62
   257
 93
        1
300
CONTENTFORMAT
  1
CONTENTFORMAT_BEGIN
 90
        0
 91
        0
 92
      512
 93
        0
300

 40
0.0
140
1.0
 94
        5
 62
     0
340
10
144
4.5
309
CONTENTFORMAT_END
171
     1
301
MARGIN
  1
CELLMARGIN_BEGIN
 40
1.5
 40
1.5
 40
1.5
 40
1.5
 40
0.18
 40
0.18
309
CELLMARGIN_END
 94
        6
 95
        1
302
GRIDFORMAT
  1
GRIDFORMAT_BEGIN
 90
        0
 91
        1
 62
     0
 92
       -2
340
0
 93
        0
 40
1.125
309
GRIDFORMAT_END
 95
        2
302
GRIDFORMAT
  1
GRIDFORMAT_BEGIN
 90
        0
 91
        1
 62
     0
 92
       -2
340
0
 93
        0
 40
1.125
309
GRIDFORMAT_END
 95
        4
302
GRIDFORMAT
  1
GRIDFORMAT_BEGIN
 90
        0
 91
        1
 62
     0
 92
       -2
340
0
 93
        0
 40
1.125
309
GRIDFORMAT_END
 95
        8
302
GRIDFORMAT
  1
GRIDFORMAT_BEGIN
 90
        0
 91
        1
 62
     0
 92
       -2
340
0
 93
        0
 40
1.125
309
GRIDFORMAT_END
 95
       16
302
GRIDFORMAT
  1
GRIDFORMAT_BEGIN
 90
        0
 91
        1
 62
     0
 92
       -2
340
0
 93
        0
 40
1.125
309
GRIDFORMAT_END
 95
       32
302
GRIDFORMAT
  1
GRIDFORMAT_BEGIN
 90
        0
 91
        1
 62
     0
 92
       -2
340
0
 93
        0
 40
1.125
309
GRIDFORMAT_END
309
TABLEFORMAT_END
  1
CELLSTYLE_BEGIN
 90
        2
 91
        1
300
_HEADER
309
CELLSTYLE_END
300
CELLSTYLE
  1
TABLEFORMAT_BEGIN
 90
        5
170
     1
 91
        0
 92
        0
 62
   257
 93
        1
300
CONTENTFORMAT
  1
CONTENTFORMAT_BEGIN
 90
        0
 91
        0
 92
      512
 93
        0
300

 40
0.0
140
1.0
 94
        2
 62
     0
340
10
144
4.5
309
CONTENTFORMAT_END
171
     1
301
MARGIN
  1
CELLMARGIN_BEGIN
 40
1.5
 40
1.5
 40
1.5
 40
1.5
 40
0.18
 40
0.18
309
CELLMARGIN_END
 94
        6
 95
        1
302
GRIDFORMAT
  1
GRIDFORMAT_BEGIN
 90
        0
 91
        1
 62
     0
 92
       -2
340
0
 93
        0
 40
1.125
309
GRIDFORMAT_END
 95
        2
302
GRIDFORMAT
  1
GRIDFORMAT_BEGIN
 90
        0
 91
        1
 62
     0
 92
       -2
340
0
 93
        0
 40
1.125
309
GRIDFORMAT_END
 95
        4
302
GRIDFORMAT
  1
GRIDFORMAT_BEGIN
 90
        0
 91
        1
 62
     0
 92
       -2
340
0
 93
        0
 40
1.125
309
GRIDFORMAT_END
 95
        8
302
GRIDFORMAT
  1
GRIDFORMAT_BEGIN
 90
        0
 91
        1
 62
     0
 92
       -2
340
0
 93
        0
 40
1.125
309
GRIDFORMAT_END
 95
       16
302
GRIDFORMAT
  1
GRIDFORMAT_BEGIN
 90
        0
 91
        1
 62
     0
 92
       -2
340
0
 93
        0
 40
1.125
309
GRIDFORMAT_END
 95
       32
302
GRIDFORMAT
  1
GRIDFORMAT_BEGIN
 90
        0
 91
        1
 62
     0
 92
       -2
340
0
 93
        0
 40
1.125
309
GRIDFORMAT_END
309
TABLEFORMAT_END
  1
CELLSTYLE_BEGIN
 90
        3
 91
        2
300
_DATA
309
CELLSTYLE_END
  0
XRECORD
  5
5EF9
102
{ACAD_REACTORS
330
5CF6
102
}
330
5CF6
100
AcDbXrecord
280
     1
102
ACAD_ROUNDTRIP_PRE2007_TABLESTYLE
 90
      512
 91
        0
  1

 92
      512
 93
        0
  2

 94
      512
 95
        0
  3

  0
XRECORD
  5
5ED4
102
{ACAD_REACTORS
330
5ED3
102
}
330
5ED3
100
AcDbXrecord
280
     1
102
RTVSPost2010Prop28
280
     1
102
RTVSPost2010PropOp28
 70
     1
102
RTVSPost2010Prop29
280
     1
102
RTVSPost2010PropOp29
 70
     1
102
RTVSPost2010Prop30
280
     0
102
RTVSPost2010PropOp30
 70
     1
102
RTVSPost2010Prop31
280
     0
102
RTVSPost2010PropOp31
 70
     1
102
RTVSPost2010Prop32
280
     0
102
RTVSPost2010PropOp32
 70
     1
102
RTVSPost2010Prop33
280
     0
102
RTVSPost2010PropOp33
 70
     1
102
RTVSPost2010Prop34
280
     0
102
RTVSPost2010PropOp34
 70
     1
102
RTVSPost2010Prop35
280
     0
102
RTVSPost2010PropOp35
 70
     1
102
RTVSPost2010Prop36
280
     0
102
RTVSPost2010PropOp36
 70
     1
102
RTVSPost2010Prop37
 90
       50
102
RTVSPost2010PropOp37
 70
     1
102
RTVSPost2010Prop38
140
0.0
102
RTVSPost2010PropOp38
 70
     1
102
RTVSPost2010Prop39
140
1.0
102
RTVSPost2010PropOp39
 70
     1
102
RTVSPost2010Prop40
 90
        0
102
RTVSPost2010PropOp40
 70
     1
102
RTVSPost2010Prop41ColorIndex
 90
       18
102
RTVSPost2010Prop41ColorRGB
 90
        0
102
RTVSPost2010PropOp41
 70
     1
102
RTVSPost2010Prop42
 90
       50
102
RTVSPost2010PropOp42
 70
     1
102
RTVSPost2010Prop43
 90
        3
102
RTVSPost2010PropOp43
 70
     1
102
RTVSPost2010Prop44ColorIndex
 90
        5
102
RTVSPost2010Prop44ColorRGB
 90
      255
102
RTVSPost2010PropOp44
 70
     1
102
RTVSPost2010Prop45
280
     0
102
RTVSPost2010PropOp45
 70
     1
102
RTVSPost2010Prop46
 90
       50
102
RTVSPost2010PropOp46
 70
     1
102
RTVSPost2010Prop47
 90
       50
102
RTVSPost2010PropOp47
 70
     1
102
RTVSPost2010Prop48
 90
       50
102
RTVSPost2010PropOp48
 70
     1
102
RTVSPost2010Prop49
280
     0
102
RTVSPost2010PropOp49
 70
     1
102
RTVSPost2010Prop50
 90
       50
102
RTVSPost2010PropOp50
 70
     1
102
RTVSPost2010Prop51ColorIndex
 90
      256
102
RTVSPost2010Prop51ColorRGB
 90
-16777216
102
RTVSPost2010PropOp51
 70
     0
102
RTVSPost2010Prop52
140
1.0
102
RTVSPost2010PropOp52
 70
     0
102
RTVSPost2010Prop53
 90
        2
102
RTVSPost2010PropOp53
 70
     1
102
RTVSPost2010Prop54
  1
strokes_ogs.tif
102
RTVSPost2010PropOp54
 70
     1
102
RTVSPost2010Prop55
280
     0
102
RTVSPost2010PropOp55
 70
     1
102
RTVSPost2010Prop56
140
1.0
102
RTVSPost2010PropOp56
 70
     1
102
RTVSPost2010Prop57
140
1.0
102
RTVSPost2010PropOp57
 70
     1
102
RTVSPropertyOp0
 70
     1
102
RTVSPropertyOp1
 70
     1
102
RTVSPropertyOp2
 70
     1
102
RTVSPropertyOp3
 70
     1
102
RTVSPropertyOp4
 70
     1
102
RTVSPropertyOp5
 70
     1
102
RTVSPropertyOp6
 70
     1
102
RTVSPropertyOp7
 70
     1
102
RTVSPropertyOp8
 70
     1
102
RTVSPropertyOp9
 70
     1
102
RTVSPropertyOp10
 70
     1
102
RTVSPropertyOp11
 70
     1
102
RTVSPropertyOp12
 70
     1
102
RTVSPropertyOp13
 70
     1
102
RTVSPropertyOp14
 70
     1
102
RTVSPropertyOp15
 70
     1
102
RTVSPropertyOp16
 70
     1
102
RTVSPropertyOp17
 70
     1
102
RTVSPropertyOp18
 70
     1
102
RTVSPropertyOp19
 70
     1
102
RTVSPropertyOp20
 70
     1
102
RTVSPropertyOp21
 70
     1
102
RTVSPropertyOp22
 70
     1
102
RTVSPropertyOp23
 70
     1
102
RTVSPropertyOp24
 70
     1
102
RTVSPropertyOp25
 70
     1
102
RTVSPropertyOp26
 70
     1
102
RTVSPropertyOp27
 70
     1
102
RTVSPropertyOp28
 70
     1
102
RTVSPropertyOp29
 70
     1
102
RTVSPropertyOp30
 70
     1
102
RTVSPropertyOp31
 70
     1
102
RTVSPropertyOp32
 70
     1
102
RTVSPropertyOp33
 70
     1
102
RTVSPropertyOp34
 70
     1
102
RTVSPropertyOp35
 70
     1
102
RTVSPropertyOp36
 70
     1
102
RTVSPropertyOp37
 70
     1
102
RTVSPropertyOp38
 70
     1
102
RTVSPropertyOp39
 70
     1
102
RTVSPropertyOp40
 70
     1
102
RTVSPropertyOp41
 70
     1
102
RTVSPropertyOp42
 70
     1
102
RTVSPropertyOp43
 70
     1
102
RTVSPropertyOp44
 70
     1
102
RTVSPropertyOp45
 70
     1
102
RTVSPropertyOp46
 70
     1
102
RTVSPropertyOp47
 70
     1
102
RTVSPropertyOp48
 70
     1
102
RTVSPropertyOp49
 70
     1
102
RTVSPropertyOp50
 70
     1
102
RTVSPropertyOp51
 70
     0
102
RTVSPropertyOp52
 70
     0
102
RTVSPropertyOp53
 70
     1
102
RTVSPropertyOp54
 70
     1
102
RTVSPropertyOp55
 70
     1
102
RTVSPropertyOp56
 70
     1
102
RTVSPropertyOp57
 70
     1
102
RTVSPropertyOp58
 70
     1
102
RTVSPropertyOp59
 70
     1
102
RTVSPropertyOp60
 70
     1
102
RTVSPropertyOp61
 70
     1
102
RTVSPropertyOp62
 70
     1
  0
XRECORD
  5
5ED2
102
{ACAD_REACTORS
330
5ED1
102
}
330
5ED1
100
AcDbXrecord
280
     1
102
RTVSPost2010Prop28
280
     0
102
RTVSPost2010PropOp28
 70
     1
102
RTVSPost2010Prop29
280
     1
102
RTVSPost2010PropOp29
 70
     1
102
RTVSPost2010Prop30
280
     1
102
RTVSPost2010PropOp30
 70
     1
102
RTVSPost2010Prop31
280
     0
102
RTVSPost2010PropOp31
 70
     1
102
RTVSPost2010Prop32
280
     0
102
RTVSPost2010PropOp32
 70
     1
102
RTVSPost2010Prop33
280
     0
102
RTVSPost2010PropOp33
 70
     1
102
RTVSPost2010Prop34
280
     0
102
RTVSPost2010PropOp34
 70
     1
102
RTVSPost2010Prop35
280
     0
102
RTVSPost2010PropOp35
 70
     1
102
RTVSPost2010Prop36
280
     0
102
RTVSPost2010PropOp36
 70
     1
102
RTVSPost2010Prop37
 90
       50
102
RTVSPost2010PropOp37
 70
     1
102
RTVSPost2010Prop38
140
0.0
102
RTVSPost2010PropOp38
 70
     1
102
RTVSPost2010Prop39
140
1.0
102
RTVSPost2010PropOp39
 70
     1
102
RTVSPost2010Prop40
 90
        0
102
RTVSPost2010PropOp40
 70
     1
102
RTVSPost2010Prop41ColorIndex
 90
       18
102
RTVSPost2010Prop41ColorRGB
 90
        0
102
RTVSPost2010PropOp41
 70
     1
102
RTVSPost2010Prop42
 90
       50
102
RTVSPost2010PropOp42
 70
     1
102
RTVSPost2010Prop43
 90
        3
102
RTVSPost2010PropOp43
 70
     1
102
RTVSPost2010Prop44ColorIndex
 90
        5
102
RTVSPost2010Prop44ColorRGB
 90
      255
102
RTVSPost2010PropOp44
 70
     1
102
RTVSPost2010Prop45
280
     0
102
RTVSPost2010PropOp45
 70
     1
102
RTVSPost2010Prop46
 90
       50
102
RTVSPost2010PropOp46
 70
     1
102
RTVSPost2010Prop47
 90
       50
102
RTVSPost2010PropOp47
 70
     1
102
RTVSPost2010Prop48
 90
       50
102
RTVSPost2010PropOp48
 70
     1
102
RTVSPost2010Prop49
280
     0
102
RTVSPost2010PropOp49
 70
     1
102
RTVSPost2010Prop50
 90
       50
102
RTVSPost2010PropOp50
 70
     1
102
RTVSPost2010Prop51ColorIndex
 90
      256
102
RTVSPost2010Prop51ColorRGB
 90
-16777216
102
RTVSPost2010PropOp51
 70
     0
102
RTVSPost2010Prop52
140
1.0
102
RTVSPost2010PropOp52
 70
     0
102
RTVSPost2010Prop53
 90
        2
102
RTVSPost2010PropOp53
 70
     1
102
RTVSPost2010Prop54
  1
strokes_ogs.tif
102
RTVSPost2010PropOp54
 70
     1
102
RTVSPost2010Prop55
280
     0
102
RTVSPost2010PropOp55
 70
     1
102
RTVSPost2010Prop56
140
1.0
102
RTVSPost2010PropOp56
 70
     1
102
RTVSPost2010Prop57
140
1.0
102
RTVSPost2010PropOp57
 70
     1
102
RTVSPropertyOp0
 70
     1
102
RTVSPropertyOp1
 70
     1
102
RTVSPropertyOp2
 70
     1
102
RTVSPropertyOp3
 70
     1
102
RTVSPropertyOp4
 70
     1
102
RTVSPropertyOp5
 70
     1
102
RTVSPropertyOp6
 70
     1
102
RTVSPropertyOp7
 70
     1
102
RTVSPropertyOp8
 70
     1
102
RTVSPropertyOp9
 70
     1
102
RTVSPropertyOp10
 70
     1
102
RTVSPropertyOp11
 70
     1
102
RTVSPropertyOp12
 70
     1
102
RTVSPropertyOp13
 70
     1
102
RTVSPropertyOp14
 70
     1
102
RTVSPropertyOp15
 70
     1
102
RTVSPropertyOp16
 70
     1
102
RTVSPropertyOp17
 70
     1
102
RTVSPropertyOp18
 70
     1
102
RTVSPropertyOp19
 70
     1
102
RTVSPropertyOp20
 70
     1
102
RTVSPropertyOp21
 70
     1
102
RTVSPropertyOp22
 70
     1
102
RTVSPropertyOp23
 70
     1
102
RTVSPropertyOp24
 70
     1
102
RTVSPropertyOp25
 70
     1
102
RTVSPropertyOp26
 70
     1
102
RTVSPropertyOp27
 70
     1
102
RTVSPropertyOp28
 70
     1
102
RTVSPropertyOp29
 70
     1
102
RTVSPropertyOp30
 70
     1
102
RTVSPropertyOp31
 70
     1
102
RTVSPropertyOp32
 70
     1
102
RTVSPropertyOp33
 70
     1
102
RTVSPropertyOp34
 70
     1
102
RTVSPropertyOp35
 70
     1
102
RTVSPropertyOp36
 70
     1
102
RTVSPropertyOp37
 70
     1
102
RTVSPropertyOp38
 70
     1
102
RTVSPropertyOp39
 70
     1
102
RTVSPropertyOp40
 70
     1
102
RTVSPropertyOp41
 70
     1
102
RTVSPropertyOp42
 70
     1
102
RTVSPropertyOp43
 70
     1
102
RTVSPropertyOp44
 70
     1
102
RTVSPropertyOp45
 70
     1
102
RTVSPropertyOp46
 70
     1
102
RTVSPropertyOp47
 70
     1
102
RTVSPropertyOp48
 70
     1
102
RTVSPropertyOp49
 70
     1
102
RTVSPropertyOp50
 70
     1
102
RTVSPropertyOp51
 70
     0
102
RTVSPropertyOp52
 70
     0
102
RTVSPropertyOp53
 70
     1
102
RTVSPropertyOp54
 70
     1
102
RTVSPropertyOp55
 70
     1
102
RTVSPropertyOp56
 70
     1
102
RTVSPropertyOp57
 70
     1
102
RTVSPropertyOp58
 70
     1
102
RTVSPropertyOp59
 70
     1
102
RTVSPropertyOp60
 70
     1
102
RTVSPropertyOp61
 70
     1
102
RTVSPropertyOp62
 70
     1
  0
XRECORD
  5
5EE0
102
{ACAD_REACTORS
330
5EDF
102
}
330
5EDF
100
AcDbXrecord
280
     1
102
RTVSPost2010Prop28
280
     0
102
RTVSPost2010PropOp28
 70
     1
102
RTVSPost2010Prop29
280
     1
102
RTVSPost2010PropOp29
 70
     1
102
RTVSPost2010Prop30
280
     1
102
RTVSPost2010PropOp30
 70
     1
102
RTVSPost2010Prop31
280
     0
102
RTVSPost2010PropOp31
 70
     1
102
RTVSPost2010Prop32
280
     0
102
RTVSPost2010PropOp32
 70
     1
102
RTVSPost2010Prop33
280
     0
102
RTVSPost2010PropOp33
 70
     1
102
RTVSPost2010Prop34
280
     0
102
RTVSPost2010PropOp34
 70
     1
102
RTVSPost2010Prop35
280
     0
102
RTVSPost2010PropOp35
 70
     1
102
RTVSPost2010Prop36
280
     0
102
RTVSPost2010PropOp36
 70
     1
102
RTVSPost2010Prop37
 90
       50
102
RTVSPost2010PropOp37
 70
     1
102
RTVSPost2010Prop38
140
0.0
102
RTVSPost2010PropOp38
 70
     1
102
RTVSPost2010Prop39
140
1.0
102
RTVSPost2010PropOp39
 70
     1
102
RTVSPost2010Prop40
 90
        0
102
RTVSPost2010PropOp40
 70
     1
102
RTVSPost2010Prop41ColorIndex
 90
       18
102
RTVSPost2010Prop41ColorRGB
 90
        0
102
RTVSPost2010PropOp41
 70
     1
102
RTVSPost2010Prop42
 90
       50
102
RTVSPost2010PropOp42
 70
     1
102
RTVSPost2010Prop43
 90
        3
102
RTVSPost2010PropOp43
 70
     1
102
RTVSPost2010Prop44ColorIndex
 90
        5
102
RTVSPost2010Prop44ColorRGB
 90
      255
102
RTVSPost2010PropOp44
 70
     1
102
RTVSPost2010Prop45
280
     0
102
RTVSPost2010PropOp45
 70
     1
102
RTVSPost2010Prop46
 90
       50
102
RTVSPost2010PropOp46
 70
     1
102
RTVSPost2010Prop47
 90
       50
102
RTVSPost2010PropOp47
 70
     1
102
RTVSPost2010Prop48
 90
       50
102
RTVSPost2010PropOp48
 70
     1
102
RTVSPost2010Prop49
280
     0
102
RTVSPost2010PropOp49
 70
     1
102
RTVSPost2010Prop50
 90
       50
102
RTVSPost2010PropOp50
 70
     1
102
RTVSPost2010Prop51ColorIndex
 90
      256
102
RTVSPost2010Prop51ColorRGB
 90
-16777216
102
RTVSPost2010PropOp51
 70
     0
102
RTVSPost2010Prop52
140
1.0
102
RTVSPost2010PropOp52
 70
     0
102
RTVSPost2010Prop53
 90
        2
102
RTVSPost2010PropOp53
 70
     1
102
RTVSPost2010Prop54
  1
strokes_ogs.tif
102
RTVSPost2010PropOp54
 70
     1
102
RTVSPost2010Prop55
280
     0
102
RTVSPost2010PropOp55
 70
     1
102
RTVSPost2010Prop56
140
1.0
102
RTVSPost2010PropOp56
 70
     1
102
RTVSPost2010Prop57
140
1.0
102
RTVSPost2010PropOp57
 70
     1
102
RTVSPropertyOp0
 70
     1
102
RTVSPropertyOp1
 70
     1
102
RTVSPropertyOp2
 70
     1
102
RTVSPropertyOp3
 70
     1
102
RTVSPropertyOp4
 70
     1
102
RTVSPropertyOp5
 70
     1
102
RTVSPropertyOp6
 70
     1
102
RTVSPropertyOp7
 70
     1
102
RTVSPropertyOp8
 70
     1
102
RTVSPropertyOp9
 70
     1
102
RTVSPropertyOp10
 70
     1
102
RTVSPropertyOp11
 70
     1
102
RTVSPropertyOp12
 70
     1
102
RTVSPropertyOp13
 70
     1
102
RTVSPropertyOp14
 70
     1
102
RTVSPropertyOp15
 70
     1
102
RTVSPropertyOp16
 70
     1
102
RTVSPropertyOp17
 70
     1
102
RTVSPropertyOp18
 70
     1
102
RTVSPropertyOp19
 70
     1
102
RTVSPropertyOp20
 70
     1
102
RTVSPropertyOp21
 70
     1
102
RTVSPropertyOp22
 70
     1
102
RTVSPropertyOp23
 70
     1
102
RTVSPropertyOp24
 70
     1
102
RTVSPropertyOp25
 70
     1
102
RTVSPropertyOp26
 70
     1
102
RTVSPropertyOp27
 70
     1
102
RTVSPropertyOp28
 70
     1
102
RTVSPropertyOp29
 70
     1
102
RTVSPropertyOp30
 70
     1
102
RTVSPropertyOp31
 70
     1
102
RTVSPropertyOp32
 70
     1
102
RTVSPropertyOp33
 70
     1
102
RTVSPropertyOp34
 70
     1
102
RTVSPropertyOp35
 70
     1
102
RTVSPropertyOp36
 70
     1
102
RTVSPropertyOp37
 70
     1
102
RTVSPropertyOp38
 70
     1
102
RTVSPropertyOp39
 70
     1
102
RTVSPropertyOp40
 70
     1
102
RTVSPropertyOp41
 70
     1
102
RTVSPropertyOp42
 70
     1
102
RTVSPropertyOp43
 70
     1
102
RTVSPropertyOp44
 70
     1
102
RTVSPropertyOp45
 70
     1
102
RTVSPropertyOp46
 70
     1
102
RTVSPropertyOp47
 70
     1
102
RTVSPropertyOp48
 70
     1
102
RTVSPropertyOp49
 70
     1
102
RTVSPropertyOp50
 70
     1
102
RTVSPropertyOp51
 70
     0
102
RTVSPropertyOp52
 70
     0
102
RTVSPropertyOp53
 70
     1
102
RTVSPropertyOp54
 70
     1
102
RTVSPropertyOp55
 70
     1
102
RTVSPropertyOp56
 70
     1
102
RTVSPropertyOp57
 70
     1
102
RTVSPropertyOp58
 70
     1
102
RTVSPropertyOp59
 70
     1
102
RTVSPropertyOp60
 70
     1
102
RTVSPropertyOp61
 70
     1
102
RTVSPropertyOp62
 70
     1
  0
XRECORD
  5
5EE8
102
{ACAD_REACTORS
330
5EE7
102
}
330
5EE7
100
AcDbXrecord
280
     1
102
RTVSPost2010Prop28
280
     0
102
RTVSPost2010PropOp28
 70
     1
102
RTVSPost2010Prop29
280
     1
102
RTVSPost2010PropOp29
 70
     1
102
RTVSPost2010Prop30
280
     1
102
RTVSPost2010PropOp30
 70
     1
102
RTVSPost2010Prop31
280
     0
102
RTVSPost2010PropOp31
 70
     1
102
RTVSPost2010Prop32
280
     0
102
RTVSPost2010PropOp32
 70
     1
102
RTVSPost2010Prop33
280
     0
102
RTVSPost2010PropOp33
 70
     1
102
RTVSPost2010Prop34
280
     0
102
RTVSPost2010PropOp34
 70
     1
102
RTVSPost2010Prop35
280
     0
102
RTVSPost2010PropOp35
 70
     1
102
RTVSPost2010Prop36
280
     0
102
RTVSPost2010PropOp36
 70
     1
102
RTVSPost2010Prop37
 90
       50
102
RTVSPost2010PropOp37
 70
     1
102
RTVSPost2010Prop38
140
0.0
102
RTVSPost2010PropOp38
 70
     1
102
RTVSPost2010Prop39
140
1.0
102
RTVSPost2010PropOp39
 70
     1
102
RTVSPost2010Prop40
 90
        0
102
RTVSPost2010PropOp40
 70
     1
102
RTVSPost2010Prop41ColorIndex
 90
       18
102
RTVSPost2010Prop41ColorRGB
 90
        0
102
RTVSPost2010PropOp41
 70
     1
102
RTVSPost2010Prop42
 90
       50
102
RTVSPost2010PropOp42
 70
     1
102
RTVSPost2010Prop43
 90
        3
102
RTVSPost2010PropOp43
 70
     1
102
RTVSPost2010Prop44ColorIndex
 90
        5
102
RTVSPost2010Prop44ColorRGB
 90
      255
102
RTVSPost2010PropOp44
 70
     1
102
RTVSPost2010Prop45
280
     0
102
RTVSPost2010PropOp45
 70
     1
102
RTVSPost2010Prop46
 90
       50
102
RTVSPost2010PropOp46
 70
     1
102
RTVSPost2010Prop47
 90
       50
102
RTVSPost2010PropOp47
 70
     1
102
RTVSPost2010Prop48
 90
       50
102
RTVSPost2010PropOp48
 70
     1
102
RTVSPost2010Prop49
280
     0
102
RTVSPost2010PropOp49
 70
     1
102
RTVSPost2010Prop50
 90
       50
102
RTVSPost2010PropOp50
 70
     1
102
RTVSPost2010Prop51ColorIndex
 90
      256
102
RTVSPost2010Prop51ColorRGB
 90
-16777216
102
RTVSPost2010PropOp51
 70
     0
102
RTVSPost2010Prop52
140
1.0
102
RTVSPost2010PropOp52
 70
     0
102
RTVSPost2010Prop53
 90
        2
102
RTVSPost2010PropOp53
 70
     1
102
RTVSPost2010Prop54
  1
strokes_ogs.tif
102
RTVSPost2010PropOp54
 70
     1
102
RTVSPost2010Prop55
280
     0
102
RTVSPost2010PropOp55
 70
     1
102
RTVSPost2010Prop56
140
1.0
102
RTVSPost2010PropOp56
 70
     1
102
RTVSPost2010Prop57
140
1.0
102
RTVSPost2010PropOp57
 70
     1
102
RTVSPropertyOp0
 70
     1
102
RTVSPropertyOp1
 70
     1
102
RTVSPropertyOp2
 70
     1
102
RTVSPropertyOp3
 70
     1
102
RTVSPropertyOp4
 70
     1
102
RTVSPropertyOp5
 70
     1
102
RTVSPropertyOp6
 70
     1
102
RTVSPropertyOp7
 70
     1
102
RTVSPropertyOp8
 70
     1
102
RTVSPropertyOp9
 70
     1
102
RTVSPropertyOp10
 70
     1
102
RTVSPropertyOp11
 70
     1
102
RTVSPropertyOp12
 70
     1
102
RTVSPropertyOp13
 70
     1
102
RTVSPropertyOp14
 70
     1
102
RTVSPropertyOp15
 70
     1
102
RTVSPropertyOp16
 70
     1
102
RTVSPropertyOp17
 70
     1
102
RTVSPropertyOp18
 70
     1
102
RTVSPropertyOp19
 70
     1
102
RTVSPropertyOp20
 70
     1
102
RTVSPropertyOp21
 70
     1
102
RTVSPropertyOp22
 70
     1
102
RTVSPropertyOp23
 70
     1
102
RTVSPropertyOp24
 70
     1
102
RTVSPropertyOp25
 70
     1
102
RTVSPropertyOp26
 70
     1
102
RTVSPropertyOp27
 70
     1
102
RTVSPropertyOp28
 70
     1
102
RTVSPropertyOp29
 70
     1
102
RTVSPropertyOp30
 70
     1
102
RTVSPropertyOp31
 70
     1
102
RTVSPropertyOp32
 70
     1
102
RTVSPropertyOp33
 70
     1
102
RTVSPropertyOp34
 70
     1
102
RTVSPropertyOp35
 70
     1
102
RTVSPropertyOp36
 70
     1
102
RTVSPropertyOp37
 70
     1
102
RTVSPropertyOp38
 70
     1
102
RTVSPropertyOp39
 70
     1
102
RTVSPropertyOp40
 70
     1
102
RTVSPropertyOp41
 70
     1
102
RTVSPropertyOp42
 70
     1
102
RTVSPropertyOp43
 70
     1
102
RTVSPropertyOp44
 70
     1
102
RTVSPropertyOp45
 70
     1
102
RTVSPropertyOp46
 70
     1
102
RTVSPropertyOp47
 70
     1
102
RTVSPropertyOp48
 70
     1
102
RTVSPropertyOp49
 70
     1
102
RTVSPropertyOp50
 70
     1
102
RTVSPropertyOp51
 70
     0
102
RTVSPropertyOp52
 70
     0
102
RTVSPropertyOp53
 70
     1
102
RTVSPropertyOp54
 70
     1
102
RTVSPropertyOp55
 70
     1
102
RTVSPropertyOp56
 70
     1
102
RTVSPropertyOp57
 70
     1
102
RTVSPropertyOp58
 70
     1
102
RTVSPropertyOp59
 70
     1
102
RTVSPropertyOp60
 70
     1
102
RTVSPropertyOp61
 70
     1
102
RTVSPropertyOp62
 70
     1
  0
XRECORD
  5
5EDA
102
{ACAD_REACTORS
330
5ED9
102
}
330
5ED9
100
AcDbXrecord
280
     1
102
RTVSPost2010Prop28
280
     0
102
RTVSPost2010PropOp28
 70
     1
102
RTVSPost2010Prop29
280
     1
102
RTVSPost2010PropOp29
 70
     1
102
RTVSPost2010Prop30
280
     1
102
RTVSPost2010PropOp30
 70
     1
102
RTVSPost2010Prop31
280
     0
102
RTVSPost2010PropOp31
 70
     1
102
RTVSPost2010Prop32
280
     0
102
RTVSPost2010PropOp32
 70
     1
102
RTVSPost2010Prop33
280
     0
102
RTVSPost2010PropOp33
 70
     1
102
RTVSPost2010Prop34
280
     0
102
RTVSPost2010PropOp34
 70
     1
102
RTVSPost2010Prop35
280
     0
102
RTVSPost2010PropOp35
 70
     1
102
RTVSPost2010Prop36
280
     0
102
RTVSPost2010PropOp36
 70
     1
102
RTVSPost2010Prop37
 90
       50
102
RTVSPost2010PropOp37
 70
     1
102
RTVSPost2010Prop38
140
0.0
102
RTVSPost2010PropOp38
 70
     1
102
RTVSPost2010Prop39
140
1.0
102
RTVSPost2010PropOp39
 70
     1
102
RTVSPost2010Prop40
 90
        0
102
RTVSPost2010PropOp40
 70
     1
102
RTVSPost2010Prop41ColorIndex
 90
       18
102
RTVSPost2010Prop41ColorRGB
 90
        0
102
RTVSPost2010PropOp41
 70
     1
102
RTVSPost2010Prop42
 90
       50
102
RTVSPost2010PropOp42
 70
     1
102
RTVSPost2010Prop43
 90
        3
102
RTVSPost2010PropOp43
 70
     1
102
RTVSPost2010Prop44ColorIndex
 90
        5
102
RTVSPost2010Prop44ColorRGB
 90
      255
102
RTVSPost2010PropOp44
 70
     1
102
RTVSPost2010Prop45
280
     0
102
RTVSPost2010PropOp45
 70
     1
102
RTVSPost2010Prop46
 90
       50
102
RTVSPost2010PropOp46
 70
     1
102
RTVSPost2010Prop47
 90
       50
102
RTVSPost2010PropOp47
 70
     1
102
RTVSPost2010Prop48
 90
       50
102
RTVSPost2010PropOp48
 70
     1
102
RTVSPost2010Prop49
280
     0
102
RTVSPost2010PropOp49
 70
     1
102
RTVSPost2010Prop50
 90
       50
102
RTVSPost2010PropOp50
 70
     1
102
RTVSPost2010Prop51ColorIndex
 90
      256
102
RTVSPost2010Prop51ColorRGB
 90
-16777216
102
RTVSPost2010PropOp51
 70
     0
102
RTVSPost2010Prop52
140
1.0
102
RTVSPost2010PropOp52
 70
     0
102
RTVSPost2010Prop53
 90
        2
102
RTVSPost2010PropOp53
 70
     1
102
RTVSPost2010Prop54
  1
strokes_ogs.tif
102
RTVSPost2010PropOp54
 70
     1
102
RTVSPost2010Prop55
280
     0
102
RTVSPost2010PropOp55
 70
     1
102
RTVSPost2010Prop56
140
1.0
102
RTVSPost2010PropOp56
 70
     1
102
RTVSPost2010Prop57
140
1.0
102
RTVSPost2010PropOp57
 70
     1
102
RTVSPropertyOp0
 70
     1
102
RTVSPropertyOp1
 70
     1
102
RTVSPropertyOp2
 70
     1
102
RTVSPropertyOp3
 70
     1
102
RTVSPropertyOp4
 70
     1
102
RTVSPropertyOp5
 70
     1
102
RTVSPropertyOp6
 70
     1
102
RTVSPropertyOp7
 70
     1
102
RTVSPropertyOp8
 70
     1
102
RTVSPropertyOp9
 70
     1
102
RTVSPropertyOp10
 70
     1
102
RTVSPropertyOp11
 70
     1
102
RTVSPropertyOp12
 70
     1
102
RTVSPropertyOp13
 70
     1
102
RTVSPropertyOp14
 70
     1
102
RTVSPropertyOp15
 70
     1
102
RTVSPropertyOp16
 70
     1
102
RTVSPropertyOp17
 70
     1
102
RTVSPropertyOp18
 70
     1
102
RTVSPropertyOp19
 70
     1
102
RTVSPropertyOp20
 70
     1
102
RTVSPropertyOp21
 70
     1
102
RTVSPropertyOp22
 70
     1
102
RTVSPropertyOp23
 70
     1
102
RTVSPropertyOp24
 70
     1
102
RTVSPropertyOp25
 70
     1
102
RTVSPropertyOp26
 70
     1
102
RTVSPropertyOp27
 70
     1
102
RTVSPropertyOp28
 70
     1
102
RTVSPropertyOp29
 70
     1
102
RTVSPropertyOp30
 70
     1
102
RTVSPropertyOp31
 70
     1
102
RTVSPropertyOp32
 70
     1
102
RTVSPropertyOp33
 70
     1
102
RTVSPropertyOp34
 70
     1
102
RTVSPropertyOp35
 70
     1
102
RTVSPropertyOp36
 70
     1
102
RTVSPropertyOp37
 70
     1
102
RTVSPropertyOp38
 70
     1
102
RTVSPropertyOp39
 70
     1
102
RTVSPropertyOp40
 70
     1
102
RTVSPropertyOp41
 70
     1
102
RTVSPropertyOp42
 70
     1
102
RTVSPropertyOp43
 70
     1
102
RTVSPropertyOp44
 70
     1
102
RTVSPropertyOp45
 70
     1
102
RTVSPropertyOp46
 70
     1
102
RTVSPropertyOp47
 70
     1
102
RTVSPropertyOp48
 70
     1
102
RTVSPropertyOp49
 70
     1
102
RTVSPropertyOp50
 70
     1
102
RTVSPropertyOp51
 70
     0
102
RTVSPropertyOp52
 70
     0
102
RTVSPropertyOp53
 70
     1
102
RTVSPropertyOp54
 70
     1
102
RTVSPropertyOp55
 70
     1
102
RTVSPropertyOp56
 70
     1
102
RTVSPropertyOp57
 70
     1
102
RTVSPropertyOp58
 70
     1
102
RTVSPropertyOp59
 70
     1
102
RTVSPropertyOp60
 70
     1
102
RTVSPropertyOp61
 70
     1
102
RTVSPropertyOp62
 70
     1
  0
XRECORD
  5
5EDE
102
{ACAD_REACTORS
330
5EDD
102
}
330
5EDD
100
AcDbXrecord
280
     1
102
RTVSPost2010Prop28
280
     0
102
RTVSPost2010PropOp28
 70
     1
102
RTVSPost2010Prop29
280
     1
102
RTVSPost2010PropOp29
 70
     1
102
RTVSPost2010Prop30
280
     1
102
RTVSPost2010PropOp30
 70
     1
102
RTVSPost2010Prop31
280
     0
102
RTVSPost2010PropOp31
 70
     1
102
RTVSPost2010Prop32
280
     0
102
RTVSPost2010PropOp32
 70
     1
102
RTVSPost2010Prop33
280
     0
102
RTVSPost2010PropOp33
 70
     1
102
RTVSPost2010Prop34
280
     0
102
RTVSPost2010PropOp34
 70
     1
102
RTVSPost2010Prop35
280
     0
102
RTVSPost2010PropOp35
 70
     1
102
RTVSPost2010Prop36
280
     0
102
RTVSPost2010PropOp36
 70
     1
102
RTVSPost2010Prop37
 90
       50
102
RTVSPost2010PropOp37
 70
     1
102
RTVSPost2010Prop38
140
0.0
102
RTVSPost2010PropOp38
 70
     1
102
RTVSPost2010Prop39
140
1.0
102
RTVSPost2010PropOp39
 70
     1
102
RTVSPost2010Prop40
 90
        0
102
RTVSPost2010PropOp40
 70
     1
102
RTVSPost2010Prop41ColorIndex
 90
       18
102
RTVSPost2010Prop41ColorRGB
 90
        0
102
RTVSPost2010PropOp41
 70
     1
102
RTVSPost2010Prop42
 90
       50
102
RTVSPost2010PropOp42
 70
     1
102
RTVSPost2010Prop43
 90
        3
102
RTVSPost2010PropOp43
 70
     1
102
RTVSPost2010Prop44ColorIndex
 90
        5
102
RTVSPost2010Prop44ColorRGB
 90
      255
102
RTVSPost2010PropOp44
 70
     1
102
RTVSPost2010Prop45
280
     0
102
RTVSPost2010PropOp45
 70
     1
102
RTVSPost2010Prop46
 90
       50
102
RTVSPost2010PropOp46
 70
     1
102
RTVSPost2010Prop47
 90
       50
102
RTVSPost2010PropOp47
 70
     1
102
RTVSPost2010Prop48
 90
       50
102
RTVSPost2010PropOp48
 70
     1
102
RTVSPost2010Prop49
280
     0
102
RTVSPost2010PropOp49
 70
     1
102
RTVSPost2010Prop50
 90
       50
102
RTVSPost2010PropOp50
 70
     1
102
RTVSPost2010Prop51ColorIndex
 90
      256
102
RTVSPost2010Prop51ColorRGB
 90
-16777216
102
RTVSPost2010PropOp51
 70
     0
102
RTVSPost2010Prop52
140
1.0
102
RTVSPost2010PropOp52
 70
     0
102
RTVSPost2010Prop53
 90
        2
102
RTVSPost2010PropOp53
 70
     1
102
RTVSPost2010Prop54
  1
strokes_ogs.tif
102
RTVSPost2010PropOp54
 70
     1
102
RTVSPost2010Prop55
280
     0
102
RTVSPost2010PropOp55
 70
     1
102
RTVSPost2010Prop56
140
1.0
102
RTVSPost2010PropOp56
 70
     1
102
RTVSPost2010Prop57
140
1.0
102
RTVSPost2010PropOp57
 70
     1
102
RTVSPropertyOp0
 70
     1
102
RTVSPropertyOp1
 70
     1
102
RTVSPropertyOp2
 70
     1
102
RTVSPropertyOp3
 70
     1
102
RTVSPropertyOp4
 70
     1
102
RTVSPropertyOp5
 70
     1
102
RTVSPropertyOp6
 70
     1
102
RTVSPropertyOp7
 70
     1
102
RTVSPropertyOp8
 70
     1
102
RTVSPropertyOp9
 70
     1
102
RTVSPropertyOp10
 70
     1
102
RTVSPropertyOp11
 70
     1
102
RTVSPropertyOp12
 70
     1
102
RTVSPropertyOp13
 70
     1
102
RTVSPropertyOp14
 70
     1
102
RTVSPropertyOp15
 70
     1
102
RTVSPropertyOp16
 70
     1
102
RTVSPropertyOp17
 70
     1
102
RTVSPropertyOp18
 70
     1
102
RTVSPropertyOp19
 70
     1
102
RTVSPropertyOp20
 70
     1
102
RTVSPropertyOp21
 70
     1
102
RTVSPropertyOp22
 70
     1
102
RTVSPropertyOp23
 70
     1
102
RTVSPropertyOp24
 70
     1
102
RTVSPropertyOp25
 70
     1
102
RTVSPropertyOp26
 70
     1
102
RTVSPropertyOp27
 70
     1
102
RTVSPropertyOp28
 70
     1
102
RTVSPropertyOp29
 70
     1
102
RTVSPropertyOp30
 70
     1
102
RTVSPropertyOp31
 70
     1
102
RTVSPropertyOp32
 70
     1
102
RTVSPropertyOp33
 70
     1
102
RTVSPropertyOp34
 70
     1
102
RTVSPropertyOp35
 70
     1
102
RTVSPropertyOp36
 70
     1
102
RTVSPropertyOp37
 70
     1
102
RTVSPropertyOp38
 70
     1
102
RTVSPropertyOp39
 70
     1
102
RTVSPropertyOp40
 70
     1
102
RTVSPropertyOp41
 70
     1
102
RTVSPropertyOp42
 70
     1
102
RTVSPropertyOp43
 70
     1
102
RTVSPropertyOp44
 70
     1
102
RTVSPropertyOp45
 70
     1
102
RTVSPropertyOp46
 70
     1
102
RTVSPropertyOp47
 70
     1
102
RTVSPropertyOp48
 70
     1
102
RTVSPropertyOp49
 70
     1
102
RTVSPropertyOp50
 70
     1
102
RTVSPropertyOp51
 70
     0
102
RTVSPropertyOp52
 70
     0
102
RTVSPropertyOp53
 70
     1
102
RTVSPropertyOp54
 70
     1
102
RTVSPropertyOp55
 70
     1
102
RTVSPropertyOp56
 70
     1
102
RTVSPropertyOp57
 70
     1
102
RTVSPropertyOp58
 70
     1
102
RTVSPropertyOp59
 70
     1
102
RTVSPropertyOp60
 70
     1
102
RTVSPropertyOp61
 70
     1
102
RTVSPropertyOp62
 70
     1
  0
XRECORD
  5
5EF8
102
{ACAD_REACTORS
330
5EF7
102
}
330
5EF7
100
AcDbXrecord
280
     1
102
RTVSPost2010Prop28
280
     0
102
RTVSPost2010PropOp28
 70
     1
102
RTVSPost2010Prop29
280
     1
102
RTVSPost2010PropOp29
 70
     1
102
RTVSPost2010Prop30
280
     1
102
RTVSPost2010PropOp30
 70
     1
102
RTVSPost2010Prop31
280
     0
102
RTVSPost2010PropOp31
 70
     1
102
RTVSPost2010Prop32
280
     0
102
RTVSPost2010PropOp32
 70
     1
102
RTVSPost2010Prop33
280
     0
102
RTVSPost2010PropOp33
 70
     1
102
RTVSPost2010Prop34
280
     0
102
RTVSPost2010PropOp34
 70
     1
102
RTVSPost2010Prop35
280
     0
102
RTVSPost2010PropOp35
 70
     1
102
RTVSPost2010Prop36
280
     0
102
RTVSPost2010PropOp36
 70
     1
102
RTVSPost2010Prop37
 90
       50
102
RTVSPost2010PropOp37
 70
     0
102
RTVSPost2010Prop38
140
0.0
102
RTVSPost2010PropOp38
 70
     0
102
RTVSPost2010Prop39
140
1.0
102
RTVSPost2010PropOp39
 70
     0
102
RTVSPost2010Prop40
 90
        0
102
RTVSPost2010PropOp40
 70
     0
102
RTVSPost2010Prop41ColorIndex
 90
       18
102
RTVSPost2010Prop41ColorRGB
 90
        0
102
RTVSPost2010PropOp41
 70
     0
102
RTVSPost2010Prop42
 90
       50
102
RTVSPost2010PropOp42
 70
     0
102
RTVSPost2010Prop43
 90
        3
102
RTVSPost2010PropOp43
 70
     0
102
RTVSPost2010Prop44ColorIndex
 90
        5
102
RTVSPost2010Prop44ColorRGB
 90
      255
102
RTVSPost2010PropOp44
 70
     0
102
RTVSPost2010Prop45
280
     0
102
RTVSPost2010PropOp45
 70
     1
102
RTVSPost2010Prop46
 90
       50
102
RTVSPost2010PropOp46
 70
     0
102
RTVSPost2010Prop47
 90
       50
102
RTVSPost2010PropOp47
 70
     0
102
RTVSPost2010Prop48
 90
       50
102
RTVSPost2010PropOp48
 70
     0
102
RTVSPost2010Prop49
280
     0
102
RTVSPost2010PropOp49
 70
     1
102
RTVSPost2010Prop50
 90
       50
102
RTVSPost2010PropOp50
 70
     0
102
RTVSPost2010Prop51ColorIndex
 90
      256
102
RTVSPost2010Prop51ColorRGB
 90
-16777216
102
RTVSPost2010PropOp51
 70
     0
102
RTVSPost2010Prop52
140
1.0
102
RTVSPost2010PropOp52
 70
     0
102
RTVSPost2010Prop53
 90
        2
102
RTVSPost2010PropOp53
 70
     0
102
RTVSPost2010Prop54
  1
strokes_ogs.tif
102
RTVSPost2010PropOp54
 70
     0
102
RTVSPost2010Prop55
280
     0
102
RTVSPost2010PropOp55
 70
     1
102
RTVSPost2010Prop56
140
1.0
102
RTVSPost2010PropOp56
 70
     0
102
RTVSPost2010Prop57
140
1.0
102
RTVSPost2010PropOp57
 70
     0
102
RTVSPropertyOp0
 70
     0
102
RTVSPropertyOp1
 70
     0
102
RTVSPropertyOp2
 70
     0
102
RTVSPropertyOp3
 70
     0
102
RTVSPropertyOp4
 70
     0
102
RTVSPropertyOp5
 70
     0
102
RTVSPropertyOp6
 70
     0
102
RTVSPropertyOp7
 70
     0
102
RTVSPropertyOp8
 70
     0
102
RTVSPropertyOp9
 70
     0
102
RTVSPropertyOp10
 70
     0
102
RTVSPropertyOp11
 70
     0
102
RTVSPropertyOp12
 70
     0
102
RTVSPropertyOp13
 70
     0
102
RTVSPropertyOp14
 70
     2
102
RTVSPropertyOp15
 70
     0
102
RTVSPropertyOp16
 70
     0
102
RTVSPropertyOp17
 70
     0
102
RTVSPropertyOp18
 70
     0
102
RTVSPropertyOp19
 70
     0
102
RTVSPropertyOp20
 70
     0
102
RTVSPropertyOp21
 70
     0
102
RTVSPropertyOp22
 70
     0
102
RTVSPropertyOp23
 70
     0
102
RTVSPropertyOp24
 70
     0
102
RTVSPropertyOp25
 70
     0
102
RTVSPropertyOp26
 70
     0
102
RTVSPropertyOp27
 70
     0
102
RTVSPropertyOp28
 70
     1
102
RTVSPropertyOp29
 70
     1
102
RTVSPropertyOp30
 70
     1
102
RTVSPropertyOp31
 70
     1
102
RTVSPropertyOp32
 70
     1
102
RTVSPropertyOp33
 70
     1
102
RTVSPropertyOp34
 70
     1
102
RTVSPropertyOp35
 70
     1
102
RTVSPropertyOp36
 70
     1
102
RTVSPropertyOp37
 70
     0
102
RTVSPropertyOp38
 70
     0
102
RTVSPropertyOp39
 70
     0
102
RTVSPropertyOp40
 70
     0
102
RTVSPropertyOp41
 70
     0
102
RTVSPropertyOp42
 70
     0
102
RTVSPropertyOp43
 70
     0
102
RTVSPropertyOp44
 70
     0
102
RTVSPropertyOp45
 70
     1
102
RTVSPropertyOp46
 70
     0
102
RTVSPropertyOp47
 70
     0
102
RTVSPropertyOp48
 70
     0
102
RTVSPropertyOp49
 70
     1
102
RTVSPropertyOp50
 70
     0
102
RTVSPropertyOp51
 70
     0
102
RTVSPropertyOp52
 70
     0
102
RTVSPropertyOp53
 70
     0
102
RTVSPropertyOp54
 70
     0
102
RTVSPropertyOp55
 70
     1
102
RTVSPropertyOp56
 70
     0
102
RTVSPropertyOp57
 70
     0
102
RTVSPropertyOp58
 70
     0
102
RTVSPropertyOp59
 70
     0
102
RTVSPropertyOp60
 70
     0
102
RTVSPropertyOp61
 70
     0
102
RTVSPropertyOp62
 70
     0
  0
XRECORD
  5
5EE6
102
{ACAD_REACTORS
330
5EE5
102
}
330
5EE5
100
AcDbXrecord
280
     1
102
RTVSPost2010Prop28
280
     0
102
RTVSPost2010PropOp28
 70
     1
102
RTVSPost2010Prop29
280
     1
102
RTVSPost2010PropOp29
 70
     1
102
RTVSPost2010Prop30
280
     1
102
RTVSPost2010PropOp30
 70
     1
102
RTVSPost2010Prop31
280
     0
102
RTVSPost2010PropOp31
 70
     1
102
RTVSPost2010Prop32
280
     0
102
RTVSPost2010PropOp32
 70
     1
102
RTVSPost2010Prop33
280
     0
102
RTVSPost2010PropOp33
 70
     1
102
RTVSPost2010Prop34
280
     0
102
RTVSPost2010PropOp34
 70
     1
102
RTVSPost2010Prop35
280
     0
102
RTVSPost2010PropOp35
 70
     1
102
RTVSPost2010Prop36
280
     0
102
RTVSPost2010PropOp36
 70
     1
102
RTVSPost2010Prop37
 90
       50
102
RTVSPost2010PropOp37
 70
     1
102
RTVSPost2010Prop38
140
0.0
102
RTVSPost2010PropOp38
 70
     1
102
RTVSPost2010Prop39
140
1.0
102
RTVSPost2010PropOp39
 70
     1
102
RTVSPost2010Prop40
 90
        0
102
RTVSPost2010PropOp40
 70
     1
102
RTVSPost2010Prop41ColorIndex
 90
       18
102
RTVSPost2010Prop41ColorRGB
 90
        0
102
RTVSPost2010PropOp41
 70
     1
102
RTVSPost2010Prop42
 90
       50
102
RTVSPost2010PropOp42
 70
     1
102
RTVSPost2010Prop43
 90
        3
102
RTVSPost2010PropOp43
 70
     1
102
RTVSPost2010Prop44ColorIndex
 90
        5
102
RTVSPost2010Prop44ColorRGB
 90
      255
102
RTVSPost2010PropOp44
 70
     1
102
RTVSPost2010Prop45
280
     0
102
RTVSPost2010PropOp45
 70
     1
102
RTVSPost2010Prop46
 90
       50
102
RTVSPost2010PropOp46
 70
     1
102
RTVSPost2010Prop47
 90
       50
102
RTVSPost2010PropOp47
 70
     1
102
RTVSPost2010Prop48
 90
       50
102
RTVSPost2010PropOp48
 70
     1
102
RTVSPost2010Prop49
280
     0
102
RTVSPost2010PropOp49
 70
     1
102
RTVSPost2010Prop50
 90
       50
102
RTVSPost2010PropOp50
 70
     1
102
RTVSPost2010Prop51ColorIndex
 90
      256
102
RTVSPost2010Prop51ColorRGB
 90
-16777216
102
RTVSPost2010PropOp51
 70
     0
102
RTVSPost2010Prop52
140
1.0
102
RTVSPost2010PropOp52
 70
     0
102
RTVSPost2010Prop53
 90
        2
102
RTVSPost2010PropOp53
 70
     1
102
RTVSPost2010Prop54
  1
strokes_ogs.tif
102
RTVSPost2010PropOp54
 70
     1
102
RTVSPost2010Prop55
280
     0
102
RTVSPost2010PropOp55
 70
     1
102
RTVSPost2010Prop56
140
1.0
102
RTVSPost2010PropOp56
 70
     1
102
RTVSPost2010Prop57
140
1.0
102
RTVSPost2010PropOp57
 70
     1
102
RTVSPropertyOp0
 70
     1
102
RTVSPropertyOp1
 70
     1
102
RTVSPropertyOp2
 70
     1
102
RTVSPropertyOp3
 70
     1
102
RTVSPropertyOp4
 70
     1
102
RTVSPropertyOp5
 70
     1
102
RTVSPropertyOp6
 70
     1
102
RTVSPropertyOp7
 70
     1
102
RTVSPropertyOp8
 70
     1
102
RTVSPropertyOp9
 70
     1
102
RTVSPropertyOp10
 70
     1
102
RTVSPropertyOp11
 70
     1
102
RTVSPropertyOp12
 70
     1
102
RTVSPropertyOp13
 70
     1
102
RTVSPropertyOp14
 70
     1
102
RTVSPropertyOp15
 70
     1
102
RTVSPropertyOp16
 70
     1
102
RTVSPropertyOp17
 70
     1
102
RTVSPropertyOp18
 70
     1
102
RTVSPropertyOp19
 70
     1
102
RTVSPropertyOp20
 70
     1
102
RTVSPropertyOp21
 70
     1
102
RTVSPropertyOp22
 70
     1
102
RTVSPropertyOp23
 70
     1
102
RTVSPropertyOp24
 70
     1
102
RTVSPropertyOp25
 70
     1
102
RTVSPropertyOp26
 70
     1
102
RTVSPropertyOp27
 70
     1
102
RTVSPropertyOp28
 70
     1
102
RTVSPropertyOp29
 70
     1
102
RTVSPropertyOp30
 70
     1
102
RTVSPropertyOp31
 70
     1
102
RTVSPropertyOp32
 70
     1
102
RTVSPropertyOp33
 70
     1
102
RTVSPropertyOp34
 70
     1
102
RTVSPropertyOp35
 70
     1
102
RTVSPropertyOp36
 70
     1
102
RTVSPropertyOp37
 70
     1
102
RTVSPropertyOp38
 70
     1
102
RTVSPropertyOp39
 70
     1
102
RTVSPropertyOp40
 70
     1
102
RTVSPropertyOp41
 70
     1
102
RTVSPropertyOp42
 70
     1
102
RTVSPropertyOp43
 70
     1
102
RTVSPropertyOp44
 70
     1
102
RTVSPropertyOp45
 70
     1
102
RTVSPropertyOp46
 70
     1
102
RTVSPropertyOp47
 70
     1
102
RTVSPropertyOp48
 70
     1
102
RTVSPropertyOp49
 70
     1
102
RTVSPropertyOp50
 70
     1
102
RTVSPropertyOp51
 70
     0
102
RTVSPropertyOp52
 70
     0
102
RTVSPropertyOp53
 70
     1
102
RTVSPropertyOp54
 70
     1
102
RTVSPropertyOp55
 70
     1
102
RTVSPropertyOp56
 70
     1
102
RTVSPropertyOp57
 70
     1
102
RTVSPropertyOp58
 70
     1
102
RTVSPropertyOp59
 70
     1
102
RTVSPropertyOp60
 70
     1
102
RTVSPropertyOp61
 70
     1
102
RTVSPropertyOp62
 70
     1
  0
XRECORD
  5
5ECA
102
{ACAD_REACTORS
330
5EC9
102
}
330
5EC9
100
AcDbXrecord
280
     1
102
RTVSPost2010Prop28
280
     0
102
RTVSPost2010PropOp28
 70
     1
102
RTVSPost2010Prop29
280
     1
102
RTVSPost2010PropOp29
 70
     1
102
RTVSPost2010Prop30
280
     1
102
RTVSPost2010PropOp30
 70
     1
102
RTVSPost2010Prop31
280
     0
102
RTVSPost2010PropOp31
 70
     1
102
RTVSPost2010Prop32
280
     0
102
RTVSPost2010PropOp32
 70
     1
102
RTVSPost2010Prop33
280
     0
102
RTVSPost2010PropOp33
 70
     1
102
RTVSPost2010Prop34
280
     0
102
RTVSPost2010PropOp34
 70
     1
102
RTVSPost2010Prop35
280
     0
102
RTVSPost2010PropOp35
 70
     1
102
RTVSPost2010Prop36
280
     0
102
RTVSPost2010PropOp36
 70
     1
102
RTVSPost2010Prop37
 90
       50
102
RTVSPost2010PropOp37
 70
     1
102
RTVSPost2010Prop38
140
0.0
102
RTVSPost2010PropOp38
 70
     1
102
RTVSPost2010Prop39
140
1.0
102
RTVSPost2010PropOp39
 70
     1
102
RTVSPost2010Prop40
 90
        0
102
RTVSPost2010PropOp40
 70
     1
102
RTVSPost2010Prop41ColorIndex
 90
       18
102
RTVSPost2010Prop41ColorRGB
 90
        0
102
RTVSPost2010PropOp41
 70
     1
102
RTVSPost2010Prop42
 90
       50
102
RTVSPost2010PropOp42
 70
     1
102
RTVSPost2010Prop43
 90
        3
102
RTVSPost2010PropOp43
 70
     1
102
RTVSPost2010Prop44ColorIndex
 90
        5
102
RTVSPost2010Prop44ColorRGB
 90
      255
102
RTVSPost2010PropOp44
 70
     1
102
RTVSPost2010Prop45
280
     0
102
RTVSPost2010PropOp45
 70
     1
102
RTVSPost2010Prop46
 90
       50
102
RTVSPost2010PropOp46
 70
     1
102
RTVSPost2010Prop47
 90
       50
102
RTVSPost2010PropOp47
 70
     1
102
RTVSPost2010Prop48
 90
       50
102
RTVSPost2010PropOp48
 70
     1
102
RTVSPost2010Prop49
280
     0
102
RTVSPost2010PropOp49
 70
     1
102
RTVSPost2010Prop50
 90
       50
102
RTVSPost2010PropOp50
 70
     1
102
RTVSPost2010Prop51ColorIndex
 90
      256
102
RTVSPost2010Prop51ColorRGB
 90
-16777216
102
RTVSPost2010PropOp51
 70
     0
102
RTVSPost2010Prop52
140
1.0
102
RTVSPost2010PropOp52
 70
     0
102
RTVSPost2010Prop53
 90
        2
102
RTVSPost2010PropOp53
 70
     1
102
RTVSPost2010Prop54
  1
strokes_ogs.tif
102
RTVSPost2010PropOp54
 70
     1
102
RTVSPost2010Prop55
280
     0
102
RTVSPost2010PropOp55
 70
     1
102
RTVSPost2010Prop56
140
1.0
102
RTVSPost2010PropOp56
 70
     1
102
RTVSPost2010Prop57
140
1.0
102
RTVSPost2010PropOp57
 70
     1
102
RTVSPropertyOp0
 70
     1
102
RTVSPropertyOp1
 70
     1
102
RTVSPropertyOp2
 70
     1
102
RTVSPropertyOp3
 70
     1
102
RTVSPropertyOp4
 70
     1
102
RTVSPropertyOp5
 70
     1
102
RTVSPropertyOp6
 70
     1
102
RTVSPropertyOp7
 70
     1
102
RTVSPropertyOp8
 70
     1
102
RTVSPropertyOp9
 70
     1
102
RTVSPropertyOp10
 70
     1
102
RTVSPropertyOp11
 70
     1
102
RTVSPropertyOp12
 70
     1
102
RTVSPropertyOp13
 70
     1
102
RTVSPropertyOp14
 70
     1
102
RTVSPropertyOp15
 70
     1
102
RTVSPropertyOp16
 70
     1
102
RTVSPropertyOp17
 70
     1
102
RTVSPropertyOp18
 70
     1
102
RTVSPropertyOp19
 70
     1
102
RTVSPropertyOp20
 70
     1
102
RTVSPropertyOp21
 70
     1
102
RTVSPropertyOp22
 70
     1
102
RTVSPropertyOp23
 70
     1
102
RTVSPropertyOp24
 70
     1
102
RTVSPropertyOp25
 70
     1
102
RTVSPropertyOp26
 70
     1
102
RTVSPropertyOp27
 70
     1
102
RTVSPropertyOp28
 70
     1
102
RTVSPropertyOp29
 70
     1
102
RTVSPropertyOp30
 70
     1
102
RTVSPropertyOp31
 70
     1
102
RTVSPropertyOp32
 70
     1
102
RTVSPropertyOp33
 70
     1
102
RTVSPropertyOp34
 70
     1
102
RTVSPropertyOp35
 70
     1
102
RTVSPropertyOp36
 70
     1
102
RTVSPropertyOp37
 70
     1
102
RTVSPropertyOp38
 70
     1
102
RTVSPropertyOp39
 70
     1
102
RTVSPropertyOp40
 70
     1
102
RTVSPropertyOp41
 70
     1
102
RTVSPropertyOp42
 70
     1
102
RTVSPropertyOp43
 70
     1
102
RTVSPropertyOp44
 70
     1
102
RTVSPropertyOp45
 70
     1
102
RTVSPropertyOp46
 70
     1
102
RTVSPropertyOp47
 70
     1
102
RTVSPropertyOp48
 70
     1
102
RTVSPropertyOp49
 70
     1
102
RTVSPropertyOp50
 70
     1
102
RTVSPropertyOp51
 70
     0
102
RTVSPropertyOp52
 70
     0
102
RTVSPropertyOp53
 70
     1
102
RTVSPropertyOp54
 70
     1
102
RTVSPropertyOp55
 70
     1
102
RTVSPropertyOp56
 70
     1
102
RTVSPropertyOp57
 70
     1
102
RTVSPropertyOp58
 70
     1
102
RTVSPropertyOp59
 70
     1
102
RTVSPropertyOp60
 70
     1
102
RTVSPropertyOp61
 70
     1
102
RTVSPropertyOp62
 70
     1
  0
XRECORD
  5
5ECC
102
{ACAD_REACTORS
330
5ECB
102
}
330
5ECB
100
AcDbXrecord
280
     1
102
RTVSPost2010Prop28
280
     0
102
RTVSPost2010PropOp28
 70
     1
102
RTVSPost2010Prop29
280
     1
102
RTVSPost2010PropOp29
 70
     1
102
RTVSPost2010Prop30
280
     1
102
RTVSPost2010PropOp30
 70
     1
102
RTVSPost2010Prop31
280
     0
102
RTVSPost2010PropOp31
 70
     1
102
RTVSPost2010Prop32
280
     0
102
RTVSPost2010PropOp32
 70
     1
102
RTVSPost2010Prop33
280
     0
102
RTVSPost2010PropOp33
 70
     1
102
RTVSPost2010Prop34
280
     0
102
RTVSPost2010PropOp34
 70
     1
102
RTVSPost2010Prop35
280
     0
102
RTVSPost2010PropOp35
 70
     1
102
RTVSPost2010Prop36
280
     0
102
RTVSPost2010PropOp36
 70
     1
102
RTVSPost2010Prop37
 90
       50
102
RTVSPost2010PropOp37
 70
     1
102
RTVSPost2010Prop38
140
0.0
102
RTVSPost2010PropOp38
 70
     1
102
RTVSPost2010Prop39
140
1.0
102
RTVSPost2010PropOp39
 70
     1
102
RTVSPost2010Prop40
 90
        0
102
RTVSPost2010PropOp40
 70
     1
102
RTVSPost2010Prop41ColorIndex
 90
       18
102
RTVSPost2010Prop41ColorRGB
 90
        0
102
RTVSPost2010PropOp41
 70
     1
102
RTVSPost2010Prop42
 90
       50
102
RTVSPost2010PropOp42
 70
     1
102
RTVSPost2010Prop43
 90
        3
102
RTVSPost2010PropOp43
 70
     1
102
RTVSPost2010Prop44ColorIndex
 90
        5
102
RTVSPost2010Prop44ColorRGB
 90
      255
102
RTVSPost2010PropOp44
 70
     1
102
RTVSPost2010Prop45
280
     0
102
RTVSPost2010PropOp45
 70
     1
102
RTVSPost2010Prop46
 90
       50
102
RTVSPost2010PropOp46
 70
     1
102
RTVSPost2010Prop47
 90
       50
102
RTVSPost2010PropOp47
 70
     1
102
RTVSPost2010Prop48
 90
       50
102
RTVSPost2010PropOp48
 70
     1
102
RTVSPost2010Prop49
280
     0
102
RTVSPost2010PropOp49
 70
     1
102
RTVSPost2010Prop50
 90
       50
102
RTVSPost2010PropOp50
 70
     1
102
RTVSPost2010Prop51ColorIndex
 90
      256
102
RTVSPost2010Prop51ColorRGB
 90
-16777216
102
RTVSPost2010PropOp51
 70
     0
102
RTVSPost2010Prop52
140
1.0
102
RTVSPost2010PropOp52
 70
     0
102
RTVSPost2010Prop53
 90
        2
102
RTVSPost2010PropOp53
 70
     1
102
RTVSPost2010Prop54
  1
strokes_ogs.tif
102
RTVSPost2010PropOp54
 70
     1
102
RTVSPost2010Prop55
280
     0
102
RTVSPost2010PropOp55
 70
     1
102
RTVSPost2010Prop56
140
1.0
102
RTVSPost2010PropOp56
 70
     1
102
RTVSPost2010Prop57
140
1.0
102
RTVSPost2010PropOp57
 70
     1
102
RTVSPropertyOp0
 70
     1
102
RTVSPropertyOp1
 70
     1
102
RTVSPropertyOp2
 70
     1
102
RTVSPropertyOp3
 70
     1
102
RTVSPropertyOp4
 70
     1
102
RTVSPropertyOp5
 70
     1
102
RTVSPropertyOp6
 70
     1
102
RTVSPropertyOp7
 70
     1
102
RTVSPropertyOp8
 70
     1
102
RTVSPropertyOp9
 70
     1
102
RTVSPropertyOp10
 70
     1
102
RTVSPropertyOp11
 70
     1
102
RTVSPropertyOp12
 70
     1
102
RTVSPropertyOp13
 70
     1
102
RTVSPropertyOp14
 70
     1
102
RTVSPropertyOp15
 70
     1
102
RTVSPropertyOp16
 70
     1
102
RTVSPropertyOp17
 70
     1
102
RTVSPropertyOp18
 70
     1
102
RTVSPropertyOp19
 70
     1
102
RTVSPropertyOp20
 70
     1
102
RTVSPropertyOp21
 70
     1
102
RTVSPropertyOp22
 70
     1
102
RTVSPropertyOp23
 70
     1
102
RTVSPropertyOp24
 70
     1
102
RTVSPropertyOp25
 70
     1
102
RTVSPropertyOp26
 70
     1
102
RTVSPropertyOp27
 70
     1
102
RTVSPropertyOp28
 70
     1
102
RTVSPropertyOp29
 70
     1
102
RTVSPropertyOp30
 70
     1
102
RTVSPropertyOp31
 70
     1
102
RTVSPropertyOp32
 70
     1
102
RTVSPropertyOp33
 70
     1
102
RTVSPropertyOp34
 70
     1
102
RTVSPropertyOp35
 70
     1
102
RTVSPropertyOp36
 70
     1
102
RTVSPropertyOp37
 70
     1
102
RTVSPropertyOp38
 70
     1
102
RTVSPropertyOp39
 70
     1
102
RTVSPropertyOp40
 70
     1
102
RTVSPropertyOp41
 70
     1
102
RTVSPropertyOp42
 70
     1
102
RTVSPropertyOp43
 70
     1
102
RTVSPropertyOp44
 70
     1
102
RTVSPropertyOp45
 70
     1
102
RTVSPropertyOp46
 70
     1
102
RTVSPropertyOp47
 70
     1
102
RTVSPropertyOp48
 70
     1
102
RTVSPropertyOp49
 70
     1
102
RTVSPropertyOp50
 70
     1
102
RTVSPropertyOp51
 70
     0
102
RTVSPropertyOp52
 70
     0
102
RTVSPropertyOp53
 70
     1
102
RTVSPropertyOp54
 70
     1
102
RTVSPropertyOp55
 70
     1
102
RTVSPropertyOp56
 70
     1
102
RTVSPropertyOp57
 70
     1
102
RTVSPropertyOp58
 70
     1
102
RTVSPropertyOp59
 70
     1
102
RTVSPropertyOp60
 70
     1
102
RTVSPropertyOp61
 70
     1
102
RTVSPropertyOp62
 70
     1
  0
XRECORD
  5
5ECE
102
{ACAD_REACTORS
330
5ECD
102
}
330
5ECD
100
AcDbXrecord
280
     1
102
RTVSPost2010Prop28
280
     0
102
RTVSPost2010PropOp28
 70
     1
102
RTVSPost2010Prop29
280
     1
102
RTVSPost2010PropOp29
 70
     1
102
RTVSPost2010Prop30
280
     1
102
RTVSPost2010PropOp30
 70
     1
102
RTVSPost2010Prop31
280
     0
102
RTVSPost2010PropOp31
 70
     1
102
RTVSPost2010Prop32
280
     0
102
RTVSPost2010PropOp32
 70
     1
102
RTVSPost2010Prop33
280
     0
102
RTVSPost2010PropOp33
 70
     1
102
RTVSPost2010Prop34
280
     0
102
RTVSPost2010PropOp34
 70
     1
102
RTVSPost2010Prop35
280
     0
102
RTVSPost2010PropOp35
 70
     1
102
RTVSPost2010Prop36
280
     0
102
RTVSPost2010PropOp36
 70
     1
102
RTVSPost2010Prop37
 90
       50
102
RTVSPost2010PropOp37
 70
     1
102
RTVSPost2010Prop38
140
0.0
102
RTVSPost2010PropOp38
 70
     1
102
RTVSPost2010Prop39
140
1.0
102
RTVSPost2010PropOp39
 70
     1
102
RTVSPost2010Prop40
 90
        0
102
RTVSPost2010PropOp40
 70
     1
102
RTVSPost2010Prop41ColorIndex
 90
       18
102
RTVSPost2010Prop41ColorRGB
 90
        0
102
RTVSPost2010PropOp41
 70
     1
102
RTVSPost2010Prop42
 90
       50
102
RTVSPost2010PropOp42
 70
     1
102
RTVSPost2010Prop43
 90
        3
102
RTVSPost2010PropOp43
 70
     1
102
RTVSPost2010Prop44ColorIndex
 90
        5
102
RTVSPost2010Prop44ColorRGB
 90
      255
102
RTVSPost2010PropOp44
 70
     1
102
RTVSPost2010Prop45
280
     0
102
RTVSPost2010PropOp45
 70
     1
102
RTVSPost2010Prop46
 90
       50
102
RTVSPost2010PropOp46
 70
     1
102
RTVSPost2010Prop47
 90
       50
102
RTVSPost2010PropOp47
 70
     1
102
RTVSPost2010Prop48
 90
       50
102
RTVSPost2010PropOp48
 70
     1
102
RTVSPost2010Prop49
280
     0
102
RTVSPost2010PropOp49
 70
     1
102
RTVSPost2010Prop50
 90
       50
102
RTVSPost2010PropOp50
 70
     1
102
RTVSPost2010Prop51ColorIndex
 90
      256
102
RTVSPost2010Prop51ColorRGB
 90
-16777216
102
RTVSPost2010PropOp51
 70
     0
102
RTVSPost2010Prop52
140
1.0
102
RTVSPost2010PropOp52
 70
     0
102
RTVSPost2010Prop53
 90
        2
102
RTVSPost2010PropOp53
 70
     1
102
RTVSPost2010Prop54
  1
strokes_ogs.tif
102
RTVSPost2010PropOp54
 70
     1
102
RTVSPost2010Prop55
280
     0
102
RTVSPost2010PropOp55
 70
     1
102
RTVSPost2010Prop56
140
1.0
102
RTVSPost2010PropOp56
 70
     1
102
RTVSPost2010Prop57
140
1.0
102
RTVSPost2010PropOp57
 70
     1
102
RTVSPropertyOp0
 70
     1
102
RTVSPropertyOp1
 70
     1
102
RTVSPropertyOp2
 70
     1
102
RTVSPropertyOp3
 70
     1
102
RTVSPropertyOp4
 70
     1
102
RTVSPropertyOp5
 70
     1
102
RTVSPropertyOp6
 70
     1
102
RTVSPropertyOp7
 70
     1
102
RTVSPropertyOp8
 70
     1
102
RTVSPropertyOp9
 70
     1
102
RTVSPropertyOp10
 70
     1
102
RTVSPropertyOp11
 70
     1
102
RTVSPropertyOp12
 70
     1
102
RTVSPropertyOp13
 70
     1
102
RTVSPropertyOp14
 70
     1
102
RTVSPropertyOp15
 70
     1
102
RTVSPropertyOp16
 70
     1
102
RTVSPropertyOp17
 70
     1
102
RTVSPropertyOp18
 70
     1
102
RTVSPropertyOp19
 70
     1
102
RTVSPropertyOp20
 70
     1
102
RTVSPropertyOp21
 70
     1
102
RTVSPropertyOp22
 70
     1
102
RTVSPropertyOp23
 70
     1
102
RTVSPropertyOp24
 70
     1
102
RTVSPropertyOp25
 70
     1
102
RTVSPropertyOp26
 70
     1
102
RTVSPropertyOp27
 70
     1
102
RTVSPropertyOp28
 70
     1
102
RTVSPropertyOp29
 70
     1
102
RTVSPropertyOp30
 70
     1
102
RTVSPropertyOp31
 70
     1
102
RTVSPropertyOp32
 70
     1
102
RTVSPropertyOp33
 70
     1
102
RTVSPropertyOp34
 70
     1
102
RTVSPropertyOp35
 70
     1
102
RTVSPropertyOp36
 70
     1
102
RTVSPropertyOp37
 70
     1
102
RTVSPropertyOp38
 70
     1
102
RTVSPropertyOp39
 70
     1
102
RTVSPropertyOp40
 70
     1
102
RTVSPropertyOp41
 70
     1
102
RTVSPropertyOp42
 70
     1
102
RTVSPropertyOp43
 70
     1
102
RTVSPropertyOp44
 70
     1
102
RTVSPropertyOp45
 70
     1
102
RTVSPropertyOp46
 70
     1
102
RTVSPropertyOp47
 70
     1
102
RTVSPropertyOp48
 70
     1
102
RTVSPropertyOp49
 70
     1
102
RTVSPropertyOp50
 70
     1
102
RTVSPropertyOp51
 70
     0
102
RTVSPropertyOp52
 70
     0
102
RTVSPropertyOp53
 70
     1
102
RTVSPropertyOp54
 70
     1
102
RTVSPropertyOp55
 70
     1
102
RTVSPropertyOp56
 70
     1
102
RTVSPropertyOp57
 70
     1
102
RTVSPropertyOp58
 70
     1
102
RTVSPropertyOp59
 70
     1
102
RTVSPropertyOp60
 70
     1
102
RTVSPropertyOp61
 70
     1
102
RTVSPropertyOp62
 70
     1
  0
XRECORD
  5
5ED0
102
{ACAD_REACTORS
330
5ECF
102
}
330
5ECF
100
AcDbXrecord
280
     1
102
RTVSPost2010Prop28
280
     0
102
RTVSPost2010PropOp28
 70
     1
102
RTVSPost2010Prop29
280
     1
102
RTVSPost2010PropOp29
 70
     1
102
RTVSPost2010Prop30
280
     1
102
RTVSPost2010PropOp30
 70
     1
102
RTVSPost2010Prop31
280
     0
102
RTVSPost2010PropOp31
 70
     1
102
RTVSPost2010Prop32
280
     0
102
RTVSPost2010PropOp32
 70
     1
102
RTVSPost2010Prop33
280
     0
102
RTVSPost2010PropOp33
 70
     1
102
RTVSPost2010Prop34
280
     0
102
RTVSPost2010PropOp34
 70
     1
102
RTVSPost2010Prop35
280
     0
102
RTVSPost2010PropOp35
 70
     1
102
RTVSPost2010Prop36
280
     0
102
RTVSPost2010PropOp36
 70
     1
102
RTVSPost2010Prop37
 90
       50
102
RTVSPost2010PropOp37
 70
     1
102
RTVSPost2010Prop38
140
0.0
102
RTVSPost2010PropOp38
 70
     1
102
RTVSPost2010Prop39
140
1.0
102
RTVSPost2010PropOp39
 70
     1
102
RTVSPost2010Prop40
 90
        0
102
RTVSPost2010PropOp40
 70
     1
102
RTVSPost2010Prop41ColorIndex
 90
       18
102
RTVSPost2010Prop41ColorRGB
 90
        0
102
RTVSPost2010PropOp41
 70
     1
102
RTVSPost2010Prop42
 90
       50
102
RTVSPost2010PropOp42
 70
     1
102
RTVSPost2010Prop43
 90
        3
102
RTVSPost2010PropOp43
 70
     1
102
RTVSPost2010Prop44ColorIndex
 90
        5
102
RTVSPost2010Prop44ColorRGB
 90
      255
102
RTVSPost2010PropOp44
 70
     1
102
RTVSPost2010Prop45
280
     0
102
RTVSPost2010PropOp45
 70
     1
102
RTVSPost2010Prop46
 90
       50
102
RTVSPost2010PropOp46
 70
     1
102
RTVSPost2010Prop47
 90
       50
102
RTVSPost2010PropOp47
 70
     1
102
RTVSPost2010Prop48
 90
       50
102
RTVSPost2010PropOp48
 70
     1
102
RTVSPost2010Prop49
280
     0
102
RTVSPost2010PropOp49
 70
     1
102
RTVSPost2010Prop50
 90
       50
102
RTVSPost2010PropOp50
 70
     1
102
RTVSPost2010Prop51ColorIndex
 90
      256
102
RTVSPost2010Prop51ColorRGB
 90
-16777216
102
RTVSPost2010PropOp51
 70
     0
102
RTVSPost2010Prop52
140
1.0
102
RTVSPost2010PropOp52
 70
     0
102
RTVSPost2010Prop53
 90
        2
102
RTVSPost2010PropOp53
 70
     1
102
RTVSPost2010Prop54
  1
strokes_ogs.tif
102
RTVSPost2010PropOp54
 70
     1
102
RTVSPost2010Prop55
280
     0
102
RTVSPost2010PropOp55
 70
     1
102
RTVSPost2010Prop56
140
1.0
102
RTVSPost2010PropOp56
 70
     1
102
RTVSPost2010Prop57
140
1.0
102
RTVSPost2010PropOp57
 70
     1
102
RTVSPropertyOp0
 70
     1
102
RTVSPropertyOp1
 70
     1
102
RTVSPropertyOp2
 70
     1
102
RTVSPropertyOp3
 70
     1
102
RTVSPropertyOp4
 70
     1
102
RTVSPropertyOp5
 70
     1
102
RTVSPropertyOp6
 70
     1
102
RTVSPropertyOp7
 70
     1
102
RTVSPropertyOp8
 70
     1
102
RTVSPropertyOp9
 70
     1
102
RTVSPropertyOp10
 70
     1
102
RTVSPropertyOp11
 70
     1
102
RTVSPropertyOp12
 70
     1
102
RTVSPropertyOp13
 70
     1
102
RTVSPropertyOp14
 70
     1
102
RTVSPropertyOp15
 70
     1
102
RTVSPropertyOp16
 70
     1
102
RTVSPropertyOp17
 70
     1
102
RTVSPropertyOp18
 70
     1
102
RTVSPropertyOp19
 70
     1
102
RTVSPropertyOp20
 70
     1
102
RTVSPropertyOp21
 70
     1
102
RTVSPropertyOp22
 70
     1
102
RTVSPropertyOp23
 70
     1
102
RTVSPropertyOp24
 70
     1
102
RTVSPropertyOp25
 70
     1
102
RTVSPropertyOp26
 70
     1
102
RTVSPropertyOp27
 70
     1
102
RTVSPropertyOp28
 70
     1
102
RTVSPropertyOp29
 70
     1
102
RTVSPropertyOp30
 70
     1
102
RTVSPropertyOp31
 70
     1
102
RTVSPropertyOp32
 70
     1
102
RTVSPropertyOp33
 70
     1
102
RTVSPropertyOp34
 70
     1
102
RTVSPropertyOp35
 70
     1
102
RTVSPropertyOp36
 70
     1
102
RTVSPropertyOp37
 70
     1
102
RTVSPropertyOp38
 70
     1
102
RTVSPropertyOp39
 70
     1
102
RTVSPropertyOp40
 70
     1
102
RTVSPropertyOp41
 70
     1
102
RTVSPropertyOp42
 70
     1
102
RTVSPropertyOp43
 70
     1
102
RTVSPropertyOp44
 70
     1
102
RTVSPropertyOp45
 70
     1
102
RTVSPropertyOp46
 70
     1
102
RTVSPropertyOp47
 70
     1
102
RTVSPropertyOp48
 70
     1
102
RTVSPropertyOp49
 70
     1
102
RTVSPropertyOp50
 70
     1
102
RTVSPropertyOp51
 70
     0
102
RTVSPropertyOp52
 70
     0
102
RTVSPropertyOp53
 70
     1
102
RTVSPropertyOp54
 70
     1
102
RTVSPropertyOp55
 70
     1
102
RTVSPropertyOp56
 70
     1
102
RTVSPropertyOp57
 70
     1
102
RTVSPropertyOp58
 70
     1
102
RTVSPropertyOp59
 70
     1
102
RTVSPropertyOp60
 70
     1
102
RTVSPropertyOp61
 70
     1
102
RTVSPropertyOp62
 70
     1
  0
XRECORD
  5
5ED8
102
{ACAD_REACTORS
330
5ED7
102
}
330
5ED7
100
AcDbXrecord
280
     1
102
RTVSPost2010Prop28
280
     0
102
RTVSPost2010PropOp28
 70
     1
102
RTVSPost2010Prop29
280
     1
102
RTVSPost2010PropOp29
 70
     1
102
RTVSPost2010Prop30
280
     1
102
RTVSPost2010PropOp30
 70
     1
102
RTVSPost2010Prop31
280
     0
102
RTVSPost2010PropOp31
 70
     1
102
RTVSPost2010Prop32
280
     0
102
RTVSPost2010PropOp32
 70
     1
102
RTVSPost2010Prop33
280
     0
102
RTVSPost2010PropOp33
 70
     1
102
RTVSPost2010Prop34
280
     0
102
RTVSPost2010PropOp34
 70
     1
102
RTVSPost2010Prop35
280
     0
102
RTVSPost2010PropOp35
 70
     1
102
RTVSPost2010Prop36
280
     0
102
RTVSPost2010PropOp36
 70
     1
102
RTVSPost2010Prop37
 90
       50
102
RTVSPost2010PropOp37
 70
     1
102
RTVSPost2010Prop38
140
0.0
102
RTVSPost2010PropOp38
 70
     1
102
RTVSPost2010Prop39
140
1.0
102
RTVSPost2010PropOp39
 70
     1
102
RTVSPost2010Prop40
 90
        0
102
RTVSPost2010PropOp40
 70
     1
102
RTVSPost2010Prop41ColorIndex
 90
       18
102
RTVSPost2010Prop41ColorRGB
 90
        0
102
RTVSPost2010PropOp41
 70
     1
102
RTVSPost2010Prop42
 90
       50
102
RTVSPost2010PropOp42
 70
     1
102
RTVSPost2010Prop43
 90
        3
102
RTVSPost2010PropOp43
 70
     1
102
RTVSPost2010Prop44ColorIndex
 90
        5
102
RTVSPost2010Prop44ColorRGB
 90
      255
102
RTVSPost2010PropOp44
 70
     1
102
RTVSPost2010Prop45
280
     0
102
RTVSPost2010PropOp45
 70
     1
102
RTVSPost2010Prop46
 90
       50
102
RTVSPost2010PropOp46
 70
     1
102
RTVSPost2010Prop47
 90
       50
102
RTVSPost2010PropOp47
 70
     1
102
RTVSPost2010Prop48
 90
       50
102
RTVSPost2010PropOp48
 70
     1
102
RTVSPost2010Prop49
280
     0
102
RTVSPost2010PropOp49
 70
     1
102
RTVSPost2010Prop50
 90
       50
102
RTVSPost2010PropOp50
 70
     1
102
RTVSPost2010Prop51ColorIndex
 90
      256
102
RTVSPost2010Prop51ColorRGB
 90
-16777216
102
RTVSPost2010PropOp51
 70
     0
102
RTVSPost2010Prop52
140
1.0
102
RTVSPost2010PropOp52
 70
     0
102
RTVSPost2010Prop53
 90
        2
102
RTVSPost2010PropOp53
 70
     1
102
RTVSPost2010Prop54
  1
strokes_ogs.tif
102
RTVSPost2010PropOp54
 70
     1
102
RTVSPost2010Prop55
280
     0
102
RTVSPost2010PropOp55
 70
     1
102
RTVSPost2010Prop56
140
1.0
102
RTVSPost2010PropOp56
 70
     1
102
RTVSPost2010Prop57
140
1.0
102
RTVSPost2010PropOp57
 70
     1
102
RTVSPropertyOp0
 70
     1
102
RTVSPropertyOp1
 70
     1
102
RTVSPropertyOp2
 70
     1
102
RTVSPropertyOp3
 70
     1
102
RTVSPropertyOp4
 70
     1
102
RTVSPropertyOp5
 70
     1
102
RTVSPropertyOp6
 70
     1
102
RTVSPropertyOp7
 70
     1
102
RTVSPropertyOp8
 70
     1
102
RTVSPropertyOp9
 70
     1
102
RTVSPropertyOp10
 70
     1
102
RTVSPropertyOp11
 70
     1
102
RTVSPropertyOp12
 70
     1
102
RTVSPropertyOp13
 70
     1
102
RTVSPropertyOp14
 70
     1
102
RTVSPropertyOp15
 70
     1
102
RTVSPropertyOp16
 70
     1
102
RTVSPropertyOp17
 70
     1
102
RTVSPropertyOp18
 70
     1
102
RTVSPropertyOp19
 70
     1
102
RTVSPropertyOp20
 70
     1
102
RTVSPropertyOp21
 70
     1
102
RTVSPropertyOp22
 70
     1
102
RTVSPropertyOp23
 70
     1
102
RTVSPropertyOp24
 70
     1
102
RTVSPropertyOp25
 70
     1
102
RTVSPropertyOp26
 70
     1
102
RTVSPropertyOp27
 70
     1
102
RTVSPropertyOp28
 70
     1
102
RTVSPropertyOp29
 70
     1
102
RTVSPropertyOp30
 70
     1
102
RTVSPropertyOp31
 70
     1
102
RTVSPropertyOp32
 70
     1
102
RTVSPropertyOp33
 70
     1
102
RTVSPropertyOp34
 70
     1
102
RTVSPropertyOp35
 70
     1
102
RTVSPropertyOp36
 70
     1
102
RTVSPropertyOp37
 70
     1
102
RTVSPropertyOp38
 70
     1
102
RTVSPropertyOp39
 70
     1
102
RTVSPropertyOp40
 70
     1
102
RTVSPropertyOp41
 70
     1
102
RTVSPropertyOp42
 70
     1
102
RTVSPropertyOp43
 70
     1
102
RTVSPropertyOp44
 70
     1
102
RTVSPropertyOp45
 70
     1
102
RTVSPropertyOp46
 70
     1
102
RTVSPropertyOp47
 70
     1
102
RTVSPropertyOp48
 70
     1
102
RTVSPropertyOp49
 70
     1
102
RTVSPropertyOp50
 70
     1
102
RTVSPropertyOp51
 70
     0
102
RTVSPropertyOp52
 70
     0
102
RTVSPropertyOp53
 70
     1
102
RTVSPropertyOp54
 70
     1
102
RTVSPropertyOp55
 70
     1
102
RTVSPropertyOp56
 70
     1
102
RTVSPropertyOp57
 70
     1
102
RTVSPropertyOp58
 70
     1
102
RTVSPropertyOp59
 70
     1
102
RTVSPropertyOp60
 70
     1
102
RTVSPropertyOp61
 70
     1
102
RTVSPropertyOp62
 70
     1
  0
XRECORD
  5
5EF4
102
{ACAD_REACTORS
330
5EF3
102
}
330
5EF3
100
AcDbXrecord
280
     1
102
RTVSPost2010Prop28
280
     0
102
RTVSPost2010PropOp28
 70
     1
102
RTVSPost2010Prop29
280
     1
102
RTVSPost2010PropOp29
 70
     1
102
RTVSPost2010Prop30
280
     1
102
RTVSPost2010PropOp30
 70
     1
102
RTVSPost2010Prop31
280
     0
102
RTVSPost2010PropOp31
 70
     1
102
RTVSPost2010Prop32
280
     0
102
RTVSPost2010PropOp32
 70
     1
102
RTVSPost2010Prop33
280
     0
102
RTVSPost2010PropOp33
 70
     1
102
RTVSPost2010Prop34
280
     0
102
RTVSPost2010PropOp34
 70
     1
102
RTVSPost2010Prop35
280
     0
102
RTVSPost2010PropOp35
 70
     1
102
RTVSPost2010Prop36
280
     0
102
RTVSPost2010PropOp36
 70
     1
102
RTVSPost2010Prop37
 90
       50
102
RTVSPost2010PropOp37
 70
     0
102
RTVSPost2010Prop38
140
0.0
102
RTVSPost2010PropOp38
 70
     0
102
RTVSPost2010Prop39
140
1.0
102
RTVSPost2010PropOp39
 70
     0
102
RTVSPost2010Prop40
 90
        0
102
RTVSPost2010PropOp40
 70
     0
102
RTVSPost2010Prop41ColorIndex
 90
       18
102
RTVSPost2010Prop41ColorRGB
 90
        0
102
RTVSPost2010PropOp41
 70
     0
102
RTVSPost2010Prop42
 90
       50
102
RTVSPost2010PropOp42
 70
     0
102
RTVSPost2010Prop43
 90
        3
102
RTVSPost2010PropOp43
 70
     0
102
RTVSPost2010Prop44ColorIndex
 90
        5
102
RTVSPost2010Prop44ColorRGB
 90
      255
102
RTVSPost2010PropOp44
 70
     0
102
RTVSPost2010Prop45
280
     0
102
RTVSPost2010PropOp45
 70
     1
102
RTVSPost2010Prop46
 90
       50
102
RTVSPost2010PropOp46
 70
     0
102
RTVSPost2010Prop47
 90
       50
102
RTVSPost2010PropOp47
 70
     0
102
RTVSPost2010Prop48
 90
       50
102
RTVSPost2010PropOp48
 70
     0
102
RTVSPost2010Prop49
280
     0
102
RTVSPost2010PropOp49
 70
     1
102
RTVSPost2010Prop50
 90
       50
102
RTVSPost2010PropOp50
 70
     0
102
RTVSPost2010Prop51ColorIndex
 90
      256
102
RTVSPost2010Prop51ColorRGB
 90
-16777216
102
RTVSPost2010PropOp51
 70
     0
102
RTVSPost2010Prop52
140
1.0
102
RTVSPost2010PropOp52
 70
     0
102
RTVSPost2010Prop53
 90
        2
102
RTVSPost2010PropOp53
 70
     0
102
RTVSPost2010Prop54
  1
strokes_ogs.tif
102
RTVSPost2010PropOp54
 70
     0
102
RTVSPost2010Prop55
280
     0
102
RTVSPost2010PropOp55
 70
     1
102
RTVSPost2010Prop56
140
1.0
102
RTVSPost2010PropOp56
 70
     0
102
RTVSPost2010Prop57
140
1.0
102
RTVSPost2010PropOp57
 70
     0
102
RTVSPropertyOp0
 70
     0
102
RTVSPropertyOp1
 70
     0
102
RTVSPropertyOp2
 70
     0
102
RTVSPropertyOp3
 70
     0
102
RTVSPropertyOp4
 70
     0
102
RTVSPropertyOp5
 70
     0
102
RTVSPropertyOp6
 70
     0
102
RTVSPropertyOp7
 70
     0
102
RTVSPropertyOp8
 70
     0
102
RTVSPropertyOp9
 70
     0
102
RTVSPropertyOp10
 70
     0
102
RTVSPropertyOp11
 70
     0
102
RTVSPropertyOp12
 70
     0
102
RTVSPropertyOp13
 70
     0
102
RTVSPropertyOp14
 70
     2
102
RTVSPropertyOp15
 70
     0
102
RTVSPropertyOp16
 70
     0
102
RTVSPropertyOp17
 70
     0
102
RTVSPropertyOp18
 70
     0
102
RTVSPropertyOp19
 70
     0
102
RTVSPropertyOp20
 70
     0
102
RTVSPropertyOp21
 70
     0
102
RTVSPropertyOp22
 70
     0
102
RTVSPropertyOp23
 70
     0
102
RTVSPropertyOp24
 70
     0
102
RTVSPropertyOp25
 70
     0
102
RTVSPropertyOp26
 70
     0
102
RTVSPropertyOp27
 70
     0
102
RTVSPropertyOp28
 70
     1
102
RTVSPropertyOp29
 70
     1
102
RTVSPropertyOp30
 70
     1
102
RTVSPropertyOp31
 70
     1
102
RTVSPropertyOp32
 70
     1
102
RTVSPropertyOp33
 70
     1
102
RTVSPropertyOp34
 70
     1
102
RTVSPropertyOp35
 70
     1
102
RTVSPropertyOp36
 70
     1
102
RTVSPropertyOp37
 70
     0
102
RTVSPropertyOp38
 70
     0
102
RTVSPropertyOp39
 70
     0
102
RTVSPropertyOp40
 70
     0
102
RTVSPropertyOp41
 70
     0
102
RTVSPropertyOp42
 70
     0
102
RTVSPropertyOp43
 70
     0
102
RTVSPropertyOp44
 70
     0
102
RTVSPropertyOp45
 70
     1
102
RTVSPropertyOp46
 70
     0
102
RTVSPropertyOp47
 70
     0
102
RTVSPropertyOp48
 70
     0
102
RTVSPropertyOp49
 70
     1
102
RTVSPropertyOp50
 70
     0
102
RTVSPropertyOp51
 70
     0
102
RTVSPropertyOp52
 70
     0
102
RTVSPropertyOp53
 70
     0
102
RTVSPropertyOp54
 70
     0
102
RTVSPropertyOp55
 70
     1
102
RTVSPropertyOp56
 70
     0
102
RTVSPropertyOp57
 70
     0
102
RTVSPropertyOp58
 70
     0
102
RTVSPropertyOp59
 70
     0
102
RTVSPropertyOp60
 70
     0
102
RTVSPropertyOp61
 70
     0
102
RTVSPropertyOp62
 70
     0
  0
XRECORD
  5
5EE4
102
{ACAD_REACTORS
330
5EE3
102
}
330
5EE3
100
AcDbXrecord
280
     1
102
RTVSPost2010Prop28
280
     0
102
RTVSPost2010PropOp28
 70
     1
102
RTVSPost2010Prop29
280
     1
102
RTVSPost2010PropOp29
 70
     1
102
RTVSPost2010Prop30
280
     1
102
RTVSPost2010PropOp30
 70
     1
102
RTVSPost2010Prop31
280
     0
102
RTVSPost2010PropOp31
 70
     1
102
RTVSPost2010Prop32
280
     0
102
RTVSPost2010PropOp32
 70
     1
102
RTVSPost2010Prop33
280
     0
102
RTVSPost2010PropOp33
 70
     1
102
RTVSPost2010Prop34
280
     0
102
RTVSPost2010PropOp34
 70
     1
102
RTVSPost2010Prop35
280
     0
102
RTVSPost2010PropOp35
 70
     1
102
RTVSPost2010Prop36
280
     0
102
RTVSPost2010PropOp36
 70
     1
102
RTVSPost2010Prop37
 90
       50
102
RTVSPost2010PropOp37
 70
     1
102
RTVSPost2010Prop38
140
0.0
102
RTVSPost2010PropOp38
 70
     1
102
RTVSPost2010Prop39
140
1.0
102
RTVSPost2010PropOp39
 70
     1
102
RTVSPost2010Prop40
 90
        0
102
RTVSPost2010PropOp40
 70
     1
102
RTVSPost2010Prop41ColorIndex
 90
       18
102
RTVSPost2010Prop41ColorRGB
 90
        0
102
RTVSPost2010PropOp41
 70
     1
102
RTVSPost2010Prop42
 90
       50
102
RTVSPost2010PropOp42
 70
     1
102
RTVSPost2010Prop43
 90
        3
102
RTVSPost2010PropOp43
 70
     1
102
RTVSPost2010Prop44ColorIndex
 90
        5
102
RTVSPost2010Prop44ColorRGB
 90
      255
102
RTVSPost2010PropOp44
 70
     1
102
RTVSPost2010Prop45
280
     0
102
RTVSPost2010PropOp45
 70
     1
102
RTVSPost2010Prop46
 90
       50
102
RTVSPost2010PropOp46
 70
     1
102
RTVSPost2010Prop47
 90
       50
102
RTVSPost2010PropOp47
 70
     1
102
RTVSPost2010Prop48
 90
       50
102
RTVSPost2010PropOp48
 70
     1
102
RTVSPost2010Prop49
280
     0
102
RTVSPost2010PropOp49
 70
     1
102
RTVSPost2010Prop50
 90
       50
102
RTVSPost2010PropOp50
 70
     1
102
RTVSPost2010Prop51ColorIndex
 90
      256
102
RTVSPost2010Prop51ColorRGB
 90
-16777216
102
RTVSPost2010PropOp51
 70
     0
102
RTVSPost2010Prop52
140
1.0
102
RTVSPost2010PropOp52
 70
     0
102
RTVSPost2010Prop53
 90
        2
102
RTVSPost2010PropOp53
 70
     1
102
RTVSPost2010Prop54
  1
strokes_ogs.tif
102
RTVSPost2010PropOp54
 70
     1
102
RTVSPost2010Prop55
280
     0
102
RTVSPost2010PropOp55
 70
     1
102
RTVSPost2010Prop56
140
1.0
102
RTVSPost2010PropOp56
 70
     1
102
RTVSPost2010Prop57
140
1.0
102
RTVSPost2010PropOp57
 70
     1
102
RTVSPropertyOp0
 70
     1
102
RTVSPropertyOp1
 70
     1
102
RTVSPropertyOp2
 70
     1
102
RTVSPropertyOp3
 70
     1
102
RTVSPropertyOp4
 70
     1
102
RTVSPropertyOp5
 70
     1
102
RTVSPropertyOp6
 70
     1
102
RTVSPropertyOp7
 70
     1
102
RTVSPropertyOp8
 70
     1
102
RTVSPropertyOp9
 70
     1
102
RTVSPropertyOp10
 70
     1
102
RTVSPropertyOp11
 70
     1
102
RTVSPropertyOp12
 70
     1
102
RTVSPropertyOp13
 70
     1
102
RTVSPropertyOp14
 70
     1
102
RTVSPropertyOp15
 70
     1
102
RTVSPropertyOp16
 70
     1
102
RTVSPropertyOp17
 70
     1
102
RTVSPropertyOp18
 70
     1
102
RTVSPropertyOp19
 70
     1
102
RTVSPropertyOp20
 70
     1
102
RTVSPropertyOp21
 70
     1
102
RTVSPropertyOp22
 70
     1
102
RTVSPropertyOp23
 70
     1
102
RTVSPropertyOp24
 70
     1
102
RTVSPropertyOp25
 70
     1
102
RTVSPropertyOp26
 70
     1
102
RTVSPropertyOp27
 70
     1
102
RTVSPropertyOp28
 70
     1
102
RTVSPropertyOp29
 70
     1
102
RTVSPropertyOp30
 70
     1
102
RTVSPropertyOp31
 70
     1
102
RTVSPropertyOp32
 70
     1
102
RTVSPropertyOp33
 70
     1
102
RTVSPropertyOp34
 70
     1
102
RTVSPropertyOp35
 70
     1
102
RTVSPropertyOp36
 70
     1
102
RTVSPropertyOp37
 70
     1
102
RTVSPropertyOp38
 70
     1
102
RTVSPropertyOp39
 70
     1
102
RTVSPropertyOp40
 70
     1
102
RTVSPropertyOp41
 70
     1
102
RTVSPropertyOp42
 70
     1
102
RTVSPropertyOp43
 70
     1
102
RTVSPropertyOp44
 70
     1
102
RTVSPropertyOp45
 70
     1
102
RTVSPropertyOp46
 70
     1
102
RTVSPropertyOp47
 70
     1
102
RTVSPropertyOp48
 70
     1
102
RTVSPropertyOp49
 70
     1
102
RTVSPropertyOp50
 70
     1
102
RTVSPropertyOp51
 70
     0
102
RTVSPropertyOp52
 70
     0
102
RTVSPropertyOp53
 70
     1
102
RTVSPropertyOp54
 70
     1
102
RTVSPropertyOp55
 70
     1
102
RTVSPropertyOp56
 70
     1
102
RTVSPropertyOp57
 70
     1
102
RTVSPropertyOp58
 70
     1
102
RTVSPropertyOp59
 70
     1
102
RTVSPropertyOp60
 70
     1
102
RTVSPropertyOp61
 70
     1
102
RTVSPropertyOp62
 70
     1
  0
XRECORD
  5
5EF6
102
{ACAD_REACTORS
330
5EF5
102
}
330
5EF5
100
AcDbXrecord
280
     1
102
RTVSPost2010Prop28
280
     0
102
RTVSPost2010PropOp28
 70
     1
102
RTVSPost2010Prop29
280
     1
102
RTVSPost2010PropOp29
 70
     1
102
RTVSPost2010Prop30
280
     1
102
RTVSPost2010PropOp30
 70
     1
102
RTVSPost2010Prop31
280
     0
102
RTVSPost2010PropOp31
 70
     1
102
RTVSPost2010Prop32
280
     0
102
RTVSPost2010PropOp32
 70
     1
102
RTVSPost2010Prop33
280
     0
102
RTVSPost2010PropOp33
 70
     1
102
RTVSPost2010Prop34
280
     0
102
RTVSPost2010PropOp34
 70
     1
102
RTVSPost2010Prop35
280
     0
102
RTVSPost2010PropOp35
 70
     1
102
RTVSPost2010Prop36
280
     0
102
RTVSPost2010PropOp36
 70
     1
102
RTVSPost2010Prop37
 90
       50
102
RTVSPost2010PropOp37
 70
     0
102
RTVSPost2010Prop38
140
0.0
102
RTVSPost2010PropOp38
 70
     0
102
RTVSPost2010Prop39
140
1.0
102
RTVSPost2010PropOp39
 70
     0
102
RTVSPost2010Prop40
 90
        0
102
RTVSPost2010PropOp40
 70
     0
102
RTVSPost2010Prop41ColorIndex
 90
       18
102
RTVSPost2010Prop41ColorRGB
 90
        0
102
RTVSPost2010PropOp41
 70
     0
102
RTVSPost2010Prop42
 90
       50
102
RTVSPost2010PropOp42
 70
     0
102
RTVSPost2010Prop43
 90
        3
102
RTVSPost2010PropOp43
 70
     0
102
RTVSPost2010Prop44ColorIndex
 90
        5
102
RTVSPost2010Prop44ColorRGB
 90
      255
102
RTVSPost2010PropOp44
 70
     0
102
RTVSPost2010Prop45
280
     0
102
RTVSPost2010PropOp45
 70
     1
102
RTVSPost2010Prop46
 90
       50
102
RTVSPost2010PropOp46
 70
     0
102
RTVSPost2010Prop47
 90
       50
102
RTVSPost2010PropOp47
 70
     0
102
RTVSPost2010Prop48
 90
       50
102
RTVSPost2010PropOp48
 70
     0
102
RTVSPost2010Prop49
280
     0
102
RTVSPost2010PropOp49
 70
     1
102
RTVSPost2010Prop50
 90
       50
102
RTVSPost2010PropOp50
 70
     0
102
RTVSPost2010Prop51ColorIndex
 90
      256
102
RTVSPost2010Prop51ColorRGB
 90
-16777216
102
RTVSPost2010PropOp51
 70
     0
102
RTVSPost2010Prop52
140
1.0
102
RTVSPost2010PropOp52
 70
     0
102
RTVSPost2010Prop53
 90
        2
102
RTVSPost2010PropOp53
 70
     0
102
RTVSPost2010Prop54
  1
strokes_ogs.tif
102
RTVSPost2010PropOp54
 70
     0
102
RTVSPost2010Prop55
280
     0
102
RTVSPost2010PropOp55
 70
     1
102
RTVSPost2010Prop56
140
1.0
102
RTVSPost2010PropOp56
 70
     0
102
RTVSPost2010Prop57
140
1.0
102
RTVSPost2010PropOp57
 70
     0
102
RTVSPropertyOp0
 70
     0
102
RTVSPropertyOp1
 70
     0
102
RTVSPropertyOp2
 70
     0
102
RTVSPropertyOp3
 70
     0
102
RTVSPropertyOp4
 70
     0
102
RTVSPropertyOp5
 70
     0
102
RTVSPropertyOp6
 70
     0
102
RTVSPropertyOp7
 70
     0
102
RTVSPropertyOp8
 70
     0
102
RTVSPropertyOp9
 70
     0
102
RTVSPropertyOp10
 70
     0
102
RTVSPropertyOp11
 70
     0
102
RTVSPropertyOp12
 70
     0
102
RTVSPropertyOp13
 70
     0
102
RTVSPropertyOp14
 70
     2
102
RTVSPropertyOp15
 70
     0
102
RTVSPropertyOp16
 70
     0
102
RTVSPropertyOp17
 70
     0
102
RTVSPropertyOp18
 70
     0
102
RTVSPropertyOp19
 70
     0
102
RTVSPropertyOp20
 70
     0
102
RTVSPropertyOp21
 70
     0
102
RTVSPropertyOp22
 70
     0
102
RTVSPropertyOp23
 70
     0
102
RTVSPropertyOp24
 70
     0
102
RTVSPropertyOp25
 70
     0
102
RTVSPropertyOp26
 70
     0
102
RTVSPropertyOp27
 70
     0
102
RTVSPropertyOp28
 70
     1
102
RTVSPropertyOp29
 70
     1
102
RTVSPropertyOp30
 70
     1
102
RTVSPropertyOp31
 70
     1
102
RTVSPropertyOp32
 70
     1
102
RTVSPropertyOp33
 70
     1
102
RTVSPropertyOp34
 70
     1
102
RTVSPropertyOp35
 70
     1
102
RTVSPropertyOp36
 70
     1
102
RTVSPropertyOp37
 70
     0
102
RTVSPropertyOp38
 70
     0
102
RTVSPropertyOp39
 70
     0
102
RTVSPropertyOp40
 70
     0
102
RTVSPropertyOp41
 70
     0
102
RTVSPropertyOp42
 70
     0
102
RTVSPropertyOp43
 70
     0
102
RTVSPropertyOp44
 70
     0
102
RTVSPropertyOp45
 70
     1
102
RTVSPropertyOp46
 70
     0
102
RTVSPropertyOp47
 70
     0
102
RTVSPropertyOp48
 70
     0
102
RTVSPropertyOp49
 70
     1
102
RTVSPropertyOp50
 70
     0
102
RTVSPropertyOp51
 70
     0
102
RTVSPropertyOp52
 70
     0
102
RTVSPropertyOp53
 70
     0
102
RTVSPropertyOp54
 70
     0
102
RTVSPropertyOp55
 70
     1
102
RTVSPropertyOp56
 70
     0
102
RTVSPropertyOp57
 70
     0
102
RTVSPropertyOp58
 70
     0
102
RTVSPropertyOp59
 70
     0
102
RTVSPropertyOp60
 70
     0
102
RTVSPropertyOp61
 70
     0
102
RTVSPropertyOp62
 70
     0
  0
XRECORD
  5
5EDC
102
{ACAD_REACTORS
330
5EDB
102
}
330
5EDB
100
AcDbXrecord
280
     1
102
RTVSPost2010Prop28
280
     0
102
RTVSPost2010PropOp28
 70
     1
102
RTVSPost2010Prop29
280
     1
102
RTVSPost2010PropOp29
 70
     1
102
RTVSPost2010Prop30
280
     1
102
RTVSPost2010PropOp30
 70
     1
102
RTVSPost2010Prop31
280
     0
102
RTVSPost2010PropOp31
 70
     1
102
RTVSPost2010Prop32
280
     0
102
RTVSPost2010PropOp32
 70
     1
102
RTVSPost2010Prop33
280
     0
102
RTVSPost2010PropOp33
 70
     1
102
RTVSPost2010Prop34
280
     0
102
RTVSPost2010PropOp34
 70
     1
102
RTVSPost2010Prop35
280
     0
102
RTVSPost2010PropOp35
 70
     1
102
RTVSPost2010Prop36
280
     0
102
RTVSPost2010PropOp36
 70
     1
102
RTVSPost2010Prop37
 90
       50
102
RTVSPost2010PropOp37
 70
     1
102
RTVSPost2010Prop38
140
0.0
102
RTVSPost2010PropOp38
 70
     1
102
RTVSPost2010Prop39
140
1.0
102
RTVSPost2010PropOp39
 70
     1
102
RTVSPost2010Prop40
 90
        0
102
RTVSPost2010PropOp40
 70
     1
102
RTVSPost2010Prop41ColorIndex
 90
       18
102
RTVSPost2010Prop41ColorRGB
 90
        0
102
RTVSPost2010PropOp41
 70
     1
102
RTVSPost2010Prop42
 90
       50
102
RTVSPost2010PropOp42
 70
     1
102
RTVSPost2010Prop43
 90
        3
102
RTVSPost2010PropOp43
 70
     1
102
RTVSPost2010Prop44ColorIndex
 90
        5
102
RTVSPost2010Prop44ColorRGB
 90
      255
102
RTVSPost2010PropOp44
 70
     1
102
RTVSPost2010Prop45
280
     0
102
RTVSPost2010PropOp45
 70
     1
102
RTVSPost2010Prop46
 90
       50
102
RTVSPost2010PropOp46
 70
     1
102
RTVSPost2010Prop47
 90
       50
102
RTVSPost2010PropOp47
 70
     1
102
RTVSPost2010Prop48
 90
       50
102
RTVSPost2010PropOp48
 70
     1
102
RTVSPost2010Prop49
280
     0
102
RTVSPost2010PropOp49
 70
     1
102
RTVSPost2010Prop50
 90
       50
102
RTVSPost2010PropOp50
 70
     1
102
RTVSPost2010Prop51ColorIndex
 90
      256
102
RTVSPost2010Prop51ColorRGB
 90
-16777216
102
RTVSPost2010PropOp51
 70
     0
102
RTVSPost2010Prop52
140
1.0
102
RTVSPost2010PropOp52
 70
     0
102
RTVSPost2010Prop53
 90
        2
102
RTVSPost2010PropOp53
 70
     1
102
RTVSPost2010Prop54
  1
strokes_ogs.tif
102
RTVSPost2010PropOp54
 70
     1
102
RTVSPost2010Prop55
280
     0
102
RTVSPost2010PropOp55
 70
     1
102
RTVSPost2010Prop56
140
1.0
102
RTVSPost2010PropOp56
 70
     1
102
RTVSPost2010Prop57
140
1.0
102
RTVSPost2010PropOp57
 70
     1
102
RTVSPropertyOp0
 70
     1
102
RTVSPropertyOp1
 70
     1
102
RTVSPropertyOp2
 70
     1
102
RTVSPropertyOp3
 70
     1
102
RTVSPropertyOp4
 70
     1
102
RTVSPropertyOp5
 70
     1
102
RTVSPropertyOp6
 70
     1
102
RTVSPropertyOp7
 70
     1
102
RTVSPropertyOp8
 70
     1
102
RTVSPropertyOp9
 70
     1
102
RTVSPropertyOp10
 70
     1
102
RTVSPropertyOp11
 70
     1
102
RTVSPropertyOp12
 70
     1
102
RTVSPropertyOp13
 70
     1
102
RTVSPropertyOp14
 70
     1
102
RTVSPropertyOp15
 70
     1
102
RTVSPropertyOp16
 70
     1
102
RTVSPropertyOp17
 70
     1
102
RTVSPropertyOp18
 70
     1
102
RTVSPropertyOp19
 70
     1
102
RTVSPropertyOp20
 70
     1
102
RTVSPropertyOp21
 70
     1
102
RTVSPropertyOp22
 70
     1
102
RTVSPropertyOp23
 70
     1
102
RTVSPropertyOp24
 70
     1
102
RTVSPropertyOp25
 70
     1
102
RTVSPropertyOp26
 70
     1
102
RTVSPropertyOp27
 70
     1
102
RTVSPropertyOp28
 70
     1
102
RTVSPropertyOp29
 70
     1
102
RTVSPropertyOp30
 70
     1
102
RTVSPropertyOp31
 70
     1
102
RTVSPropertyOp32
 70
     1
102
RTVSPropertyOp33
 70
     1
102
RTVSPropertyOp34
 70
     1
102
RTVSPropertyOp35
 70
     1
102
RTVSPropertyOp36
 70
     1
102
RTVSPropertyOp37
 70
     1
102
RTVSPropertyOp38
 70
     1
102
RTVSPropertyOp39
 70
     1
102
RTVSPropertyOp40
 70
     1
102
RTVSPropertyOp41
 70
     1
102
RTVSPropertyOp42
 70
     1
102
RTVSPropertyOp43
 70
     1
102
RTVSPropertyOp44
 70
     1
102
RTVSPropertyOp45
 70
     1
102
RTVSPropertyOp46
 70
     1
102
RTVSPropertyOp47
 70
     1
102
RTVSPropertyOp48
 70
     1
102
RTVSPropertyOp49
 70
     1
102
RTVSPropertyOp50
 70
     1
102
RTVSPropertyOp51
 70
     0
102
RTVSPropertyOp52
 70
     0
102
RTVSPropertyOp53
 70
     1
102
RTVSPropertyOp54
 70
     1
102
RTVSPropertyOp55
 70
     1
102
RTVSPropertyOp56
 70
     1
102
RTVSPropertyOp57
 70
     1
102
RTVSPropertyOp58
 70
     1
102
RTVSPropertyOp59
 70
     1
102
RTVSPropertyOp60
 70
     1
102
RTVSPropertyOp61
 70
     1
102
RTVSPropertyOp62
 70
     1
  0
XRECORD
  5
5EF2
102
{ACAD_REACTORS
330
5EF1
102
}
330
5EF1
100
AcDbXrecord
280
     1
102
RTVSPost2010Prop28
280
     0
102
RTVSPost2010PropOp28
 70
     1
102
RTVSPost2010Prop29
280
     1
102
RTVSPost2010PropOp29
 70
     1
102
RTVSPost2010Prop30
280
     1
102
RTVSPost2010PropOp30
 70
     1
102
RTVSPost2010Prop31
280
     0
102
RTVSPost2010PropOp31
 70
     1
102
RTVSPost2010Prop32
280
     0
102
RTVSPost2010PropOp32
 70
     1
102
RTVSPost2010Prop33
280
     0
102
RTVSPost2010PropOp33
 70
     1
102
RTVSPost2010Prop34
280
     0
102
RTVSPost2010PropOp34
 70
     1
102
RTVSPost2010Prop35
280
     0
102
RTVSPost2010PropOp35
 70
     1
102
RTVSPost2010Prop36
280
     0
102
RTVSPost2010PropOp36
 70
     1
102
RTVSPost2010Prop37
 90
       50
102
RTVSPost2010PropOp37
 70
     1
102
RTVSPost2010Prop38
140
0.0
102
RTVSPost2010PropOp38
 70
     1
102
RTVSPost2010Prop39
140
1.0
102
RTVSPost2010PropOp39
 70
     1
102
RTVSPost2010Prop40
 90
        0
102
RTVSPost2010PropOp40
 70
     1
102
RTVSPost2010Prop41ColorIndex
 90
       18
102
RTVSPost2010Prop41ColorRGB
 90
        0
102
RTVSPost2010PropOp41
 70
     1
102
RTVSPost2010Prop42
 90
       50
102
RTVSPost2010PropOp42
 70
     1
102
RTVSPost2010Prop43
 90
        3
102
RTVSPost2010PropOp43
 70
     1
102
RTVSPost2010Prop44ColorIndex
 90
        5
102
RTVSPost2010Prop44ColorRGB
 90
      255
102
RTVSPost2010PropOp44
 70
     1
102
RTVSPost2010Prop45
280
     0
102
RTVSPost2010PropOp45
 70
     1
102
RTVSPost2010Prop46
 90
       50
102
RTVSPost2010PropOp46
 70
     1
102
RTVSPost2010Prop47
 90
       50
102
RTVSPost2010PropOp47
 70
     1
102
RTVSPost2010Prop48
 90
       50
102
RTVSPost2010PropOp48
 70
     1
102
RTVSPost2010Prop49
280
     0
102
RTVSPost2010PropOp49
 70
     1
102
RTVSPost2010Prop50
 90
       50
102
RTVSPost2010PropOp50
 70
     1
102
RTVSPost2010Prop51ColorIndex
 90
      256
102
RTVSPost2010Prop51ColorRGB
 90
-16777216
102
RTVSPost2010PropOp51
 70
     0
102
RTVSPost2010Prop52
140
1.0
102
RTVSPost2010PropOp52
 70
     0
102
RTVSPost2010Prop53
 90
        2
102
RTVSPost2010PropOp53
 70
     1
102
RTVSPost2010Prop54
  1
strokes_ogs.tif
102
RTVSPost2010PropOp54
 70
     1
102
RTVSPost2010Prop55
280
     0
102
RTVSPost2010PropOp55
 70
     1
102
RTVSPost2010Prop56
140
1.0
102
RTVSPost2010PropOp56
 70
     1
102
RTVSPost2010Prop57
140
1.0
102
RTVSPost2010PropOp57
 70
     1
102
RTVSPropertyOp0
 70
     1
102
RTVSPropertyOp1
 70
     1
102
RTVSPropertyOp2
 70
     1
102
RTVSPropertyOp3
 70
     1
102
RTVSPropertyOp4
 70
     1
102
RTVSPropertyOp5
 70
     1
102
RTVSPropertyOp6
 70
     1
102
RTVSPropertyOp7
 70
     1
102
RTVSPropertyOp8
 70
     1
102
RTVSPropertyOp9
 70
     1
102
RTVSPropertyOp10
 70
     1
102
RTVSPropertyOp11
 70
     1
102
RTVSPropertyOp12
 70
     1
102
RTVSPropertyOp13
 70
     1
102
RTVSPropertyOp14
 70
     1
102
RTVSPropertyOp15
 70
     1
102
RTVSPropertyOp16
 70
     1
102
RTVSPropertyOp17
 70
     1
102
RTVSPropertyOp18
 70
     1
102
RTVSPropertyOp19
 70
     1
102
RTVSPropertyOp20
 70
     1
102
RTVSPropertyOp21
 70
     1
102
RTVSPropertyOp22
 70
     1
102
RTVSPropertyOp23
 70
     1
102
RTVSPropertyOp24
 70
     1
102
RTVSPropertyOp25
 70
     1
102
RTVSPropertyOp26
 70
     1
102
RTVSPropertyOp27
 70
     1
102
RTVSPropertyOp28
 70
     1
102
RTVSPropertyOp29
 70
     1
102
RTVSPropertyOp30
 70
     1
102
RTVSPropertyOp31
 70
     1
102
RTVSPropertyOp32
 70
     1
102
RTVSPropertyOp33
 70
     1
102
RTVSPropertyOp34
 70
     1
102
RTVSPropertyOp35
 70
     1
102
RTVSPropertyOp36
 70
     1
102
RTVSPropertyOp37
 70
     1
102
RTVSPropertyOp38
 70
     1
102
RTVSPropertyOp39
 70
     1
102
RTVSPropertyOp40
 70
     1
102
RTVSPropertyOp41
 70
     1
102
RTVSPropertyOp42
 70
     1
102
RTVSPropertyOp43
 70
     1
102
RTVSPropertyOp44
 70
     1
102
RTVSPropertyOp45
 70
     1
102
RTVSPropertyOp46
 70
     1
102
RTVSPropertyOp47
 70
     1
102
RTVSPropertyOp48
 70
     1
102
RTVSPropertyOp49
 70
     1
102
RTVSPropertyOp50
 70
     1
102
RTVSPropertyOp51
 70
     0
102
RTVSPropertyOp52
 70
     0
102
RTVSPropertyOp53
 70
     1
102
RTVSPropertyOp54
 70
     1
102
RTVSPropertyOp55
 70
     1
102
RTVSPropertyOp56
 70
     1
102
RTVSPropertyOp57
 70
     1
102
RTVSPropertyOp58
 70
     1
102
RTVSPropertyOp59
 70
     1
102
RTVSPropertyOp60
 70
     1
102
RTVSPropertyOp61
 70
     1
102
RTVSPropertyOp62
 70
     1
  0
XRECORD
  5
5EF0
102
{ACAD_REACTORS
330
5EEF
102
}
330
5EEF
100
AcDbXrecord
280
     1
102
RTVSPost2010Prop28
280
     0
102
RTVSPost2010PropOp28
 70
     1
102
RTVSPost2010Prop29
280
     1
102
RTVSPost2010PropOp29
 70
     1
102
RTVSPost2010Prop30
280
     1
102
RTVSPost2010PropOp30
 70
     1
102
RTVSPost2010Prop31
280
     0
102
RTVSPost2010PropOp31
 70
     1
102
RTVSPost2010Prop32
280
     0
102
RTVSPost2010PropOp32
 70
     1
102
RTVSPost2010Prop33
280
     0
102
RTVSPost2010PropOp33
 70
     1
102
RTVSPost2010Prop34
280
     0
102
RTVSPost2010PropOp34
 70
     1
102
RTVSPost2010Prop35
280
     0
102
RTVSPost2010PropOp35
 70
     1
102
RTVSPost2010Prop36
280
     0
102
RTVSPost2010PropOp36
 70
     1
102
RTVSPost2010Prop37
 90
       50
102
RTVSPost2010PropOp37
 70
     1
102
RTVSPost2010Prop38
140
0.0
102
RTVSPost2010PropOp38
 70
     1
102
RTVSPost2010Prop39
140
1.0
102
RTVSPost2010PropOp39
 70
     1
102
RTVSPost2010Prop40
 90
        0
102
RTVSPost2010PropOp40
 70
     1
102
RTVSPost2010Prop41ColorIndex
 90
       18
102
RTVSPost2010Prop41ColorRGB
 90
        0
102
RTVSPost2010PropOp41
 70
     1
102
RTVSPost2010Prop42
 90
       50
102
RTVSPost2010PropOp42
 70
     1
102
RTVSPost2010Prop43
 90
        3
102
RTVSPost2010PropOp43
 70
     1
102
RTVSPost2010Prop44ColorIndex
 90
        5
102
RTVSPost2010Prop44ColorRGB
 90
      255
102
RTVSPost2010PropOp44
 70
     1
102
RTVSPost2010Prop45
280
     0
102
RTVSPost2010PropOp45
 70
     1
102
RTVSPost2010Prop46
 90
       50
102
RTVSPost2010PropOp46
 70
     1
102
RTVSPost2010Prop47
 90
       50
102
RTVSPost2010PropOp47
 70
     1
102
RTVSPost2010Prop48
 90
       50
102
RTVSPost2010PropOp48
 70
     1
102
RTVSPost2010Prop49
280
     0
102
RTVSPost2010PropOp49
 70
     1
102
RTVSPost2010Prop50
 90
       50
102
RTVSPost2010PropOp50
 70
     1
102
RTVSPost2010Prop51ColorIndex
 90
      256
102
RTVSPost2010Prop51ColorRGB
 90
-16777216
102
RTVSPost2010PropOp51
 70
     0
102
RTVSPost2010Prop52
140
1.0
102
RTVSPost2010PropOp52
 70
     0
102
RTVSPost2010Prop53
 90
        2
102
RTVSPost2010PropOp53
 70
     1
102
RTVSPost2010Prop54
  1
strokes_ogs.tif
102
RTVSPost2010PropOp54
 70
     1
102
RTVSPost2010Prop55
280
     0
102
RTVSPost2010PropOp55
 70
     1
102
RTVSPost2010Prop56
140
1.0
102
RTVSPost2010PropOp56
 70
     1
102
RTVSPost2010Prop57
140
1.0
102
RTVSPost2010PropOp57
 70
     1
102
RTVSPropertyOp0
 70
     1
102
RTVSPropertyOp1
 70
     1
102
RTVSPropertyOp2
 70
     1
102
RTVSPropertyOp3
 70
     1
102
RTVSPropertyOp4
 70
     1
102
RTVSPropertyOp5
 70
     1
102
RTVSPropertyOp6
 70
     1
102
RTVSPropertyOp7
 70
     1
102
RTVSPropertyOp8
 70
     1
102
RTVSPropertyOp9
 70
     1
102
RTVSPropertyOp10
 70
     1
102
RTVSPropertyOp11
 70
     1
102
RTVSPropertyOp12
 70
     1
102
RTVSPropertyOp13
 70
     1
102
RTVSPropertyOp14
 70
     1
102
RTVSPropertyOp15
 70
     1
102
RTVSPropertyOp16
 70
     1
102
RTVSPropertyOp17
 70
     1
102
RTVSPropertyOp18
 70
     1
102
RTVSPropertyOp19
 70
     1
102
RTVSPropertyOp20
 70
     1
102
RTVSPropertyOp21
 70
     1
102
RTVSPropertyOp22
 70
     1
102
RTVSPropertyOp23
 70
     1
102
RTVSPropertyOp24
 70
     1
102
RTVSPropertyOp25
 70
     1
102
RTVSPropertyOp26
 70
     1
102
RTVSPropertyOp27
 70
     1
102
RTVSPropertyOp28
 70
     1
102
RTVSPropertyOp29
 70
     1
102
RTVSPropertyOp30
 70
     1
102
RTVSPropertyOp31
 70
     1
102
RTVSPropertyOp32
 70
     1
102
RTVSPropertyOp33
 70
     1
102
RTVSPropertyOp34
 70
     1
102
RTVSPropertyOp35
 70
     1
102
RTVSPropertyOp36
 70
     1
102
RTVSPropertyOp37
 70
     1
102
RTVSPropertyOp38
 70
     1
102
RTVSPropertyOp39
 70
     1
102
RTVSPropertyOp40
 70
     1
102
RTVSPropertyOp41
 70
     1
102
RTVSPropertyOp42
 70
     1
102
RTVSPropertyOp43
 70
     1
102
RTVSPropertyOp44
 70
     1
102
RTVSPropertyOp45
 70
     1
102
RTVSPropertyOp46
 70
     1
102
RTVSPropertyOp47
 70
     1
102
RTVSPropertyOp48
 70
     1
102
RTVSPropertyOp49
 70
     1
102
RTVSPropertyOp50
 70
     1
102
RTVSPropertyOp51
 70
     0
102
RTVSPropertyOp52
 70
     0
102
RTVSPropertyOp53
 70
     1
102
RTVSPropertyOp54
 70
     1
102
RTVSPropertyOp55
 70
     1
102
RTVSPropertyOp56
 70
     1
102
RTVSPropertyOp57
 70
     1
102
RTVSPropertyOp58
 70
     1
102
RTVSPropertyOp59
 70
     1
102
RTVSPropertyOp60
 70
     1
102
RTVSPropertyOp61
 70
     1
102
RTVSPropertyOp62
 70
     1
  0
XRECORD
  5
5EEA
102
{ACAD_REACTORS
330
5EE9
102
}
330
5EE9
100
AcDbXrecord
280
     1
102
RTVSPost2010Prop28
280
     0
102
RTVSPost2010PropOp28
 70
     1
102
RTVSPost2010Prop29
280
     1
102
RTVSPost2010PropOp29
 70
     1
102
RTVSPost2010Prop30
280
     1
102
RTVSPost2010PropOp30
 70
     1
102
RTVSPost2010Prop31
280
     0
102
RTVSPost2010PropOp31
 70
     1
102
RTVSPost2010Prop32
280
     0
102
RTVSPost2010PropOp32
 70
     1
102
RTVSPost2010Prop33
280
     0
102
RTVSPost2010PropOp33
 70
     1
102
RTVSPost2010Prop34
280
     0
102
RTVSPost2010PropOp34
 70
     1
102
RTVSPost2010Prop35
280
     0
102
RTVSPost2010PropOp35
 70
     1
102
RTVSPost2010Prop36
280
     0
102
RTVSPost2010PropOp36
 70
     1
102
RTVSPost2010Prop37
 90
       50
102
RTVSPost2010PropOp37
 70
     1
102
RTVSPost2010Prop38
140
0.0
102
RTVSPost2010PropOp38
 70
     1
102
RTVSPost2010Prop39
140
1.0
102
RTVSPost2010PropOp39
 70
     1
102
RTVSPost2010Prop40
 90
        0
102
RTVSPost2010PropOp40
 70
     1
102
RTVSPost2010Prop41ColorIndex
 90
       18
102
RTVSPost2010Prop41ColorRGB
 90
        0
102
RTVSPost2010PropOp41
 70
     1
102
RTVSPost2010Prop42
 90
       50
102
RTVSPost2010PropOp42
 70
     1
102
RTVSPost2010Prop43
 90
        3
102
RTVSPost2010PropOp43
 70
     1
102
RTVSPost2010Prop44ColorIndex
 90
        5
102
RTVSPost2010Prop44ColorRGB
 90
      255
102
RTVSPost2010PropOp44
 70
     1
102
RTVSPost2010Prop45
280
     0
102
RTVSPost2010PropOp45
 70
     1
102
RTVSPost2010Prop46
 90
       50
102
RTVSPost2010PropOp46
 70
     1
102
RTVSPost2010Prop47
 90
       50
102
RTVSPost2010PropOp47
 70
     1
102
RTVSPost2010Prop48
 90
       50
102
RTVSPost2010PropOp48
 70
     1
102
RTVSPost2010Prop49
280
     0
102
RTVSPost2010PropOp49
 70
     1
102
RTVSPost2010Prop50
 90
       50
102
RTVSPost2010PropOp50
 70
     1
102
RTVSPost2010Prop51ColorIndex
 90
      256
102
RTVSPost2010Prop51ColorRGB
 90
-16777216
102
RTVSPost2010PropOp51
 70
     0
102
RTVSPost2010Prop52
140
1.0
102
RTVSPost2010PropOp52
 70
     0
102
RTVSPost2010Prop53
 90
        2
102
RTVSPost2010PropOp53
 70
     1
102
RTVSPost2010Prop54
  1
strokes_ogs.tif
102
RTVSPost2010PropOp54
 70
     1
102
RTVSPost2010Prop55
280
     0
102
RTVSPost2010PropOp55
 70
     1
102
RTVSPost2010Prop56
140
1.0
102
RTVSPost2010PropOp56
 70
     1
102
RTVSPost2010Prop57
140
1.0
102
RTVSPost2010PropOp57
 70
     1
102
RTVSPropertyOp0
 70
     1
102
RTVSPropertyOp1
 70
     1
102
RTVSPropertyOp2
 70
     1
102
RTVSPropertyOp3
 70
     1
102
RTVSPropertyOp4
 70
     1
102
RTVSPropertyOp5
 70
     1
102
RTVSPropertyOp6
 70
     1
102
RTVSPropertyOp7
 70
     1
102
RTVSPropertyOp8
 70
     1
102
RTVSPropertyOp9
 70
     1
102
RTVSPropertyOp10
 70
     1
102
RTVSPropertyOp11
 70
     1
102
RTVSPropertyOp12
 70
     1
102
RTVSPropertyOp13
 70
     1
102
RTVSPropertyOp14
 70
     1
102
RTVSPropertyOp15
 70
     1
102
RTVSPropertyOp16
 70
     1
102
RTVSPropertyOp17
 70
     1
102
RTVSPropertyOp18
 70
     1
102
RTVSPropertyOp19
 70
     1
102
RTVSPropertyOp20
 70
     1
102
RTVSPropertyOp21
 70
     1
102
RTVSPropertyOp22
 70
     1
102
RTVSPropertyOp23
 70
     1
102
RTVSPropertyOp24
 70
     1
102
RTVSPropertyOp25
 70
     1
102
RTVSPropertyOp26
 70
     1
102
RTVSPropertyOp27
 70
     1
102
RTVSPropertyOp28
 70
     1
102
RTVSPropertyOp29
 70
     1
102
RTVSPropertyOp30
 70
     1
102
RTVSPropertyOp31
 70
     1
102
RTVSPropertyOp32
 70
     1
102
RTVSPropertyOp33
 70
     1
102
RTVSPropertyOp34
 70
     1
102
RTVSPropertyOp35
 70
     1
102
RTVSPropertyOp36
 70
     1
102
RTVSPropertyOp37
 70
     1
102
RTVSPropertyOp38
 70
     1
102
RTVSPropertyOp39
 70
     1
102
RTVSPropertyOp40
 70
     1
102
RTVSPropertyOp41
 70
     1
102
RTVSPropertyOp42
 70
     1
102
RTVSPropertyOp43
 70
     1
102
RTVSPropertyOp44
 70
     1
102
RTVSPropertyOp45
 70
     1
102
RTVSPropertyOp46
 70
     1
102
RTVSPropertyOp47
 70
     1
102
RTVSPropertyOp48
 70
     1
102
RTVSPropertyOp49
 70
     1
102
RTVSPropertyOp50
 70
     1
102
RTVSPropertyOp51
 70
     0
102
RTVSPropertyOp52
 70
     0
102
RTVSPropertyOp53
 70
     1
102
RTVSPropertyOp54
 70
     1
102
RTVSPropertyOp55
 70
     1
102
RTVSPropertyOp56
 70
     1
102
RTVSPropertyOp57
 70
     1
102
RTVSPropertyOp58
 70
     1
102
RTVSPropertyOp59
 70
     1
102
RTVSPropertyOp60
 70
     1
102
RTVSPropertyOp61
 70
     1
102
RTVSPropertyOp62
 70
     1
  0
XRECORD
  5
5EEC
102
{ACAD_REACTORS
330
5EEB
102
}
330
5EEB
100
AcDbXrecord
280
     1
102
RTVSPost2010Prop28
280
     0
102
RTVSPost2010PropOp28
 70
     1
102
RTVSPost2010Prop29
280
     1
102
RTVSPost2010PropOp29
 70
     1
102
RTVSPost2010Prop30
280
     1
102
RTVSPost2010PropOp30
 70
     1
102
RTVSPost2010Prop31
280
     0
102
RTVSPost2010PropOp31
 70
     1
102
RTVSPost2010Prop32
280
     0
102
RTVSPost2010PropOp32
 70
     1
102
RTVSPost2010Prop33
280
     0
102
RTVSPost2010PropOp33
 70
     1
102
RTVSPost2010Prop34
280
     0
102
RTVSPost2010PropOp34
 70
     1
102
RTVSPost2010Prop35
280
     0
102
RTVSPost2010PropOp35
 70
     1
102
RTVSPost2010Prop36
280
     0
102
RTVSPost2010PropOp36
 70
     1
102
RTVSPost2010Prop37
 90
       50
102
RTVSPost2010PropOp37
 70
     1
102
RTVSPost2010Prop38
140
0.0
102
RTVSPost2010PropOp38
 70
     1
102
RTVSPost2010Prop39
140
1.0
102
RTVSPost2010PropOp39
 70
     1
102
RTVSPost2010Prop40
 90
        0
102
RTVSPost2010PropOp40
 70
     1
102
RTVSPost2010Prop41ColorIndex
 90
       18
102
RTVSPost2010Prop41ColorRGB
 90
        0
102
RTVSPost2010PropOp41
 70
     1
102
RTVSPost2010Prop42
 90
       50
102
RTVSPost2010PropOp42
 70
     1
102
RTVSPost2010Prop43
 90
        3
102
RTVSPost2010PropOp43
 70
     1
102
RTVSPost2010Prop44ColorIndex
 90
        5
102
RTVSPost2010Prop44ColorRGB
 90
      255
102
RTVSPost2010PropOp44
 70
     1
102
RTVSPost2010Prop45
280
     0
102
RTVSPost2010PropOp45
 70
     1
102
RTVSPost2010Prop46
 90
       50
102
RTVSPost2010PropOp46
 70
     1
102
RTVSPost2010Prop47
 90
       50
102
RTVSPost2010PropOp47
 70
     1
102
RTVSPost2010Prop48
 90
       50
102
RTVSPost2010PropOp48
 70
     1
102
RTVSPost2010Prop49
280
     0
102
RTVSPost2010PropOp49
 70
     1
102
RTVSPost2010Prop50
 90
       50
102
RTVSPost2010PropOp50
 70
     1
102
RTVSPost2010Prop51ColorIndex
 90
      256
102
RTVSPost2010Prop51ColorRGB
 90
-16777216
102
RTVSPost2010PropOp51
 70
     0
102
RTVSPost2010Prop52
140
1.0
102
RTVSPost2010PropOp52
 70
     0
102
RTVSPost2010Prop53
 90
        2
102
RTVSPost2010PropOp53
 70
     1
102
RTVSPost2010Prop54
  1
strokes_ogs.tif
102
RTVSPost2010PropOp54
 70
     1
102
RTVSPost2010Prop55
280
     0
102
RTVSPost2010PropOp55
 70
     1
102
RTVSPost2010Prop56
140
1.0
102
RTVSPost2010PropOp56
 70
     1
102
RTVSPost2010Prop57
140
1.0
102
RTVSPost2010PropOp57
 70
     1
102
RTVSPropertyOp0
 70
     1
102
RTVSPropertyOp1
 70
     1
102
RTVSPropertyOp2
 70
     1
102
RTVSPropertyOp3
 70
     1
102
RTVSPropertyOp4
 70
     1
102
RTVSPropertyOp5
 70
     1
102
RTVSPropertyOp6
 70
     1
102
RTVSPropertyOp7
 70
     1
102
RTVSPropertyOp8
 70
     1
102
RTVSPropertyOp9
 70
     1
102
RTVSPropertyOp10
 70
     1
102
RTVSPropertyOp11
 70
     1
102
RTVSPropertyOp12
 70
     1
102
RTVSPropertyOp13
 70
     1
102
RTVSPropertyOp14
 70
     1
102
RTVSPropertyOp15
 70
     1
102
RTVSPropertyOp16
 70
     1
102
RTVSPropertyOp17
 70
     1
102
RTVSPropertyOp18
 70
     1
102
RTVSPropertyOp19
 70
     1
102
RTVSPropertyOp20
 70
     1
102
RTVSPropertyOp21
 70
     1
102
RTVSPropertyOp22
 70
     1
102
RTVSPropertyOp23
 70
     1
102
RTVSPropertyOp24
 70
     1
102
RTVSPropertyOp25
 70
     1
102
RTVSPropertyOp26
 70
     1
102
RTVSPropertyOp27
 70
     1
102
RTVSPropertyOp28
 70
     1
102
RTVSPropertyOp29
 70
     1
102
RTVSPropertyOp30
 70
     1
102
RTVSPropertyOp31
 70
     1
102
RTVSPropertyOp32
 70
     1
102
RTVSPropertyOp33
 70
     1
102
RTVSPropertyOp34
 70
     1
102
RTVSPropertyOp35
 70
     1
102
RTVSPropertyOp36
 70
     1
102
RTVSPropertyOp37
 70
     1
102
RTVSPropertyOp38
 70
     1
102
RTVSPropertyOp39
 70
     1
102
RTVSPropertyOp40
 70
     1
102
RTVSPropertyOp41
 70
     1
102
RTVSPropertyOp42
 70
     1
102
RTVSPropertyOp43
 70
     1
102
RTVSPropertyOp44
 70
     1
102
RTVSPropertyOp45
 70
     1
102
RTVSPropertyOp46
 70
     1
102
RTVSPropertyOp47
 70
     1
102
RTVSPropertyOp48
 70
     1
102
RTVSPropertyOp49
 70
     1
102
RTVSPropertyOp50
 70
     1
102
RTVSPropertyOp51
 70
     0
102
RTVSPropertyOp52
 70
     0
102
RTVSPropertyOp53
 70
     1
102
RTVSPropertyOp54
 70
     1
102
RTVSPropertyOp55
 70
     1
102
RTVSPropertyOp56
 70
     1
102
RTVSPropertyOp57
 70
     1
102
RTVSPropertyOp58
 70
     1
102
RTVSPropertyOp59
 70
     1
102
RTVSPropertyOp60
 70
     1
102
RTVSPropertyOp61
 70
     1
102
RTVSPropertyOp62
 70
     1
  0
XRECORD
  5
5EE2
102
{ACAD_REACTORS
330
5EE1
102
}
330
5EE1
100
AcDbXrecord
280
     1
102
RTVSPost2010Prop28
280
     0
102
RTVSPost2010PropOp28
 70
     1
102
RTVSPost2010Prop29
280
     1
102
RTVSPost2010PropOp29
 70
     1
102
RTVSPost2010Prop30
280
     1
102
RTVSPost2010PropOp30
 70
     1
102
RTVSPost2010Prop31
280
     0
102
RTVSPost2010PropOp31
 70
     1
102
RTVSPost2010Prop32
280
     0
102
RTVSPost2010PropOp32
 70
     1
102
RTVSPost2010Prop33
280
     0
102
RTVSPost2010PropOp33
 70
     1
102
RTVSPost2010Prop34
280
     0
102
RTVSPost2010PropOp34
 70
     1
102
RTVSPost2010Prop35
280
     0
102
RTVSPost2010PropOp35
 70
     1
102
RTVSPost2010Prop36
280
     0
102
RTVSPost2010PropOp36
 70
     1
102
RTVSPost2010Prop37
 90
       50
102
RTVSPost2010PropOp37
 70
     1
102
RTVSPost2010Prop38
140
0.0
102
RTVSPost2010PropOp38
 70
     1
102
RTVSPost2010Prop39
140
1.0
102
RTVSPost2010PropOp39
 70
     1
102
RTVSPost2010Prop40
 90
        0
102
RTVSPost2010PropOp40
 70
     1
102
RTVSPost2010Prop41ColorIndex
 90
       18
102
RTVSPost2010Prop41ColorRGB
 90
        0
102
RTVSPost2010PropOp41
 70
     1
102
RTVSPost2010Prop42
 90
       50
102
RTVSPost2010PropOp42
 70
     1
102
RTVSPost2010Prop43
 90
        3
102
RTVSPost2010PropOp43
 70
     1
102
RTVSPost2010Prop44ColorIndex
 90
        5
102
RTVSPost2010Prop44ColorRGB
 90
      255
102
RTVSPost2010PropOp44
 70
     1
102
RTVSPost2010Prop45
280
     0
102
RTVSPost2010PropOp45
 70
     1
102
RTVSPost2010Prop46
 90
       50
102
RTVSPost2010PropOp46
 70
     1
102
RTVSPost2010Prop47
 90
       50
102
RTVSPost2010PropOp47
 70
     1
102
RTVSPost2010Prop48
 90
       50
102
RTVSPost2010PropOp48
 70
     1
102
RTVSPost2010Prop49
280
     0
102
RTVSPost2010PropOp49
 70
     1
102
RTVSPost2010Prop50
 90
       50
102
RTVSPost2010PropOp50
 70
     1
102
RTVSPost2010Prop51ColorIndex
 90
      256
102
RTVSPost2010Prop51ColorRGB
 90
-16777216
102
RTVSPost2010PropOp51
 70
     0
102
RTVSPost2010Prop52
140
1.0
102
RTVSPost2010PropOp52
 70
     0
102
RTVSPost2010Prop53
 90
        2
102
RTVSPost2010PropOp53
 70
     1
102
RTVSPost2010Prop54
  1
strokes_ogs.tif
102
RTVSPost2010PropOp54
 70
     1
102
RTVSPost2010Prop55
280
     0
102
RTVSPost2010PropOp55
 70
     1
102
RTVSPost2010Prop56
140
1.0
102
RTVSPost2010PropOp56
 70
     1
102
RTVSPost2010Prop57
140
1.0
102
RTVSPost2010PropOp57
 70
     1
102
RTVSPropertyOp0
 70
     1
102
RTVSPropertyOp1
 70
     1
102
RTVSPropertyOp2
 70
     1
102
RTVSPropertyOp3
 70
     1
102
RTVSPropertyOp4
 70
     1
102
RTVSPropertyOp5
 70
     1
102
RTVSPropertyOp6
 70
     1
102
RTVSPropertyOp7
 70
     1
102
RTVSPropertyOp8
 70
     1
102
RTVSPropertyOp9
 70
     1
102
RTVSPropertyOp10
 70
     1
102
RTVSPropertyOp11
 70
     1
102
RTVSPropertyOp12
 70
     1
102
RTVSPropertyOp13
 70
     1
102
RTVSPropertyOp14
 70
     1
102
RTVSPropertyOp15
 70
     1
102
RTVSPropertyOp16
 70
     1
102
RTVSPropertyOp17
 70
     1
102
RTVSPropertyOp18
 70
     1
102
RTVSPropertyOp19
 70
     1
102
RTVSPropertyOp20
 70
     1
102
RTVSPropertyOp21
 70
     1
102
RTVSPropertyOp22
 70
     1
102
RTVSPropertyOp23
 70
     1
102
RTVSPropertyOp24
 70
     1
102
RTVSPropertyOp25
 70
     1
102
RTVSPropertyOp26
 70
     1
102
RTVSPropertyOp27
 70
     1
102
RTVSPropertyOp28
 70
     1
102
RTVSPropertyOp29
 70
     1
102
RTVSPropertyOp30
 70
     1
102
RTVSPropertyOp31
 70
     1
102
RTVSPropertyOp32
 70
     1
102
RTVSPropertyOp33
 70
     1
102
RTVSPropertyOp34
 70
     1
102
RTVSPropertyOp35
 70
     1
102
RTVSPropertyOp36
 70
     1
102
RTVSPropertyOp37
 70
     1
102
RTVSPropertyOp38
 70
     1
102
RTVSPropertyOp39
 70
     1
102
RTVSPropertyOp40
 70
     1
102
RTVSPropertyOp41
 70
     1
102
RTVSPropertyOp42
 70
     1
102
RTVSPropertyOp43
 70
     1
102
RTVSPropertyOp44
 70
     1
102
RTVSPropertyOp45
 70
     1
102
RTVSPropertyOp46
 70
     1
102
RTVSPropertyOp47
 70
     1
102
RTVSPropertyOp48
 70
     1
102
RTVSPropertyOp49
 70
     1
102
RTVSPropertyOp50
 70
     1
102
RTVSPropertyOp51
 70
     0
102
RTVSPropertyOp52
 70
     0
102
RTVSPropertyOp53
 70
     1
102
RTVSPropertyOp54
 70
     1
102
RTVSPropertyOp55
 70
     1
102
RTVSPropertyOp56
 70
     1
102
RTVSPropertyOp57
 70
     1
102
RTVSPropertyOp58
 70
     1
102
RTVSPropertyOp59
 70
     1
102
RTVSPropertyOp60
 70
     1
102
RTVSPropertyOp61
 70
     1
102
RTVSPropertyOp62
 70
     1
  0
XRECORD
  5
5ED6
102
{ACAD_REACTORS
330
5ED5
102
}
330
5ED5
100
AcDbXrecord
280
     1
102
RTVSPost2010Prop28
280
     0
102
RTVSPost2010PropOp28
 70
     1
102
RTVSPost2010Prop29
280
     1
102
RTVSPost2010PropOp29
 70
     1
102
RTVSPost2010Prop30
280
     1
102
RTVSPost2010PropOp30
 70
     1
102
RTVSPost2010Prop31
280
     0
102
RTVSPost2010PropOp31
 70
     1
102
RTVSPost2010Prop32
280
     0
102
RTVSPost2010PropOp32
 70
     1
102
RTVSPost2010Prop33
280
     0
102
RTVSPost2010PropOp33
 70
     1
102
RTVSPost2010Prop34
280
     0
102
RTVSPost2010PropOp34
 70
     1
102
RTVSPost2010Prop35
280
     0
102
RTVSPost2010PropOp35
 70
     1
102
RTVSPost2010Prop36
280
     0
102
RTVSPost2010PropOp36
 70
     1
102
RTVSPost2010Prop37
 90
       50
102
RTVSPost2010PropOp37
 70
     1
102
RTVSPost2010Prop38
140
0.0
102
RTVSPost2010PropOp38
 70
     1
102
RTVSPost2010Prop39
140
1.0
102
RTVSPost2010PropOp39
 70
     1
102
RTVSPost2010Prop40
 90
        0
102
RTVSPost2010PropOp40
 70
     1
102
RTVSPost2010Prop41ColorIndex
 90
       18
102
RTVSPost2010Prop41ColorRGB
 90
        0
102
RTVSPost2010PropOp41
 70
     1
102
RTVSPost2010Prop42
 90
       50
102
RTVSPost2010PropOp42
 70
     1
102
RTVSPost2010Prop43
 90
        3
102
RTVSPost2010PropOp43
 70
     1
102
RTVSPost2010Prop44ColorIndex
 90
        5
102
RTVSPost2010Prop44ColorRGB
 90
      255
102
RTVSPost2010PropOp44
 70
     1
102
RTVSPost2010Prop45
280
     0
102
RTVSPost2010PropOp45
 70
     1
102
RTVSPost2010Prop46
 90
       50
102
RTVSPost2010PropOp46
 70
     1
102
RTVSPost2010Prop47
 90
       50
102
RTVSPost2010PropOp47
 70
     1
102
RTVSPost2010Prop48
 90
       50
102
RTVSPost2010PropOp48
 70
     1
102
RTVSPost2010Prop49
280
     0
102
RTVSPost2010PropOp49
 70
     1
102
RTVSPost2010Prop50
 90
       50
102
RTVSPost2010PropOp50
 70
     1
102
RTVSPost2010Prop51ColorIndex
 90
      256
102
RTVSPost2010Prop51ColorRGB
 90
-16777216
102
RTVSPost2010PropOp51
 70
     0
102
RTVSPost2010Prop52
140
1.0
102
RTVSPost2010PropOp52
 70
     0
102
RTVSPost2010Prop53
 90
        2
102
RTVSPost2010PropOp53
 70
     1
102
RTVSPost2010Prop54
  1
strokes_ogs.tif
102
RTVSPost2010PropOp54
 70
     1
102
RTVSPost2010Prop55
280
     0
102
RTVSPost2010PropOp55
 70
     1
102
RTVSPost2010Prop56
140
1.0
102
RTVSPost2010PropOp56
 70
     1
102
RTVSPost2010Prop57
140
1.0
102
RTVSPost2010PropOp57
 70
     1
102
RTVSPropertyOp0
 70
     1
102
RTVSPropertyOp1
 70
     1
102
RTVSPropertyOp2
 70
     1
102
RTVSPropertyOp3
 70
     1
102
RTVSPropertyOp4
 70
     1
102
RTVSPropertyOp5
 70
     1
102
RTVSPropertyOp6
 70
     1
102
RTVSPropertyOp7
 70
     1
102
RTVSPropertyOp8
 70
     1
102
RTVSPropertyOp9
 70
     1
102
RTVSPropertyOp10
 70
     1
102
RTVSPropertyOp11
 70
     1
102
RTVSPropertyOp12
 70
     1
102
RTVSPropertyOp13
 70
     1
102
RTVSPropertyOp14
 70
     1
102
RTVSPropertyOp15
 70
     1
102
RTVSPropertyOp16
 70
     1
102
RTVSPropertyOp17
 70
     1
102
RTVSPropertyOp18
 70
     1
102
RTVSPropertyOp19
 70
     1
102
RTVSPropertyOp20
 70
     1
102
RTVSPropertyOp21
 70
     1
102
RTVSPropertyOp22
 70
     1
102
RTVSPropertyOp23
 70
     1
102
RTVSPropertyOp24
 70
     1
102
RTVSPropertyOp25
 70
     1
102
RTVSPropertyOp26
 70
     1
102
RTVSPropertyOp27
 70
     1
102
RTVSPropertyOp28
 70
     1
102
RTVSPropertyOp29
 70
     1
102
RTVSPropertyOp30
 70
     1
102
RTVSPropertyOp31
 70
     1
102
RTVSPropertyOp32
 70
     1
102
RTVSPropertyOp33
 70
     1
102
RTVSPropertyOp34
 70
     1
102
RTVSPropertyOp35
 70
     1
102
RTVSPropertyOp36
 70
     1
102
RTVSPropertyOp37
 70
     1
102
RTVSPropertyOp38
 70
     1
102
RTVSPropertyOp39
 70
     1
102
RTVSPropertyOp40
 70
     1
102
RTVSPropertyOp41
 70
     1
102
RTVSPropertyOp42
 70
     1
102
RTVSPropertyOp43
 70
     1
102
RTVSPropertyOp44
 70
     1
102
RTVSPropertyOp45
 70
     1
102
RTVSPropertyOp46
 70
     1
102
RTVSPropertyOp47
 70
     1
102
RTVSPropertyOp48
 70
     1
102
RTVSPropertyOp49
 70
     1
102
RTVSPropertyOp50
 70
     1
102
RTVSPropertyOp51
 70
     0
102
RTVSPropertyOp52
 70
     0
102
RTVSPropertyOp53
 70
     1
102
RTVSPropertyOp54
 70
     1
102
RTVSPropertyOp55
 70
     1
102
RTVSPropertyOp56
 70
     1
102
RTVSPropertyOp57
 70
     1
102
RTVSPropertyOp58
 70
     1
102
RTVSPropertyOp59
 70
     1
102
RTVSPropertyOp60
 70
     1
102
RTVSPropertyOp61
 70
     1
102
RTVSPropertyOp62
 70
     1
  0
XRECORD
  5
5EEE
102
{ACAD_REACTORS
330
5EED
102
}
330
5EED
100
AcDbXrecord
280
     1
102
RTVSPost2010Prop28
280
     0
102
RTVSPost2010PropOp28
 70
     1
102
RTVSPost2010Prop29
280
     1
102
RTVSPost2010PropOp29
 70
     1
102
RTVSPost2010Prop30
280
     1
102
RTVSPost2010PropOp30
 70
     1
102
RTVSPost2010Prop31
280
     0
102
RTVSPost2010PropOp31
 70
     1
102
RTVSPost2010Prop32
280
     0
102
RTVSPost2010PropOp32
 70
     1
102
RTVSPost2010Prop33
280
     0
102
RTVSPost2010PropOp33
 70
     1
102
RTVSPost2010Prop34
280
     0
102
RTVSPost2010PropOp34
 70
     1
102
RTVSPost2010Prop35
280
     0
102
RTVSPost2010PropOp35
 70
     1
102
RTVSPost2010Prop36
280
     0
102
RTVSPost2010PropOp36
 70
     1
102
RTVSPost2010Prop37
 90
       50
102
RTVSPost2010PropOp37
 70
     1
102
RTVSPost2010Prop38
140
0.0
102
RTVSPost2010PropOp38
 70
     1
102
RTVSPost2010Prop39
140
1.0
102
RTVSPost2010PropOp39
 70
     1
102
RTVSPost2010Prop40
 90
        0
102
RTVSPost2010PropOp40
 70
     1
102
RTVSPost2010Prop41ColorIndex
 90
       18
102
RTVSPost2010Prop41ColorRGB
 90
        0
102
RTVSPost2010PropOp41
 70
     1
102
RTVSPost2010Prop42
 90
       50
102
RTVSPost2010PropOp42
 70
     1
102
RTVSPost2010Prop43
 90
        3
102
RTVSPost2010PropOp43
 70
     1
102
RTVSPost2010Prop44ColorIndex
 90
        5
102
RTVSPost2010Prop44ColorRGB
 90
      255
102
RTVSPost2010PropOp44
 70
     1
102
RTVSPost2010Prop45
280
     0
102
RTVSPost2010PropOp45
 70
     1
102
RTVSPost2010Prop46
 90
       50
102
RTVSPost2010PropOp46
 70
     1
102
RTVSPost2010Prop47
 90
       50
102
RTVSPost2010PropOp47
 70
     1
102
RTVSPost2010Prop48
 90
       50
102
RTVSPost2010PropOp48
 70
     1
102
RTVSPost2010Prop49
280
     0
102
RTVSPost2010PropOp49
 70
     1
102
RTVSPost2010Prop50
 90
       50
102
RTVSPost2010PropOp50
 70
     1
102
RTVSPost2010Prop51ColorIndex
 90
      256
102
RTVSPost2010Prop51ColorRGB
 90
-16777216
102
RTVSPost2010PropOp51
 70
     0
102
RTVSPost2010Prop52
140
1.0
102
RTVSPost2010PropOp52
 70
     0
102
RTVSPost2010Prop53
 90
        2
102
RTVSPost2010PropOp53
 70
     1
102
RTVSPost2010Prop54
  1
strokes_ogs.tif
102
RTVSPost2010PropOp54
 70
     1
102
RTVSPost2010Prop55
280
     0
102
RTVSPost2010PropOp55
 70
     1
102
RTVSPost2010Prop56
140
1.0
102
RTVSPost2010PropOp56
 70
     1
102
RTVSPost2010Prop57
140
1.0
102
RTVSPost2010PropOp57
 70
     1
102
RTVSPropertyOp0
 70
     1
102
RTVSPropertyOp1
 70
     1
102
RTVSPropertyOp2
 70
     1
102
RTVSPropertyOp3
 70
     1
102
RTVSPropertyOp4
 70
     1
102
RTVSPropertyOp5
 70
     1
102
RTVSPropertyOp6
 70
     1
102
RTVSPropertyOp7
 70
     1
102
RTVSPropertyOp8
 70
     1
102
RTVSPropertyOp9
 70
     1
102
RTVSPropertyOp10
 70
     1
102
RTVSPropertyOp11
 70
     1
102
RTVSPropertyOp12
 70
     1
102
RTVSPropertyOp13
 70
     1
102
RTVSPropertyOp14
 70
     1
102
RTVSPropertyOp15
 70
     1
102
RTVSPropertyOp16
 70
     1
102
RTVSPropertyOp17
 70
     1
102
RTVSPropertyOp18
 70
     1
102
RTVSPropertyOp19
 70
     1
102
RTVSPropertyOp20
 70
     1
102
RTVSPropertyOp21
 70
     1
102
RTVSPropertyOp22
 70
     1
102
RTVSPropertyOp23
 70
     1
102
RTVSPropertyOp24
 70
     1
102
RTVSPropertyOp25
 70
     1
102
RTVSPropertyOp26
 70
     1
102
RTVSPropertyOp27
 70
     1
102
RTVSPropertyOp28
 70
     1
102
RTVSPropertyOp29
 70
     1
102
RTVSPropertyOp30
 70
     1
102
RTVSPropertyOp31
 70
     1
102
RTVSPropertyOp32
 70
     1
102
RTVSPropertyOp33
 70
     1
102
RTVSPropertyOp34
 70
     1
102
RTVSPropertyOp35
 70
     1
102
RTVSPropertyOp36
 70
     1
102
RTVSPropertyOp37
 70
     1
102
RTVSPropertyOp38
 70
     1
102
RTVSPropertyOp39
 70
     1
102
RTVSPropertyOp40
 70
     1
102
RTVSPropertyOp41
 70
     1
102
RTVSPropertyOp42
 70
     1
102
RTVSPropertyOp43
 70
     1
102
RTVSPropertyOp44
 70
     1
102
RTVSPropertyOp45
 70
     1
102
RTVSPropertyOp46
 70
     1
102
RTVSPropertyOp47
 70
     1
102
RTVSPropertyOp48
 70
     1
102
RTVSPropertyOp49
 70
     1
102
RTVSPropertyOp50
 70
     1
102
RTVSPropertyOp51
 70
     0
102
RTVSPropertyOp52
 70
     0
102
RTVSPropertyOp53
 70
     1
102
RTVSPropertyOp54
 70
     1
102
RTVSPropertyOp55
 70
     1
102
RTVSPropertyOp56
 70
     1
102
RTVSPropertyOp57
 70
     1
102
RTVSPropertyOp58
 70
     1
102
RTVSPropertyOp59
 70
     1
102
RTVSPropertyOp60
 70
     1
102
RTVSPropertyOp61
 70
     1
102
RTVSPropertyOp62
 70
     1
  0
ENDSEC
  0
EOF
