  0
SECTION
  2
HEADER
  9
$ACADVER
  1
AC1009
  9
$INSBASE
 10
0.0
 20
0.0
 30
0.0
  9
$EXTMIN
 10
-102.7999999999999
 20
-50.0
 30
0.0
  9
$EXTMAX
 10
141.0
 20
89.0
 30
0.0
  9
$LIMMIN
 10
0.0
 20
0.0
  9
$LIMMAX
 10
297.0
 20
210.0
  9
$ORTHOMODE
 70
     0
  9
$REGENMODE
 70
     1
  9
$FILLMODE
 70
     1
  9
$QTEXTMODE
 70
     0
  9
$MIRRTEXT
 70
     1
  9
$DRAGMODE
 70
     2
  9
$LTSCALE
 40
10.0
  9
$OSMODE
 70
    35
  9
$ATTMODE
 70
     1
  9
$TEXTSIZE
 40
3.0
  9
$TRACEWID
 40
1.0
  9
$TEXTSTYLE
  7
YOKO
  9
$CLAYER
  8
240
  9
$CELTYPE
  6
BYLAYER
  9
$CECOLOR
 62
   256
  9
$DIMSCALE
 40
1.0
  9
$DIMASZ
 40
2.0
  9
$DIMEXO
 40
0.5
  9
$DIMDLI
 40
7.0
  9
$DIMRND
 40
0.0
  9
$DIMDLE
 40
0.0
  9
$DIMEXE
 40
1.0
  9
$DIMTP
 40
0.0
  9
$DIMTM
 40
0.01
  9
$DIMTXT
 40
2.7999999999999989
  9
$DIMCEN
 40
0.0
  9
$DIMTSZ
 40
0.0
  9
$DIMTOL
 70
     0
  9
$DIMLIM
 70
     0
  9
$DIMTIH
 70
     0
  9
$DIMTOH
 70
     0
  9
$DIMSE1
 70
     0
  9
$DIMSE2
 70
     0
  9
$DIMTAD
 70
     3
  9
$DIMZIN
 70
     8
  9
$DIMBLK
  1
OPEN
  9
$DIMASO
 70
     1
  9
$DIMSHO
 70
     1
  9
$DIMPOST
  1

  9
$DIMAPOST
  1

  9
$DIMALT
 70
     0
  9
$DIMALTD
 70
     2
  9
$DIMALTF
 40
25.399999999999999
  9
$DIMLFAC
 40
1.0
  9
$DIMTOFL
 70
     1
  9
$DIMTVP
 40
0.0
  9
$DIMTIX
 70
     1
  9
$DIMSOXD
 70
     0
  9
$DIMSAH
 70
     0
  9
$DIMBLK1
  1

  9
$DIMBLK2
  1

  9
$DIMSTYLE
  2
BIGT
  9
$DIMCLRD
 70
   256
  9
$DIMCLRE
 70
   256
  9
$DIMCLRT
 70
    40
  9
$DIMTFAC
 40
1.0
  9
$DIMGAP
 40
1.0
  9
$LUNITS
 70
     2
  9
$LUPREC
 70
     6
  9
$SKETCHINC
 40
1.0
  9
$FILLETRAD
 40
0.0
  9
$AUNITS
 70
     0
  9
$AUPREC
 70
     6
  9
$MENU
  1
.
  9
$ELEVATION
 40
0.0
  9
$PELEVATION
 40
0.0
  9
$THICKNESS
 40
0.0
  9
$LIMCHECK
 70
     0
  9
$BLIPMODE
 70
     0
  9
$CHAMFERA
 40
0.2
  9
$CHAMFERB
 40
0.2
  9
$SKPOLY
 70
     0
  9
$TDCREATE
 40
2457759.6746194679
  9
$TDUPDATE
 40
2457760.7032459029
  9
$TDINDWG
 40
0.0699525694
  9
$TDUSRTIMER
 40
0.0699524884
  9
$USRTIMER
 70
     1
  9
$ANGBASE
 50
0.0
  9
$ANGDIR
 70
     0
  9
$PDMODE
 70
     0
  9
$PDSIZE
 40
-5.0
  9
$PLINEWID
 40
0.0
  9
$COORDS
 70
     1
  9
$SPLFRAME
 70
     0
  9
$SPLINETYPE
 70
     6
  9
$SPLINESEGS
 70
     4
  9
$ATTDIA
 70
     1
  9
$ATTREQ
 70
     1
  9
$HANDLING
 70
     1
  9
$HANDSEED
  5
4911
  9
$SURFTAB1
 70
     6
  9
$SURFTAB2
 70
     6
  9
$SURFTYPE
 70
     6
  9
$SURFU
 70
     6
  9
$SURFV
 70
     6
  9
$UCSNAME
  2

  9
$UCSORG
 10
0.0
 20
0.0
 30
0.0
  9
$UCSXDIR
 10
1.0
 20
0.0
 30
0.0
  9
$UCSYDIR
 10
0.0
 20
1.0
 30
0.0
  9
$PUCSNAME
  2

  9
$PUCSORG
 10
0.0
 20
0.0
 30
0.0
  9
$PUCSXDIR
 10
1.0
 20
0.0
 30
0.0
  9
$PUCSYDIR
 10
0.0
 20
1.0
 30
0.0
  9
$USERI1
 70
     1
  9
$USERI2
 70
     0
  9
$USERI3
 70
     0
  9
$USERI4
 70
     0
  9
$USERI5
 70
     0
  9
$USERR1
 40
0.0
  9
$USERR2
 40
0.0
  9
$USERR3
 40
0.0
  9
$USERR4
 40
0.0
  9
$USERR5
 40
0.0
  9
$WORLDVIEW
 70
     1
  9
$SHADEDGE
 70
     3
  9
$SHADEDIF
 70
    70
  9
$TILEMODE
 70
     1
  9
$MAXACTVP
 70
    16
  9
$PLIMCHECK
 70
     0
  9
$PEXTMIN
 10
1.0000000000000000E+020
 20
1.0000000000000000E+020
 30
1.0000000000000000E+020
  9
$PEXTMAX
 10
-1.0000000000000000E+020
 20
-1.0000000000000000E+020
 30
-1.0000000000000000E+020
  9
$PLIMMIN
 10
0.0
 20
0.0
  9
$PLIMMAX
 10
420.0
 20
297.0
  9
$UNITMODE
 70
     0
  9
$VISRETAIN
 70
     1
  9
$PLINEGEN
 70
     0
  9
$PSLTSCALE
 70
     1
  0
ENDSEC
  0
SECTION
  2
TABLES
  0
TABLE
  2
VPORT
 70
     1
  0
VPORT
  2
*ACTIVE
 70
     0
 10
0.0
 20
0.0
 11
1.0
 21
1.0
 12
19.105570298067299
 22
39.210906389770201
 13
0.0
 23
0.0
 14
7.0
 24
7.0
 15
7.0
 25
7.0
 16
0.0
 26
0.0
 36
1.0
 17
0.0
 27
0.0
 37
0.0
 40
179.47509617016729
 41
1.499452354874041
 42
50.0
 43
0.0
 44
0.0
 50
0.0
 51
0.0
 71
     0
 72
  2000
 73
     1
 74
     0
 75
     0
 76
     0
 77
     0
 78
     0
  0
ENDTAB
  0
TABLE
  2
LTYPE
 70
    13
  0
LTYPE
  2
CONTINUOUS
 70
     0
  3
Solid line
 72
    65
 73
     0
 40
0.0
  0
LTYPE
  2
CENTER2
 70
     0
  3
___ _ ___ _ ___ _ ___ _ ___ _ ___ _ ___ _ ___ _
 72
    65
 73
     4
 40
1.125
 49
0.75
 49
-0.125
 49
0.125
 49
-0.125
  0
LTYPE
  2
HIDDEN2
 70
     0
  3
_ _ _ _ _ _ _ _ _ _ _ _ _ _ _ _ _ _ _ _ _ _ _ _
 72
    65
 73
     2
 40
0.1875
 49
0.125
 49
-0.0625
  0
LTYPE
  2
PHANTOM2
 70
     0
  3
___ _ _ ___ _ _ ___ _ _ ___ _ _ ___ _ _ ___ _ _
 72
    65
 73
     6
 40
1.25
 49
0.625
 49
-0.125
 49
0.125
 49
-0.125
 49
0.125
 49
-0.125
  0
LTYPE
  2
AMCONSTR
 70
     0
  3
_______________________
 72
    65
 73
     2
 40
9999.0
 49
9999.0
 49
0.0
  0
LTYPE
  2
AM_ISO02W050
 70
     0
  3
__ __ __ __ __ __ __ __ __ __ __ __ __ __ __
 72
    65
 73
     2
 40
7.5
 49
6.0
 49
-1.5
  0
LTYPE
  2
ACJISTGB
 70
     0
  3
__ . . __ . .
 72
    65
 73
     6
 40
9.0
 49
4.0
 49
-1.0
 49
1.0
 49
-1.0
 49
1.0
 49
-1.0
  0
LTYPE
  2
ACJISTGL
 70
     0
  3
_ _ _ _ _
 72
    65
 73
     2
 40
3.0
 49
2.0
 49
-1.0
  0
LTYPE
  2
ACISOWELD
 70
     0
  3
_ _ _ _ _
 72
    65
 73
     2
 40
2.0
 49
2.0
 49
-1.0
  0
LTYPE
  2
ACISOTGB
 70
     0
  3
__ . . __ . .
 72
    65
 73
     6
 40
9.0
 49
4.0
 49
-1.0
 49
1.0
 49
-1.0
 49
1.0
 49
-1.0
  0
LTYPE
  2
ACISOTGL
 70
     0
  3
_ _ _ _ _
 72
    65
 73
     2
 40
3.0
 49
2.0
 49
-1.0
  0
ENDTAB
  0
TABLE
  2
LAYER
 70
     9
  0
LAYER
  2
0
 70
     0
 62
     7
  6
CONTINUOUS
  0
LAYER
  2
245
 70
     0
 62
     2
  6
CENTER2
  0
LAYER
  2
240
 70
     0
 62
     4
  6
CONTINUOUS
  0
LAYER
  2
241
 70
     0
 62
   211
  6
CONTINUOUS
  0
LAYER
  2
242
 70
     0
 62
     3
  6
CONTINUOUS
  0
LAYER
  2
243
 70
     0
 62
   211
  6
HIDDEN2
  0
LAYER
  2
247
 70
     0
 62
    60
  6
CONTINUOUS
  0
LAYER
  2
250
 70
     0
 62
     3
  6
CONTINUOUS
  0
LAYER
  2
DEFPOINTS
 70
     0
 62
     7
  6
CONTINUOUS
  0
ENDTAB
  0
TABLE
  2
STYLE
 70
     6
  0
STYLE
  2
STANDARD
 70
     0
 40
0.0
 41
1.0
 50
0.0
 71
     0
 42
3.0
  3
romans.shx
  4
extfont.shx
  0
STYLE
  2
YOKO
 70
     0
 40
0.0
 41
1.0
 50
0.0
 71
     0
 42
3.0
  3
romans.shx
  4
extfont.shx
  0
STYLE
  2
ACJISTS
 70
     0
 40
1.0
 41
1.0
 50
0.0
 71
     0
 42
3.0
  3
amgdt.shx
  4
extfont.shx
  0
STYLE
  2
ACJISGDT
 70
     0
 40
0.0
 41
1.0
 50
0.0
 71
     0
 42
3.0
  3
amgdt.shx
  4
extfont.shx
  0
STYLE
  2
ACISOTS
 70
     0
 40
1.0
 41
1.0
 50
0.0
 71
     0
 42
3.0
  3
amgdt.shx
  4
extfont.shx
  0
STYLE
  2
ACISOGDT
 70
     0
 40
0.0
 41
1.0
 50
0.0
 71
     0
 42
3.0
  3
amgdt.shx
  4
extfont.shx
  0
ENDTAB
  0
TABLE
  2
VIEW
 70
     0
  0
ENDTAB
  0
TABLE
  2
UCS
 70
     0
  0
ENDTAB
  0
TABLE
  2
APPID
 70
    36
  0
APPID
  2
ACAD
 70
     0
  0
APPID
  2
GLOBAL
 70
     0
  0
APPID
  2
DETAIL
 70
     0
  0
APPID
  2
GRPNAME
 70
     0
  0
APPID
  2
GPARA
 70
     0
  0
APPID
  2
MCAD_NO_VIS
 70
     0
  0
APPID
  2
ACAD_TEMP_GRAPHIC
 70
     0
  0
APPID
  2
ACATTRIBSERVICES
 70
     0
  0
APPID
  2
GENIUS_GENSCREG_15
 70
     0
  0
APPID
  2
GENIUS_GENODEF_13
 70
     0
  0
APPID
  2
GENIUS_GENOBJ-N-SDF_13
 70
     0
  0
APPID
  2
GENIUS_GENREC_14
 70
     0
  0
APPID
  2
GENIUS_GENOBJ-N-REC_13
 70
     0
  0
APPID
  2
GENIUS_GENDIMSH_14
 70
     0
  0
APPID
  2
GENIUS_GENOBJ-N-DIM_13
 70
     0
  0
APPID
  2
GENIUS_GENDIM_13
 70
     0
  0
APPID
  2
GENIUS_GENDTOL_13
 70
     0
  0
APPID
  2
GENIUS_GENOLIS_13
 70
     0
  0
APPID
  2
GENIUS_GENOENT_13
 70
     0
  0
APPID
  2
GENIUS_GENOBJ-F-FEM_13
 70
     0
  0
APPID
  2
GENIUS_GENOREF_13
 70
     0
  0
APPID
  2
GENIUS_GEFFEM_13
 70
     0
  0
APPID
  2
GENIUS_GEFFEMP_13
 70
     0
  0
APPID
  2
AD_DRAW
 70
     0
  0
APPID
  2
DESIGNERASSEMBLIES
 70
     0
  0
APPID
  2
ACADM_DIM_EDIT
 70
     0
  0
APPID
  2
AMDT_DM_ADJ
 70
     0
  0
APPID
  2
ITEMNAME
 70
     0
  0
APPID
  2
GENIUS_GENOBJ-N-FIL_13
 70
     0
  0
APPID
  2
GENIUS_GENFIL_13
 70
     0
  0
APPID
  2
GENIUS_GENOBJ-N-CHA_13
 70
     0
  0
APPID
  2
ACAD_NAV_VCDISPLAY
 70
     0
  0
APPID
  2
ACAD_PSEXT
 70
     0
  0
APPID
  2
ACAD_EXEMPT_FROM_CAD_STANDARDS
 70
     0
  0
APPID
  2
ACAECLAYERSTANDARD
 70
     0
  0
APPID
  2
ACAD_MLEADERVER
 70
     0
  0
ENDTAB
  0
TABLE
  2
DIMSTYLE
 70
    23
  0
DIMSTYLE
  2
BIGT
 70
     0
  3

  4

  5
OPEN
  6

  7

 40
1.0
 41
2.2299999999999991
 42
0.5
 43
7.0
 44
1.0
 45
0.0
 46
0.0
 47
0.0
 48
0.01
140
2.7999999999999989
141
0.0
142
0.0
143
25.399999999999999
144
1.0
145
0.0
146
1.0
147
1.0
 71
     0
 72
     0
 73
     0
 74
     0
 75
     0
 76
     0
 77
     3
 78
     9
170
     0
171
     2
172
     1
173
     0
174
     1
175
     0
176
   256
177
   256
178
    40
  0
DIMSTYLE
  2
BIGT$0
 70
     0
  3

  4

  5
OPEN
  6

  7

 40
1.0
 41
2.2299999999999991
 42
0.5
 43
7.0
 44
1.0
 45
0.0
 46
0.0
 47
0.0
 48
0.01
140
2.7999999999999989
141
0.0
142
0.0
143
25.399999999999999
144
1.0
145
0.0
146
1.0
147
1.0
 71
     0
 72
     0
 73
     0
 74
     0
 75
     0
 76
     0
 77
     3
 78
     9
170
     0
171
     2
172
     1
173
     0
174
     1
175
     0
176
   256
177
   256
178
    40
  0
DIMSTYLE
  2
BIGT$2
 70
     0
  3

  4

  5
OPEN
  6

  7

 40
1.0
 41
2.2299999999999991
 42
0.5
 43
7.0
 44
1.0
 45
0.0
 46
0.0
 47
0.0
 48
0.01
140
2.7999999999999989
141
0.0
142
0.0
143
25.399999999999999
144
1.0
145
0.0
146
1.0
147
1.0
 71
     0
 72
     0
 73
     0
 74
     0
 75
     0
 76
     0
 77
     3
 78
     9
170
     0
171
     2
172
     1
173
     0
174
     0
175
     0
176
   256
177
   256
178
    40
  0
DIMSTYLE
  2
BIGT$3
 70
     0
  3

  4

  5
OPEN
  6

  7

 40
1.0
 41
2.2299999999999991
 42
0.5
 43
2.5
 44
1.0
 45
0.0
 46
0.0
 47
0.0
 48
0.01
140
2.7999999999999989
141
0.0
142
0.0
143
25.399999999999999
144
1.0
145
0.0
146
1.0
147
1.0
 71
     0
 72
     0
 73
     0
 74
     0
 75
     0
 76
     0
 77
     3
 78
     9
170
     0
171
     2
172
     1
173
     0
174
     0
175
     0
176
   256
177
   256
178
    40
  0
DIMSTYLE
  2
BIGT$4
 70
     0
  3

  4

  5
OPEN
  6

  7

 40
1.0
 41
2.2299999999999991
 42
0.5
 43
2.5
 44
1.0
 45
0.0
 46
0.0
 47
0.0
 48
0.01
140
2.7999999999999989
141
0.0
142
0.0
143
25.399999999999999
144
1.0
145
0.0
146
1.0
147
1.0
 71
     0
 72
     0
 73
     0
 74
     0
 75
     0
 76
     0
 77
     3
 78
     9
170
     0
171
     2
172
     1
173
     0
174
     0
175
     0
176
   256
177
   256
178
    40
  0
DIMSTYLE
  2
BIGT$6
 70
     0
  3

  4

  5
OPEN
  6

  7

 40
1.0
 41
2.2299999999999991
 42
0.5
 43
2.5
 44
1.0
 45
0.0
 46
0.0
 47
0.0
 48
0.01
140
2.7999999999999989
141
0.0
142
0.0
143
25.399999999999999
144
1.0
145
0.0
146
1.0
147
1.0
 71
     0
 72
     0
 73
     0
 74
     0
 75
     0
 76
     0
 77
     3
 78
     9
170
     0
171
     2
172
     1
173
     0
174
     0
175
     0
176
   256
177
   256
178
    40
  0
DIMSTYLE
  2
BIGT$7
 70
     0
  3

  4

  5
OPEN
  6

  7

 40
0.0
 41
2.2299999999999991
 42
0.5
 43
7.0
 44
1.0
 45
0.0
 46
0.0
 47
0.0
 48
0.01
140
2.7999999999999989
141
0.0
142
0.0
143
25.399999999999999
144
1.0
145
0.0
146
1.0
147
1.0
 71
     0
 72
     0
 73
     0
 74
     0
 75
     0
 76
     0
 77
     3
 78
     9
170
     0
171
     2
172
     0
173
     0
174
     0
175
     0
176
   256
177
   256
178
    40
  0
DIMSTYLE
  2
BIGT$SF
 70
     0
  3

  4

  5
OPEN
  6

  7

 40
1.0
 41
2.2299999999999991
 42
0.5
 43
7.0
 44
1.0
 45
0.0
 46
0.0
 47
0.0
 48
0.0
140
2.7999999999999989
141
0.0
142
0.0
143
25.399999999999999
144
1.0
145
0.0
146
1.0
147
1.0
 71
     0
 72
     0
 73
     0
 74
     0
 75
     0
 76
     0
 77
     3
 78
     9
170
     0
171
     2
172
     1
173
     0
174
     0
175
     0
176
   256
177
   256
178
    40
  0
DIMSTYLE
  2
BIGT$SH
 70
     0
  3

  4

  5
OPEN
  6

  7

 40
1.0
 41
2.2299999999999991
 42
0.5
 43
7.0
 44
1.0
 45
0.0
 46
0.0
 47
0.0
 48
0.0
140
2.7999999999999989
141
0.0
142
0.0
143
25.399999999999999
144
1.0
145
0.0
146
1.0
147
1.0
 71
     0
 72
     0
 73
     0
 74
     0
 75
     0
 76
     0
 77
     3
 78
     9
170
     0
171
     2
172
     1
173
     0
174
     0
175
     0
176
   256
177
   256
178
    40
  0
DIMSTYLE
  2
AM_ISO
 70
     0
  3

  4
"
  5

  6

  7

 40
1.0
 41
2.5
 42
1.0
 43
10.0
 44
1.0
 45
0.0
 46
0.0
 47
0.1
 48
0.1
140
3.5
141
0.0
142
0.0
143
0.0393701
144
1.0
145
0.0
146
0.71
147
1.5
 71
     0
 72
     0
 73
     0
 74
     0
 75
     0
 76
     0
 77
     1
 78
     8
170
     0
171
     2
172
     1
173
     0
174
     0
175
     0
176
   256
177
   256
178
     2
  0
DIMSTYLE
  2
AM_ISO$3
 70
     0
  3

  4
"
  5

  6

  7

 40
1.0
 41
2.5
 42
1.0
 43
10.0
 44
1.0
 45
0.0
 46
0.0
 47
0.1
 48
0.1
140
3.5
141
0.0
142
0.0
143
0.0393701
144
1.0
145
0.0
146
0.71
147
1.5
 71
     0
 72
     0
 73
     0
 74
     1
 75
     0
 76
     0
 77
     1
 78
     8
170
     0
171
     2
172
     0
173
     0
174
     0
175
     0
176
   256
177
   256
178
     2
  0
DIMSTYLE
  2
AM_ISO$4
 70
     0
  3

  4
"
  5

  6

  7

 40
1.0
 41
2.5
 42
1.0
 43
10.0
 44
1.0
 45
0.0
 46
0.0
 47
0.1
 48
0.1
140
3.5
141
0.0
142
0.0
143
0.0393701
144
1.0
145
0.0
146
0.71
147
1.5
 71
     0
 72
     0
 73
     0
 74
     1
 75
     0
 76
     0
 77
     1
 78
     8
170
     0
171
     2
172
     0
173
     0
174
     0
175
     0
176
   256
177
   256
178
     2
  0
DIMSTYLE
  2
AM_ISO$6
 70
     0
  3

  4
"
  5

  6

  7

 40
1.0
 41
2.5
 42
1.0
 43
10.0
 44
1.0
 45
0.0
 46
0.0
 47
0.1
 48
0.1
140
3.5
141
0.0
142
0.0
143
0.0393701
144
1.0
145
0.0
146
0.71
147
1.5
 71
     0
 72
     0
 73
     0
 74
     0
 75
     0
 76
     0
 77
     0
 78
     8
170
     0
171
     2
172
     1
173
     0
174
     0
175
     0
176
   256
177
   256
178
     2
  0
DIMSTYLE
  2
AM_ISO$7
 70
     0
  3

  4
"
  5

  6

  7

 40
1.0
 41
2.5
 42
1.0
 43
10.0
 44
1.0
 45
0.0
 46
0.0
 47
0.1
 48
0.1
140
5.0
141
0.0
142
0.0
143
0.0393701
144
1.0
145
0.0
146
0.71
147
1.5
 71
     0
 72
     0
 73
     0
 74
     0
 75
     0
 76
     0
 77
     1
 78
     8
170
     0
171
     2
172
     1
173
     0
174
     0
175
     0
176
   256
177
   256
178
     2
  0
DIMSTYLE
  2
AM_ISO$SF
 70
     0
  3

  4
"
  5

  6

  7

 40
1.0
 41
2.5
 42
1.0
 43
10.0
 44
1.0
 45
0.0
 46
0.0
 47
0.1
 48
0.1
140
3.5
141
0.0
142
0.0
143
0.0393701
144
1.0
145
0.0
146
0.71
147
1.5
 71
     0
 72
     0
 73
     0
 74
     0
 75
     1
 76
     1
 77
     1
 78
     8
170
     0
171
     2
172
     1
173
     0
174
     0
175
     0
176
   256
177
   256
178
     2
  0
DIMSTYLE
  2
AM_ISO$SH
 70
     0
  3

  4
"
  5

  6
GENAXEH
  7

 40
1.0
 41
2.5
 42
1.0
 43
10.0
 44
1.0
 45
0.0
 46
0.0
 47
0.1
 48
0.1
140
3.5
141
0.0
142
0.0
143
0.0393701
144
2.0
145
0.0
146
0.71
147
1.5
 71
     0
 72
     0
 73
     0
 74
     0
 75
     1
 76
     1
 77
     1
 78
     8
170
     0
171
     2
172
     1
173
     1
174
     0
175
     0
176
   256
177
   256
178
     2
  0
DIMSTYLE
  2
TECHNICAL_OSAKA
 70
     0
  3

  4
"
  5
OPEN30
  6

  7

 40
1.0
 41
2.5
 42
1.0
 43
10.0
 44
1.0
 45
0.0
 46
0.0
 47
0.1
 48
0.1
140
2.7999999999999989
141
0.0
142
0.0
143
0.0393701
144
1.0
145
0.0
146
0.71
147
1.5
 71
     0
 72
     0
 73
     0
 74
     0
 75
     0
 76
     0
 77
     3
 78
     8
170
     0
171
     2
172
     1
173
     0
174
     0
175
     0
176
   256
177
   256
178
    40
  0
DIMSTYLE
  2
TECHNICAL_OSAKA$3
 70
     0
  3

  4
"
  5
OPEN30
  6

  7

 40
1.0
 41
2.5
 42
1.0
 43
10.0
 44
1.0
 45
0.0
 46
0.0
 47
0.1
 48
0.1
140
2.7999999999999989
141
0.0
142
0.0
143
0.0393701
144
1.0
145
0.0
146
0.71
147
1.5
 71
     0
 72
     0
 73
     0
 74
     1
 75
     0
 76
     0
 77
     3
 78
     8
170
     0
171
     2
172
     0
173
     0
174
     0
175
     0
176
   256
177
   256
178
    40
  0
DIMSTYLE
  2
TECHNICAL_OSAKA$4
 70
     0
  3

  4
"
  5
OPEN30
  6

  7

 40
1.0
 41
2.5
 42
1.0
 43
10.0
 44
1.0
 45
0.0
 46
0.0
 47
0.1
 48
0.1
140
2.7999999999999989
141
0.0
142
0.0
143
0.0393701
144
1.0
145
0.0
146
0.71
147
1.5
 71
     0
 72
     0
 73
     0
 74
     1
 75
     0
 76
     0
 77
     3
 78
     8
170
     0
171
     2
172
     0
173
     0
174
     0
175
     0
176
   256
177
   256
178
    40
  0
DIMSTYLE
  2
TECHNICAL_OSAKA$6
 70
     0
  3

  4
"
  5
OPEN30
  6

  7

 40
1.0
 41
2.5
 42
1.0
 43
10.0
 44
1.0
 45
0.0
 46
0.0
 47
0.1
 48
0.1
140
2.7999999999999989
141
0.0
142
0.0
143
0.0393701
144
1.0
145
0.0
146
0.71
147
1.5
 71
     0
 72
     0
 73
     0
 74
     0
 75
     0
 76
     0
 77
     0
 78
     8
170
     0
171
     2
172
     1
173
     0
174
     0
175
     0
176
   256
177
   256
178
    40
  0
DIMSTYLE
  2
TECHNICAL_OSAKA$7
 70
     0
  3

  4
"
  5
OPEN30
  6

  7

 40
1.0
 41
2.5
 42
1.0
 43
10.0
 44
1.0
 45
0.0
 46
0.0
 47
0.1
 48
0.1
140
2.7999999999999989
141
0.0
142
0.0
143
0.0393701
144
1.0
145
0.0
146
0.71
147
1.5
 71
     0
 72
     0
 73
     0
 74
     0
 75
     0
 76
     0
 77
     3
 78
     8
170
     0
171
     2
172
     1
173
     0
174
     0
175
     0
176
   256
177
   256
178
    40
  0
DIMSTYLE
  2
TECHNICAL_OSAKA$SF
 70
     0
  3

  4
"
  5
OPEN30
  6
OPEN30
  7
OPEN30
 40
1.0
 41
2.5
 42
1.0
 43
10.0
 44
1.0
 45
0.0
 46
0.0
 47
0.1
 48
0.1
140
3.5
141
0.0
142
0.0
143
0.0393701
144
1.0
145
0.0
146
0.71
147
1.5
 71
     0
 72
     0
 73
     0
 74
     0
 75
     1
 76
     1
 77
     3
 78
     8
170
     0
171
     2
172
     1
173
     0
174
     0
175
     0
176
   256
177
   256
178
    40
  0
DIMSTYLE
  2
TECHNICAL_OSAKA$SH
 70
     0
  3

  4
"
  5
OPEN30
  6
GENAXEH
  7
OPEN30
 40
1.0
 41
2.5
 42
1.0
 43
10.0
 44
1.0
 45
0.0
 46
0.0
 47
0.1
 48
0.1
140
3.5
141
0.0
142
0.0
143
0.0393701
144
2.0
145
0.0
146
0.71
147
1.5
 71
     0
 72
     0
 73
     0
 74
     0
 75
     1
 76
     1
 77
     3
 78
     8
170
     0
171
     2
172
     1
173
     1
174
     0
175
     0
176
   256
177
   256
178
    40
  0
ENDTAB
  0
ENDSEC
  0
SECTION
  2
BLOCKS
  0
BLOCK
  8
0
  2
$MODEL_SPACE
 70
     0
 10
0.0
 20
0.0
 30
0.0
  3
$MODEL_SPACE
  1

  0
ENDBLK
  5
1C
  8
0
  0
BLOCK
 67
     1
  8
0
  2
$PAPER_SPACE
 70
     0
 10
0.0
 20
0.0
 30
0.0
  3
$PAPER_SPACE
  1

  0
ENDBLK
  5
19
 67
     1
  8
0
  0
BLOCK
  8
0
  2
_OPEN
 70
     0
 10
0.0
 20
0.0
 30
0.0
  3
_OPEN
  1

  0
LINE
  5
460C
  8
0
  6
BYBLOCK
 62
     0
 10
-1.0
 20
0.1666666666666666
 30
0.0
 11
0.0
 21
0.0
 31
0.0
  0
LINE
  5
460D
  8
0
  6
BYBLOCK
 62
     0
 10
-1.0
 20
-0.1666666666666666
 30
0.0
 11
0.0
 21
0.0
 31
0.0
  0
LINE
  5
460E
  8
0
  6
BYBLOCK
 62
     0
 10
0.0
 20
0.0
 30
0.0
 11
-1.0
 21
0.0
 31
0.0
  0
ENDBLK
  5
460F
  8
0
  0
BLOCK
  8
0
  2
GENAXEH
 70
     0
 10
0.0
 20
0.0
 30
0.0
  3
GENAXEH
  1

  0
LINE
  5
4647
  8
0
 10
-1.0
 20
0.0
 30
0.0
 11
1.0
 21
0.0
 31
0.0
  0
ENDBLK
  5
4648
  8
0
  0
BLOCK
  8
0
  2
_OPEN30
 70
     0
 10
0.0
 20
0.0
 30
0.0
  3
_OPEN30
  1

  0
LINE
  5
4683
  8
0
  6
BYBLOCK
 62
     0
 10
-1.0
 20
0.26794919
 30
0.0
 11
0.0
 21
0.0
 31
0.0
  0
LINE
  5
4684
  8
0
  6
BYBLOCK
 62
     0
 10
0.0
 20
0.0
 30
0.0
 11
-1.0
 21
-0.26794919
 31
0.0
  0
LINE
  5
4685
  8
0
  6
BYBLOCK
 62
     0
 10
0.0
 20
0.0
 30
0.0
 11
-1.0
 21
0.0
 31
0.0
  0
ENDBLK
  5
4686
  8
0
  0
ENDSEC
  0
SECTION
  2
ENTITIES
  0
LINE
  5
424A
  8
240
  6
CONTINUOUS
 10
0.0
 20
-34.925000000000011
 30
0.0
 11
-101.7999999999999
 21
-20.079166665188438
 31
0.0
  0
LINE
  5
424B
  8
245
  6
CENTER2
 10
-102.7999999999999
 20
0.0
 30
0.0
 11
123.03658530352899
 21
0.0
 31
0.0
  0
LINE
  5
424C
  8
240
  6
CONTINUOUS
 10
0.0
 20
34.925000000000011
 30
0.0
 11
-101.7999999999999
 21
20.079166665188438
 31
0.0
  0
LINE
  5
424D
  8
240
  6
CONTINUOUS
 10
-101.7999999999999
 20
20.079166665188438
 30
0.0
 11
-101.7999999999999
 21
-20.079166665188438
 31
0.0
  0
LINE
  5
424E
  8
241
  6
CONTINUOUS
 10
30.70000000000006
 20
50.0
 30
0.0
 11
30.70000000000006
 21
8.5976741040817046
 31
0.0
  0
LINE
  5
424F
  8
241
  6
CONTINUOUS
 10
26.369872979999968
 20
42.5
 30
0.0
 11
26.369872979999968
 21
11.74203670887902
 31
0.0
  0
LINE
  5
4250
  8
241
  6
CONTINUOUS
 10
20.030127020000009
 20
42.5
 30
0.0
 11
20.030127020000009
 21
12.850000000000019
 31
0.0
  0
LINE
  5
4251
  8
241
  6
CONTINUOUS
 10
15.70000000000004
 20
50.0
 30
0.0
 11
15.70000000000004
 21
12.850000000000019
 31
0.0
  0
LINE
  5
4252
  8
241
  6
CONTINUOUS
 10
15.70000000000004
 20
-50.0
 30
0.0
 11
15.70000000000004
 21
-12.850000000000019
 31
0.0
  0
LINE
  5
4253
  8
241
  6
CONTINUOUS
 10
20.030127020000009
 20
-42.5
 30
0.0
 11
20.030127020000009
 21
-12.850000000000019
 31
0.0
  0
LINE
  5
4254
  8
241
  6
CONTINUOUS
 10
30.70000000000006
 20
-50.0
 30
0.0
 11
30.70000000000006
 21
-8.5976741040817046
 31
0.0
  0
LINE
  5
4255
  8
241
  6
CONTINUOUS
 10
26.369872979999968
 20
-42.5
 30
0.0
 11
26.369872979999968
 21
-11.74203670887902
 31
0.0
  0
LINE
  5
4256
  8
240
  6
CONTINUOUS
 10
1.5
 20
-50.0
 30
0.0
 11
1.5
 21
-34.925000000000011
 31
0.0
  0
LINE
  5
4257
  8
240
  6
CONTINUOUS
 10
38.0
 20
-50.0
 30
0.0
 11
38.0
 21
-48.499999999999908
 31
0.0
  0
LINE
  5
4258
  8
240
  6
CONTINUOUS
 10
38.0
 20
-50.0
 30
0.0
 11
30.70000000000006
 21
-50.0
 31
0.0
  0
LINE
  5
4259
  8
240
  6
CONTINUOUS
 10
1.5
 20
-50.0
 30
0.0
 11
15.70000000000004
 21
-50.0
 31
0.0
  0
LINE
  5
425A
  8
240
  6
CONTINUOUS
 10
26.369872979999968
 20
-42.5
 30
0.0
 11
20.030127020000009
 21
-42.5
 31
0.0
  0
LINE
  5
425B
  8
240
  6
CONTINUOUS
 10
20.030127020000009
 20
-42.5
 30
0.0
 11
15.70000000000004
 21
-50.0
 31
0.0
  0
LINE
  5
425C
  8
240
  6
CONTINUOUS
 10
26.369872979999968
 20
-42.5
 30
0.0
 11
30.70000000000006
 21
-50.0
 31
0.0
  0
LINE
  5
425D
  8
241
  6
CONTINUOUS
 10
1.5
 20
-34.925000000000011
 30
0.0
 11
1.5
 21
34.925000000000011
 31
0.0
  0
LINE
  5
425E
  8
241
  6
CONTINUOUS
 10
0.0
 20
-34.925000000000011
 30
0.0
 11
0.0
 21
34.925000000000011
 31
0.0
  0
ARC
  5
425F
  8
241
  6
CONTINUOUS
 10
21.149999999999981
 20
0.0
 30
0.0
 40
12.849999999999881
 50
270.0
 51
90.0
  0
LINE
  5
4260
  8
241
  6
CONTINUOUS
 10
21.150001910000011
 20
-12.850000000000019
 30
0.0
 11
1.5
 21
-12.850000000000019
 31
0.0
  0
LINE
  5
4261
  8
240
  6
CONTINUOUS
 10
0.0
 20
-34.925000000000011
 30
0.0
 11
1.5
 21
-34.925000000000011
 31
0.0
  0
LINE
  5
4262
  8
241
  6
CONTINUOUS
 10
21.150001910000011
 20
12.850000000000019
 30
0.0
 11
1.5
 21
12.850000000000019
 31
0.0
  0
LINE
  5
4263
  8
240
  6
CONTINUOUS
 10
30.70000000000006
 20
50.0
 30
0.0
 11
38.0
 21
50.0
 31
0.0
  0
LINE
  5
4264
  8
240
  6
CONTINUOUS
 10
1.5
 20
50.0
 30
0.0
 11
1.5
 21
34.925000000000011
 31
0.0
  0
LINE
  5
4265
  8
240
  6
CONTINUOUS
 10
0.0
 20
34.925000000000011
 30
0.0
 11
1.5
 21
34.925000000000011
 31
0.0
  0
LINE
  5
4266
  8
240
  6
CONTINUOUS
 10
15.70000000000004
 20
50.0
 30
0.0
 11
1.5
 21
50.0
 31
0.0
  0
LINE
  5
4267
  8
240
  6
CONTINUOUS
 10
26.369872979999968
 20
42.5
 30
0.0
 11
20.030127020000009
 21
42.5
 31
0.0
  0
LINE
  5
4268
  8
240
  6
CONTINUOUS
 10
20.030127020000009
 20
42.5
 30
0.0
 11
15.70000000000004
 21
50.0
 31
0.0
  0
LINE
  5
4269
  8
240
  6
CONTINUOUS
 10
26.369872979999968
 20
42.5
 30
0.0
 11
30.70000000000006
 21
50.0
 31
0.0
  0
LINE
  5
426A
  8
247
  6
CONTINUOUS
 10
10.5
 20
-26.250000000070042
 30
0.0
 11
10.5
 21
-19.557692308030031
 31
0.0
  0
ARC
  5
426B
  8
247
  6
CONTINUOUS
 10
8.7500000000700311
 20
-26.250000000070042
 30
0.0
 40
1.7499999999299991
 50
180.0
 51
0.0
  0
ARC
  5
426C
  8
247
  6
CONTINUOUS
 10
8.7500000000700311
 20
-19.557692308030031
 30
0.0
 40
1.7499999999299991
 50
0.0
 51
180.0
  0
LINE
  5
426D
  8
247
  6
CONTINUOUS
 10
7.0000000001400622
 20
-25.384615384720011
 30
0.0
 11
10.000000000020011
 21
-26.244851541962021
 31
0.0
  0
LINE
  5
426E
  8
247
  6
CONTINUOUS
 10
8.4230769231600071
 20
-24.48498381833582
 30
0.0
 11
8.4230769231600071
 21
-25.792676125975849
 31
0.0
  0
ARC
  5
426F
  8
247
  6
CONTINUOUS
 10
7.5495986677029769
 20
-24.145143816089789
 30
0.0
 40
0.5538165441895349
 50
72.99788967529534
 51
172.92416621851359
  0
ARC
  5
4270
  8
247
  6
CONTINUOUS
 10
7.4360330444658302
 20
-24.566878323028789
 30
0.0
 40
0.9904354236226808
 50
4.7429368522022122
 51
73.849226273266538
1001
GENIUS_GENOBJ-N-FIL_13
1002
{
1000
OWNER
1000
GEN
1002
}
1001
GENIUS_GENODEF_13
1002
{
1000
HIER
1070
     0
1002
}
1002
{
1000
MANEDIT
1070
     0
1002
}
1002
{
1000
NOSEL
1070
     0
1002
}
1002
{
1000
BEHIND
1070
     0
1002
}
1002
{
1000
OTHER
1070
     0
1002
}
1002
{
1000
REACTOR
1002
}
  0
LINE
  5
4271
  8
247
  6
CONTINUOUS
 10
10.000000000020011
 20
-24.937159234321999
 30
0.0
 11
10.000000000020011
 21
-26.244851541962021
 31
0.0
  0
LINE
  5
4272
  8
247
  6
CONTINUOUS
 10
7.0000000001400622
 20
-25.384615384720011
 30
0.0
 11
7.0000000001400622
 21
-24.076923077079989
 31
0.0
  0
ARC
  5
4273
  8
247
  6
CONTINUOUS
 10
8.9820242326655944
 20
-24.560919636546942
 30
0.0
 40
0.5640818586791229
 50
65.990941652528889
 51
172.26344345906909
  0
ARC
  5
4274
  8
247
  6
CONTINUOUS
 10
8.9874290391866225
 20
-25.038262685347089
 30
0.0
 40
1.0176059446230981
 50
5.7019851642564632
 51
77.277338436822191
1001
GENIUS_GENOBJ-N-FIL_13
1002
{
1000
OWNER
1000
GEN
1002
}
1001
GENIUS_GENODEF_13
1002
{
1000
HIER
1070
     0
1002
}
1002
{
1000
MANEDIT
1070
     0
1002
}
1002
{
1000
NOSEL
1070
     0
1002
}
1002
{
1000
BEHIND
1070
     0
1002
}
1002
{
1000
OTHER
1070
     0
1002
}
1002
{
1000
REACTOR
1002
}
  0
LINE
  5
4275
  8
247
  6
CONTINUOUS
 10
10.000000000020011
 20
-23.28331308054203
 30
0.0
 11
7.0000000001400622
 21
-22.42307692330002
 31
0.0
  0
LINE
  5
4276
  8
247
  6
CONTINUOUS
 10
7.0000000001400622
 20
-20.000000000319972
 30
0.0
 11
7.0000000001400622
 21
-20.565736619456569
 31
0.0
  0
LINE
  5
4277
  8
247
  6
CONTINUOUS
 10
10.000000000020011
 20
-21.461538461799989
 30
0.0
 11
10.000000000020011
 21
-20.846153846440021
 31
0.0
  0
ARC
  5
4278
  8
247
  6
CONTINUOUS
 10
9.0832851359733677
 20
-19.708791209122861
 30
0.0
 40
2.2526500823422122
 50
202.35948814152621
 51
254.99324854284609
  0
ARC
  5
4279
  8
247
  6
CONTINUOUS
 10
7.8083126551945261
 20
-20.37406947921323
 30
0.0
 40
0.8906723995727782
 50
94.994589319075374
 51
155.1663289573039
1001
GENIUS_GENOBJ-N-FIL_13
1002
{
1000
OWNER
1000
GEN
1002
}
1001
GENIUS_GENODEF_13
1002
{
1000
HIER
1070
     0
1002
}
1002
{
1000
MANEDIT
1070
     0
1002
}
1002
{
1000
NOSEL
1070
     0
1002
}
1002
{
1000
BEHIND
1070
     0
1002
}
1002
{
1000
OTHER
1070
     0
1002
}
1002
{
1000
REACTOR
1002
}
  0
ARC
  5
427A
  8
247
  6
CONTINUOUS
 10
8.6601458886677847
 20
-21.22645888621258
 30
0.0
 40
1.392781735586712
 50
15.8460965557808
 51
82.325137004169065
  0
ARC
  5
427B
  8
247
  6
CONTINUOUS
 10
8.9592434315272822
 20
-20.642212725840348
 30
0.0
 40
1.324563662670287
 50
249.7136016704969
 51
321.78874565640598
1001
GENIUS_GENOBJ-N-FIL_13
1002
{
1000
OWNER
1000
GEN
1002
}
1001
GENIUS_GENODEF_13
1002
{
1000
HIER
1070
     0
1002
}
1002
{
1000
MANEDIT
1070
     0
1002
}
1002
{
1000
NOSEL
1070
     0
1002
}
1002
{
1000
BEHIND
1070
     0
1002
}
1002
{
1000
OTHER
1070
     0
1002
}
1002
{
1000
REACTOR
1002
}
  0
LINE
  5
427C
  8
247
  6
CONTINUOUS
 10
8.8461538462199751
 20
-20.538461538759979
 30
0.0
 11
8.8461538462199751
 21
-19.846153846479961
 31
0.0
  0
LINE
  5
427D
  8
247
  6
CONTINUOUS
 10
7.0000000001400622
 20
-26.250000000070042
 30
0.0
 11
7.0000000001400622
 21
-25.576923077020069
 31
0.0
  0
LINE
  5
427E
  8
250
  6
CONTINUOUS
 10
-52.781569849999919
 20
-37.791071780000038
 30
0.0
 11
-70.514903179999976
 21
-37.791071780000038
 31
0.0
1001
ITEMNAME
1000
LNSP2
  0
TEXT
  5
427F
  8
250
  6
CONTINUOUS
 10
-68.248236513333268
 20
-36.791071780000038
 30
0.0
 40
2.799999999999998
  1
BBT50
  7
YOKO
1001
ITEMNAME
1000
LNSP3
  0
LINE
  5
4280
  8
250
  6
CONTINUOUS
 10
-48.367434494225343
 20
-29.478898401206319
 30
0.0
 11
-47.078759359999928
 21
-27.913514259999999
 31
0.0
  0
LINE
  5
4281
  8
250
  6
CONTINUOUS
 10
-47.790084224956992
 20
-29.812231734403451
 30
0.0
 11
-47.078759359999928
 21
-27.913514259999999
 31
0.0
  0
LINE
  5
4282
  8
250
  6
CONTINUOUS
 10
-47.078759359999928
 20
-27.913514259999999
 30
0.0
 11
-48.078759359591167
 21
-29.64556506780491
 31
0.0
  0
LINE
  5
4283
  8
250
  6
CONTINUOUS
 10
-48.078759359591167
 20
-29.64556506780491
 30
0.0
 11
-52.781569849999919
 21
-37.791071780000038
 31
0.0
1001
ACAD
1000
DSTYLE
1002
{
1070
     6
1000
OPEN
1070
    41
1040
2.0
1070
   343
1005
0
1002
}
  0
LINE
  5
42A8
  8
240
  6
CONTINUOUS
 10
120.9999999999999
 20
-34.99999999999995
 30
0.0
 11
120.9999999999999
 21
34.99999999999995
 31
0.0
1001
GRPNAME
1000
PASTMD07
  0
LINE
  5
42AA
  8
240
  6
CONTINUOUS
 10
99.499999999999972
 20
-47.499999999999943
 30
0.0
 11
106.4999999999999
 21
-47.499999999999943
 31
0.0
1001
GRPNAME
1000
PASTMD09
  0
LINE
  5
42AB
  8
241
  6
CONTINUOUS
 10
98.999999999999986
 20
-46.999999999999943
 30
0.0
 11
98.999999999999986
 21
0.0000000000000568
 31
0.0
1001
GRPNAME
1000
PASTMD0B
  0
LINE
  5
42AC
  8
240
  6
CONTINUOUS
 10
99.499999999999972
 20
-47.499999999999943
 30
0.0
 11
98.999999999999986
 21
-46.999999999999943
 31
0.0
1001
GRPNAME
1000
PASTMD0A
  0
LINE
  5
42AD
  8
240
  6
CONTINUOUS
 10
120.9999999999999
 20
-34.99999999999995
 30
0.0
 11
108.9999999999999
 21
-46.999999999999943
 31
0.0
1001
GRPNAME
1000
PASTMD07
  0
LINE
  5
42AE
  8
241
  6
CONTINUOUS
 10
107.0
 20
-46.999999999999943
 30
0.0
 11
107.0
 21
0.0000000000000568
 31
0.0
  0
LINE
  5
42AF
  8
240
  6
CONTINUOUS
 10
107.0
 20
-46.999999999999943
 30
0.0
 11
108.9999999999999
 21
-46.999999999999943
 31
0.0
1001
GRPNAME
1000
PASTMD07
  0
LINE
  5
42B0
  8
240
  6
CONTINUOUS
 10
106.4999999999999
 20
-47.499999999999943
 30
0.0
 11
107.0
 21
-46.999999999999943
 31
0.0
1001
GRPNAME
1000
PASTMD08
  0
LINE
  5
42B7
  8
241
  6
CONTINUOUS
 10
67.999999999999972
 20
-46.999999999999943
 30
0.0
 11
67.999999999999972
 21
0.0000000000000568
 31
0.0
1001
GRPNAME
1000
PASTMD07
  0
LINE
  5
42B9
  8
241
  6
CONTINUOUS
 10
75.999999999999972
 20
-46.999999999999943
 30
0.0
 11
75.999999999999972
 21
0.0000000000000568
 31
0.0
  0
LINE
  5
42BA
  8
240
  6
CONTINUOUS
 10
68.499999999999972
 20
-47.499999999999943
 30
0.0
 11
75.499999999999972
 21
-47.499999999999943
 31
0.0
1001
GRPNAME
1000
PASTMD07
  0
LINE
  5
42BB
  8
240
  6
CONTINUOUS
 10
67.999999999999972
 20
-46.999999999999943
 30
0.0
 11
39.499999999999972
 21
-46.999999999999943
 31
0.0
1001
GRPNAME
1000
PASTMD07
  0
LINE
  5
42BC
  8
240
  6
CONTINUOUS
 10
68.499999999999972
 20
-47.499999999999943
 30
0.0
 11
67.999999999999972
 21
-46.999999999999943
 31
0.0
1001
GRPNAME
1000
PASTMD07
  0
LINE
  5
42BD
  8
240
  6
CONTINUOUS
 10
75.999999999999972
 20
-46.999999999999943
 30
0.0
 11
98.999999999999986
 21
-46.999999999999943
 31
0.0
1001
GRPNAME
1000
PASTMD07
  0
LINE
  5
42BE
  8
240
  6
CONTINUOUS
 10
75.499999999999972
 20
-47.499999999999943
 30
0.0
 11
75.999999999999972
 21
-46.999999999999943
 31
0.0
1001
GRPNAME
1000
PASTMD07
  0
ARC
  5
42BF
  8
240
  6
CONTINUOUS
 10
39.499999999999972
 20
-48.499999999999908
 30
0.0
 40
1.5
 50
90.0
 51
180.0
  0
LINE
  5
42C8
  8
240
  6
CONTINUOUS
 10
99.499999999999972
 20
47.499999999999943
 30
0.0
 11
106.4999999999999
 21
47.499999999999943
 31
0.0
1001
GRPNAME
1000
PASTMD09
  0
LINE
  5
42C9
  8
241
  6
CONTINUOUS
 10
98.999999999999986
 20
46.999999999999943
 30
0.0
 11
98.999999999999986
 21
-0.0000000000000568
 31
0.0
1001
GRPNAME
1000
PASTMD0B
  0
LINE
  5
42CA
  8
240
  6
CONTINUOUS
 10
99.499999999999972
 20
47.499999999999943
 30
0.0
 11
98.999999999999986
 21
46.999999999999943
 31
0.0
1001
GRPNAME
1000
PASTMD0A
  0
LINE
  5
42CB
  8
240
  6
CONTINUOUS
 10
120.9999999999999
 20
34.99999999999995
 30
0.0
 11
108.9999999999999
 21
46.999999999999943
 31
0.0
1001
GRPNAME
1000
PASTMD07
  0
LINE
  5
42CC
  8
241
  6
CONTINUOUS
 10
107.0
 20
46.999999999999943
 30
0.0
 11
107.0
 21
-0.0000000000000568
 31
0.0
  0
LINE
  5
42CD
  8
240
  6
CONTINUOUS
 10
107.0
 20
46.999999999999943
 30
0.0
 11
108.9999999999999
 21
46.999999999999943
 31
0.0
1001
GRPNAME
1000
PASTMD07
  0
LINE
  5
42CE
  8
240
  6
CONTINUOUS
 10
106.4999999999999
 20
47.499999999999943
 30
0.0
 11
107.0
 21
46.999999999999943
 31
0.0
1001
GRPNAME
1000
PASTMD08
  0
LINE
  5
42CF
  8
241
  6
CONTINUOUS
 10
67.999999999999972
 20
46.999999999999943
 30
0.0
 11
67.999999999999972
 21
-0.0000000000000568
 31
0.0
1001
GRPNAME
1000
PASTMD07
  0
LINE
  5
42D0
  8
241
  6
CONTINUOUS
 10
75.999999999999972
 20
46.999999999999943
 30
0.0
 11
75.999999999999972
 21
-0.0000000000000568
 31
0.0
  0
LINE
  5
42D1
  8
240
  6
CONTINUOUS
 10
68.499999999999972
 20
47.499999999999943
 30
0.0
 11
75.499999999999972
 21
47.499999999999943
 31
0.0
1001
GRPNAME
1000
PASTMD07
  0
LINE
  5
42D2
  8
240
  6
CONTINUOUS
 10
67.999999999999972
 20
46.999999999999943
 30
0.0
 11
39.499999999999972
 21
46.999999999999943
 31
0.0
1001
GRPNAME
1000
PASTMD07
  0
LINE
  5
42D3
  8
240
  6
CONTINUOUS
 10
68.499999999999972
 20
47.499999999999943
 30
0.0
 11
67.999999999999972
 21
46.999999999999943
 31
0.0
1001
GRPNAME
1000
PASTMD07
  0
LINE
  5
42D4
  8
240
  6
CONTINUOUS
 10
75.999999999999972
 20
46.999999999999943
 30
0.0
 11
98.999999999999986
 21
46.999999999999943
 31
0.0
1001
GRPNAME
1000
PASTMD07
  0
LINE
  5
42D5
  8
240
  6
CONTINUOUS
 10
75.499999999999972
 20
47.499999999999943
 30
0.0
 11
75.999999999999972
 21
46.999999999999943
 31
0.0
1001
GRPNAME
1000
PASTMD07
  0
ARC
  5
42D6
  8
240
  6
CONTINUOUS
 10
39.499999999999972
 20
48.499999999999908
 30
0.0
 40
1.5
 50
180.0
 51
270.0
  0
LINE
  5
430C
  8
250
  6
CONTINUOUS
 10
41.0
 20
25.899999999999999
 30
0.0
 11
41.0
 21
64.0
 31
0.0
  0
LINE
  5
430D
  8
250
  6
CONTINUOUS
 10
121.0
 20
35.08578644
 30
0.0
 11
121.0
 21
64.0
 31
0.0
  0
LINE
  5
430E
  8
250
  6
CONTINUOUS
 10
43.22999999999999
 20
63.0
 30
0.0
 11
118.77
 21
63.0
 31
0.0
  0
LINE
  5
430F
  8
250
  6
CONTINUOUS
 10
43.22999999999999
 20
62.62833333333333
 30
0.0
 11
41.0
 21
63.0
 31
0.0
  0
LINE
  5
4310
  8
250
  6
CONTINUOUS
 10
43.22999999999999
 20
63.37166666666667
 30
0.0
 11
41.0
 21
63.0
 31
0.0
  0
LINE
  5
4311
  8
250
  6
CONTINUOUS
 10
41.0
 20
63.0
 30
0.0
 11
43.22999999999999
 21
63.0
 31
0.0
  0
LINE
  5
4312
  8
250
  6
CONTINUOUS
 10
118.77
 20
63.37166666666667
 30
0.0
 11
121.0
 21
63.0
 31
0.0
  0
LINE
  5
4313
  8
250
  6
CONTINUOUS
 10
118.77
 20
62.62833333333333
 30
0.0
 11
121.0
 21
63.0
 31
0.0
  0
LINE
  5
4314
  8
250
  6
CONTINUOUS
 10
121.0
 20
63.0
 30
0.0
 11
118.77
 21
63.0
 31
0.0
  0
TEXT
  5
4315
  8
250
  6
CONTINUOUS
 10
70.209752943333314
 20
64.0
 30
0.0
 40
2.7999999999999989
  1
üimax.80üj
1001
ACAD
1000
MTEXTBEGIN
1070
    73
1070
     1
1070
    44
1040
1.0
1070
    74
1070
     0
1000
MTEXTEND
1000
MTEXTBEGIN
1070
    73
1070
     1
1070
    44
1040
1.0
1070
    74
1070
     0
1000
MTEXTEND
  0
LINE
  5
4316
  8
250
  6
CONTINUOUS
 10
0.0
 20
35.424999999999997
 30
0.0
 11
0.0
 21
71.0
 31
0.0
  0
LINE
  5
4317
  8
250
  6
CONTINUOUS
 10
121.0
 20
35.08578644
 30
0.0
 11
121.0
 21
71.0
 31
0.0
  0
LINE
  5
4318
  8
250
  6
CONTINUOUS
 10
2.2299999999999991
 20
70.0
 30
0.0
 11
118.77
 21
70.0
 31
0.0
  0
LINE
  5
4319
  8
250
  6
CONTINUOUS
 10
2.2299999999999991
 20
69.62833333333333
 30
0.0
 11
0.0
 21
70.0
 31
0.0
  0
LINE
  5
431A
  8
250
  6
CONTINUOUS
 10
2.2299999999999991
 20
70.37166666666667
 30
0.0
 11
0.0
 21
70.0
 31
0.0
  0
LINE
  5
431B
  8
250
  6
CONTINUOUS
 10
0.0
 20
70.0
 30
0.0
 11
2.2299999999999991
 21
70.0
 31
0.0
  0
LINE
  5
431C
  8
250
  6
CONTINUOUS
 10
118.77
 20
70.37166666666667
 30
0.0
 11
121.0
 21
70.0
 31
0.0
  0
LINE
  5
431D
  8
250
  6
CONTINUOUS
 10
118.77
 20
69.62833333333333
 30
0.0
 11
121.0
 21
70.0
 31
0.0
  0
LINE
  5
431E
  8
250
  6
CONTINUOUS
 10
121.0
 20
70.0
 30
0.0
 11
118.77
 21
70.0
 31
0.0
  0
TEXT
  5
431F
  8
250
  6
CONTINUOUS
 10
60.997178210000001
 20
71.000000000000014
 30
0.0
 40
2.7999999999999989
  1
121
1001
ACAD
1000
MTEXTBEGIN
1070
    73
1070
     1
1070
    44
1040
1.0
1070
    74
1070
     0
1000
MTEXTEND
1000
MTEXTBEGIN
1070
    73
1070
     1
1070
    44
1040
1.0
1070
    74
1070
     0
1000
MTEXTEND
  0
TEXT
  5
4320
  8
241
  6
CONTINUOUS
 10
-101.8
 20
84.0
 30
0.0
 40
5.0
  1
BBT50-SL50.8-121
  7
YOKO
 11
-101.8
 21
84.0
 31
0.0
 73
     1
  0
LINE
  5
4321
  8
250
  6
CONTINUOUS
 10
121.5
 20
25.399999999999999
 30
0.0
 11
134.0
 21
25.399999999999999
 31
0.0
  0
LINE
  5
4322
  8
250
  6
CONTINUOUS
 10
133.0
 20
-23.170000000000002
 30
0.0
 11
133.0
 21
23.170000000000002
 31
0.0
  0
LINE
  5
4323
  8
250
  6
CONTINUOUS
 10
132.6283333333333
 20
23.170000000000002
 30
0.0
 11
133.0
 21
25.399999999999999
 31
0.0
  0
LINE
  5
4324
  8
250
  6
CONTINUOUS
 10
133.37166666666661
 20
23.170000000000002
 30
0.0
 11
133.0
 21
25.399999999999999
 31
0.0
  0
LINE
  5
4325
  8
250
  6
CONTINUOUS
 10
133.0
 20
25.399999999999999
 30
0.0
 11
133.0
 21
23.170000000000002
 31
0.0
  0
TEXT
  5
4326
  8
250
  6
CONTINUOUS
 10
132.0
 20
-5.9333333333333309
 30
0.0
 40
2.7999999999999989
  1
\U+220550.8
 50
90.0
1001
ACAD
1000
MTEXTBEGIN
1070
    73
1070
     1
1070
    44
1040
1.0
1070
    74
1070
     0
1000
MTEXTEND
  0
LINE
  5
4327
  8
250
  6
CONTINUOUS
 10
107.0
 20
-47.5
 30
0.0
 11
141.0
 21
-47.5
 31
0.0
  0
LINE
  5
4328
  8
250
  6
CONTINUOUS
 10
107.0
 20
47.5
 30
0.0
 11
141.0
 21
47.5
 31
0.0
  0
LINE
  5
4329
  8
250
  6
CONTINUOUS
 10
140.0
 20
-45.270000000000003
 30
0.0
 11
140.0
 21
45.270000000000003
 31
0.0
  0
LINE
  5
432A
  8
250
  6
CONTINUOUS
 10
140.37166666666661
 20
-45.270000000000003
 30
0.0
 11
140.0
 21
-47.5
 31
0.0
  0
LINE
  5
432B
  8
250
  6
CONTINUOUS
 10
139.6283333333333
 20
-45.270000000000003
 30
0.0
 11
140.0
 21
-47.5
 31
0.0
  0
LINE
  5
432C
  8
250
  6
CONTINUOUS
 10
140.0
 20
-47.5
 30
0.0
 11
140.0
 21
-45.270000000000003
 31
0.0
  0
LINE
  5
432D
  8
250
  6
CONTINUOUS
 10
139.6283333333333
 20
45.270000000000003
 30
0.0
 11
140.0
 21
47.5
 31
0.0
  0
LINE
  5
432E
  8
250
  6
CONTINUOUS
 10
140.37166666666661
 20
45.270000000000003
 30
0.0
 11
140.0
 21
47.5
 31
0.0
  0
LINE
  5
432F
  8
250
  6
CONTINUOUS
 10
140.0
 20
47.5
 30
0.0
 11
140.0
 21
45.270000000000003
 31
0.0
  0
TEXT
  5
4330
  8
250
  6
CONTINUOUS
 10
139.0
 20
-3.9333333333333331
 30
0.0
 40
2.7999999999999989
  1
\U+220595
 50
90.0
1001
ACAD
1000
MTEXTBEGIN
1070
    73
1070
     1
1070
    44
1040
1.0
1070
    74
1070
     0
1000
MTEXTEND
1000
MTEXTBEGIN
1070
    73
1070
     1
1070
    44
1040
1.0
1070
    74
1070
     0
1000
MTEXTEND
  0
CIRCLE
  5
4331
  8
241
  6
CONTINUOUS
 10
87.900000000000006
 20
0.0
 30
0.0
 40
10.0
  0
CIRCLE
  5
4332
  8
242
  6
CONTINUOUS
 10
87.900000000000006
 20
0.0
 30
0.0
 40
9.25
  0
LINE
  5
4333
  8
241
  6
CONTINUOUS
 10
82.900000000000006
 20
-2.8867513499999991
 30
0.0
 11
87.900000000000006
 21
-5.773502689999999
 31
0.0
  0
LINE
  5
4334
  8
241
  6
CONTINUOUS
 10
87.900000000000006
 20
-5.773502689999999
 30
0.0
 11
92.900000000000006
 21
-2.8867513499999991
 31
0.0
  0
LINE
  5
4335
  8
241
  6
CONTINUOUS
 10
92.900000000000006
 20
-2.8867513499999991
 30
0.0
 11
92.900000000000006
 21
2.8867513499999991
 31
0.0
  0
LINE
  5
4336
  8
241
  6
CONTINUOUS
 10
92.900000000000006
 20
2.8867513499999991
 30
0.0
 11
87.900000000000006
 21
5.773502689999999
 31
0.0
  0
LINE
  5
4337
  8
241
  6
CONTINUOUS
 10
87.900000000000006
 20
5.773502689999999
 30
0.0
 11
82.900000000000006
 21
2.8867513499999991
 31
0.0
  0
LINE
  5
4338
  8
241
  6
CONTINUOUS
 10
82.900000000000006
 20
2.8867513499999991
 30
0.0
 11
82.900000000000006
 21
-2.8867513499999991
 31
0.0
  0
LINE
  5
4339
  8
250
  6
CONTINUOUS
 10
121.5
 20
-25.399999999999999
 30
0.0
 11
134.0
 21
-25.399999999999999
 31
0.0
  0
LINE
  5
433A
  8
250
  6
CONTINUOUS
 10
132.6283333333333
 20
-23.170000000000002
 30
0.0
 11
133.0
 21
-25.399999999999999
 31
0.0
  0
LINE
  5
433B
  8
250
  6
CONTINUOUS
 10
133.37166666666661
 20
-23.170000000000002
 30
0.0
 11
133.0
 21
-25.399999999999999
 31
0.0
  0
LINE
  5
433C
  8
250
  6
CONTINUOUS
 10
133.0
 20
-25.399999999999999
 30
0.0
 11
133.0
 21
-23.170000000000002
 31
0.0
  0
LINE
  5
4342
  8
240
  6
CONTINUOUS
 10
38.0
 20
48.499999999999908
 30
0.0
 11
38.0
 21
50.0
 31
0.0
  0
LINE
  5
4353
  8
245
  6
CENTER2
 10
59.32
 20
43.145405340000003
 30
0.0
 11
59.32
 21
-43.971042845984073
 31
0.0
1001
GRPNAME
1000
PASTMD01
  0
LINE
  5
4358
  8
243
  6
HIDDEN2
 10
120.9999999999999
 20
25.400000000000041
 30
0.0
 11
40.999999999999957
 21
25.400000000000041
 31
0.0
1001
GRPNAME
1000
PASTMD07
  0
LINE
  5
4359
  8
243
  6
HIDDEN2
 10
120.9999999999999
 20
-25.400000000000041
 30
0.0
 11
40.999999999999957
 21
-25.400000000000041
 31
0.0
1001
GRPNAME
1000
PASTMD07
  0
LINE
  5
435A
  8
241
  6
CONTINUOUS
 10
38.0
 20
-48.499999999999908
 30
0.0
 11
37.999999999999972
 21
48.499999999999908
 31
0.0
  0
LINE
  5
44FC
  8
245
  6
CENTER2
 10
51.32
 20
41.0
 30
0.0
 11
51.32
 21
53.0
 31
0.0
  0
LINE
  5
44FD
  8
245
  6
CENTER2
 10
87.099999999999994
 20
41.0
 30
0.0
 11
87.099999999999994
 21
53.0
 31
0.0
  0
POLYLINE
  5
456A
  8
241
  6
CONTINUOUS
 10
53.570000000000661
 20
-39.414291864935876
 30
0.0
 66
     1
 70
     8
  0
VERTEX
  8
241
  5
4709
 10
53.5700
 20
-39.4143
 30
0.000000
  70
    32
  0
VERTEX
  8
241
  5
470A
 10
53.5717
 20
-39.4925
 30
0.000000
  70
    32
  0
VERTEX
  8
241
  5
470B
 10
53.5769
 20
-39.5707
 30
0.000000
  70
    32
  0
VERTEX
  8
241
  5
470C
 10
53.5856
 20
-39.6487
 30
0.000000
  70
    32
  0
VERTEX
  8
241
  5
470D
 10
53.5977
 20
-39.7267
 30
0.000000
  70
    32
  0
VERTEX
  8
241
  5
470E
 10
53.6132
 20
-39.8044
 30
0.000000
  70
    32
  0
VERTEX
  8
241
  5
470F
 10
53.6322
 20
-39.8819
 30
0.000000
  70
    32
  0
VERTEX
  8
241
  5
4710
 10
53.6547
 20
-39.9591
 30
0.000000
  70
    32
  0
VERTEX
  8
241
  5
4711
 10
53.6805
 20
-40.0360
 30
0.000000
  70
    32
  0
VERTEX
  8
241
  5
4712
 10
53.7097
 20
-40.1125
 30
0.000000
  70
    32
  0
VERTEX
  8
241
  5
4713
 10
53.7423
 20
-40.1886
 30
0.000000
  70
    32
  0
VERTEX
  8
241
  5
4714
 10
53.7783
 20
-40.2643
 30
0.000000
  70
    32
  0
VERTEX
  8
241
  5
4715
 10
53.8176
 20
-40.3394
 30
0.000000
  70
    32
  0
VERTEX
  8
241
  5
4716
 10
53.8602
 20
-40.4140
 30
0.000000
  70
    32
  0
VERTEX
  8
241
  5
4717
 10
53.9061
 20
-40.4879
 30
0.000000
  70
    32
  0
VERTEX
  8
241
  5
4718
 10
53.9553
 20
-40.5612
 30
0.000000
  70
    32
  0
VERTEX
  8
241
  5
4719
 10
54.0077
 20
-40.6339
 30
0.000000
  70
    32
  0
VERTEX
  8
241
  5
471A
 10
54.0633
 20
-40.7057
 30
0.000000
  70
    32
  0
VERTEX
  8
241
  5
471B
 10
54.1221
 20
-40.7769
 30
0.000000
  70
    32
  0
VERTEX
  8
241
  5
471C
 10
54.1840
 20
-40.8471
 30
0.000000
  70
    32
  0
VERTEX
  8
241
  5
471D
 10
54.2490
 20
-40.9166
 30
0.000000
  70
    32
  0
VERTEX
  8
241
  5
471E
 10
54.3170
 20
-40.9851
 30
0.000000
  70
    32
  0
VERTEX
  8
241
  5
471F
 10
54.3881
 20
-41.0527
 30
0.000000
  70
    32
  0
VERTEX
  8
241
  5
4720
 10
54.4621
 20
-41.1193
 30
0.000000
  70
    32
  0
VERTEX
  8
241
  5
4721
 10
54.5390
 20
-41.1848
 30
0.000000
  70
    32
  0
VERTEX
  8
241
  5
4722
 10
54.6189
 20
-41.2493
 30
0.000000
  70
    32
  0
VERTEX
  8
241
  5
4723
 10
54.7016
 20
-41.3127
 30
0.000000
  70
    32
  0
VERTEX
  8
241
  5
4724
 10
54.7870
 20
-41.3750
 30
0.000000
  70
    32
  0
VERTEX
  8
241
  5
4725
 10
54.8752
 20
-41.4360
 30
0.000000
  70
    32
  0
VERTEX
  8
241
  5
4726
 10
54.9660
 20
-41.4959
 30
0.000000
  70
    32
  0
VERTEX
  8
241
  5
4727
 10
55.0595
 20
-41.5545
 30
0.000000
  70
    32
  0
VERTEX
  8
241
  5
4728
 10
55.1556
 20
-41.6118
 30
0.000000
  70
    32
  0
VERTEX
  8
241
  5
4729
 10
55.2541
 20
-41.6677
 30
0.000000
  70
    32
  0
VERTEX
  8
241
  5
472A
 10
55.3551
 20
-41.7224
 30
0.000000
  70
    32
  0
VERTEX
  8
241
  5
472B
 10
55.4585
 20
-41.7756
 30
0.000000
  70
    32
  0
VERTEX
  8
241
  5
472C
 10
55.5643
 20
-41.8274
 30
0.000000
  70
    32
  0
VERTEX
  8
241
  5
472D
 10
55.6722
 20
-41.8778
 30
0.000000
  70
    32
  0
VERTEX
  8
241
  5
472E
 10
55.7824
 20
-41.9266
 30
0.000000
  70
    32
  0
VERTEX
  8
241
  5
472F
 10
55.8947
 20
-41.9740
 30
0.000000
  70
    32
  0
VERTEX
  8
241
  5
4730
 10
56.0091
 20
-42.0198
 30
0.000000
  70
    32
  0
VERTEX
  8
241
  5
4731
 10
56.1255
 20
-42.0641
 30
0.000000
  70
    32
  0
VERTEX
  8
241
  5
4732
 10
56.2438
 20
-42.1067
 30
0.000000
  70
    32
  0
VERTEX
  8
241
  5
4733
 10
56.3639
 20
-42.1478
 30
0.000000
  70
    32
  0
VERTEX
  8
241
  5
4734
 10
56.4858
 20
-42.1871
 30
0.000000
  70
    32
  0
VERTEX
  8
241
  5
4735
 10
56.6095
 20
-42.2249
 30
0.000000
  70
    32
  0
VERTEX
  8
241
  5
4736
 10
56.7347
 20
-42.2609
 30
0.000000
  70
    32
  0
VERTEX
  8
241
  5
4737
 10
56.8616
 20
-42.2952
 30
0.000000
  70
    32
  0
VERTEX
  8
241
  5
4738
 10
56.9899
 20
-42.3278
 30
0.000000
  70
    32
  0
VERTEX
  8
241
  5
4739
 10
57.1196
 20
-42.3586
 30
0.000000
  70
    32
  0
VERTEX
  8
241
  5
473A
 10
57.2506
 20
-42.3876
 30
0.000000
  70
    32
  0
VERTEX
  8
241
  5
473B
 10
57.3829
 20
-42.4149
 30
0.000000
  70
    32
  0
VERTEX
  8
241
  5
473C
 10
57.5163
 20
-42.4403
 30
0.000000
  70
    32
  0
VERTEX
  8
241
  5
473D
 10
57.6509
 20
-42.4639
 30
0.000000
  70
    32
  0
VERTEX
  8
241
  5
473E
 10
57.7864
 20
-42.4857
 30
0.000000
  70
    32
  0
VERTEX
  8
241
  5
473F
 10
57.9229
 20
-42.5056
 30
0.000000
  70
    32
  0
VERTEX
  8
241
  5
4740
 10
58.0602
 20
-42.5237
 30
0.000000
  70
    32
  0
VERTEX
  8
241
  5
4741
 10
58.1982
 20
-42.5399
 30
0.000000
  70
    32
  0
VERTEX
  8
241
  5
4742
 10
58.3370
 20
-42.5542
 30
0.000000
  70
    32
  0
VERTEX
  8
241
  5
4743
 10
58.4763
 20
-42.5667
 30
0.000000
  70
    32
  0
VERTEX
  8
241
  5
4744
 10
58.6161
 20
-42.5772
 30
0.000000
  70
    32
  0
VERTEX
  8
241
  5
4745
 10
58.7564
 20
-42.5858
 30
0.000000
  70
    32
  0
VERTEX
  8
241
  5
4746
 10
58.8970
 20
-42.5925
 30
0.000000
  70
    32
  0
VERTEX
  8
241
  5
4747
 10
59.0379
 20
-42.5973
 30
0.000000
  70
    32
  0
VERTEX
  8
241
  5
4748
 10
59.1789
 20
-42.6002
 30
0.000000
  70
    32
  0
VERTEX
  8
241
  5
4749
 10
59.3200
 20
-42.6012
 30
0.000000
  70
    32
  0
VERTEX
  8
241
  5
474A
 10
59.4611
 20
-42.6002
 30
0.000000
  70
    32
  0
VERTEX
  8
241
  5
474B
 10
59.6021
 20
-42.5973
 30
0.000000
  70
    32
  0
VERTEX
  8
241
  5
474C
 10
59.7430
 20
-42.5925
 30
0.000000
  70
    32
  0
VERTEX
  8
241
  5
474D
 10
59.8836
 20
-42.5858
 30
0.000000
  70
    32
  0
VERTEX
  8
241
  5
474E
 10
60.0239
 20
-42.5772
 30
0.000000
  70
    32
  0
VERTEX
  8
241
  5
474F
 10
60.1637
 20
-42.5667
 30
0.000000
  70
    32
  0
VERTEX
  8
241
  5
4750
 10
60.3030
 20
-42.5542
 30
0.000000
  70
    32
  0
VERTEX
  8
241
  5
4751
 10
60.4418
 20
-42.5399
 30
0.000000
  70
    32
  0
VERTEX
  8
241
  5
4752
 10
60.5798
 20
-42.5237
 30
0.000000
  70
    32
  0
VERTEX
  8
241
  5
4753
 10
60.7171
 20
-42.5056
 30
0.000000
  70
    32
  0
VERTEX
  8
241
  5
4754
 10
60.8536
 20
-42.4857
 30
0.000000
  70
    32
  0
VERTEX
  8
241
  5
4755
 10
60.9891
 20
-42.4639
 30
0.000000
  70
    32
  0
VERTEX
  8
241
  5
4756
 10
61.1237
 20
-42.4403
 30
0.000000
  70
    32
  0
VERTEX
  8
241
  5
4757
 10
61.2571
 20
-42.4149
 30
0.000000
  70
    32
  0
VERTEX
  8
241
  5
4758
 10
61.3894
 20
-42.3876
 30
0.000000
  70
    32
  0
VERTEX
  8
241
  5
4759
 10
61.5204
 20
-42.3586
 30
0.000000
  70
    32
  0
VERTEX
  8
241
  5
475A
 10
61.6501
 20
-42.3278
 30
0.000000
  70
    32
  0
VERTEX
  8
241
  5
475B
 10
61.7784
 20
-42.2952
 30
0.000000
  70
    32
  0
VERTEX
  8
241
  5
475C
 10
61.9053
 20
-42.2609
 30
0.000000
  70
    32
  0
VERTEX
  8
241
  5
475D
 10
62.0305
 20
-42.2249
 30
0.000000
  70
    32
  0
VERTEX
  8
241
  5
475E
 10
62.1542
 20
-42.1871
 30
0.000000
  70
    32
  0
VERTEX
  8
241
  5
475F
 10
62.2761
 20
-42.1478
 30
0.000000
  70
    32
  0
VERTEX
  8
241
  5
4760
 10
62.3962
 20
-42.1067
 30
0.000000
  70
    32
  0
VERTEX
  8
241
  5
4761
 10
62.5145
 20
-42.0641
 30
0.000000
  70
    32
  0
VERTEX
  8
241
  5
4762
 10
62.6309
 20
-42.0198
 30
0.000000
  70
    32
  0
VERTEX
  8
241
  5
4763
 10
62.7453
 20
-41.9740
 30
0.000000
  70
    32
  0
VERTEX
  8
241
  5
4764
 10
62.8576
 20
-41.9266
 30
0.000000
  70
    32
  0
VERTEX
  8
241
  5
4765
 10
62.9678
 20
-41.8778
 30
0.000000
  70
    32
  0
VERTEX
  8
241
  5
4766
 10
63.0757
 20
-41.8274
 30
0.000000
  70
    32
  0
VERTEX
  8
241
  5
4767
 10
63.1815
 20
-41.7756
 30
0.000000
  70
    32
  0
VERTEX
  8
241
  5
4768
 10
63.2849
 20
-41.7224
 30
0.000000
  70
    32
  0
VERTEX
  8
241
  5
4769
 10
63.3859
 20
-41.6677
 30
0.000000
  70
    32
  0
VERTEX
  8
241
  5
476A
 10
63.4844
 20
-41.6118
 30
0.000000
  70
    32
  0
VERTEX
  8
241
  5
476B
 10
63.5805
 20
-41.5545
 30
0.000000
  70
    32
  0
VERTEX
  8
241
  5
476C
 10
63.6740
 20
-41.4959
 30
0.000000
  70
    32
  0
VERTEX
  8
241
  5
476D
 10
63.7648
 20
-41.4360
 30
0.000000
  70
    32
  0
VERTEX
  8
241
  5
476E
 10
63.8530
 20
-41.3750
 30
0.000000
  70
    32
  0
VERTEX
  8
241
  5
476F
 10
63.9384
 20
-41.3127
 30
0.000000
  70
    32
  0
VERTEX
  8
241
  5
4770
 10
64.0211
 20
-41.2493
 30
0.000000
  70
    32
  0
VERTEX
  8
241
  5
4771
 10
64.1010
 20
-41.1848
 30
0.000000
  70
    32
  0
VERTEX
  8
241
  5
4772
 10
64.1779
 20
-41.1193
 30
0.000000
  70
    32
  0
VERTEX
  8
241
  5
4773
 10
64.2519
 20
-41.0527
 30
0.000000
  70
    32
  0
VERTEX
  8
241
  5
4774
 10
64.3230
 20
-40.9851
 30
0.000000
  70
    32
  0
VERTEX
  8
241
  5
4775
 10
64.3910
 20
-40.9166
 30
0.000000
  70
    32
  0
VERTEX
  8
241
  5
4776
 10
64.4560
 20
-40.8471
 30
0.000000
  70
    32
  0
VERTEX
  8
241
  5
4777
 10
64.5179
 20
-40.7769
 30
0.000000
  70
    32
  0
VERTEX
  8
241
  5
4778
 10
64.5767
 20
-40.7057
 30
0.000000
  70
    32
  0
VERTEX
  8
241
  5
4779
 10
64.6323
 20
-40.6339
 30
0.000000
  70
    32
  0
VERTEX
  8
241
  5
477A
 10
64.6847
 20
-40.5612
 30
0.000000
  70
    32
  0
VERTEX
  8
241
  5
477B
 10
64.7339
 20
-40.4879
 30
0.000000
  70
    32
  0
VERTEX
  8
241
  5
477C
 10
64.7798
 20
-40.4140
 30
0.000000
  70
    32
  0
VERTEX
  8
241
  5
477D
 10
64.8224
 20
-40.3394
 30
0.000000
  70
    32
  0
VERTEX
  8
241
  5
477E
 10
64.8617
 20
-40.2643
 30
0.000000
  70
    32
  0
VERTEX
  8
241
  5
477F
 10
64.8977
 20
-40.1886
 30
0.000000
  70
    32
  0
VERTEX
  8
241
  5
4780
 10
64.9303
 20
-40.1125
 30
0.000000
  70
    32
  0
VERTEX
  8
241
  5
4781
 10
64.9595
 20
-40.0360
 30
0.000000
  70
    32
  0
VERTEX
  8
241
  5
4782
 10
64.9853
 20
-39.9591
 30
0.000000
  70
    32
  0
VERTEX
  8
241
  5
4783
 10
65.0078
 20
-39.8819
 30
0.000000
  70
    32
  0
VERTEX
  8
241
  5
4784
 10
65.0268
 20
-39.8044
 30
0.000000
  70
    32
  0
VERTEX
  8
241
  5
4785
 10
65.0423
 20
-39.7267
 30
0.000000
  70
    32
  0
VERTEX
  8
241
  5
4786
 10
65.0544
 20
-39.6487
 30
0.000000
  70
    32
  0
VERTEX
  8
241
  5
4787
 10
65.0631
 20
-39.5707
 30
0.000000
  70
    32
  0
VERTEX
  8
241
  5
4788
 10
65.0683
 20
-39.4925
 30
0.000000
  70
    32
  0
VERTEX
  8
241
  5
4789
 10
65.0700
 20
-39.4143
 30
0.000000
  70
    32
  0
SEQEND
  8
241
  5
478A
  0
POLYLINE
  5
456B
  8
241
  6
CONTINUOUS
 10
65.069999999999368
 20
-39.414291709972005
 30
0.0
 66
     1
 70
     8
  0
VERTEX
  8
241
  5
478B
 10
65.0700
 20
-39.4143
 30
0.000000
  70
    32
  0
VERTEX
  8
241
  5
478C
 10
65.0663
 20
-39.3088
 30
0.000000
  70
    32
  0
VERTEX
  8
241
  5
478D
 10
65.0592
 20
-39.2035
 30
0.000000
  70
    32
  0
VERTEX
  8
241
  5
478E
 10
65.0487
 20
-39.0983
 30
0.000000
  70
    32
  0
VERTEX
  8
241
  5
478F
 10
65.0348
 20
-38.9933
 30
0.000000
  70
    32
  0
VERTEX
  8
241
  5
4790
 10
65.0175
 20
-38.8887
 30
0.000000
  70
    32
  0
VERTEX
  8
241
  5
4791
 10
64.9969
 20
-38.7843
 30
0.000000
  70
    32
  0
VERTEX
  8
241
  5
4792
 10
64.9729
 20
-38.6804
 30
0.000000
  70
    32
  0
VERTEX
  8
241
  5
4793
 10
64.9455
 20
-38.5770
 30
0.000000
  70
    32
  0
VERTEX
  8
241
  5
4794
 10
64.9148
 20
-38.4741
 30
0.000000
  70
    32
  0
VERTEX
  8
241
  5
4795
 10
64.8809
 20
-38.3717
 30
0.000000
  70
    32
  0
VERTEX
  8
241
  5
4796
 10
64.8436
 20
-38.2701
 30
0.000000
  70
    32
  0
VERTEX
  8
241
  5
4797
 10
64.8031
 20
-38.1691
 30
0.000000
  70
    32
  0
VERTEX
  8
241
  5
4798
 10
64.7593
 20
-38.0689
 30
0.000000
  70
    32
  0
VERTEX
  8
241
  5
4799
 10
64.7123
 20
-37.9696
 30
0.000000
  70
    32
  0
VERTEX
  8
241
  5
479A
 10
64.6621
 20
-37.8711
 30
0.000000
  70
    32
  0
VERTEX
  8
241
  5
479B
 10
64.6088
 20
-37.7736
 30
0.000000
  70
    32
  0
VERTEX
  8
241
  5
479C
 10
64.5523
 20
-37.6771
 30
0.000000
  70
    32
  0
VERTEX
  8
241
  5
479D
 10
64.4927
 20
-37.5817
 30
0.000000
  70
    32
  0
VERTEX
  8
241
  5
479E
 10
64.4301
 20
-37.4874
 30
0.000000
  70
    32
  0
VERTEX
  8
241
  5
479F
 10
64.3645
 20
-37.3942
 30
0.000000
  70
    32
  0
VERTEX
  8
241
  5
47A0
 10
64.2959
 20
-37.3023
 30
0.000000
  70
    32
  0
VERTEX
  8
241
  5
47A1
 10
64.2243
 20
-37.2117
 30
0.000000
  70
    32
  0
VERTEX
  8
241
  5
47A2
 10
64.1498
 20
-37.1224
 30
0.000000
  70
    32
  0
VERTEX
  8
241
  5
47A3
 10
64.0725
 20
-37.0345
 30
0.000000
  70
    32
  0
VERTEX
  8
241
  5
47A4
 10
63.9924
 20
-36.9481
 30
0.000000
  70
    32
  0
VERTEX
  8
241
  5
47A5
 10
63.9095
 20
-36.8631
 30
0.000000
  70
    32
  0
VERTEX
  8
241
  5
47A6
 10
63.8238
 20
-36.7797
 30
0.000000
  70
    32
  0
VERTEX
  8
241
  5
47A7
 10
63.7356
 20
-36.6979
 30
0.000000
  70
    32
  0
VERTEX
  8
241
  5
47A8
 10
63.6447
 20
-36.6177
 30
0.000000
  70
    32
  0
VERTEX
  8
241
  5
47A9
 10
63.5512
 20
-36.5393
 30
0.000000
  70
    32
  0
VERTEX
  8
241
  5
47AA
 10
63.4553
 20
-36.4625
 30
0.000000
  70
    32
  0
VERTEX
  8
241
  5
47AB
 10
63.3569
 20
-36.3876
 30
0.000000
  70
    32
  0
VERTEX
  8
241
  5
47AC
 10
63.2561
 20
-36.3144
 30
0.000000
  70
    32
  0
VERTEX
  8
241
  5
47AD
 10
63.1530
 20
-36.2432
 30
0.000000
  70
    32
  0
VERTEX
  8
241
  5
47AE
 10
63.0476
 20
-36.1738
 30
0.000000
  70
    32
  0
VERTEX
  8
241
  5
47AF
 10
62.9401
 20
-36.1064
 30
0.000000
  70
    32
  0
VERTEX
  8
241
  5
47B0
 10
62.8303
 20
-36.0410
 30
0.000000
  70
    32
  0
VERTEX
  8
241
  5
47B1
 10
62.7185
 20
-35.9776
 30
0.000000
  70
    32
  0
VERTEX
  8
241
  5
47B2
 10
62.6047
 20
-35.9163
 30
0.000000
  70
    32
  0
VERTEX
  8
241
  5
47B3
 10
62.4890
 20
-35.8572
 30
0.000000
  70
    32
  0
VERTEX
  8
241
  5
47B4
 10
62.3714
 20
-35.8001
 30
0.000000
  70
    32
  0
VERTEX
  8
241
  5
47B5
 10
62.2519
 20
-35.7452
 30
0.000000
  70
    32
  0
VERTEX
  8
241
  5
47B6
 10
62.1308
 20
-35.6925
 30
0.000000
  70
    32
  0
VERTEX
  8
241
  5
47B7
 10
62.0080
 20
-35.6421
 30
0.000000
  70
    32
  0
VERTEX
  8
241
  5
47B8
 10
61.8835
 20
-35.5939
 30
0.000000
  70
    32
  0
VERTEX
  8
241
  5
47B9
 10
61.7576
 20
-35.5481
 30
0.000000
  70
    32
  0
VERTEX
  8
241
  5
47BA
 10
61.6302
 20
-35.5045
 30
0.000000
  70
    32
  0
VERTEX
  8
241
  5
47BB
 10
61.5015
 20
-35.4633
 30
0.000000
  70
    32
  0
VERTEX
  8
241
  5
47BC
 10
61.3715
 20
-35.4245
 30
0.000000
  70
    32
  0
VERTEX
  8
241
  5
47BD
 10
61.2402
 20
-35.3881
 30
0.000000
  70
    32
  0
VERTEX
  8
241
  5
47BE
 10
61.1079
 20
-35.3541
 30
0.000000
  70
    32
  0
VERTEX
  8
241
  5
47BF
 10
60.9744
 20
-35.3225
 30
0.000000
  70
    32
  0
VERTEX
  8
241
  5
47C0
 10
60.8400
 20
-35.2934
 30
0.000000
  70
    32
  0
VERTEX
  8
241
  5
47C1
 10
60.7047
 20
-35.2667
 30
0.000000
  70
    32
  0
VERTEX
  8
241
  5
47C2
 10
60.5686
 20
-35.2426
 30
0.000000
  70
    32
  0
VERTEX
  8
241
  5
47C3
 10
60.4317
 20
-35.2209
 30
0.000000
  70
    32
  0
VERTEX
  8
241
  5
47C4
 10
60.2942
 20
-35.2018
 30
0.000000
  70
    32
  0
VERTEX
  8
241
  5
47C5
 10
60.1561
 20
-35.1852
 30
0.000000
  70
    32
  0
VERTEX
  8
241
  5
47C6
 10
60.0175
 20
-35.1711
 30
0.000000
  70
    32
  0
VERTEX
  8
241
  5
47C7
 10
59.8785
 20
-35.1596
 30
0.000000
  70
    32
  0
VERTEX
  8
241
  5
47C8
 10
59.7392
 20
-35.1506
 30
0.000000
  70
    32
  0
VERTEX
  8
241
  5
47C9
 10
59.5996
 20
-35.1442
 30
0.000000
  70
    32
  0
VERTEX
  8
241
  5
47CA
 10
59.4598
 20
-35.1404
 30
0.000000
  70
    32
  0
VERTEX
  8
241
  5
47CB
 10
59.3200
 20
-35.1391
 30
0.000000
  70
    32
  0
VERTEX
  8
241
  5
47CC
 10
59.1802
 20
-35.1404
 30
0.000000
  70
    32
  0
VERTEX
  8
241
  5
47CD
 10
59.0404
 20
-35.1442
 30
0.000000
  70
    32
  0
VERTEX
  8
241
  5
47CE
 10
58.9008
 20
-35.1506
 30
0.000000
  70
    32
  0
VERTEX
  8
241
  5
47CF
 10
58.7615
 20
-35.1596
 30
0.000000
  70
    32
  0
VERTEX
  8
241
  5
47D0
 10
58.6225
 20
-35.1711
 30
0.000000
  70
    32
  0
VERTEX
  8
241
  5
47D1
 10
58.4839
 20
-35.1852
 30
0.000000
  70
    32
  0
VERTEX
  8
241
  5
47D2
 10
58.3458
 20
-35.2018
 30
0.000000
  70
    32
  0
VERTEX
  8
241
  5
47D3
 10
58.2083
 20
-35.2209
 30
0.000000
  70
    32
  0
VERTEX
  8
241
  5
47D4
 10
58.0714
 20
-35.2426
 30
0.000000
  70
    32
  0
VERTEX
  8
241
  5
47D5
 10
57.9353
 20
-35.2667
 30
0.000000
  70
    32
  0
VERTEX
  8
241
  5
47D6
 10
57.8000
 20
-35.2934
 30
0.000000
  70
    32
  0
VERTEX
  8
241
  5
47D7
 10
57.6656
 20
-35.3225
 30
0.000000
  70
    32
  0
VERTEX
  8
241
  5
47D8
 10
57.5321
 20
-35.3541
 30
0.000000
  70
    32
  0
VERTEX
  8
241
  5
47D9
 10
57.3998
 20
-35.3881
 30
0.000000
  70
    32
  0
VERTEX
  8
241
  5
47DA
 10
57.2685
 20
-35.4245
 30
0.000000
  70
    32
  0
VERTEX
  8
241
  5
47DB
 10
57.1385
 20
-35.4633
 30
0.000000
  70
    32
  0
VERTEX
  8
241
  5
47DC
 10
57.0098
 20
-35.5045
 30
0.000000
  70
    32
  0
VERTEX
  8
241
  5
47DD
 10
56.8824
 20
-35.5481
 30
0.000000
  70
    32
  0
VERTEX
  8
241
  5
47DE
 10
56.7565
 20
-35.5939
 30
0.000000
  70
    32
  0
VERTEX
  8
241
  5
47DF
 10
56.6320
 20
-35.6421
 30
0.000000
  70
    32
  0
VERTEX
  8
241
  5
47E0
 10
56.5092
 20
-35.6925
 30
0.000000
  70
    32
  0
VERTEX
  8
241
  5
47E1
 10
56.3881
 20
-35.7452
 30
0.000000
  70
    32
  0
VERTEX
  8
241
  5
47E2
 10
56.2686
 20
-35.8001
 30
0.000000
  70
    32
  0
VERTEX
  8
241
  5
47E3
 10
56.1510
 20
-35.8572
 30
0.000000
  70
    32
  0
VERTEX
  8
241
  5
47E4
 10
56.0353
 20
-35.9163
 30
0.000000
  70
    32
  0
VERTEX
  8
241
  5
47E5
 10
55.9215
 20
-35.9776
 30
0.000000
  70
    32
  0
VERTEX
  8
241
  5
47E6
 10
55.8097
 20
-36.0410
 30
0.000000
  70
    32
  0
VERTEX
  8
241
  5
47E7
 10
55.6999
 20
-36.1064
 30
0.000000
  70
    32
  0
VERTEX
  8
241
  5
47E8
 10
55.5924
 20
-36.1738
 30
0.000000
  70
    32
  0
VERTEX
  8
241
  5
47E9
 10
55.4870
 20
-36.2432
 30
0.000000
  70
    32
  0
VERTEX
  8
241
  5
47EA
 10
55.3839
 20
-36.3144
 30
0.000000
  70
    32
  0
VERTEX
  8
241
  5
47EB
 10
55.2831
 20
-36.3876
 30
0.000000
  70
    32
  0
VERTEX
  8
241
  5
47EC
 10
55.1847
 20
-36.4625
 30
0.000000
  70
    32
  0
VERTEX
  8
241
  5
47ED
 10
55.0888
 20
-36.5393
 30
0.000000
  70
    32
  0
VERTEX
  8
241
  5
47EE
 10
54.9953
 20
-36.6177
 30
0.000000
  70
    32
  0
VERTEX
  8
241
  5
47EF
 10
54.9044
 20
-36.6979
 30
0.000000
  70
    32
  0
VERTEX
  8
241
  5
47F0
 10
54.8162
 20
-36.7797
 30
0.000000
  70
    32
  0
VERTEX
  8
241
  5
47F1
 10
54.7305
 20
-36.8631
 30
0.000000
  70
    32
  0
VERTEX
  8
241
  5
47F2
 10
54.6476
 20
-36.9481
 30
0.000000
  70
    32
  0
VERTEX
  8
241
  5
47F3
 10
54.5675
 20
-37.0345
 30
0.000000
  70
    32
  0
VERTEX
  8
241
  5
47F4
 10
54.4902
 20
-37.1224
 30
0.000000
  70
    32
  0
VERTEX
  8
241
  5
47F5
 10
54.4157
 20
-37.2117
 30
0.000000
  70
    32
  0
VERTEX
  8
241
  5
47F6
 10
54.3441
 20
-37.3023
 30
0.000000
  70
    32
  0
VERTEX
  8
241
  5
47F7
 10
54.2755
 20
-37.3942
 30
0.000000
  70
    32
  0
VERTEX
  8
241
  5
47F8
 10
54.2099
 20
-37.4874
 30
0.000000
  70
    32
  0
VERTEX
  8
241
  5
47F9
 10
54.1473
 20
-37.5817
 30
0.000000
  70
    32
  0
VERTEX
  8
241
  5
47FA
 10
54.0877
 20
-37.6771
 30
0.000000
  70
    32
  0
VERTEX
  8
241
  5
47FB
 10
54.0312
 20
-37.7736
 30
0.000000
  70
    32
  0
VERTEX
  8
241
  5
47FC
 10
53.9779
 20
-37.8711
 30
0.000000
  70
    32
  0
VERTEX
  8
241
  5
47FD
 10
53.9277
 20
-37.9696
 30
0.000000
  70
    32
  0
VERTEX
  8
241
  5
47FE
 10
53.8807
 20
-38.0689
 30
0.000000
  70
    32
  0
VERTEX
  8
241
  5
47FF
 10
53.8369
 20
-38.1691
 30
0.000000
  70
    32
  0
VERTEX
  8
241
  5
4800
 10
53.7964
 20
-38.2701
 30
0.000000
  70
    32
  0
VERTEX
  8
241
  5
4801
 10
53.7591
 20
-38.3717
 30
0.000000
  70
    32
  0
VERTEX
  8
241
  5
4802
 10
53.7252
 20
-38.4741
 30
0.000000
  70
    32
  0
VERTEX
  8
241
  5
4803
 10
53.6945
 20
-38.5770
 30
0.000000
  70
    32
  0
VERTEX
  8
241
  5
4804
 10
53.6671
 20
-38.6804
 30
0.000000
  70
    32
  0
VERTEX
  8
241
  5
4805
 10
53.6431
 20
-38.7843
 30
0.000000
  70
    32
  0
VERTEX
  8
241
  5
4806
 10
53.6225
 20
-38.8887
 30
0.000000
  70
    32
  0
VERTEX
  8
241
  5
4807
 10
53.6052
 20
-38.9933
 30
0.000000
  70
    32
  0
VERTEX
  8
241
  5
4808
 10
53.5913
 20
-39.0983
 30
0.000000
  70
    32
  0
VERTEX
  8
241
  5
4809
 10
53.5808
 20
-39.2035
 30
0.000000
  70
    32
  0
VERTEX
  8
241
  5
480A
 10
53.5737
 20
-39.3088
 30
0.000000
  70
    32
  0
VERTEX
  8
241
  5
480B
 10
53.5700
 20
-39.4143
 30
0.000000
  70
    32
  0
SEQEND
  8
241
  5
480C
  0
POLYLINE
  5
4586
  8
241
  6
CONTINUOUS
 10
53.570000000000661
 20
39.414291864935876
 30
0.0
 66
     1
 70
     8
  0
VERTEX
  8
241
  5
480D
 10
53.5700
 20
39.4143
 30
0.000000
  70
    32
  0
VERTEX
  8
241
  5
480E
 10
53.5717
 20
39.4925
 30
0.000000
  70
    32
  0
VERTEX
  8
241
  5
480F
 10
53.5769
 20
39.5707
 30
0.000000
  70
    32
  0
VERTEX
  8
241
  5
4810
 10
53.5856
 20
39.6487
 30
0.000000
  70
    32
  0
VERTEX
  8
241
  5
4811
 10
53.5977
 20
39.7267
 30
0.000000
  70
    32
  0
VERTEX
  8
241
  5
4812
 10
53.6132
 20
39.8044
 30
0.000000
  70
    32
  0
VERTEX
  8
241
  5
4813
 10
53.6322
 20
39.8819
 30
0.000000
  70
    32
  0
VERTEX
  8
241
  5
4814
 10
53.6547
 20
39.9591
 30
0.000000
  70
    32
  0
VERTEX
  8
241
  5
4815
 10
53.6805
 20
40.0360
 30
0.000000
  70
    32
  0
VERTEX
  8
241
  5
4816
 10
53.7097
 20
40.1125
 30
0.000000
  70
    32
  0
VERTEX
  8
241
  5
4817
 10
53.7423
 20
40.1886
 30
0.000000
  70
    32
  0
VERTEX
  8
241
  5
4818
 10
53.7783
 20
40.2643
 30
0.000000
  70
    32
  0
VERTEX
  8
241
  5
4819
 10
53.8176
 20
40.3394
 30
0.000000
  70
    32
  0
VERTEX
  8
241
  5
481A
 10
53.8602
 20
40.4140
 30
0.000000
  70
    32
  0
VERTEX
  8
241
  5
481B
 10
53.9061
 20
40.4879
 30
0.000000
  70
    32
  0
VERTEX
  8
241
  5
481C
 10
53.9553
 20
40.5612
 30
0.000000
  70
    32
  0
VERTEX
  8
241
  5
481D
 10
54.0077
 20
40.6339
 30
0.000000
  70
    32
  0
VERTEX
  8
241
  5
481E
 10
54.0633
 20
40.7057
 30
0.000000
  70
    32
  0
VERTEX
  8
241
  5
481F
 10
54.1221
 20
40.7769
 30
0.000000
  70
    32
  0
VERTEX
  8
241
  5
4820
 10
54.1840
 20
40.8471
 30
0.000000
  70
    32
  0
VERTEX
  8
241
  5
4821
 10
54.2490
 20
40.9166
 30
0.000000
  70
    32
  0
VERTEX
  8
241
  5
4822
 10
54.3170
 20
40.9851
 30
0.000000
  70
    32
  0
VERTEX
  8
241
  5
4823
 10
54.3881
 20
41.0527
 30
0.000000
  70
    32
  0
VERTEX
  8
241
  5
4824
 10
54.4621
 20
41.1193
 30
0.000000
  70
    32
  0
VERTEX
  8
241
  5
4825
 10
54.5390
 20
41.1848
 30
0.000000
  70
    32
  0
VERTEX
  8
241
  5
4826
 10
54.6189
 20
41.2493
 30
0.000000
  70
    32
  0
VERTEX
  8
241
  5
4827
 10
54.7016
 20
41.3127
 30
0.000000
  70
    32
  0
VERTEX
  8
241
  5
4828
 10
54.7870
 20
41.3750
 30
0.000000
  70
    32
  0
VERTEX
  8
241
  5
4829
 10
54.8752
 20
41.4360
 30
0.000000
  70
    32
  0
VERTEX
  8
241
  5
482A
 10
54.9660
 20
41.4959
 30
0.000000
  70
    32
  0
VERTEX
  8
241
  5
482B
 10
55.0595
 20
41.5545
 30
0.000000
  70
    32
  0
VERTEX
  8
241
  5
482C
 10
55.1556
 20
41.6118
 30
0.000000
  70
    32
  0
VERTEX
  8
241
  5
482D
 10
55.2541
 20
41.6677
 30
0.000000
  70
    32
  0
VERTEX
  8
241
  5
482E
 10
55.3551
 20
41.7224
 30
0.000000
  70
    32
  0
VERTEX
  8
241
  5
482F
 10
55.4585
 20
41.7756
 30
0.000000
  70
    32
  0
VERTEX
  8
241
  5
4830
 10
55.5643
 20
41.8274
 30
0.000000
  70
    32
  0
VERTEX
  8
241
  5
4831
 10
55.6722
 20
41.8778
 30
0.000000
  70
    32
  0
VERTEX
  8
241
  5
4832
 10
55.7824
 20
41.9266
 30
0.000000
  70
    32
  0
VERTEX
  8
241
  5
4833
 10
55.8947
 20
41.9740
 30
0.000000
  70
    32
  0
VERTEX
  8
241
  5
4834
 10
56.0091
 20
42.0198
 30
0.000000
  70
    32
  0
VERTEX
  8
241
  5
4835
 10
56.1255
 20
42.0641
 30
0.000000
  70
    32
  0
VERTEX
  8
241
  5
4836
 10
56.2438
 20
42.1067
 30
0.000000
  70
    32
  0
VERTEX
  8
241
  5
4837
 10
56.3639
 20
42.1478
 30
0.000000
  70
    32
  0
VERTEX
  8
241
  5
4838
 10
56.4858
 20
42.1871
 30
0.000000
  70
    32
  0
VERTEX
  8
241
  5
4839
 10
56.6095
 20
42.2249
 30
0.000000
  70
    32
  0
VERTEX
  8
241
  5
483A
 10
56.7347
 20
42.2609
 30
0.000000
  70
    32
  0
VERTEX
  8
241
  5
483B
 10
56.8616
 20
42.2952
 30
0.000000
  70
    32
  0
VERTEX
  8
241
  5
483C
 10
56.9899
 20
42.3278
 30
0.000000
  70
    32
  0
VERTEX
  8
241
  5
483D
 10
57.1196
 20
42.3586
 30
0.000000
  70
    32
  0
VERTEX
  8
241
  5
483E
 10
57.2506
 20
42.3876
 30
0.000000
  70
    32
  0
VERTEX
  8
241
  5
483F
 10
57.3829
 20
42.4149
 30
0.000000
  70
    32
  0
VERTEX
  8
241
  5
4840
 10
57.5163
 20
42.4403
 30
0.000000
  70
    32
  0
VERTEX
  8
241
  5
4841
 10
57.6509
 20
42.4639
 30
0.000000
  70
    32
  0
VERTEX
  8
241
  5
4842
 10
57.7864
 20
42.4857
 30
0.000000
  70
    32
  0
VERTEX
  8
241
  5
4843
 10
57.9229
 20
42.5056
 30
0.000000
  70
    32
  0
VERTEX
  8
241
  5
4844
 10
58.0602
 20
42.5237
 30
0.000000
  70
    32
  0
VERTEX
  8
241
  5
4845
 10
58.1982
 20
42.5399
 30
0.000000
  70
    32
  0
VERTEX
  8
241
  5
4846
 10
58.3370
 20
42.5542
 30
0.000000
  70
    32
  0
VERTEX
  8
241
  5
4847
 10
58.4763
 20
42.5667
 30
0.000000
  70
    32
  0
VERTEX
  8
241
  5
4848
 10
58.6161
 20
42.5772
 30
0.000000
  70
    32
  0
VERTEX
  8
241
  5
4849
 10
58.7564
 20
42.5858
 30
0.000000
  70
    32
  0
VERTEX
  8
241
  5
484A
 10
58.8970
 20
42.5925
 30
0.000000
  70
    32
  0
VERTEX
  8
241
  5
484B
 10
59.0379
 20
42.5973
 30
0.000000
  70
    32
  0
VERTEX
  8
241
  5
484C
 10
59.1789
 20
42.6002
 30
0.000000
  70
    32
  0
VERTEX
  8
241
  5
484D
 10
59.3200
 20
42.6012
 30
0.000000
  70
    32
  0
VERTEX
  8
241
  5
484E
 10
59.4611
 20
42.6002
 30
0.000000
  70
    32
  0
VERTEX
  8
241
  5
484F
 10
59.6021
 20
42.5973
 30
0.000000
  70
    32
  0
VERTEX
  8
241
  5
4850
 10
59.7430
 20
42.5925
 30
0.000000
  70
    32
  0
VERTEX
  8
241
  5
4851
 10
59.8836
 20
42.5858
 30
0.000000
  70
    32
  0
VERTEX
  8
241
  5
4852
 10
60.0239
 20
42.5772
 30
0.000000
  70
    32
  0
VERTEX
  8
241
  5
4853
 10
60.1637
 20
42.5667
 30
0.000000
  70
    32
  0
VERTEX
  8
241
  5
4854
 10
60.3030
 20
42.5542
 30
0.000000
  70
    32
  0
VERTEX
  8
241
  5
4855
 10
60.4418
 20
42.5399
 30
0.000000
  70
    32
  0
VERTEX
  8
241
  5
4856
 10
60.5798
 20
42.5237
 30
0.000000
  70
    32
  0
VERTEX
  8
241
  5
4857
 10
60.7171
 20
42.5056
 30
0.000000
  70
    32
  0
VERTEX
  8
241
  5
4858
 10
60.8536
 20
42.4857
 30
0.000000
  70
    32
  0
VERTEX
  8
241
  5
4859
 10
60.9891
 20
42.4639
 30
0.000000
  70
    32
  0
VERTEX
  8
241
  5
485A
 10
61.1237
 20
42.4403
 30
0.000000
  70
    32
  0
VERTEX
  8
241
  5
485B
 10
61.2571
 20
42.4149
 30
0.000000
  70
    32
  0
VERTEX
  8
241
  5
485C
 10
61.3894
 20
42.3876
 30
0.000000
  70
    32
  0
VERTEX
  8
241
  5
485D
 10
61.5204
 20
42.3586
 30
0.000000
  70
    32
  0
VERTEX
  8
241
  5
485E
 10
61.6501
 20
42.3278
 30
0.000000
  70
    32
  0
VERTEX
  8
241
  5
485F
 10
61.7784
 20
42.2952
 30
0.000000
  70
    32
  0
VERTEX
  8
241
  5
4860
 10
61.9053
 20
42.2609
 30
0.000000
  70
    32
  0
VERTEX
  8
241
  5
4861
 10
62.0305
 20
42.2249
 30
0.000000
  70
    32
  0
VERTEX
  8
241
  5
4862
 10
62.1542
 20
42.1871
 30
0.000000
  70
    32
  0
VERTEX
  8
241
  5
4863
 10
62.2761
 20
42.1478
 30
0.000000
  70
    32
  0
VERTEX
  8
241
  5
4864
 10
62.3962
 20
42.1067
 30
0.000000
  70
    32
  0
VERTEX
  8
241
  5
4865
 10
62.5145
 20
42.0641
 30
0.000000
  70
    32
  0
VERTEX
  8
241
  5
4866
 10
62.6309
 20
42.0198
 30
0.000000
  70
    32
  0
VERTEX
  8
241
  5
4867
 10
62.7453
 20
41.9740
 30
0.000000
  70
    32
  0
VERTEX
  8
241
  5
4868
 10
62.8576
 20
41.9266
 30
0.000000
  70
    32
  0
VERTEX
  8
241
  5
4869
 10
62.9678
 20
41.8778
 30
0.000000
  70
    32
  0
VERTEX
  8
241
  5
486A
 10
63.0757
 20
41.8274
 30
0.000000
  70
    32
  0
VERTEX
  8
241
  5
486B
 10
63.1815
 20
41.7756
 30
0.000000
  70
    32
  0
VERTEX
  8
241
  5
486C
 10
63.2849
 20
41.7224
 30
0.000000
  70
    32
  0
VERTEX
  8
241
  5
486D
 10
63.3859
 20
41.6677
 30
0.000000
  70
    32
  0
VERTEX
  8
241
  5
486E
 10
63.4844
 20
41.6118
 30
0.000000
  70
    32
  0
VERTEX
  8
241
  5
486F
 10
63.5805
 20
41.5545
 30
0.000000
  70
    32
  0
VERTEX
  8
241
  5
4870
 10
63.6740
 20
41.4959
 30
0.000000
  70
    32
  0
VERTEX
  8
241
  5
4871
 10
63.7648
 20
41.4360
 30
0.000000
  70
    32
  0
VERTEX
  8
241
  5
4872
 10
63.8530
 20
41.3750
 30
0.000000
  70
    32
  0
VERTEX
  8
241
  5
4873
 10
63.9384
 20
41.3127
 30
0.000000
  70
    32
  0
VERTEX
  8
241
  5
4874
 10
64.0211
 20
41.2493
 30
0.000000
  70
    32
  0
VERTEX
  8
241
  5
4875
 10
64.1010
 20
41.1848
 30
0.000000
  70
    32
  0
VERTEX
  8
241
  5
4876
 10
64.1779
 20
41.1193
 30
0.000000
  70
    32
  0
VERTEX
  8
241
  5
4877
 10
64.2519
 20
41.0527
 30
0.000000
  70
    32
  0
VERTEX
  8
241
  5
4878
 10
64.3230
 20
40.9851
 30
0.000000
  70
    32
  0
VERTEX
  8
241
  5
4879
 10
64.3910
 20
40.9166
 30
0.000000
  70
    32
  0
VERTEX
  8
241
  5
487A
 10
64.4560
 20
40.8471
 30
0.000000
  70
    32
  0
VERTEX
  8
241
  5
487B
 10
64.5179
 20
40.7769
 30
0.000000
  70
    32
  0
VERTEX
  8
241
  5
487C
 10
64.5767
 20
40.7057
 30
0.000000
  70
    32
  0
VERTEX
  8
241
  5
487D
 10
64.6323
 20
40.6339
 30
0.000000
  70
    32
  0
VERTEX
  8
241
  5
487E
 10
64.6847
 20
40.5612
 30
0.000000
  70
    32
  0
VERTEX
  8
241
  5
487F
 10
64.7339
 20
40.4879
 30
0.000000
  70
    32
  0
VERTEX
  8
241
  5
4880
 10
64.7798
 20
40.4140
 30
0.000000
  70
    32
  0
VERTEX
  8
241
  5
4881
 10
64.8224
 20
40.3394
 30
0.000000
  70
    32
  0
VERTEX
  8
241
  5
4882
 10
64.8617
 20
40.2643
 30
0.000000
  70
    32
  0
VERTEX
  8
241
  5
4883
 10
64.8977
 20
40.1886
 30
0.000000
  70
    32
  0
VERTEX
  8
241
  5
4884
 10
64.9303
 20
40.1125
 30
0.000000
  70
    32
  0
VERTEX
  8
241
  5
4885
 10
64.9595
 20
40.0360
 30
0.000000
  70
    32
  0
VERTEX
  8
241
  5
4886
 10
64.9853
 20
39.9591
 30
0.000000
  70
    32
  0
VERTEX
  8
241
  5
4887
 10
65.0078
 20
39.8819
 30
0.000000
  70
    32
  0
VERTEX
  8
241
  5
4888
 10
65.0268
 20
39.8044
 30
0.000000
  70
    32
  0
VERTEX
  8
241
  5
4889
 10
65.0423
 20
39.7267
 30
0.000000
  70
    32
  0
VERTEX
  8
241
  5
488A
 10
65.0544
 20
39.6487
 30
0.000000
  70
    32
  0
VERTEX
  8
241
  5
488B
 10
65.0631
 20
39.5707
 30
0.000000
  70
    32
  0
VERTEX
  8
241
  5
488C
 10
65.0683
 20
39.4925
 30
0.000000
  70
    32
  0
VERTEX
  8
241
  5
488D
 10
65.0700
 20
39.4143
 30
0.000000
  70
    32
  0
SEQEND
  8
241
  5
488E
  0
POLYLINE
  5
4587
  8
241
  6
CONTINUOUS
 10
65.069999999999368
 20
39.414291709972005
 30
0.0
 66
     1
 70
     8
  0
VERTEX
  8
241
  5
488F
 10
65.0700
 20
39.4143
 30
0.000000
  70
    32
  0
VERTEX
  8
241
  5
4890
 10
65.0663
 20
39.3088
 30
0.000000
  70
    32
  0
VERTEX
  8
241
  5
4891
 10
65.0592
 20
39.2035
 30
0.000000
  70
    32
  0
VERTEX
  8
241
  5
4892
 10
65.0487
 20
39.0983
 30
0.000000
  70
    32
  0
VERTEX
  8
241
  5
4893
 10
65.0348
 20
38.9933
 30
0.000000
  70
    32
  0
VERTEX
  8
241
  5
4894
 10
65.0175
 20
38.8887
 30
0.000000
  70
    32
  0
VERTEX
  8
241
  5
4895
 10
64.9969
 20
38.7843
 30
0.000000
  70
    32
  0
VERTEX
  8
241
  5
4896
 10
64.9729
 20
38.6804
 30
0.000000
  70
    32
  0
VERTEX
  8
241
  5
4897
 10
64.9455
 20
38.5770
 30
0.000000
  70
    32
  0
VERTEX
  8
241
  5
4898
 10
64.9148
 20
38.4741
 30
0.000000
  70
    32
  0
VERTEX
  8
241
  5
4899
 10
64.8809
 20
38.3717
 30
0.000000
  70
    32
  0
VERTEX
  8
241
  5
489A
 10
64.8436
 20
38.2701
 30
0.000000
  70
    32
  0
VERTEX
  8
241
  5
489B
 10
64.8031
 20
38.1691
 30
0.000000
  70
    32
  0
VERTEX
  8
241
  5
489C
 10
64.7593
 20
38.0689
 30
0.000000
  70
    32
  0
VERTEX
  8
241
  5
489D
 10
64.7123
 20
37.9696
 30
0.000000
  70
    32
  0
VERTEX
  8
241
  5
489E
 10
64.6621
 20
37.8711
 30
0.000000
  70
    32
  0
VERTEX
  8
241
  5
489F
 10
64.6088
 20
37.7736
 30
0.000000
  70
    32
  0
VERTEX
  8
241
  5
48A0
 10
64.5523
 20
37.6771
 30
0.000000
  70
    32
  0
VERTEX
  8
241
  5
48A1
 10
64.4927
 20
37.5817
 30
0.000000
  70
    32
  0
VERTEX
  8
241
  5
48A2
 10
64.4301
 20
37.4874
 30
0.000000
  70
    32
  0
VERTEX
  8
241
  5
48A3
 10
64.3645
 20
37.3942
 30
0.000000
  70
    32
  0
VERTEX
  8
241
  5
48A4
 10
64.2959
 20
37.3023
 30
0.000000
  70
    32
  0
VERTEX
  8
241
  5
48A5
 10
64.2243
 20
37.2117
 30
0.000000
  70
    32
  0
VERTEX
  8
241
  5
48A6
 10
64.1498
 20
37.1224
 30
0.000000
  70
    32
  0
VERTEX
  8
241
  5
48A7
 10
64.0725
 20
37.0345
 30
0.000000
  70
    32
  0
VERTEX
  8
241
  5
48A8
 10
63.9924
 20
36.9481
 30
0.000000
  70
    32
  0
VERTEX
  8
241
  5
48A9
 10
63.9095
 20
36.8631
 30
0.000000
  70
    32
  0
VERTEX
  8
241
  5
48AA
 10
63.8238
 20
36.7797
 30
0.000000
  70
    32
  0
VERTEX
  8
241
  5
48AB
 10
63.7356
 20
36.6979
 30
0.000000
  70
    32
  0
VERTEX
  8
241
  5
48AC
 10
63.6447
 20
36.6177
 30
0.000000
  70
    32
  0
VERTEX
  8
241
  5
48AD
 10
63.5512
 20
36.5393
 30
0.000000
  70
    32
  0
VERTEX
  8
241
  5
48AE
 10
63.4553
 20
36.4625
 30
0.000000
  70
    32
  0
VERTEX
  8
241
  5
48AF
 10
63.3569
 20
36.3876
 30
0.000000
  70
    32
  0
VERTEX
  8
241
  5
48B0
 10
63.2561
 20
36.3144
 30
0.000000
  70
    32
  0
VERTEX
  8
241
  5
48B1
 10
63.1530
 20
36.2432
 30
0.000000
  70
    32
  0
VERTEX
  8
241
  5
48B2
 10
63.0476
 20
36.1738
 30
0.000000
  70
    32
  0
VERTEX
  8
241
  5
48B3
 10
62.9401
 20
36.1064
 30
0.000000
  70
    32
  0
VERTEX
  8
241
  5
48B4
 10
62.8303
 20
36.0410
 30
0.000000
  70
    32
  0
VERTEX
  8
241
  5
48B5
 10
62.7185
 20
35.9776
 30
0.000000
  70
    32
  0
VERTEX
  8
241
  5
48B6
 10
62.6047
 20
35.9163
 30
0.000000
  70
    32
  0
VERTEX
  8
241
  5
48B7
 10
62.4890
 20
35.8572
 30
0.000000
  70
    32
  0
VERTEX
  8
241
  5
48B8
 10
62.3714
 20
35.8001
 30
0.000000
  70
    32
  0
VERTEX
  8
241
  5
48B9
 10
62.2519
 20
35.7452
 30
0.000000
  70
    32
  0
VERTEX
  8
241
  5
48BA
 10
62.1308
 20
35.6925
 30
0.000000
  70
    32
  0
VERTEX
  8
241
  5
48BB
 10
62.0080
 20
35.6421
 30
0.000000
  70
    32
  0
VERTEX
  8
241
  5
48BC
 10
61.8835
 20
35.5939
 30
0.000000
  70
    32
  0
VERTEX
  8
241
  5
48BD
 10
61.7576
 20
35.5481
 30
0.000000
  70
    32
  0
VERTEX
  8
241
  5
48BE
 10
61.6302
 20
35.5045
 30
0.000000
  70
    32
  0
VERTEX
  8
241
  5
48BF
 10
61.5015
 20
35.4633
 30
0.000000
  70
    32
  0
VERTEX
  8
241
  5
48C0
 10
61.3715
 20
35.4245
 30
0.000000
  70
    32
  0
VERTEX
  8
241
  5
48C1
 10
61.2402
 20
35.3881
 30
0.000000
  70
    32
  0
VERTEX
  8
241
  5
48C2
 10
61.1079
 20
35.3541
 30
0.000000
  70
    32
  0
VERTEX
  8
241
  5
48C3
 10
60.9744
 20
35.3225
 30
0.000000
  70
    32
  0
VERTEX
  8
241
  5
48C4
 10
60.8400
 20
35.2934
 30
0.000000
  70
    32
  0
VERTEX
  8
241
  5
48C5
 10
60.7047
 20
35.2667
 30
0.000000
  70
    32
  0
VERTEX
  8
241
  5
48C6
 10
60.5686
 20
35.2426
 30
0.000000
  70
    32
  0
VERTEX
  8
241
  5
48C7
 10
60.4317
 20
35.2209
 30
0.000000
  70
    32
  0
VERTEX
  8
241
  5
48C8
 10
60.2942
 20
35.2018
 30
0.000000
  70
    32
  0
VERTEX
  8
241
  5
48C9
 10
60.1561
 20
35.1852
 30
0.000000
  70
    32
  0
VERTEX
  8
241
  5
48CA
 10
60.0175
 20
35.1711
 30
0.000000
  70
    32
  0
VERTEX
  8
241
  5
48CB
 10
59.8785
 20
35.1596
 30
0.000000
  70
    32
  0
VERTEX
  8
241
  5
48CC
 10
59.7392
 20
35.1506
 30
0.000000
  70
    32
  0
VERTEX
  8
241
  5
48CD
 10
59.5996
 20
35.1442
 30
0.000000
  70
    32
  0
VERTEX
  8
241
  5
48CE
 10
59.4598
 20
35.1404
 30
0.000000
  70
    32
  0
VERTEX
  8
241
  5
48CF
 10
59.3200
 20
35.1391
 30
0.000000
  70
    32
  0
VERTEX
  8
241
  5
48D0
 10
59.1802
 20
35.1404
 30
0.000000
  70
    32
  0
VERTEX
  8
241
  5
48D1
 10
59.0404
 20
35.1442
 30
0.000000
  70
    32
  0
VERTEX
  8
241
  5
48D2
 10
58.9008
 20
35.1506
 30
0.000000
  70
    32
  0
VERTEX
  8
241
  5
48D3
 10
58.7615
 20
35.1596
 30
0.000000
  70
    32
  0
VERTEX
  8
241
  5
48D4
 10
58.6225
 20
35.1711
 30
0.000000
  70
    32
  0
VERTEX
  8
241
  5
48D5
 10
58.4839
 20
35.1852
 30
0.000000
  70
    32
  0
VERTEX
  8
241
  5
48D6
 10
58.3458
 20
35.2018
 30
0.000000
  70
    32
  0
VERTEX
  8
241
  5
48D7
 10
58.2083
 20
35.2209
 30
0.000000
  70
    32
  0
VERTEX
  8
241
  5
48D8
 10
58.0714
 20
35.2426
 30
0.000000
  70
    32
  0
VERTEX
  8
241
  5
48D9
 10
57.9353
 20
35.2667
 30
0.000000
  70
    32
  0
VERTEX
  8
241
  5
48DA
 10
57.8000
 20
35.2934
 30
0.000000
  70
    32
  0
VERTEX
  8
241
  5
48DB
 10
57.6656
 20
35.3225
 30
0.000000
  70
    32
  0
VERTEX
  8
241
  5
48DC
 10
57.5321
 20
35.3541
 30
0.000000
  70
    32
  0
VERTEX
  8
241
  5
48DD
 10
57.3998
 20
35.3881
 30
0.000000
  70
    32
  0
VERTEX
  8
241
  5
48DE
 10
57.2685
 20
35.4245
 30
0.000000
  70
    32
  0
VERTEX
  8
241
  5
48DF
 10
57.1385
 20
35.4633
 30
0.000000
  70
    32
  0
VERTEX
  8
241
  5
48E0
 10
57.0098
 20
35.5045
 30
0.000000
  70
    32
  0
VERTEX
  8
241
  5
48E1
 10
56.8824
 20
35.5481
 30
0.000000
  70
    32
  0
VERTEX
  8
241
  5
48E2
 10
56.7565
 20
35.5939
 30
0.000000
  70
    32
  0
VERTEX
  8
241
  5
48E3
 10
56.6320
 20
35.6421
 30
0.000000
  70
    32
  0
VERTEX
  8
241
  5
48E4
 10
56.5092
 20
35.6925
 30
0.000000
  70
    32
  0
VERTEX
  8
241
  5
48E5
 10
56.3881
 20
35.7452
 30
0.000000
  70
    32
  0
VERTEX
  8
241
  5
48E6
 10
56.2686
 20
35.8001
 30
0.000000
  70
    32
  0
VERTEX
  8
241
  5
48E7
 10
56.1510
 20
35.8572
 30
0.000000
  70
    32
  0
VERTEX
  8
241
  5
48E8
 10
56.0353
 20
35.9163
 30
0.000000
  70
    32
  0
VERTEX
  8
241
  5
48E9
 10
55.9215
 20
35.9776
 30
0.000000
  70
    32
  0
VERTEX
  8
241
  5
48EA
 10
55.8097
 20
36.0410
 30
0.000000
  70
    32
  0
VERTEX
  8
241
  5
48EB
 10
55.6999
 20
36.1064
 30
0.000000
  70
    32
  0
VERTEX
  8
241
  5
48EC
 10
55.5924
 20
36.1738
 30
0.000000
  70
    32
  0
VERTEX
  8
241
  5
48ED
 10
55.4870
 20
36.2432
 30
0.000000
  70
    32
  0
VERTEX
  8
241
  5
48EE
 10
55.3839
 20
36.3144
 30
0.000000
  70
    32
  0
VERTEX
  8
241
  5
48EF
 10
55.2831
 20
36.3876
 30
0.000000
  70
    32
  0
VERTEX
  8
241
  5
48F0
 10
55.1847
 20
36.4625
 30
0.000000
  70
    32
  0
VERTEX
  8
241
  5
48F1
 10
55.0888
 20
36.5393
 30
0.000000
  70
    32
  0
VERTEX
  8
241
  5
48F2
 10
54.9953
 20
36.6177
 30
0.000000
  70
    32
  0
VERTEX
  8
241
  5
48F3
 10
54.9044
 20
36.6979
 30
0.000000
  70
    32
  0
VERTEX
  8
241
  5
48F4
 10
54.8162
 20
36.7797
 30
0.000000
  70
    32
  0
VERTEX
  8
241
  5
48F5
 10
54.7305
 20
36.8631
 30
0.000000
  70
    32
  0
VERTEX
  8
241
  5
48F6
 10
54.6476
 20
36.9481
 30
0.000000
  70
    32
  0
VERTEX
  8
241
  5
48F7
 10
54.5675
 20
37.0345
 30
0.000000
  70
    32
  0
VERTEX
  8
241
  5
48F8
 10
54.4902
 20
37.1224
 30
0.000000
  70
    32
  0
VERTEX
  8
241
  5
48F9
 10
54.4157
 20
37.2117
 30
0.000000
  70
    32
  0
VERTEX
  8
241
  5
48FA
 10
54.3441
 20
37.3023
 30
0.000000
  70
    32
  0
VERTEX
  8
241
  5
48FB
 10
54.2755
 20
37.3942
 30
0.000000
  70
    32
  0
VERTEX
  8
241
  5
48FC
 10
54.2099
 20
37.4874
 30
0.000000
  70
    32
  0
VERTEX
  8
241
  5
48FD
 10
54.1473
 20
37.5817
 30
0.000000
  70
    32
  0
VERTEX
  8
241
  5
48FE
 10
54.0877
 20
37.6771
 30
0.000000
  70
    32
  0
VERTEX
  8
241
  5
48FF
 10
54.0312
 20
37.7736
 30
0.000000
  70
    32
  0
VERTEX
  8
241
  5
4900
 10
53.9779
 20
37.8711
 30
0.000000
  70
    32
  0
VERTEX
  8
241
  5
4901
 10
53.9277
 20
37.9696
 30
0.000000
  70
    32
  0
VERTEX
  8
241
  5
4902
 10
53.8807
 20
38.0689
 30
0.000000
  70
    32
  0
VERTEX
  8
241
  5
4903
 10
53.8369
 20
38.1691
 30
0.000000
  70
    32
  0
VERTEX
  8
241
  5
4904
 10
53.7964
 20
38.2701
 30
0.000000
  70
    32
  0
VERTEX
  8
241
  5
4905
 10
53.7591
 20
38.3717
 30
0.000000
  70
    32
  0
VERTEX
  8
241
  5
4906
 10
53.7252
 20
38.4741
 30
0.000000
  70
    32
  0
VERTEX
  8
241
  5
4907
 10
53.6945
 20
38.5770
 30
0.000000
  70
    32
  0
VERTEX
  8
241
  5
4908
 10
53.6671
 20
38.6804
 30
0.000000
  70
    32
  0
VERTEX
  8
241
  5
4909
 10
53.6431
 20
38.7843
 30
0.000000
  70
    32
  0
VERTEX
  8
241
  5
490A
 10
53.6225
 20
38.8887
 30
0.000000
  70
    32
  0
VERTEX
  8
241
  5
490B
 10
53.6052
 20
38.9933
 30
0.000000
  70
    32
  0
VERTEX
  8
241
  5
490C
 10
53.5913
 20
39.0983
 30
0.000000
  70
    32
  0
VERTEX
  8
241
  5
490D
 10
53.5808
 20
39.2035
 30
0.000000
  70
    32
  0
VERTEX
  8
241
  5
490E
 10
53.5737
 20
39.3088
 30
0.000000
  70
    32
  0
VERTEX
  8
241
  5
490F
 10
53.5700
 20
39.4143
 30
0.000000
  70
    32
  0
SEQEND
  8
241
  5
4910
  0
VIEWPORT
  5
22
 67
     1
  8
0
 10
261.51769911504419
 20
148.5
 30
0.0
 40
523.0353982300885
 41
297.0
 68
     1
 69
     1
1001
ACAD
1000
MVIEW
1002
{
1070
    16
1010
0.0
1020
0.0
1030
0.0
1010
0.0
1020
0.0
1030
1.0
1040
0.0
1040
297.0
1040
261.51769911504419
1040
148.5
1040
50.0
1040
0.0
1040
0.0
1070
     0
1070
   100
1070
     1
1070
     1
1070
     0
1070
     0
1070
     0
1070
     0
1040
0.0
1040
0.0
1040
0.0
1040
1.0
1040
1.0
1040
10.0
1040
10.0
1070
     0
1002
{
1002
}
1002
}
1001
GENIUS_GENODEF_13
1002
{
1000
HIER
1070
     0
1002
}
1002
{
1000
MANEDIT
1070
     0
1002
}
1002
{
1000
NOSEL
1070
     0
1002
}
1002
{
1000
BEHIND
1070
     0
1002
}
1002
{
1000
OTHER
1070
     0
1002
}
1002
{
1000
REACTOR
1002
}
1001
GENIUS_GENOBJ-N-SDF_13
1002
{
1000
OWNER
1000
GEN
1002
}
1001
GENIUS_GENSCREG_15
1000
PF
1040
1.0
1000
DF
1040
1.0
1000
MIN
1011
0.0
1021
0.0
1031
0.0
1021
0.0
1031
0.0
1000
MAX
1011
523.0353982300885
1021
0.0
1031
0.0
1021
297.0
1031
0.0
1000
FLAGS
1070
     4
  0
ENDSEC
  0
EOF
