ISO-10303-21;
HEADER;
FILE_DESCRIPTION((''),'1');
FILE_NAME('//Big_tech03/bigt/Translate/21_\X2\8F2A90ED7DDA\X0\-DXF/31_\X2\30E130AC30B730F330AF30ED30BF30C330D430F330B030DB30EB30C0\X0\ MGT/01_\X2\672C4F53\X0\/BBT/BBT50/BBT50-MGT6-90.stp','2012-05-18T05:13:25',(''),(''),'Spatial Interop R18','Kubotek KeyCreator V8.5.1 (14335)',' ');
FILE_SCHEMA(('CONFIG_CONTROL_DESIGN'));
ENDSEC;
DATA;
#1=DESIGN_CONTEXT('',#27,'design');
#2=APPLICATION_PROTOCOL_DEFINITION('INTERNATIONAL STANDARD','config_control_design',1994,#27);
#3=PRODUCT_CATEGORY_RELATIONSHIP('NONE','NONE',#28,#29);
#4=DATE_AND_TIME(#30,#31);
#5=DATE_TIME_ROLE('creation_date');
#6=DATE_TIME_ROLE('classification_date');
#7=PERSON_AND_ORGANIZATION_ROLE('creator');
#8=PERSON_AND_ORGANIZATION_ROLE('design_supplier');
#9=PERSON_AND_ORGANIZATION_ROLE('classification_officer');
#10=PERSON_AND_ORGANIZATION_ROLE('design_owner');
#11=APPROVAL_PERSON_ORGANIZATION(#32,#33,#34);
#12=APPROVAL_DATE_TIME(#4,#33);
#13=CC_DESIGN_APPROVAL(#33,(#35,#36,#37));
#14=CC_DESIGN_DATE_AND_TIME_ASSIGNMENT(#4,#5,(#37));
#15=CC_DESIGN_DATE_AND_TIME_ASSIGNMENT(#4,#6,(#35));
#16=CC_DESIGN_PERSON_AND_ORGANIZATION_ASSIGNMENT(#32,#10,(#38));
#17=CC_DESIGN_PERSON_AND_ORGANIZATION_ASSIGNMENT(#32,#7,(#37));
#18=CC_DESIGN_PERSON_AND_ORGANIZATION_ASSIGNMENT(#32,#7,(#36));
#19=CC_DESIGN_PERSON_AND_ORGANIZATION_ASSIGNMENT(#32,#8,(#36));
#20=CC_DESIGN_SECURITY_CLASSIFICATION(#35,(#36));
#21=CC_DESIGN_PERSON_AND_ORGANIZATION_ASSIGNMENT(#32,#9,(#35));
#22=SHAPE_DEFINITION_REPRESENTATION(#39,#40);
#23= (GEOMETRIC_REPRESENTATION_CONTEXT(3)GLOBAL_UNCERTAINTY_ASSIGNED_CONTEXT((#43))GLOBAL_UNIT_ASSIGNED_CONTEXT((#45,#46,#47))REPRESENTATION_CONTEXT('NONE','WORKSPACE'));
#27=APPLICATION_CONTEXT('CONFIGURATION CONTROLLED 3D DESIGNS OF MECHANICAL PARTS AND ASSEMBLIES');
#28=PRODUCT_CATEGORY('part','NONE');
#29=PRODUCT_RELATED_PRODUCT_CATEGORY('detail',' ',(#38));
#30=CALENDAR_DATE(2012,18,4);
#31=LOCAL_TIME(14,13,25.0,#49);
#32=PERSON_AND_ORGANIZATION(#50,#51);
#33=APPROVAL(#52,'SOLID MODEL');
#34=APPROVAL_ROLE('APPROVED');
#35=SECURITY_CLASSIFICATION('','',#53);
#36=PRODUCT_DEFINITION_FORMATION_WITH_SPECIFIED_SOURCE(' ','NONE',#38,.NOT_KNOWN.);
#37=PRODUCT_DEFINITION('NONE','NONE',#36,#1);
#38=PRODUCT('1','1','PART-1-DESC',(#54));
#39=PRODUCT_DEFINITION_SHAPE('NONE','NONE',#37);
#40=ADVANCED_BREP_SHAPE_REPRESENTATION('1',(#55,#56),#23);
#43=UNCERTAINTY_MEASURE_WITH_UNIT(LENGTH_MEASURE(1.0E-006),#45,'','');
#45= (CONVERSION_BASED_UNIT('MILLIMETRE',#59)LENGTH_UNIT()NAMED_UNIT(#62));
#46= (NAMED_UNIT(#64)PLANE_ANGLE_UNIT()SI_UNIT($,.RADIAN.));
#47= (NAMED_UNIT(#64)SOLID_ANGLE_UNIT()SI_UNIT($,.STERADIAN.));
#49=COORDINATED_UNIVERSAL_TIME_OFFSET(9,0,.AHEAD.);
#50=PERSON('','UNSPECIFIED',$,$,$,$);
#51=ORGANIZATION('UNSPECIFIED','UNSPECIFIED','UNSPECIFIED');
#52=APPROVAL_STATUS('approved');
#53=SECURITY_CLASSIFICATION_LEVEL('unclassified');
#54=MECHANICAL_CONTEXT('',#27,'mechanical');
#55=MANIFOLD_SOLID_BREP('1',#70);
#56=AXIS2_PLACEMENT_3D('',#71,#72,#73);
#59=LENGTH_MEASURE_WITH_UNIT(LENGTH_MEASURE(1.0),#74);
#62=DIMENSIONAL_EXPONENTS(1.0,0.0,0.0,0.0,0.0,0.0,0.0);
#64=DIMENSIONAL_EXPONENTS(0.0,0.0,0.0,0.0,0.0,0.0,0.0);
#70=CLOSED_SHELL('',(#75,#76,#77,#78,#79,#80,#81,#82,#83,#84,#85,#86,#87,#88));
#71=CARTESIAN_POINT('',(0.0,0.0,0.0));
#72=DIRECTION('',(0.0,0.0,1.0));
#73=DIRECTION('',(1.0,0.0,0.0));
#74= (NAMED_UNIT(#62)LENGTH_UNIT()SI_UNIT(.MILLI.,.METRE.));
#75=ADVANCED_FACE('',(#90),#91,.T.);
#76=ADVANCED_FACE('',(#92,#93),#94,.T.);
#77=ADVANCED_FACE('',(#95,#96),#97,.T.);
#78=ADVANCED_FACE('',(#98,#99),#100,.T.);
#79=ADVANCED_FACE('',(#101,#102),#103,.T.);
#80=ADVANCED_FACE('',(#104,#105),#106,.T.);
#81=ADVANCED_FACE('',(#107,#108),#109,.T.);
#82=ADVANCED_FACE('',(#110,#111),#112,.T.);
#83=ADVANCED_FACE('',(#113,#114),#115,.T.);
#84=ADVANCED_FACE('',(#116,#117),#118,.T.);
#85=ADVANCED_FACE('',(#119,#120),#121,.T.);
#86=ADVANCED_FACE('',(#122,#123),#124,.T.);
#87=ADVANCED_FACE('',(#125),#126,.T.);
#88=ADVANCED_FACE('',(#127,#128),#129,.T.);
#90=FACE_OUTER_BOUND('',#130,.T.);
#91=PLANE('',#131);
#92=FACE_BOUND('',#132,.T.);
#93=FACE_BOUND('',#133,.T.);
#94=CONICAL_SURFACE('',#134,16.9282032322792,0.261799387022768);
#95=FACE_BOUND('',#135,.T.);
#96=FACE_BOUND('',#136,.T.);
#97=CYLINDRICAL_SURFACE('',#137,18.0);
#98=FACE_BOUND('',#138,.T.);
#99=FACE_BOUND('',#139,.T.);
#100=CONICAL_SURFACE('',#140,21.5,0.785398163397449);
#101=FACE_OUTER_BOUND('',#141,.T.);
#102=FACE_BOUND('',#142,.T.);
#103=PLANE('',#143);
#104=FACE_BOUND('',#144,.T.);
#105=FACE_BOUND('',#145,.T.);
#106=CYLINDRICAL_SURFACE('',#146,50.0);
#107=FACE_BOUND('',#147,.T.);
#108=FACE_BOUND('',#148,.T.);
#109=CONICAL_SURFACE('',#149,46.25,1.04719755108882);
#110=FACE_BOUND('',#150,.T.);
#111=FACE_BOUND('',#151,.T.);
#112=CYLINDRICAL_SURFACE('',#152,42.5);
#113=FACE_BOUND('',#153,.T.);
#114=FACE_BOUND('',#154,.T.);
#115=CONICAL_SURFACE('',#155,46.25,1.04719755108882);
#116=FACE_BOUND('',#156,.T.);
#117=FACE_BOUND('',#157,.T.);
#118=CYLINDRICAL_SURFACE('',#158,50.0);
#119=FACE_BOUND('',#159,.T.);
#120=FACE_OUTER_BOUND('',#160,.T.);
#121=PLANE('',#161);
#122=FACE_BOUND('',#162,.T.);
#123=FACE_BOUND('',#163,.T.);
#124=CYLINDRICAL_SURFACE('',#164,34.925);
#125=FACE_OUTER_BOUND('',#165,.T.);
#126=PLANE('',#166);
#127=FACE_BOUND('',#167,.T.);
#128=FACE_BOUND('',#168,.T.);
#129=CONICAL_SURFACE('',#169,27.5020833325942,0.144812498253157);
#130=EDGE_LOOP('',(#170));
#131=AXIS2_PLACEMENT_3D('',#171,#172,#173);
#132=EDGE_LOOP('',(#174));
#133=EDGE_LOOP('',(#175));
#134=AXIS2_PLACEMENT_3D('',#176,#177,#178);
#135=EDGE_LOOP('',(#179));
#136=EDGE_LOOP('',(#180));
#137=AXIS2_PLACEMENT_3D('',#181,#182,#183);
#138=EDGE_LOOP('',(#184));
#139=EDGE_LOOP('',(#185));
#140=AXIS2_PLACEMENT_3D('',#186,#187,#188);
#141=EDGE_LOOP('',(#189));
#142=EDGE_LOOP('',(#190));
#143=AXIS2_PLACEMENT_3D('',#191,#192,#193);
#144=EDGE_LOOP('',(#194));
#145=EDGE_LOOP('',(#195));
#146=AXIS2_PLACEMENT_3D('',#196,#197,#198);
#147=EDGE_LOOP('',(#199));
#148=EDGE_LOOP('',(#200));
#149=AXIS2_PLACEMENT_3D('',#201,#202,#203);
#150=EDGE_LOOP('',(#204));
#151=EDGE_LOOP('',(#205));
#152=AXIS2_PLACEMENT_3D('',#206,#207,#208);
#153=EDGE_LOOP('',(#209));
#154=EDGE_LOOP('',(#210));
#155=AXIS2_PLACEMENT_3D('',#211,#212,#213);
#156=EDGE_LOOP('',(#214));
#157=EDGE_LOOP('',(#215));
#158=AXIS2_PLACEMENT_3D('',#216,#217,#218);
#159=EDGE_LOOP('',(#219));
#160=EDGE_LOOP('',(#220));
#161=AXIS2_PLACEMENT_3D('',#221,#222,#223);
#162=EDGE_LOOP('',(#224));
#163=EDGE_LOOP('',(#225));
#164=AXIS2_PLACEMENT_3D('',#226,#227,#228);
#165=EDGE_LOOP('',(#229));
#166=AXIS2_PLACEMENT_3D('',#230,#231,#232);
#167=EDGE_LOOP('',(#233));
#168=EDGE_LOOP('',(#234));
#169=AXIS2_PLACEMENT_3D('',#235,#236,#237);
#170=ORIENTED_EDGE('',*,*,#238,.F.);
#171=CARTESIAN_POINT('',(5.51091059616309E-015,7.92820323227919,-90.0));
#172=DIRECTION('',(6.12323399573677E-017,1.22464679914735E-016,-1.0));
#173=DIRECTION('',(1.23259516440783E-032,-1.0,-1.22464679914735E-016));
#174=ORIENTED_EDGE('',*,*,#239,.F.);
#175=ORIENTED_EDGE('',*,*,#238,.T.);
#176=CARTESIAN_POINT('',(5.26598123603087E-015,1.05319624720617E-014,-85.9999999950557));
#177=DIRECTION('',(-6.12323399573677E-017,-1.22464679914735E-016,1.0));
#178=DIRECTION('',(-1.23259516440783E-032,1.0,1.22464679914735E-016));
#179=ORIENTED_EDGE('',*,*,#240,.F.);
#180=ORIENTED_EDGE('',*,*,#239,.T.);
#181=CARTESIAN_POINT('',(3.88825358699009E-015,7.77650717398019E-015,-63.4999999950557));
#182=DIRECTION('',(6.12323399573677E-017,1.22464679914735E-016,-1.0));
#183=DIRECTION('',(-1.23259516440783E-032,1.0,1.22464679914735E-016));
#184=ORIENTED_EDGE('',*,*,#241,.F.);
#185=ORIENTED_EDGE('',*,*,#240,.T.);
#186=CARTESIAN_POINT('',(2.54114210823076E-015,5.08228421646152E-015,-41.5));
#187=DIRECTION('',(-6.12323399573677E-017,-1.22464679914735E-016,1.0));
#188=DIRECTION('',(-1.23259516440783E-032,1.0,1.22464679914735E-016));
#189=ORIENTED_EDGE('',*,*,#242,.F.);
#190=ORIENTED_EDGE('',*,*,#241,.T.);
#191=CARTESIAN_POINT('',(2.32682891837997E-015,37.5,-38.0));
#192=DIRECTION('',(6.12323399573677E-017,1.22464679914735E-016,-1.0));
#193=DIRECTION('',(1.23259516440783E-032,-1.0,-1.22464679914735E-016));
#194=ORIENTED_EDGE('',*,*,#243,.F.);
#195=ORIENTED_EDGE('',*,*,#242,.T.);
#196=CARTESIAN_POINT('',(2.10333087753558E-015,4.20666175507116E-015,-34.35));
#197=DIRECTION('',(6.12323399573677E-017,1.22464679914735E-016,-1.0));
#198=DIRECTION('',(-1.23259516440783E-032,1.0,1.22464679914735E-016));
#199=ORIENTED_EDGE('',*,*,#244,.F.);
#200=ORIENTED_EDGE('',*,*,#243,.T.);
#201=CARTESIAN_POINT('',(1.74726093181758E-015,3.49452186363515E-015,-28.53493649));
#202=DIRECTION('',(6.12323399573676E-017,1.22464679914735E-016,-1.0));
#203=DIRECTION('',(-1.23259516440783E-032,1.0,1.22464679914735E-016));
#204=ORIENTED_EDGE('',*,*,#245,.F.);
#205=ORIENTED_EDGE('',*,*,#244,.T.);
#206=CARTESIAN_POINT('',(1.42059028701093E-015,2.84118057402186E-015,-23.2));
#207=DIRECTION('',(6.12323399573677E-017,1.22464679914735E-016,-1.0));
#208=DIRECTION('',(-1.23259516440783E-032,1.0,1.22464679914735E-016));
#209=ORIENTED_EDGE('',*,*,#246,.F.);
#210=ORIENTED_EDGE('',*,*,#245,.T.);
#211=CARTESIAN_POINT('',(1.09391964220428E-015,2.18783928440857E-015,-17.86506351));
#212=DIRECTION('',(-6.12323399573676E-017,-1.22464679914735E-016,1.0));
#213=DIRECTION('',(-1.23259516440783E-032,1.0,1.22464679914735E-016));
#214=ORIENTED_EDGE('',*,*,#247,.F.);
#215=ORIENTED_EDGE('',*,*,#246,.T.);
#216=CARTESIAN_POINT('',(5.26598123633362E-016,1.05319624726672E-015,-8.6));
#217=DIRECTION('',(6.12323399573677E-017,1.22464679914735E-016,-1.0));
#218=DIRECTION('',(-1.23259516440783E-032,1.0,1.22464679914735E-016));
#219=ORIENTED_EDGE('',*,*,#248,.F.);
#220=ORIENTED_EDGE('',*,*,#247,.T.);
#221=CARTESIAN_POINT('',(9.1848509936051E-017,42.4625,-1.5));
#222=DIRECTION('',(-6.12323399573677E-017,-4.63006370244663E-018,1.0));
#223=DIRECTION('',(-5.1106623654215E-033,1.0,4.63006370244663E-018));
#224=ORIENTED_EDGE('',*,*,#249,.F.);
#225=ORIENTED_EDGE('',*,*,#248,.T.);
#226=CARTESIAN_POINT('',(4.59242549680264E-017,9.18485099360528E-017,-0.750000000000011));
#227=DIRECTION('',(6.12323399573677E-017,1.22464679914735E-016,-1.0));
#228=DIRECTION('',(-1.23259516440783E-032,1.0,1.22464679914735E-016));
#229=ORIENTED_EDGE('',*,*,#250,.T.);
#230=CARTESIAN_POINT('',(-6.23345220766003E-015,10.0395833325942,101.8));
#231=DIRECTION('',(-6.12323399573677E-017,-1.22464679914735E-016,1.0));
#232=DIRECTION('',(-1.23259516440783E-032,1.0,1.22464679914735E-016));
#233=ORIENTED_EDGE('',*,*,#250,.F.);
#234=ORIENTED_EDGE('',*,*,#249,.T.);
#235=CARTESIAN_POINT('',(-3.11672610383001E-015,-6.23345220766003E-015,50.9));
#236=DIRECTION('',(6.12323399573677E-017,1.22464679914735E-016,-1.0));
#237=DIRECTION('',(-1.23259516440783E-032,1.0,1.22464679914735E-016));
#238=EDGE_CURVE('',#251,#251,#252,.T.);
#239=EDGE_CURVE('',#253,#253,#254,.T.);
#240=EDGE_CURVE('',#255,#255,#256,.T.);
#241=EDGE_CURVE('',#257,#257,#258,.T.);
#242=EDGE_CURVE('',#259,#259,#260,.T.);
#243=EDGE_CURVE('',#261,#261,#262,.T.);
#244=EDGE_CURVE('',#263,#263,#264,.T.);
#245=EDGE_CURVE('',#265,#265,#266,.T.);
#246=EDGE_CURVE('',#267,#267,#268,.T.);
#247=EDGE_CURVE('',#269,#269,#270,.T.);
#248=EDGE_CURVE('',#271,#271,#272,.T.);
#249=EDGE_CURVE('',#273,#273,#274,.T.);
#250=EDGE_CURVE('',#275,#275,#276,.T.);
#251=VERTEX_POINT('',#277);
#252=CIRCLE('',#278,15.8564064645584);
#253=VERTEX_POINT('',#279);
#254=CIRCLE('',#280,18.0);
#255=VERTEX_POINT('',#281);
#256=CIRCLE('',#282,18.0);
#257=VERTEX_POINT('',#283);
#258=CIRCLE('',#284,25.0);
#259=VERTEX_POINT('',#285);
#260=CIRCLE('',#286,50.0);
#261=VERTEX_POINT('',#287);
#262=CIRCLE('',#288,50.0);
#263=VERTEX_POINT('',#289);
#264=CIRCLE('',#290,42.5);
#265=VERTEX_POINT('',#291);
#266=CIRCLE('',#292,42.5);
#267=VERTEX_POINT('',#293);
#268=CIRCLE('',#294,50.0);
#269=VERTEX_POINT('',#295);
#270=CIRCLE('',#296,50.0);
#271=VERTEX_POINT('',#297);
#272=CIRCLE('',#298,34.925);
#273=VERTEX_POINT('',#299);
#274=CIRCLE('',#300,34.925);
#275=VERTEX_POINT('',#301);
#276=CIRCLE('',#302,20.0791666651884);
#277=CARTESIAN_POINT('',(5.51091059616309E-015,15.8564064645584,-90.0));
#278=AXIS2_PLACEMENT_3D('',#303,#304,#305);
#279=CARTESIAN_POINT('',(5.02105187589864E-015,18.0,-81.9999999901114));
#280=AXIS2_PLACEMENT_3D('',#306,#307,#308);
#281=CARTESIAN_POINT('',(2.75545529808154E-015,18.0,-45.0));
#282=AXIS2_PLACEMENT_3D('',#309,#310,#311);
#283=CARTESIAN_POINT('',(2.32682891837997E-015,25.0,-38.0));
#284=AXIS2_PLACEMENT_3D('',#312,#313,#314);
#285=CARTESIAN_POINT('',(2.32682891837997E-015,50.0,-38.0));
#286=AXIS2_PLACEMENT_3D('',#315,#316,#317);
#287=CARTESIAN_POINT('',(1.87983283669119E-015,50.0,-30.7));
#288=AXIS2_PLACEMENT_3D('',#318,#319,#320);
#289=CARTESIAN_POINT('',(1.61468902694396E-015,42.5,-26.36987298));
#290=AXIS2_PLACEMENT_3D('',#321,#322,#323);
#291=CARTESIAN_POINT('',(1.2264915470779E-015,42.5,-20.03012702));
#292=AXIS2_PLACEMENT_3D('',#324,#325,#326);
#293=CARTESIAN_POINT('',(9.61347737330672E-016,50.0,-15.7));
#294=AXIS2_PLACEMENT_3D('',#327,#328,#329);
#295=CARTESIAN_POINT('',(9.1848509936051E-017,50.0,-1.5));
#296=AXIS2_PLACEMENT_3D('',#330,#331,#332);
#297=CARTESIAN_POINT('',(9.18485099360511E-017,34.925,-1.5));
#298=AXIS2_PLACEMENT_3D('',#333,#334,#335);
#299=CARTESIAN_POINT('',(8.73764979922496E-031,34.925,-1.70229210539779E-014));
#300=AXIS2_PLACEMENT_3D('',#336,#337,#338);
#301=CARTESIAN_POINT('',(-6.23345220766003E-015,20.0791666651884,101.8));
#302=AXIS2_PLACEMENT_3D('',#339,#340,#341);
#303=CARTESIAN_POINT('',(5.51091059616309E-015,1.10218211923262E-014,-90.0));
#304=DIRECTION('',(-6.12323399573677E-017,-1.22464679914735E-016,1.0));
#305=DIRECTION('',(-1.23259516440783E-032,1.0,1.22464679914735E-016));
#306=CARTESIAN_POINT('',(5.02105187589864E-015,1.00421037517973E-014,-81.9999999901114));
#307=DIRECTION('',(-6.12323399573677E-017,-1.22464679914735E-016,1.0));
#308=DIRECTION('',(-1.23259516440783E-032,1.0,1.22464679914735E-016));
#309=CARTESIAN_POINT('',(2.75545529808154E-015,5.51091059616309E-015,-45.0));
#310=DIRECTION('',(-6.12323399573677E-017,-1.22464679914735E-016,1.0));
#311=DIRECTION('',(-1.23259516440783E-032,1.0,1.22464679914735E-016));
#312=CARTESIAN_POINT('',(2.32682891837997E-015,4.65365783675994E-015,-38.0));
#313=DIRECTION('',(-6.12323399573677E-017,-1.22464679914735E-016,1.0));
#314=DIRECTION('',(-1.23259516440783E-032,1.0,1.22464679914735E-016));
#315=CARTESIAN_POINT('',(2.32682891837997E-015,4.65365783675994E-015,-38.0));
#316=DIRECTION('',(-6.12323399573677E-017,-1.22464679914735E-016,1.0));
#317=DIRECTION('',(-1.23259516440783E-032,1.0,1.22464679914735E-016));
#318=CARTESIAN_POINT('',(1.87983283669119E-015,3.75966567338237E-015,-30.7));
#319=DIRECTION('',(-6.12323399573677E-017,-1.22464679914735E-016,1.0));
#320=DIRECTION('',(-1.23259516440783E-032,1.0,1.22464679914735E-016));
#321=CARTESIAN_POINT('',(1.61468902694396E-015,3.22937805388793E-015,-26.36987298));
#322=DIRECTION('',(-6.12323399573677E-017,-1.22464679914735E-016,1.0));
#323=DIRECTION('',(-1.23259516440783E-032,1.0,1.22464679914735E-016));
#324=CARTESIAN_POINT('',(1.2264915470779E-015,2.45298309415579E-015,-20.03012702));
#325=DIRECTION('',(-6.12323399573677E-017,-1.22464679914735E-016,1.0));
#326=DIRECTION('',(-1.23259516440783E-032,1.0,1.22464679914735E-016));
#327=CARTESIAN_POINT('',(9.61347737330672E-016,1.92269547466134E-015,-15.7));
#328=DIRECTION('',(-6.12323399573677E-017,-1.22464679914735E-016,1.0));
#329=DIRECTION('',(-1.23259516440783E-032,1.0,1.22464679914735E-016));
#330=CARTESIAN_POINT('',(9.18485099360516E-017,1.83697019872103E-016,-1.5));
#331=DIRECTION('',(-6.12323399573677E-017,-1.22464679914735E-016,1.0));
#332=DIRECTION('',(-1.23259516440783E-032,1.0,1.22464679914735E-016));
#333=CARTESIAN_POINT('',(9.18485099360515E-017,1.83697019872103E-016,-1.5));
#334=DIRECTION('',(-6.12323399573677E-017,-1.22464679914735E-016,1.0));
#335=DIRECTION('',(-1.23259516440783E-032,1.0,1.22464679914735E-016));
#336=CARTESIAN_POINT('',(1.30354629166721E-030,2.60709258333441E-030,-2.12885264971874E-014));
#337=DIRECTION('',(-6.12323399573677E-017,-1.22464679914735E-016,1.0));
#338=DIRECTION('',(-1.23259516440783E-032,1.0,1.22464679914735E-016));
#339=CARTESIAN_POINT('',(-6.23345220766003E-015,-1.24669044153201E-014,101.8));
#340=DIRECTION('',(-6.12323399573677E-017,-1.22464679914735E-016,1.0));
#341=DIRECTION('',(-1.23259516440783E-032,1.0,1.22464679914735E-016));
ENDSEC;
END-ISO-10303-21;
