  0
SECTION
  2
HEADER
  9
$ACADVER
  1
AC1009
  9
$INSBASE
 10
0.0
 20
0.0
 30
0.0
  9
$EXTMIN
 10
-102.8
 20
-50.0
 30
0.0
  9
$EXTMAX
 10
176.00000000000011
 20
82.0
 30
0.0
  9
$LIMMIN
 10
0.0
 20
0.0
  9
$LIMMAX
 10
297.0
 20
210.0
  9
$ORTHOMODE
 70
     1
  9
$REGENMODE
 70
     1
  9
$FILLMODE
 70
     1
  9
$QTEXTMODE
 70
     0
  9
$MIRRTEXT
 70
     1
  9
$DRAGMODE
 70
     2
  9
$LTSCALE
 40
10.0
  9
$OSMODE
 70
    37
  9
$ATTMODE
 70
     1
  9
$TEXTSIZE
 40
3.0
  9
$TRACEWID
 40
1.0
  9
$TEXTSTYLE
  7
YOKO
  9
$CLAYER
  8
241
  9
$CELTYPE
  6
BYLAYER
  9
$CECOLOR
 62
   256
  9
$DIMSCALE
 40
1.0
  9
$DIMASZ
 40
2.0
  9
$DIMEXO
 40
0.5
  9
$DIMDLI
 40
7.0
  9
$DIMRND
 40
0.0
  9
$DIMDLE
 40
0.0
  9
$DIMEXE
 40
1.0
  9
$DIMTP
 40
0.0
  9
$DIMTM
 40
0.01
  9
$DIMTXT
 40
2.799999999999998
  9
$DIMCEN
 40
0.0
  9
$DIMTSZ
 40
0.0
  9
$DIMTOL
 70
     0
  9
$DIMLIM
 70
     0
  9
$DIMTIH
 70
     0
  9
$DIMTOH
 70
     0
  9
$DIMSE1
 70
     0
  9
$DIMSE2
 70
     0
  9
$DIMTAD
 70
     3
  9
$DIMZIN
 70
     8
  9
$DIMBLK
  1
OPEN
  9
$DIMASO
 70
     1
  9
$DIMSHO
 70
     1
  9
$DIMPOST
  1

  9
$DIMAPOST
  1

  9
$DIMALT
 70
     0
  9
$DIMALTD
 70
     2
  9
$DIMALTF
 40
25.399999999999999
  9
$DIMLFAC
 40
1.0
  9
$DIMTOFL
 70
     1
  9
$DIMTVP
 40
0.0
  9
$DIMTIX
 70
     1
  9
$DIMSOXD
 70
     0
  9
$DIMSAH
 70
     0
  9
$DIMBLK1
  1

  9
$DIMBLK2
  1

  9
$DIMSTYLE
  2
BIGT
  9
$DIMCLRD
 70
   256
  9
$DIMCLRE
 70
   256
  9
$DIMCLRT
 70
    40
  9
$DIMTFAC
 40
1.0
  9
$DIMGAP
 40
1.0
  9
$LUNITS
 70
     2
  9
$LUPREC
 70
     6
  9
$SKETCHINC
 40
1.0
  9
$FILLETRAD
 40
5.0
  9
$AUNITS
 70
     0
  9
$AUPREC
 70
     6
  9
$MENU
  1
.
  9
$ELEVATION
 40
0.0
  9
$PELEVATION
 40
0.0
  9
$THICKNESS
 40
0.0
  9
$LIMCHECK
 70
     0
  9
$BLIPMODE
 70
     0
  9
$CHAMFERA
 40
0.2
  9
$CHAMFERB
 40
0.2
  9
$SKPOLY
 70
     0
  9
$TDCREATE
 40
2458138.4528235989
  9
$TDUPDATE
 40
2458152.694527477
  9
$TDINDWG
 40
0.0171470833
  9
$TDUSRTIMER
 40
0.0171470255
  9
$USRTIMER
 70
     1
  9
$ANGBASE
 50
0.0
  9
$ANGDIR
 70
     0
  9
$PDMODE
 70
     0
  9
$PDSIZE
 40
-5.0
  9
$PLINEWID
 40
0.0
  9
$COORDS
 70
     1
  9
$SPLFRAME
 70
     0
  9
$SPLINETYPE
 70
     6
  9
$SPLINESEGS
 70
     4
  9
$ATTDIA
 70
     1
  9
$ATTREQ
 70
     1
  9
$HANDLING
 70
     1
  9
$HANDSEED
  5
4C2C
  9
$SURFTAB1
 70
     6
  9
$SURFTAB2
 70
     6
  9
$SURFTYPE
 70
     6
  9
$SURFU
 70
     6
  9
$SURFV
 70
     6
  9
$UCSNAME
  2

  9
$UCSORG
 10
0.0
 20
0.0
 30
0.0
  9
$UCSXDIR
 10
1.0
 20
0.0
 30
0.0
  9
$UCSYDIR
 10
0.0
 20
1.0
 30
0.0
  9
$PUCSNAME
  2

  9
$PUCSORG
 10
0.0
 20
0.0
 30
0.0
  9
$PUCSXDIR
 10
1.0
 20
0.0
 30
0.0
  9
$PUCSYDIR
 10
0.0
 20
1.0
 30
0.0
  9
$USERI1
 70
     1
  9
$USERI2
 70
     0
  9
$USERI3
 70
     0
  9
$USERI4
 70
     0
  9
$USERI5
 70
     0
  9
$USERR1
 40
0.0
  9
$USERR2
 40
0.0
  9
$USERR3
 40
0.0
  9
$USERR4
 40
0.0
  9
$USERR5
 40
0.0
  9
$WORLDVIEW
 70
     1
  9
$SHADEDGE
 70
     3
  9
$SHADEDIF
 70
    70
  9
$TILEMODE
 70
     1
  9
$MAXACTVP
 70
    16
  9
$PLIMCHECK
 70
     0
  9
$PEXTMIN
 10
1.0000000000000000E+020
 20
1.0000000000000000E+020
 30
1.0000000000000000E+020
  9
$PEXTMAX
 10
-1.0000000000000000E+020
 20
-1.0000000000000000E+020
 30
-1.0000000000000000E+020
  9
$PLIMMIN
 10
0.0
 20
0.0
  9
$PLIMMAX
 10
420.0
 20
297.0
  9
$UNITMODE
 70
     0
  9
$VISRETAIN
 70
     1
  9
$PLINEGEN
 70
     0
  9
$PSLTSCALE
 70
     1
  0
ENDSEC
  0
SECTION
  2
TABLES
  0
TABLE
  2
VPORT
 70
     1
  0
VPORT
  2
*ACTIVE
 70
     0
 10
0.0
 20
0.0
 11
1.0
 21
1.0
 12
72.393044251409776
 22
42.780505661982168
 13
0.0
 23
0.0
 14
7.0
 24
7.0
 15
7.0
 25
7.0
 16
0.0
 26
0.0
 36
1.0
 17
0.0
 27
0.0
 37
0.0
 40
288.73551371794639
 41
1.553472987872105
 42
50.0
 43
0.0
 44
0.0
 50
0.0
 51
0.0
 71
     0
 72
  2000
 73
     1
 74
     0
 75
     0
 76
     0
 77
     0
 78
     0
  0
ENDTAB
  0
TABLE
  2
LTYPE
 70
    16
  0
LTYPE
  2
CONTINUOUS
 70
     0
  3
Solid line
 72
    65
 73
     0
 40
0.0
  0
LTYPE
  2
CENTER2
 70
     0
  3
___ _ ___ _ ___ _ ___ _ ___ _ ___ _ ___ _ ___ _
 72
    65
 73
     4
 40
1.125
 49
0.75
 49
-0.125
 49
0.125
 49
-0.125
  0
LTYPE
  2
HIDDEN2
 70
     0
  3
_ _ _ _ _ _ _ _ _ _ _ _ _ _ _ _ _ _ _ _ _ _ _ _
 72
    65
 73
     2
 40
0.1875
 49
0.125
 49
-0.0625
  0
LTYPE
  2
PHANTOM2
 70
     0
  3
___ _ _ ___ _ _ ___ _ _ ___ _ _ ___ _ _ ___ _ _
 72
    65
 73
     6
 40
1.25
 49
0.625
 49
-0.125
 49
0.125
 49
-0.125
 49
0.125
 49
-0.125
  0
LTYPE
  2
HIDDEN
 70
     0
  3
Hidden __ __ __ __ __ __ __ __ __ __ __ __ __ _
 72
    65
 73
     2
 40
0.375
 49
0.25
 49
-0.125
  0
LTYPE
  2
CENTER
 70
     0
  3
Center ____ _ ____ _ ____ _ ____ _ ____ _ ____
 72
    65
 73
     4
 40
2.0
 49
1.25
 49
-0.25
 49
0.25
 49
-0.25
  0
LTYPE
  2
AMCONSTR
 70
     0
  3
_______________________
 72
    65
 73
     2
 40
9999.0
 49
9999.0
 49
0.0
  0
LTYPE
  2
AMZIGZAG2
 70
     0
  3
/\/-/\/-/\/-/\/-/\/-/\/
 72
    65
 73
     2
 40
0.4401
 49
0.0001
 49
-0.4400000000000001
  0
LTYPE
  2
ACANSTGB
 70
     0
  3
__ . . __ . .
 72
    65
 73
     6
 40
0.35433070866
 49
0.15748031496
 49
-0.03937007874
 49
0.03937007874
 49
-0.03937007874
 49
0.03937007874
 49
-0.03937007874
  0
LTYPE
  2
ACANSTGL
 70
     0
  3
_ _ _ _ _
 72
    65
 73
     2
 40
0.11811023622
 49
0.07874015748
 49
-0.03937007874
  0
ENDTAB
  0
TABLE
  2
LAYER
 70
     9
  0
LAYER
  2
0
 70
     0
 62
     7
  6
CONTINUOUS
  0
LAYER
  2
241
 70
     0
 62
   211
  6
CONTINUOUS
  0
LAYER
  2
245
 70
     0
 62
     2
  6
CENTER2
  0
LAYER
  2
240
 70
     0
 62
     4
  6
CONTINUOUS
  0
LAYER
  2
242
 70
     0
 62
     3
  6
CONTINUOUS
  0
LAYER
  2
243
 70
     0
 62
   211
  6
HIDDEN2
  0
LAYER
  2
246
 70
     0
 62
     3
  6
PHANTOM2
  0
LAYER
  2
247
 70
     0
 62
    60
  6
CONTINUOUS
  0
LAYER
  2
250
 70
     0
 62
     3
  6
CONTINUOUS
  0
ENDTAB
  0
TABLE
  2
STYLE
 70
     5
  0
STYLE
  2
STANDARD
 70
     0
 40
0.0
 41
1.0
 50
0.0
 71
     0
 42
3.0
  3
romans.shx
  4
extfont.shx
  0
STYLE
  2
YOKO
 70
     0
 40
0.0
 41
1.0
 50
0.0
 71
     0
 42
3.0
  3
romans.shx
  4
extfont.shx
  0
STYLE
  2

 70
     1
 40
0.0
 41
1.0
 50
0.0
 71
     0
 42
3.0
  3
genltshp.shx
  4

  0
STYLE
  2
ACANSGDT
 70
     0
 40
0.0
 41
1.0
 50
0.0
 71
     0
 42
3.0
  3
amgdt.shx
  4

  0
ENDTAB
  0
TABLE
  2
VIEW
 70
     0
  0
ENDTAB
  0
TABLE
  2
UCS
 70
     0
  0
ENDTAB
  0
TABLE
  2
APPID
 70
    40
  0
APPID
  2
ACAD
 70
     0
  0
APPID
  2
ACADANNOTATIVE
 70
     0
  0
APPID
  2
GLOBAL
 70
     0
  0
APPID
  2
DETAIL
 70
     0
  0
APPID
  2
GRPNAME
 70
     0
  0
APPID
  2
GPARA
 70
     0
  0
APPID
  2
MCAD_NO_VIS
 70
     0
  0
APPID
  2
ACAD_TEMP_GRAPHIC
 70
     0
  0
APPID
  2
ACATTRIBSERVICES
 70
     0
  0
APPID
  2
GENIUS_GENSCREG_15
 70
     0
  0
APPID
  2
GENIUS_GENODEF_13
 70
     0
  0
APPID
  2
GENIUS_GENOBJ-N-SDF_13
 70
     0
  0
APPID
  2
GENIUS_GENREC_14
 70
     0
  0
APPID
  2
GENIUS_GENOBJ-N-REC_13
 70
     0
  0
APPID
  2
GENIUS_GENDIMSH_14
 70
     0
  0
APPID
  2
GENIUS_GENOBJ-N-DIM_13
 70
     0
  0
APPID
  2
GENIUS_GENDIM_13
 70
     0
  0
APPID
  2
GENIUS_GENDTOL_13
 70
     0
  0
APPID
  2
GENIUS_GENOLIS_13
 70
     0
  0
APPID
  2
GENIUS_GENOENT_13
 70
     0
  0
APPID
  2
GENIUS_GENOBJ-F-FEM_13
 70
     0
  0
APPID
  2
GENIUS_GENOREF_13
 70
     0
  0
APPID
  2
GENIUS_GEFFEM_13
 70
     0
  0
APPID
  2
GENIUS_GEFFEMP_13
 70
     0
  0
APPID
  2
AD_DRAW
 70
     0
  0
APPID
  2
DESIGNERASSEMBLIES
 70
     0
  0
APPID
  2
ACADM_DIM_EDIT
 70
     0
  0
APPID
  2
AMDT_DM_ADJ
 70
     0
  0
APPID
  2
ITEMNAME
 70
     0
  0
APPID
  2
GENIUS_GENOBJ-N-FIL_13
 70
     0
  0
APPID
  2
GENIUS_GENFIL_13
 70
     0
  0
APPID
  2
GENIUS_GENOBJ-N-CHA_13
 70
     0
  0
APPID
  2
ACAECLAYERSTANDARD
 70
     0
  0
APPID
  2
ACAD_NAV_VCDISPLAY
 70
     0
  0
APPID
  2
ACAD_PSEXT
 70
     0
  0
APPID
  2
ACAD_DSTYLE_DIMJAG
 70
     0
  0
APPID
  2
ACAD_DSTYLE_DIMBREAK
 70
     0
  0
APPID
  2
ACAD_DSTYLE_DIMINSPECT
 70
     0
  0
APPID
  2
ACAD_EXEMPT_FROM_CAD_STANDARDS
 70
     0
  0
APPID
  2
ACAD_MLEADERVER
 70
     0
  0
ENDTAB
  0
TABLE
  2
DIMSTYLE
 70
     7
  0
DIMSTYLE
  2
BIGT
 70
     0
  3

  4

  5

  6

  7

 40
1.0
 41
2.2299999999999991
 42
0.5
 43
7.0
 44
1.0
 45
0.0
 46
0.0
 47
0.0
 48
0.01
140
2.799999999999998
141
0.0
142
0.0
143
25.399999999999999
144
1.0
145
0.0
146
1.0
147
1.0
 71
     0
 72
     0
 73
     0
 74
     0
 75
     0
 76
     0
 77
     3
 78
     9
170
     0
171
     2
172
     1
173
     0
174
     1
175
     0
176
   256
177
   256
178
    40
  0
DIMSTYLE
  2
AM_ANSI
 70
     0
  3

  4
mm
  5

  6

  7

 40
1.0
 41
0.12
 42
0.05
 43
0.5
 44
0.1
 45
0.0
 46
0.0
 47
0.1
 48
0.1
140
0.12
141
0.0
142
0.0
143
25.399999999999999
144
1.0
145
0.0
146
0.71
147
0.06
 71
     0
 72
     0
 73
     1
 74
     1
 75
     0
 76
     0
 77
     0
 78
     7
170
     0
171
     2
172
     0
173
     0
174
     0
175
     0
176
   256
177
   256
178
     2
  0
DIMSTYLE
  2
AM_ANSI$3
 70
     0
  3

  4
mm
  5

  6

  7

 40
1.0
 41
0.12
 42
0.05
 43
0.5
 44
0.1
 45
0.0
 46
0.0
 47
0.1
 48
0.1
140
0.12
141
0.0
142
0.0
143
25.399999999999999
144
1.0
145
0.0
146
0.71
147
0.06
 71
     0
 72
     0
 73
     1
 74
     1
 75
     0
 76
     0
 77
     0
 78
     7
170
     0
171
     2
172
     0
173
     0
174
     0
175
     0
176
   256
177
   256
178
     2
  0
DIMSTYLE
  2
AM_ANSI$4
 70
     0
  3

  4
mm
  5

  6

  7

 40
1.0
 41
0.12
 42
0.05
 43
0.5
 44
0.1
 45
0.0
 46
0.0
 47
0.1
 48
0.1
140
0.12
141
0.0
142
0.0
143
25.399999999999999
144
1.0
145
0.0
146
0.71
147
0.06
 71
     0
 72
     0
 73
     1
 74
     1
 75
     0
 76
     0
 77
     0
 78
     7
170
     0
171
     2
172
     0
173
     0
174
     0
175
     0
176
   256
177
   256
178
     2
  0
DIMSTYLE
  2
AM_ANSI$7
 70
     0
  3

  4
mm
  5

  6

  7

 40
1.0
 41
0.12
 42
0.05
 43
0.5
 44
0.1
 45
0.0
 46
0.0
 47
0.1
 48
0.1
140
0.12
141
0.0
142
0.0
143
25.399999999999999
144
1.0
145
0.0
146
0.71
147
0.06
 71
     0
 72
     0
 73
     1
 74
     1
 75
     0
 76
     0
 77
     0
 78
     7
170
     0
171
     2
172
     0
173
     0
174
     0
175
     0
176
   256
177
   256
178
     2
  0
DIMSTYLE
  2
AM_ANSI$SF
 70
     0
  3

  4
mm
  5

  6

  7

 40
1.0
 41
0.12
 42
0.05
 43
0.5
 44
0.1
 45
0.0
 46
0.0
 47
0.1
 48
0.1
140
0.12
141
0.0
142
0.0
143
25.399999999999999
144
1.0
145
0.0
146
0.71
147
0.06
 71
     0
 72
     0
 73
     1
 74
     1
 75
     1
 76
     1
 77
     0
 78
     7
170
     0
171
     2
172
     0
173
     0
174
     0
175
     0
176
   256
177
   256
178
     2
  0
DIMSTYLE
  2
AM_ANSI$SH
 70
     0
  3

  4
mm
  5

  6
GENAXEH
  7

 40
1.0
 41
0.12
 42
0.05
 43
0.5
 44
0.1
 45
0.0
 46
0.0
 47
0.1
 48
0.1
140
0.12
141
0.0
142
0.0
143
25.399999999999999
144
1.0
145
0.0
146
0.71
147
0.06
 71
     0
 72
     0
 73
     1
 74
     1
 75
     1
 76
     1
 77
     0
 78
     7
170
     0
171
     2
172
     0
173
     1
174
     0
175
     0
176
   256
177
   256
178
     2
  0
ENDTAB
  0
ENDSEC
  0
SECTION
  2
BLOCKS
  0
BLOCK
  8
0
  2
$MODEL_SPACE
 70
     0
 10
0.0
 20
0.0
 30
0.0
  3
$MODEL_SPACE
  1

  0
ENDBLK
  5
4721
  8
0
  0
BLOCK
 67
     1
  8
0
  2
$PAPER_SPACE
 70
     0
 10
0.0
 20
0.0
 30
0.0
  3
$PAPER_SPACE
  1

  0
ENDBLK
  5
471D
 67
     1
  8
0
  0
BLOCK
  8
0
  2
_OPEN
 70
     0
 10
0.0
 20
0.0
 30
0.0
  3
_OPEN
  1

  0
LINE
  5
3E1A
  8
0
  6
BYBLOCK
 62
     0
 10
-1.0
 20
0.1666666666666666
 30
0.0
 11
0.0
 21
0.0
 31
0.0
  0
LINE
  5
3E1B
  8
0
  6
BYBLOCK
 62
     0
 10
-1.0
 20
-0.1666666666666666
 30
0.0
 11
0.0
 21
0.0
 31
0.0
  0
LINE
  5
3E1C
  8
0
  6
BYBLOCK
 62
     0
 10
0.0
 20
0.0
 30
0.0
 11
-1.0
 21
0.0
 31
0.0
  0
ENDBLK
  5
3E1D
  8
0
  0
BLOCK
  8
0
  2
GENAXEH
 70
     0
 10
0.0
 20
0.0
 30
0.0
  3
GENAXEH
  1

  0
LINE
  5
4BAE
  8
0
 10
-1.0
 20
0.0
 30
0.0
 11
1.0
 21
0.0
 31
0.0
  0
ENDBLK
  5
4BB0
  8
0
  0
BLOCK
  8
0
  2
_ACMFILLEDHALF
 70
     0
 10
0.0
 20
0.0
 30
0.0
  3
_ACMFILLEDHALF
  1

  0
TRACE
  5
4BC0
  8
241
 62
     0
 10
-0.8
 20
0.0
 30
0.0
 11
-1.0
 21
0.166666666
 31
0.0
 12
0.0
 22
0.0
 32
0.0
 13
0.0
 23
0.0
 33
0.0
  0
LINE
  5
4BC1
  8
241
 62
     0
 10
-1.0
 20
0.0
 30
0.0
 11
-0.8
 21
0.0
 31
0.0
  0
ENDBLK
  5
4BBF
  8
0
  0
BLOCK
  8
0
  2
*U4
 70
     1
 10
0.0
 20
0.0
 30
0.0
  3
*U4
  1

  0
TEXT
  5
4C25
  8
250
 10
41.380000000000003
 20
64.000000000000014
 30
0.0
 40
2.799999999999998
  1
üimax.8.73üj
  0
ENDBLK
  5
4C27
  8
0
  0
BLOCK
  8
0
  2
*U5
 70
     1
 10
0.0
 20
0.0
 30
0.0
  3
*U5
  1

  0
TEXT
  5
4C29
  8
250
 10
76.433333333333337
 20
56.999999999999993
 30
0.0
 40
2.799999999999998
  1
6.496
  0
ENDBLK
  5
4C2B
  8
0
  0
ENDSEC
  0
SECTION
  2
ENTITIES
  0
LINE
  5
42A1
  8
250
  6
CONTINUOUS
 10
-53.781569849999983
 20
-37.791071780000038
 30
0.0
 11
-71.514903180000033
 21
-37.791071780000038
 31
0.0
1001
ITEMNAME
1000
LNSP2
  0
TEXT
  5
42A2
  8
250
  6
CONTINUOUS
 10
-69.248236513333325
 20
-36.791071780000038
 30
0.0
 40
2.799999999999998
  1
BBT50
  7
YOKO
1001
ITEMNAME
1000
LNSP3
  0
LINE
  5
42A3
  8
250
  6
CONTINUOUS
 10
-49.367434494225392
 20
-29.478898401206319
 30
0.0
 11
-48.078759359999992
 21
-27.913514259999999
 31
0.0
  0
LINE
  5
42A4
  8
250
  6
CONTINUOUS
 10
-48.790084224957063
 20
-29.812231734403451
 30
0.0
 11
-48.078759359999992
 21
-27.913514259999999
 31
0.0
  0
LINE
  5
42A5
  8
250
  6
CONTINUOUS
 10
-48.078759359999992
 20
-27.913514259999999
 30
0.0
 11
-49.078759359591217
 21
-29.64556506780491
 31
0.0
  0
LINE
  5
42A6
  8
250
  6
CONTINUOUS
 10
-49.078759359591217
 20
-29.64556506780491
 30
0.0
 11
-53.781569849999983
 21
-37.791071780000038
 31
0.0
1001
ACAD
1000
DSTYLE
1002
{
1070
     6
1000
OPEN
1070
    41
1040
2.0
1070
   343
1005
0
1002
}
  0
LINE
  5
42A7
  8
240
  6
CONTINUOUS
 10
0.0
 20
-34.925000000000011
 30
0.0
 11
-101.8
 21
-20.079166665188438
 31
0.0
  0
LINE
  5
42A8
  8
240
  6
CONTINUOUS
 10
0.0
 20
34.925000000000011
 30
0.0
 11
-101.8
 21
20.079166665188438
 31
0.0
  0
LINE
  5
42A9
  8
245
  6
CENTER2
 10
166.0
 20
0.0
 30
0.0
 11
-102.8
 21
0.0000000000000256
 31
0.0
  0
LINE
  5
42AA
  8
240
  6
CONTINUOUS
 10
-101.8
 20
20.079166665188438
 30
0.0
 11
-101.8
 21
-20.079166665188438
 31
0.0
  0
LINE
  5
42AB
  8
240
  6
CONTINUOUS
 10
38.0
 20
-50.0
 30
0.0
 11
37.99999999999995
 21
-30.36377976841943
 31
0.0
  0
LINE
  5
42AC
  8
241
  6
CONTINUOUS
 10
30.70000000000006
 20
-50.0
 30
0.0
 11
30.70000000000006
 21
50.000000000000071
 31
0.0
  0
LINE
  5
42AD
  8
241
  6
CONTINUOUS
 10
26.369872980000078
 20
-42.5
 30
0.0
 11
26.369872979999968
 21
42.499999999999922
 31
0.0
  0
LINE
  5
42AE
  8
241
  6
CONTINUOUS
 10
20.030127020000009
 20
-42.5
 30
0.0
 11
20.030127020000009
 21
42.499999999999922
 31
0.0
  0
LINE
  5
42AF
  8
241
  6
CONTINUOUS
 10
15.70000000000004
 20
-50.0
 30
0.0
 11
15.70000000000004
 21
50.000000000000071
 31
0.0
  0
LINE
  5
42B0
  8
243
  6
HIDDEN2
 10
34.0
 20
-35.399999999999977
 30
0.0
 11
34.0
 21
-50.0
 31
0.0
  0
LINE
  5
42B1
  8
240
  6
CONTINUOUS
 10
1.5
 20
-50.0
 30
0.0
 11
1.5
 21
-34.925000000000011
 31
0.0
  0
LINE
  5
42B2
  8
240
  6
CONTINUOUS
 10
38.000000000000092
 20
-50.0
 30
0.0
 11
30.70000000000006
 21
-50.0
 31
0.0
  0
LINE
  5
42B3
  8
240
  6
CONTINUOUS
 10
1.5
 20
-50.0
 30
0.0
 11
15.70000000000004
 21
-50.0
 31
0.0
  0
LINE
  5
42B4
  8
240
  6
CONTINUOUS
 10
26.369872980000078
 20
-42.5
 30
0.0
 11
20.030127020000009
 21
-42.5
 31
0.0
  0
LINE
  5
42B5
  8
240
  6
CONTINUOUS
 10
20.030127020000009
 20
-42.5
 30
0.0
 11
15.70000000000004
 21
-50.0
 31
0.0
  0
LINE
  5
42B6
  8
240
  6
CONTINUOUS
 10
26.369872980000078
 20
-42.5
 30
0.0
 11
30.70000000000006
 21
-50.0
 31
0.0
  0
LINE
  5
42B7
  8
241
  6
CONTINUOUS
 10
0.0
 20
-34.925000000000011
 30
0.0
 11
0.0
 21
34.925000000000011
 31
0.0
  0
LINE
  5
42B8
  8
241
  6
CONTINUOUS
 10
1.5
 20
-34.925000000000011
 30
0.0
 11
1.5
 21
34.925000000000011
 31
0.0
  0
LINE
  5
42B9
  8
243
  6
HIDDEN2
 10
1.5
 20
-35.399999999999977
 30
0.0
 11
34.0
 21
-35.399999999999977
 31
0.0
  0
LINE
  5
42BA
  8
240
  6
CONTINUOUS
 10
0.0
 20
-34.925000000000011
 30
0.0
 11
1.5
 21
-34.925000000000011
 31
0.0
  0
LINE
  5
42BB
  8
240
  6
CONTINUOUS
 10
30.70000000000006
 20
50.0
 30
0.0
 11
37.99999999999978
 21
50.0
 31
0.0
  0
LINE
  5
42BC
  8
243
  6
HIDDEN2
 10
34.0
 20
35.399999999999977
 30
0.0
 11
34.0
 21
50.0
 31
0.0
  0
LINE
  5
42BD
  8
240
  6
CONTINUOUS
 10
1.5
 20
50.000000000000071
 30
0.0
 11
1.5
 21
34.925000000000011
 31
0.0
  0
LINE
  5
42BE
  8
243
  6
HIDDEN2
 10
34.0
 20
35.399999999999977
 30
0.0
 11
1.5
 21
35.399999999999977
 31
0.0
  0
LINE
  5
42BF
  8
240
  6
CONTINUOUS
 10
0.0
 20
34.925000000000011
 30
0.0
 11
1.5
 21
34.925000000000011
 31
0.0
  0
LINE
  5
42C0
  8
240
  6
CONTINUOUS
 10
15.70000000000004
 20
50.0
 30
0.0
 11
1.5
 21
50.0
 31
0.0
  0
LINE
  5
42C1
  8
240
  6
CONTINUOUS
 10
26.369872980000078
 20
42.5
 30
0.0
 11
20.030127020000009
 21
42.5
 31
0.0
  0
LINE
  5
42C2
  8
240
  6
CONTINUOUS
 10
20.030127020000009
 20
42.5
 30
0.0
 11
15.70000000000004
 21
50.0
 31
0.0
  0
LINE
  5
42C3
  8
240
  6
CONTINUOUS
 10
26.369872980000078
 20
42.5
 30
0.0
 11
30.70000000000006
 21
50.0
 31
0.0
  0
LINE
  5
42C4
  8
247
  6
CONTINUOUS
 10
10.5
 20
-26.250000000070042
 30
0.0
 11
10.5
 21
-19.557692308030031
 31
0.0
  0
ARC
  5
42C5
  8
247
  6
CONTINUOUS
 10
8.7500000000700311
 20
-26.250000000070042
 30
0.0
 40
1.7499999999299991
 50
180.0
 51
0.0
  0
ARC
  5
42C6
  8
247
  6
CONTINUOUS
 10
8.7500000000700311
 20
-19.557692308030031
 30
0.0
 40
1.7499999999299991
 50
0.0
 51
180.0
  0
LINE
  5
42C7
  8
247
  6
CONTINUOUS
 10
7.0000000001400622
 20
-25.384615384720011
 30
0.0
 11
10.000000000020011
 21
-26.244851541962021
 31
0.0
  0
LINE
  5
42C8
  8
247
  6
CONTINUOUS
 10
8.4230769231600071
 20
-24.48498381833582
 30
0.0
 11
8.4230769231600071
 21
-25.792676125975849
 31
0.0
  0
ARC
  5
42C9
  8
247
  6
CONTINUOUS
 10
7.5495986677029769
 20
-24.145143816089789
 30
0.0
 40
0.5538165441895349
 50
72.99788967529534
 51
172.92416621851359
  0
ARC
  5
42CA
  8
247
  6
CONTINUOUS
 10
7.4360330444658302
 20
-24.566878323028789
 30
0.0
 40
0.9904354236226808
 50
4.7429368522022113
 51
73.849226273266538
1001
GENIUS_GENOBJ-N-FIL_13
1002
{
1000
OWNER
1000
GEN
1002
}
1001
GENIUS_GENODEF_13
1002
{
1000
HIER
1070
     0
1002
}
1002
{
1000
MANEDIT
1070
     0
1002
}
1002
{
1000
NOSEL
1070
     0
1002
}
1002
{
1000
BEHIND
1070
     0
1002
}
1002
{
1000
OTHER
1070
     0
1002
}
1002
{
1000
REACTOR
1002
}
  0
LINE
  5
42CB
  8
247
  6
CONTINUOUS
 10
10.000000000020011
 20
-24.937159234321999
 30
0.0
 11
10.000000000020011
 21
-26.244851541962021
 31
0.0
  0
LINE
  5
42CC
  8
247
  6
CONTINUOUS
 10
7.0000000001400622
 20
-25.384615384720011
 30
0.0
 11
7.0000000001400622
 21
-24.076923077079989
 31
0.0
  0
ARC
  5
42CD
  8
247
  6
CONTINUOUS
 10
8.9820242326655944
 20
-24.560919636546942
 30
0.0
 40
0.5640818586791229
 50
65.990941652528889
 51
172.26344345906909
  0
ARC
  5
42CE
  8
247
  6
CONTINUOUS
 10
8.9874290391866225
 20
-25.038262685347089
 30
0.0
 40
1.0176059446230981
 50
5.7019851642564632
 51
77.277338436822191
1001
GENIUS_GENOBJ-N-FIL_13
1002
{
1000
OWNER
1000
GEN
1002
}
1001
GENIUS_GENODEF_13
1002
{
1000
HIER
1070
     0
1002
}
1002
{
1000
MANEDIT
1070
     0
1002
}
1002
{
1000
NOSEL
1070
     0
1002
}
1002
{
1000
BEHIND
1070
     0
1002
}
1002
{
1000
OTHER
1070
     0
1002
}
1002
{
1000
REACTOR
1002
}
  0
LINE
  5
42CF
  8
247
  6
CONTINUOUS
 10
10.000000000020011
 20
-23.28331308054203
 30
0.0
 11
7.0000000001400622
 21
-22.42307692330002
 31
0.0
  0
LINE
  5
42D0
  8
247
  6
CONTINUOUS
 10
7.0000000001400622
 20
-20.000000000319972
 30
0.0
 11
7.0000000001400622
 21
-20.565736619456569
 31
0.0
  0
LINE
  5
42D1
  8
247
  6
CONTINUOUS
 10
10.000000000020011
 20
-21.461538461799989
 30
0.0
 11
10.000000000020011
 21
-20.846153846440021
 31
0.0
  0
ARC
  5
42D2
  8
247
  6
CONTINUOUS
 10
9.0832851359733677
 20
-19.708791209122861
 30
0.0
 40
2.2526500823422109
 50
202.3594881415259
 51
254.99324854284609
  0
ARC
  5
42D3
  8
247
  6
CONTINUOUS
 10
7.8083126551945261
 20
-20.37406947921323
 30
0.0
 40
0.8906723995727782
 50
94.994589319075374
 51
155.1663289573039
1001
GENIUS_GENOBJ-N-FIL_13
1002
{
1000
OWNER
1000
GEN
1002
}
1001
GENIUS_GENODEF_13
1002
{
1000
HIER
1070
     0
1002
}
1002
{
1000
MANEDIT
1070
     0
1002
}
1002
{
1000
NOSEL
1070
     0
1002
}
1002
{
1000
BEHIND
1070
     0
1002
}
1002
{
1000
OTHER
1070
     0
1002
}
1002
{
1000
REACTOR
1002
}
  0
ARC
  5
42D4
  8
247
  6
CONTINUOUS
 10
8.6601458886677811
 20
-21.22645888621258
 30
0.0
 40
1.392781735586712
 50
15.8460965557808
 51
82.325137004169065
  0
ARC
  5
42D5
  8
247
  6
CONTINUOUS
 10
8.9592434315272822
 20
-20.642212725840348
 30
0.0
 40
1.324563662670287
 50
249.7136016704969
 51
321.78874565640689
1001
GENIUS_GENOBJ-N-FIL_13
1002
{
1000
OWNER
1000
GEN
1002
}
1001
GENIUS_GENODEF_13
1002
{
1000
HIER
1070
     0
1002
}
1002
{
1000
MANEDIT
1070
     0
1002
}
1002
{
1000
NOSEL
1070
     0
1002
}
1002
{
1000
BEHIND
1070
     0
1002
}
1002
{
1000
OTHER
1070
     0
1002
}
1002
{
1000
REACTOR
1002
}
  0
LINE
  5
42D6
  8
247
  6
CONTINUOUS
 10
8.8461538462199751
 20
-20.538461538759979
 30
0.0
 11
8.8461538462199751
 21
-19.846153846479961
 31
0.0
  0
LINE
  5
42D7
  8
247
  6
CONTINUOUS
 10
7.00000000014
 20
-26.250000000070042
 30
0.0
 11
7.00000000014
 21
-25.576923077020069
 31
0.0
  0
LINE
  5
42FD
  8
240
  6
CONTINUOUS
 10
50.465678358671177
 20
15.000000000000121
 30
0.0
 11
137.09999999999931
 21
15.000000000000229
 31
0.0
  0
LINE
  5
42FE
  8
240
  6
CONTINUOUS
 10
137.09999999999931
 20
-15.000000000000201
 30
0.0
 11
50.465678358671141
 21
-15.000000000000171
 31
0.0
  0
LINE
  5
4310
  8
240
  6
CONTINUOUS
 10
37.999999999999851
 20
30.363779768419441
 30
0.0
 11
37.99999999999978
 21
50.0
 31
0.0
  0
LINE
  5
4311
  8
241
  6
CONTINUOUS
 10
38.000000000000021
 20
30.36377976841942
 30
0.0
 11
38.000000000000007
 21
-30.36377976841942
 31
0.0
  0
LINE
  5
433D
  8
240
  6
CONTINUOUS
 10
156.19999999999899
 20
9.8999999999996167
 30
0.0
 11
156.2000000000007
 21
-9.8999999999986965
 31
0.0
  0
LINE
  5
433E
  8
240
  6
CONTINUOUS
 10
154.29474411167189
 20
-11.00000000000025
 30
0.0
 11
143.43094010767231
 21
-10.999999999999901
 31
0.0
  0
LINE
  5
433F
  8
240
  6
CONTINUOUS
 10
137.10000000000011
 20
-11.499999999990701
 30
0.0
 11
142.91132486539729
 21
-11.500000000002069
 31
0.0
  0
LINE
  5
4340
  8
240
  6
CONTINUOUS
 10
137.09999999999931
 20
-15.000000000000201
 30
0.0
 11
137.10000000000011
 21
-11.499999999990701
 31
0.0
  0
LINE
  5
4341
  8
241
  6
CONTINUOUS
 10
141.10000000000039
 20
-11.49999999999835
 30
0.0
 11
141.10000000000369
 21
11.49999999999852
 31
0.0
1001
GRPNAME
1000
PASTMD0T
  0
LINE
  5
4342
  8
241
  6
CONTINUOUS
 10
142.20000000000019
 20
-11.50000000000054
 30
0.0
 11
142.19999999999541
 21
11.50000000000068
 31
0.0
1001
GRPNAME
1000
PASTMD0T
  0
LINE
  5
4343
  8
242
  6
CONTINUOUS
 10
145.1999999999999
 20
-11.00000000000003
 30
0.0
 11
145.19999999996779
 21
10.99999999999997
 31
0.0
  0
LINE
  5
4344
  8
240
  6
CONTINUOUS
 10
143.08452994615851
 20
-11.1999999999999
 30
0.0
 11
142.91132486539729
 21
-11.500000000002069
 31
0.0
  0
ARC
  5
4345
  8
240
  6
CONTINUOUS
 10
143.43094010767231
 20
-11.39999999999989
 30
0.0
 40
0.4
 50
90.0
 51
150.00000000000051
  0
LINE
  5
4346
  8
241
  6
CONTINUOUS
 10
143.19999999999649
 20
-11.07340136762866
 30
0.0
 11
143.19999999999649
 21
11.07340136762893
 31
0.0
  0
LINE
  5
4347
  8
241
  6
CONTINUOUS
 10
142.91132486540269
 20
-11.49999999999136
 30
0.0
 11
142.91132486540761
 21
11.500000000002069
 31
0.0
  0
LINE
  5
4348
  8
242
  6
CONTINUOUS
 10
145.19999999999879
 20
-10.25000000000003
 30
0.0
 11
155.59378221734809
 21
-10.2500000000004
 31
0.0
  0
LINE
  5
4349
  8
240
  6
CONTINUOUS
 10
156.2000000000007
 20
-9.8999999999986965
 30
0.0
 11
154.29474411167189
 21
-11.00000000000025
 31
0.0
  0
LINE
  5
434A
  8
241
  6
CONTINUOUS
 10
154.2947441116734
 20
-10.98171652200088
 30
0.0
 11
154.29474411167351
 21
11.00000000000025
 31
0.0
  0
LINE
  5
434B
  8
241
  6
CONTINUOUS
 10
137.1000001144152
 20
-11.500000280940499
 30
0.0
 11
137.1000001144152
 21
11.499999999990701
 31
0.0
  0
LINE
  5
434C
  8
240
  6
CONTINUOUS
 10
154.29474411167189
 20
11.00000000000025
 30
0.0
 11
143.43094010767231
 21
10.999999999999901
 31
0.0
  0
LINE
  5
434D
  8
240
  6
CONTINUOUS
 10
137.10000000000011
 20
11.499999999990701
 30
0.0
 11
142.91132486539729
 21
11.500000000002069
 31
0.0
  0
LINE
  5
434E
  8
240
  6
CONTINUOUS
 10
137.09999999999931
 20
15.000000000000229
 30
0.0
 11
137.10000000000011
 21
11.499999999990701
 31
0.0
  0
LINE
  5
434F
  8
240
  6
CONTINUOUS
 10
143.08452994615851
 20
11.1999999999999
 30
0.0
 11
142.91132486539729
 21
11.500000000002069
 31
0.0
  0
ARC
  5
4350
  8
240
  6
CONTINUOUS
 10
143.43094010767231
 20
11.39999999999989
 30
0.0
 40
0.4
 50
209.99999999999949
 51
270.0
  0
LINE
  5
4351
  8
242
  6
CONTINUOUS
 10
145.19999999999879
 20
10.25000000000003
 30
0.0
 11
155.59378221734809
 21
10.2500000000004
 31
0.0
  0
LINE
  5
4352
  8
240
  6
CONTINUOUS
 10
156.19999999999899
 20
9.8999999999996167
 30
0.0
 11
154.29474411167189
 21
11.00000000000025
 31
0.0
  0
LINE
  5
4353
  8
246
  6
PHANTOM2
 10
165.0
 20
-15.0
 30
0.0
 11
165.0
 21
15.0
 31
0.0
1001
GRPNAME
1000
PASTMD01
  0
LINE
  5
4354
  8
246
  6
PHANTOM2
 10
165.0
 20
-15.0
 30
0.0
 11
140.0
 21
-14.999999999999909
 31
0.0
  0
LINE
  5
4355
  8
246
  6
PHANTOM2
 10
165.0
 20
15.0
 30
0.0
 11
140.0
 21
15.000000000000069
 31
0.0
  0
LINE
  5
4356
  8
250
  6
CONTINUOUS
 10
165.49999999999989
 20
-15.0
 30
0.0
 11
176.00000000000011
 21
-15.0
 31
0.0
  0
LINE
  5
4357
  8
250
  6
CONTINUOUS
 10
165.5
 20
15.0
 30
0.0
 11
176.00000000000011
 21
15.0
 31
0.0
  0
LINE
  5
4358
  8
250
  6
CONTINUOUS
 10
175.00000000000011
 20
-13.0
 30
0.0
 11
175.00000000000011
 21
13.0
 31
0.0
  0
INSERT
  5
4359
  8
250
  6
CONTINUOUS
  2
_OPEN
 10
175.00000000000011
 20
-15.0
 30
0.0
 41
2.0
 42
2.0
 43
2.0
 50
270.0
  0
INSERT
  5
435A
  8
250
  6
CONTINUOUS
  2
_OPEN
 10
175.00000000000011
 20
15.0
 30
0.0
 41
2.0
 42
2.0
 43
2.0
 50
90.0
  0
TEXT
  5
435B
  8
250
  6
CONTINUOUS
 10
173.74120221012339
 20
-6.7347115469002983
 30
0.0
 40
2.799999999999998
  1
\U+2205
 50
90.0
  0
TEXT
  5
435C
  8
250
  6
CONTINUOUS
 10
173.74120221012339
 20
-4.2013782135669651
 30
0.0
 40
2.799999999999998
  1
1.181
 50
90.0
  0
LINE
  5
435D
  8
243
  6
HIDDEN2
 10
137.69999999999951
 20
5.650016702941369
 30
0.0
 11
156.19999999999919
 21
8.2500221449357696
 31
0.0
  0
LINE
  5
435E
  8
243
  6
HIDDEN2
 10
137.69999999999951
 20
-5.650016702941369
 30
0.0
 11
156.19999999999919
 21
-8.2500221449357696
 31
0.0
  0
TEXT
  5
4365
  8
241
  6
CONTINUOUS
 10
-101.8
 20
77.0
 30
0.0
 40
5.0
  1
BBT50-MEGAER16-165NL
  7
YOKO
 11
-101.8
 21
77.0
 31
0.0
 73
     1
  0
ARC
  5
4A97
  8
240
  6
CONTINUOUS
 10
40.0
 20
-30.36377976841942
 30
0.0
 40
2.0
 50
159.9999999999998
 51
180.0
  0
ARC
  5
4A98
  8
240
  6
CONTINUOUS
 10
50.465678358671148
 20
-25.000000000000131
 30
0.0
 40
10.0
 50
90.0
 51
159.9999999999998
  0
LINE
  5
4A99
  8
240
  6
CONTINUOUS
 10
41.068752150812102
 20
-21.57979856674347
 30
0.0
 11
38.120614758428211
 21
-29.679739481768092
 31
0.0
  0
LINE
  5
4A9D
  8
241
  6
CONTINUOUS
 10
43.463602976574059
 20
-17.86060644428197
 30
0.0
 11
43.463602976574059
 21
17.860606444281999
 31
0.0
  0
ARC
  5
4A9E
  8
240
  6
CONTINUOUS
 10
40.000000000000021
 20
30.363779768419452
 30
0.0
 40
2.0
 50
180.0
 51
200.00000000000011
  0
ARC
  5
4A9F
  8
240
  6
CONTINUOUS
 10
50.465678358671163
 20
25.000000000000149
 30
0.0
 40
10.0
 50
200.00000000000011
 51
270.0
  0
LINE
  5
4AA0
  8
240
  6
CONTINUOUS
 10
41.068752150812109
 20
21.579798566743492
 30
0.0
 11
38.120614758428211
 21
29.679739481768099
 31
0.0
  0
LINE
  5
4ABF
  8
250
  6
CONTINUOUS
 10
-56.800000000000011
 20
13.5
 30
0.0
 11
-56.800000000000011
 21
64.0
 31
0.0
  0
LINE
  5
4AC0
  8
250
  6
CONTINUOUS
 10
165.0
 20
15.5
 30
0.0
 11
165.0
 21
64.0
 31
0.0
  0
LINE
  5
4AC1
  8
250
  6
CONTINUOUS
 10
-54.800000000000011
 20
63.0
 30
0.0
 11
163.0
 21
63.0
 31
0.0
  0
INSERT
  5
4AC2
  8
250
  6
CONTINUOUS
  2
_OPEN
 10
-56.800000000000011
 20
63.0
 30
0.0
 41
2.0
 42
2.0
 43
2.0
 50
180.0
  0
INSERT
  5
4AC3
  8
250
  6
CONTINUOUS
  2
_OPEN
 10
165.0
 20
63.0
 30
0.0
 41
2.0
 42
2.0
 43
2.0
  0
INSERT
  5
4AC4
  8
241
  2
*U4
 10
0.0
 20
0.0
 30
0.0
  0
LINE
  5
4AC5
  8
250
  6
CONTINUOUS
 10
0.0
 20
35.425000000000011
 30
0.0
 11
0.0000000000000014
 21
57.0
 31
0.0
  0
LINE
  5
4AC6
  8
250
  6
CONTINUOUS
 10
165.0
 20
15.5
 30
0.0
 11
165.0
 21
57.0
 31
0.0
  0
LINE
  5
4AC7
  8
250
  6
CONTINUOUS
 10
2.0
 20
56.0
 30
0.0
 11
163.0
 21
56.0
 31
0.0
  0
INSERT
  5
4AC8
  8
250
  6
CONTINUOUS
  2
_OPEN
 10
0.0000000000000013
 20
56.0
 30
0.0
 41
2.0
 42
2.0
 43
2.0
 50
180.0
  0
INSERT
  5
4AC9
  8
250
  6
CONTINUOUS
  2
_OPEN
 10
165.0
 20
56.0
 30
0.0
 41
2.0
 42
2.0
 43
2.0
  0
INSERT
  5
4ACA
  8
241
  2
*U5
 10
0.0
 20
0.0
 30
0.0
  0
VIEWPORT
  5
22
 67
     1
  8
0
 10
261.51769911504419
 20
148.5
 30
0.0
 40
523.0353982300885
 41
297.0
 68
     1
 69
     1
1001
ACAD
1000
MVIEW
1002
{
1070
    16
1010
0.0
1020
0.0
1030
0.0
1010
0.0
1020
0.0
1030
1.0
1040
0.0
1040
297.0
1040
261.51769911504419
1040
148.5
1040
50.0
1040
0.0
1040
0.0
1070
     0
1070
   100
1070
     1
1070
     1
1070
     0
1070
     0
1070
     0
1070
     0
1040
0.0
1040
0.0
1040
0.0
1040
1.0
1040
1.0
1040
10.0
1040
10.0
1070
     0
1002
{
1002
}
1002
}
1001
GENIUS_GENODEF_13
1002
{
1000
HIER
1070
     0
1002
}
1002
{
1000
MANEDIT
1070
     0
1002
}
1002
{
1000
NOSEL
1070
     0
1002
}
1002
{
1000
BEHIND
1070
     0
1002
}
1002
{
1000
OTHER
1070
     0
1002
}
1002
{
1000
REACTOR
1002
}
1001
GENIUS_GENOBJ-N-SDF_13
1002
{
1000
OWNER
1000
GEN
1002
}
1001
GENIUS_GENSCREG_15
1000
PF
1040
1.0
1000
DF
1040
1.0
1000
MIN
1011
0.0
1021
0.0
1031
0.0
1021
0.0
1031
0.0
1000
MAX
1011
523.0353982300885
1021
0.0
1031
0.0
1021
297.0
1031
0.0
1000
FLAGS
1070
     4
  0
ENDSEC
  0
EOF
