  0
SECTION
  2
HEADER
  9
$ACADVER
  1
AC1009
  9
$INSBASE
 10
0.0
 20
0.0
 30
0.0
  9
$EXTMIN
 10
-102.8
 20
-50.0
 30
0.0
  9
$EXTMAX
 10
141.30000000000001
 20
89.0
 30
0.0
  9
$LIMMIN
 10
0.0
 20
0.0
  9
$LIMMAX
 10
297.0
 20
210.0
  9
$ORTHOMODE
 70
     0
  9
$REGENMODE
 70
     1
  9
$FILLMODE
 70
     1
  9
$QTEXTMODE
 70
     0
  9
$MIRRTEXT
 70
     1
  9
$DRAGMODE
 70
     2
  9
$LTSCALE
 40
10.0
  9
$OSMODE
 70
    37
  9
$ATTMODE
 70
     1
  9
$TEXTSIZE
 40
3.0
  9
$TRACEWID
 40
1.0
  9
$TEXTSTYLE
  7
YOKO
  9
$CLAYER
  8
240
  9
$CELTYPE
  6
BYLAYER
  9
$CECOLOR
 62
   256
  9
$DIMSCALE
 40
1.0
  9
$DIMASZ
 40
2.2299999999999991
  9
$DIMEXO
 40
0.5
  9
$DIMDLI
 40
7.0
  9
$DIMRND
 40
0.0
  9
$DIMDLE
 40
0.0
  9
$DIMEXE
 40
1.0
  9
$DIMTP
 40
0.0
  9
$DIMTM
 40
0.01
  9
$DIMTXT
 40
2.7999999999999989
  9
$DIMCEN
 40
0.0
  9
$DIMTSZ
 40
0.0
  9
$DIMTOL
 70
     0
  9
$DIMLIM
 70
     0
  9
$DIMTIH
 70
     0
  9
$DIMTOH
 70
     0
  9
$DIMSE1
 70
     0
  9
$DIMSE2
 70
     0
  9
$DIMTAD
 70
     3
  9
$DIMZIN
 70
     9
  9
$DIMBLK
  1
OPEN
  9
$DIMASO
 70
     1
  9
$DIMSHO
 70
     1
  9
$DIMPOST
  1

  9
$DIMAPOST
  1

  9
$DIMALT
 70
     0
  9
$DIMALTD
 70
     2
  9
$DIMALTF
 40
25.399999999999999
  9
$DIMLFAC
 40
1.0
  9
$DIMTOFL
 70
     1
  9
$DIMTVP
 40
0.0
  9
$DIMTIX
 70
     1
  9
$DIMSOXD
 70
     0
  9
$DIMSAH
 70
     0
  9
$DIMBLK1
  1

  9
$DIMBLK2
  1

  9
$DIMSTYLE
  2
BIGT
  9
$DIMCLRD
 70
   256
  9
$DIMCLRE
 70
   256
  9
$DIMCLRT
 70
    40
  9
$DIMTFAC
 40
1.0
  9
$DIMGAP
 40
1.0
  9
$LUNITS
 70
     2
  9
$LUPREC
 70
     6
  9
$SKETCHINC
 40
1.0
  9
$FILLETRAD
 40
0.0
  9
$AUNITS
 70
     0
  9
$AUPREC
 70
     6
  9
$MENU
  1
.
  9
$ELEVATION
 40
0.0
  9
$PELEVATION
 40
0.0
  9
$THICKNESS
 40
0.0
  9
$LIMCHECK
 70
     0
  9
$BLIPMODE
 70
     0
  9
$CHAMFERA
 40
0.2
  9
$CHAMFERB
 40
0.2
  9
$SKPOLY
 70
     0
  9
$TDCREATE
 40
2458136.7108004512
  9
$TDUPDATE
 40
2458138.6114626741
  9
$TDINDWG
 40
0.0057291088
  9
$TDUSRTIMER
 40
0.0057290856
  9
$USRTIMER
 70
     1
  9
$ANGBASE
 50
0.0
  9
$ANGDIR
 70
     0
  9
$PDMODE
 70
     1
  9
$PDSIZE
 40
0.0
  9
$PLINEWID
 40
0.0
  9
$COORDS
 70
     1
  9
$SPLFRAME
 70
     0
  9
$SPLINETYPE
 70
     6
  9
$SPLINESEGS
 70
     4
  9
$ATTDIA
 70
     1
  9
$ATTREQ
 70
     1
  9
$HANDLING
 70
     1
  9
$HANDSEED
  5
4527
  9
$SURFTAB1
 70
     6
  9
$SURFTAB2
 70
     6
  9
$SURFTYPE
 70
     6
  9
$SURFU
 70
     6
  9
$SURFV
 70
     6
  9
$UCSNAME
  2

  9
$UCSORG
 10
0.0
 20
0.0
 30
0.0
  9
$UCSXDIR
 10
1.0
 20
0.0
 30
0.0
  9
$UCSYDIR
 10
0.0
 20
1.0
 30
0.0
  9
$PUCSNAME
  2

  9
$PUCSORG
 10
0.0
 20
0.0
 30
0.0
  9
$PUCSXDIR
 10
1.0
 20
0.0
 30
0.0
  9
$PUCSYDIR
 10
0.0
 20
1.0
 30
0.0
  9
$USERI1
 70
     1
  9
$USERI2
 70
     0
  9
$USERI3
 70
     0
  9
$USERI4
 70
     0
  9
$USERI5
 70
     0
  9
$USERR1
 40
0.0
  9
$USERR2
 40
0.0
  9
$USERR3
 40
0.0
  9
$USERR4
 40
0.0
  9
$USERR5
 40
0.0
  9
$WORLDVIEW
 70
     1
  9
$SHADEDGE
 70
     3
  9
$SHADEDIF
 70
    70
  9
$TILEMODE
 70
     1
  9
$MAXACTVP
 70
    16
  9
$PLIMCHECK
 70
     0
  9
$PEXTMIN
 10
1.0000000000000000E+020
 20
1.0000000000000000E+020
 30
1.0000000000000000E+020
  9
$PEXTMAX
 10
-1.0000000000000000E+020
 20
-1.0000000000000000E+020
 30
-1.0000000000000000E+020
  9
$PLIMMIN
 10
0.0
 20
0.0
  9
$PLIMMAX
 10
420.0
 20
297.0
  9
$UNITMODE
 70
     0
  9
$VISRETAIN
 70
     1
  9
$PLINEGEN
 70
     0
  9
$PSLTSCALE
 70
     1
  0
ENDSEC
  0
SECTION
  2
TABLES
  0
TABLE
  2
VPORT
 70
     1
  0
VPORT
  2
*ACTIVE
 70
     0
 10
0.0
 20
0.0
 11
1.0
 21
1.0
 12
29.03900191291126
 22
16.622881404430501
 13
0.0
 23
0.0
 14
7.0
 24
7.0
 15
7.0
 25
7.0
 16
0.0
 26
0.0
 36
1.0
 17
0.0
 27
0.0
 37
0.0
 40
189.9049817222097
 41
1.4533622559652919
 42
50.0
 43
0.0
 44
0.0
 50
0.0
 51
0.0
 71
     0
 72
  2000
 73
     1
 74
     0
 75
     0
 76
     1
 77
     0
 78
     0
  0
ENDTAB
  0
TABLE
  2
LTYPE
 70
    21
  0
LTYPE
  2
CONTINUOUS
 70
     0
  3
Solid line
 72
    65
 73
     0
 40
0.0
  0
LTYPE
  2
CENTER2
 70
     0
  3
___ _ ___ _ ___ _ ___ _ ___ _ ___ _ ___ _ ___ _
 72
    65
 73
     4
 40
1.125
 49
0.75
 49
-0.125
 49
0.125
 49
-0.125
  0
LTYPE
  2
HIDDEN2
 70
     0
  3
_ _ _ _ _ _ _ _ _ _ _ _ _ _ _ _ _ _ _ _ _ _ _ _
 72
    65
 73
     2
 40
0.1875
 49
0.125
 49
-0.0625
  0
LTYPE
  2
AM_ISO02W050
 70
     0
  3
__ __ __ __ __ __ __ __ __ __ __ __ __ __ __
 72
    65
 73
     2
 40
7.5
 49
6.0
 49
-1.5
  0
LTYPE
  2
AMCONSTR
 70
     0
  3
_______________________
 72
    65
 73
     2
 40
9999.0
 49
9999.0
 49
0.0
  0
LTYPE
  2
ACISOWELD
 70
     0
  3
_ _ _ _ _
 72
    65
 73
     2
 40
2.0
 49
2.0
 49
-1.0
  0
LTYPE
  2
ACISOTGB
 70
     0
  3
__ . . __ . .
 72
    65
 73
     6
 40
9.0
 49
4.0
 49
-1.0
 49
1.0
 49
-1.0
 49
1.0
 49
-1.0
  0
LTYPE
  2
ACISOTGL
 70
     0
  3
_ _ _ _ _
 72
    65
 73
     2
 40
3.0
 49
2.0
 49
-1.0
  0
LTYPE
  2
AM_ISO08W050
 70
     0
  3
____ . ____ . ____ . ____ . ____ . ____ . ____
 72
    65
 73
     4
 40
18.0
 49
12.0
 49
-1.5
 49
3.0
 49
-1.5
  0
LTYPE
  2
AM_ISO09W050
 70
     0
  3
_____ . . _____ . . _____ . . ____ .. ____
 72
    65
 73
     6
 40
22.5
 49
12.0
 49
-1.5
 49
3.0
 49
-1.5
 49
3.0
 49
-1.5
  0
LTYPE
  2
AM_ISO08W050X2
 70
     0
  3
__ . __ . __ . __ . __ . __
 72
    65
 73
     4
 40
9.0
 49
6.0
 49
-0.75
 49
1.5
 49
-0.75
  0
LTYPE
  2
AM_ISO02W050X2
 70
     0
  3
 _ _ _ _ _ _ _ _ _ _ _ _
 72
    65
 73
     2
 40
3.75
 49
3.0
 49
-0.75
  0
LTYPE
  2
AMZIGZAG
 70
     0
  3
/\/-/\/-/\/-/\/-/\/-/\/
 72
    65
 73
     2
 40
11.0001
 49
0.0001
 49
-11.0
  0
ENDTAB
  0
TABLE
  2
LAYER
 70
     8
  0
LAYER
  2
0
 70
     0
 62
     7
  6
CONTINUOUS
  0
LAYER
  2
DEFPOINTS
 70
     0
 62
     7
  6
CONTINUOUS
  0
LAYER
  2
245
 70
     0
 62
     2
  6
CENTER2
  0
LAYER
  2
240
 70
     0
 62
     4
  6
CONTINUOUS
  0
LAYER
  2
241
 70
     0
 62
   211
  6
CONTINUOUS
  0
LAYER
  2
243
 70
     0
 62
   211
  6
HIDDEN2
  0
LAYER
  2
247
 70
     0
 62
    60
  6
CONTINUOUS
  0
LAYER
  2
250
 70
     0
 62
     3
  6
CONTINUOUS
  0
ENDTAB
  0
TABLE
  2
STYLE
 70
     8
  0
STYLE
  2
STANDARD
 70
     0
 40
0.0
 41
1.0
 50
0.0
 71
     0
 42
3.0
  3
romans.shx
  4
extfont.shx
  0
STYLE
  2
ACISOGDT
 70
     0
 40
0.0
 41
1.0
 50
0.0
 71
     0
 42
3.0
  3
amgdt.shx
  4
extfont.shx
  0
STYLE
  2
YOKO
 70
     0
 40
0.0
 41
1.0
 50
0.0
 71
     0
 42
3.0
  3
romans.shx
  4
extfont.shx
  0
STYLE
  2

 70
     1
 40
0.0
 41
1.0
 50
0.0
 71
     0
 42
3.0
  3
genltshp.shx
  4

  0
ENDTAB
  0
TABLE
  2
VIEW
 70
     0
  0
ENDTAB
  0
TABLE
  2
UCS
 70
     0
  0
ENDTAB
  0
TABLE
  2
APPID
 70
    43
  0
APPID
  2
ACAD
 70
     0
  0
APPID
  2
GLOBAL
 70
     0
  0
APPID
  2
DETAIL
 70
     0
  0
APPID
  2
GRPNAME
 70
     0
  0
APPID
  2
GPARA
 70
     0
  0
APPID
  2
MCAD_NO_VIS
 70
     0
  0
APPID
  2
ACAD_TEMP_GRAPHIC
 70
     0
  0
APPID
  2
ACATTRIBSERVICES
 70
     0
  0
APPID
  2
GENIUS_GENSCREG_15
 70
     0
  0
APPID
  2
GENIUS_GENODEF_13
 70
     0
  0
APPID
  2
GENIUS_GENOBJ-N-SDF_13
 70
     0
  0
APPID
  2
GENIUS_GENREC_14
 70
     0
  0
APPID
  2
GENIUS_GENOBJ-N-REC_13
 70
     0
  0
APPID
  2
GENIUS_GENDIMSH_14
 70
     0
  0
APPID
  2
GENIUS_GENOBJ-N-DIM_13
 70
     0
  0
APPID
  2
GENIUS_GENDIM_13
 70
     0
  0
APPID
  2
GENIUS_GENDTOL_13
 70
     0
  0
APPID
  2
GENIUS_GENOLIS_13
 70
     0
  0
APPID
  2
GENIUS_GENOENT_13
 70
     0
  0
APPID
  2
GENIUS_GENOBJ-F-FEM_13
 70
     0
  0
APPID
  2
GENIUS_GENOREF_13
 70
     0
  0
APPID
  2
GENIUS_GEFFEM_13
 70
     0
  0
APPID
  2
GENIUS_GEFFEMP_13
 70
     0
  0
APPID
  2
AD_DRAW
 70
     0
  0
APPID
  2
DESIGNERASSEMBLIES
 70
     0
  0
APPID
  2
ACADM_DIM_EDIT
 70
     0
  0
APPID
  2
AMDT_DM_ADJ
 70
     0
  0
APPID
  2
ITEMNAME
 70
     0
  0
APPID
  2
GENIUS_GENOBJ-N-FIL_13
 70
     0
  0
APPID
  2
GENIUS_GENFIL_13
 70
     0
  0
APPID
  2
GENIUS_GENOBJ-N-CHA_13
 70
     0
  0
APPID
  2
ACAECLAYERSTANDARD
 70
     0
  0
APPID
  2
ACAD_NAV_VCDISPLAY
 70
     0
  0
APPID
  2
ACAD_DSTYLE_DIMJAG
 70
     0
  0
APPID
  2
ACAD_DSTYLE_DIMBREAK
 70
     0
  0
APPID
  2
ACAD_PSEXT
 70
     0
  0
APPID
  2
ACAD_DSTYLE_DIMINSPECT
 70
     0
  0
APPID
  2
ACAD_EXEMPT_FROM_CAD_STANDARDS
 70
     0
  0
APPID
  2
ACAD_MLEADERVER
 70
     0
  0
APPID
  2
ACAD_DSTYLE_DIMARC_LENGTH_
 70
     0
  0
APPID
  2
ACAD_DSTYLE_DIM_LINETYPE
 70
     0
  0
APPID
  2
ACAD_DSTYLE_DIM_EXT1_LINETYPE
 70
     0
  0
APPID
  2
ACAD_DSTYLE_DIM_EXT2_LINETYPE
 70
     0
  0
ENDTAB
  0
TABLE
  2
DIMSTYLE
 70
    29
  0
DIMSTYLE
  2
BIGT
 70
     0
  3

  4

  5
OPEN
  6

  7

 40
1.0
 41
2.2299999999999991
 42
0.5
 43
7.0
 44
1.0
 45
0.0
 46
0.0
 47
0.0
 48
0.01
140
2.7999999999999989
141
0.0
142
0.0
143
25.399999999999999
144
1.0
145
0.0
146
1.0
147
1.0
 71
     0
 72
     0
 73
     0
 74
     0
 75
     0
 76
     0
 77
     3
 78
     9
170
     0
171
     2
172
     1
173
     0
174
     1
175
     0
176
   256
177
   256
178
    40
  0
DIMSTYLE
  2
AM_ISO
 70
     0
  3

  4
"
  5

  6

  7

 40
1.0
 41
2.5
 42
1.0
 43
10.0
 44
1.0
 45
0.0
 46
0.0
 47
0.1
 48
0.1
140
3.5
141
0.0
142
0.0
143
0.0393701
144
1.0
145
0.0
146
0.71
147
1.5
 71
     0
 72
     0
 73
     0
 74
     0
 75
     0
 76
     0
 77
     1
 78
     8
170
     0
171
     2
172
     1
173
     0
174
     0
175
     0
176
   256
177
   256
178
     2
  0
DIMSTYLE
  2
AM_ISO$3
 70
     0
  3

  4
"
  5

  6

  7

 40
1.0
 41
2.5
 42
1.0
 43
10.0
 44
1.0
 45
0.0
 46
0.0
 47
0.1
 48
0.1
140
3.5
141
0.0
142
0.0
143
0.0393701
144
1.0
145
0.0
146
0.71
147
1.5
 71
     0
 72
     0
 73
     0
 74
     1
 75
     0
 76
     0
 77
     1
 78
     8
170
     0
171
     2
172
     0
173
     0
174
     0
175
     0
176
   256
177
   256
178
     2
  0
DIMSTYLE
  2
AM_ISO$4
 70
     0
  3

  4
"
  5

  6

  7

 40
1.0
 41
2.5
 42
1.0
 43
10.0
 44
1.0
 45
0.0
 46
0.0
 47
0.1
 48
0.1
140
3.5
141
0.0
142
0.0
143
0.0393701
144
1.0
145
0.0
146
0.71
147
1.5
 71
     0
 72
     0
 73
     0
 74
     1
 75
     0
 76
     0
 77
     1
 78
     8
170
     0
171
     2
172
     0
173
     0
174
     0
175
     0
176
   256
177
   256
178
     2
  0
DIMSTYLE
  2
AM_ISO$6
 70
     0
  3

  4
"
  5

  6

  7

 40
1.0
 41
2.5
 42
1.0
 43
10.0
 44
1.0
 45
0.0
 46
0.0
 47
0.1
 48
0.1
140
3.5
141
0.0
142
0.0
143
0.0393701
144
1.0
145
0.0
146
0.71
147
1.5
 71
     0
 72
     0
 73
     0
 74
     0
 75
     0
 76
     0
 77
     0
 78
     8
170
     0
171
     2
172
     1
173
     0
174
     0
175
     0
176
   256
177
   256
178
     2
  0
DIMSTYLE
  2
AM_ISO$7
 70
     0
  3

  4
"
  5

  6

  7

 40
1.0
 41
2.5
 42
1.0
 43
10.0
 44
1.0
 45
0.0
 46
0.0
 47
0.1
 48
0.1
140
5.0
141
0.0
142
0.0
143
0.0393701
144
1.0
145
0.0
146
0.71
147
1.5
 71
     0
 72
     0
 73
     0
 74
     0
 75
     0
 76
     0
 77
     1
 78
     8
170
     0
171
     2
172
     1
173
     0
174
     0
175
     0
176
   256
177
   256
178
     2
  0
DIMSTYLE
  2
AM_ISO$SF
 70
     0
  3

  4
"
  5

  6

  7

 40
1.0
 41
2.5
 42
1.0
 43
10.0
 44
1.0
 45
0.0
 46
0.0
 47
0.1
 48
0.1
140
3.5
141
0.0
142
0.0
143
0.0393701
144
1.0
145
0.0
146
0.71
147
1.5
 71
     0
 72
     0
 73
     0
 74
     0
 75
     1
 76
     1
 77
     1
 78
     8
170
     0
171
     2
172
     1
173
     0
174
     0
175
     0
176
   256
177
   256
178
     2
  0
DIMSTYLE
  2
AM_ISO$SH
 70
     0
  3

  4
"
  5

  6
GENAXEH
  7

 40
1.0
 41
2.5
 42
1.0
 43
10.0
 44
1.0
 45
0.0
 46
0.0
 47
0.1
 48
0.1
140
3.5
141
0.0
142
0.0
143
0.0393701
144
2.0
145
0.0
146
0.71
147
1.5
 71
     0
 72
     0
 73
     0
 74
     0
 75
     1
 76
     1
 77
     1
 78
     8
170
     0
171
     2
172
     1
173
     1
174
     0
175
     0
176
   256
177
   256
178
     2
  0
ENDTAB
  0
ENDSEC
  0
SECTION
  2
BLOCKS
  0
BLOCK
  8
0
  2
$MODEL_SPACE
 70
     0
 10
0.0
 20
0.0
 30
0.0
  3
$MODEL_SPACE
  1

  0
ENDBLK
  5
1C
  8
0
  0
BLOCK
 67
     1
  8
0
  2
$PAPER_SPACE
 70
     0
 10
0.0
 20
0.0
 30
0.0
  3
$PAPER_SPACE
  1

  0
ENDBLK
  5
19
 67
     1
  8
0
  0
BLOCK
  8
0
  2
_OPEN
 70
     0
 10
0.0
 20
0.0
 30
0.0
  3
_OPEN
  1

  0
LINE
  5
3E1A
  8
0
  6
BYBLOCK
 62
     0
 10
-1.0
 20
0.1666666666666666
 30
0.0
 11
0.0
 21
0.0
 31
0.0
  0
LINE
  5
3E1B
  8
0
  6
BYBLOCK
 62
     0
 10
-1.0
 20
-0.1666666666666666
 30
0.0
 11
0.0
 21
0.0
 31
0.0
  0
LINE
  5
3E1C
  8
0
  6
BYBLOCK
 62
     0
 10
0.0
 20
0.0
 30
0.0
 11
-1.0
 21
0.0
 31
0.0
  0
ENDBLK
  5
3E1D
  8
0
  0
BLOCK
  8
0
  2
GENAXEH
 70
     0
 10
0.0
 20
0.0
 30
0.0
  3
GENAXEH
  1

  0
LINE
  5
3E45
  8
0
 10
-1.0
 20
0.0
 30
0.0
 11
1.0
 21
0.0
 31
0.0
  0
ENDBLK
  5
3E46
  8
0
  0
ENDSEC
  0
SECTION
  2
ENTITIES
  0
LINE
  5
42F3
  8
250
  6
CONTINUOUS
 10
-53.781569849999983
 20
-37.791071780000038
 30
0.0
 11
-71.514903180000033
 21
-37.791071780000038
 31
0.0
1001
ITEMNAME
1000
LNSP2
  0
TEXT
  5
42F4
  8
250
  6
CONTINUOUS
 10
-69.248236513333325
 20
-36.791071780000038
 30
0.0
 40
2.799999999999998
  1
BBT50
  7
YOKO
1001
ITEMNAME
1000
LNSP3
  0
LINE
  5
42F5
  8
250
  6
CONTINUOUS
 10
-49.367434494225392
 20
-29.478898401206319
 30
0.0
 11
-48.078759359999992
 21
-27.913514259999999
 31
0.0
  0
LINE
  5
42F6
  8
250
  6
CONTINUOUS
 10
-48.790084224957063
 20
-29.812231734403451
 30
0.0
 11
-48.078759359999992
 21
-27.913514259999999
 31
0.0
  0
LINE
  5
42F7
  8
250
  6
CONTINUOUS
 10
-48.078759359999992
 20
-27.913514259999999
 30
0.0
 11
-49.078759359591217
 21
-29.64556506780491
 31
0.0
  0
LINE
  5
42F8
  8
250
  6
CONTINUOUS
 10
-49.078759359591217
 20
-29.64556506780491
 30
0.0
 11
-53.781569849999983
 21
-37.791071780000038
 31
0.0
1001
ACAD
1000
DSTYLE
1002
{
1070
     6
1000
OPEN
1070
    41
1040
2.0
1070
   343
1005
0
1002
}
  0
LINE
  5
42F9
  8
240
  6
CONTINUOUS
 10
0.0
 20
-34.925000000000011
 30
0.0
 11
-101.8
 21
-20.079166665188438
 31
0.0
  0
LINE
  5
42FA
  8
240
  6
CONTINUOUS
 10
0.0
 20
34.925000000000011
 30
0.0
 11
-101.8
 21
20.079166665188438
 31
0.0
  0
LINE
  5
42FB
  8
245
  6
CENTER2
 10
-102.8
 20
0.0
 30
0.0
 11
119.0
 21
0.0
 31
0.0
  0
LINE
  5
42FC
  8
240
  6
CONTINUOUS
 10
-101.8
 20
20.079166665188438
 30
0.0
 11
-101.8
 21
-20.079166665188438
 31
0.0
  0
LINE
  5
42FD
  8
241
  6
CONTINUOUS
 10
38.0
 20
-49.850000000000811
 30
0.0
 11
37.99999999999978
 21
49.850000000000918
 31
0.0
  0
LINE
  5
42FE
  8
241
  6
CONTINUOUS
 10
30.70000000000006
 20
-50.0
 30
0.0
 11
30.70000000000006
 21
50.000000000000071
 31
0.0
  0
LINE
  5
42FF
  8
241
  6
CONTINUOUS
 10
26.369872980000078
 20
-42.5
 30
0.0
 11
26.369872979999968
 21
42.499999999999922
 31
0.0
  0
LINE
  5
4300
  8
241
  6
CONTINUOUS
 10
20.030127020000009
 20
-42.5
 30
0.0
 11
20.030127020000009
 21
42.499999999999922
 31
0.0
  0
LINE
  5
4301
  8
241
  6
CONTINUOUS
 10
15.70000000000004
 20
-50.0
 30
0.0
 11
15.70000000000004
 21
50.000000000000071
 31
0.0
  0
LINE
  5
4302
  8
243
  6
HIDDEN2
 10
34.0
 20
-35.399999999999977
 30
0.0
 11
34.0
 21
-50.0
 31
0.0
  0
LINE
  5
4303
  8
240
  6
CONTINUOUS
 10
1.5
 20
-50.0
 30
0.0
 11
1.5
 21
-34.925000000000011
 31
0.0
  0
LINE
  5
4304
  8
240
  6
CONTINUOUS
 10
37.740192378865508
 20
-50.0
 30
0.0
 11
30.70000000000006
 21
-50.0
 31
0.0
  0
LINE
  5
4305
  8
240
  6
CONTINUOUS
 10
1.5
 20
-50.0
 30
0.0
 11
15.70000000000004
 21
-50.0
 31
0.0
  0
LINE
  5
4306
  8
240
  6
CONTINUOUS
 10
26.369872980000078
 20
-42.5
 30
0.0
 11
20.030127020000009
 21
-42.5
 31
0.0
  0
LINE
  5
4307
  8
240
  6
CONTINUOUS
 10
20.030127020000009
 20
-42.5
 30
0.0
 11
15.70000000000004
 21
-50.0
 31
0.0
  0
LINE
  5
4308
  8
240
  6
CONTINUOUS
 10
26.369872980000078
 20
-42.5
 30
0.0
 11
30.70000000000006
 21
-50.0
 31
0.0
  0
LINE
  5
4309
  8
241
  6
CONTINUOUS
 10
0.0
 20
-34.925000000000011
 30
0.0
 11
0.0
 21
34.925000000000011
 31
0.0
  0
LINE
  5
430A
  8
241
  6
CONTINUOUS
 10
1.5
 20
-34.925000000000011
 30
0.0
 11
1.5
 21
34.925000000000011
 31
0.0
  0
LINE
  5
430B
  8
243
  6
HIDDEN2
 10
1.5
 20
-35.399999999999977
 30
0.0
 11
34.0
 21
-35.399999999999977
 31
0.0
  0
LINE
  5
430C
  8
240
  6
CONTINUOUS
 10
0.0
 20
-34.925000000000011
 30
0.0
 11
1.5
 21
-34.925000000000011
 31
0.0
  0
LINE
  5
430D
  8
240
  6
CONTINUOUS
 10
30.70000000000006
 20
50.0
 30
0.0
 11
37.740192378865508
 21
50.0
 31
0.0
  0
LINE
  5
430E
  8
243
  6
HIDDEN2
 10
34.0
 20
35.399999999999977
 30
0.0
 11
34.0
 21
50.0
 31
0.0
  0
LINE
  5
430F
  8
240
  6
CONTINUOUS
 10
1.5
 20
50.000000000000071
 30
0.0
 11
1.5
 21
34.925000000000011
 31
0.0
  0
LINE
  5
4310
  8
243
  6
HIDDEN2
 10
34.0
 20
35.399999999999977
 30
0.0
 11
1.5
 21
35.399999999999977
 31
0.0
  0
LINE
  5
4311
  8
240
  6
CONTINUOUS
 10
0.0
 20
34.925000000000011
 30
0.0
 11
1.5
 21
34.925000000000011
 31
0.0
  0
LINE
  5
4312
  8
240
  6
CONTINUOUS
 10
15.70000000000004
 20
50.0
 30
0.0
 11
1.5
 21
50.0
 31
0.0
  0
LINE
  5
4313
  8
240
  6
CONTINUOUS
 10
26.369872980000078
 20
42.5
 30
0.0
 11
20.030127020000009
 21
42.5
 31
0.0
  0
LINE
  5
4314
  8
240
  6
CONTINUOUS
 10
20.030127020000009
 20
42.5
 30
0.0
 11
15.70000000000004
 21
50.0
 31
0.0
  0
LINE
  5
4315
  8
240
  6
CONTINUOUS
 10
26.369872980000078
 20
42.5
 30
0.0
 11
30.70000000000006
 21
50.0
 31
0.0
  0
LINE
  5
4316
  8
247
  6
CONTINUOUS
 10
10.5
 20
-26.250000000070042
 30
0.0
 11
10.5
 21
-19.557692308030031
 31
0.0
  0
ARC
  5
4317
  8
247
  6
CONTINUOUS
 10
8.7500000000700311
 20
-26.250000000070042
 30
0.0
 40
1.7499999999299991
 50
180.0
 51
0.0
  0
ARC
  5
4318
  8
247
  6
CONTINUOUS
 10
8.7500000000700311
 20
-19.557692308030031
 30
0.0
 40
1.7499999999299991
 50
0.0
 51
180.0
  0
LINE
  5
4319
  8
247
  6
CONTINUOUS
 10
7.0000000001400622
 20
-25.384615384720011
 30
0.0
 11
10.000000000020011
 21
-26.244851541962021
 31
0.0
  0
LINE
  5
431A
  8
247
  6
CONTINUOUS
 10
8.4230769231600071
 20
-24.48498381833582
 30
0.0
 11
8.4230769231600071
 21
-25.792676125975849
 31
0.0
  0
ARC
  5
431B
  8
247
  6
CONTINUOUS
 10
7.5495986677029769
 20
-24.145143816089789
 30
0.0
 40
0.5538165441895349
 50
72.99788967529534
 51
172.92416621851359
  0
ARC
  5
431C
  8
247
  6
CONTINUOUS
 10
7.4360330444658302
 20
-24.566878323028789
 30
0.0
 40
0.9904354236226808
 50
4.7429368522022122
 51
73.849226273266538
1001
GENIUS_GENOBJ-N-FIL_13
1002
{
1000
OWNER
1000
GEN
1002
}
1001
GENIUS_GENODEF_13
1002
{
1000
HIER
1070
     0
1002
}
1002
{
1000
MANEDIT
1070
     0
1002
}
1002
{
1000
NOSEL
1070
     0
1002
}
1002
{
1000
BEHIND
1070
     0
1002
}
1002
{
1000
OTHER
1070
     0
1002
}
1002
{
1000
REACTOR
1002
}
  0
LINE
  5
431D
  8
247
  6
CONTINUOUS
 10
10.000000000020011
 20
-24.937159234321999
 30
0.0
 11
10.000000000020011
 21
-26.244851541962021
 31
0.0
  0
LINE
  5
431E
  8
247
  6
CONTINUOUS
 10
7.0000000001400622
 20
-25.384615384720011
 30
0.0
 11
7.0000000001400622
 21
-24.076923077079989
 31
0.0
  0
ARC
  5
431F
  8
247
  6
CONTINUOUS
 10
8.9820242326655944
 20
-24.560919636546942
 30
0.0
 40
0.5640818586791229
 50
65.990941652528889
 51
172.26344345906909
  0
ARC
  5
4320
  8
247
  6
CONTINUOUS
 10
8.9874290391866225
 20
-25.038262685347089
 30
0.0
 40
1.0176059446230981
 50
5.7019851642564632
 51
77.277338436822191
1001
GENIUS_GENOBJ-N-FIL_13
1002
{
1000
OWNER
1000
GEN
1002
}
1001
GENIUS_GENODEF_13
1002
{
1000
HIER
1070
     0
1002
}
1002
{
1000
MANEDIT
1070
     0
1002
}
1002
{
1000
NOSEL
1070
     0
1002
}
1002
{
1000
BEHIND
1070
     0
1002
}
1002
{
1000
OTHER
1070
     0
1002
}
1002
{
1000
REACTOR
1002
}
  0
LINE
  5
4321
  8
247
  6
CONTINUOUS
 10
10.000000000020011
 20
-23.28331308054203
 30
0.0
 11
7.0000000001400622
 21
-22.42307692330002
 31
0.0
  0
LINE
  5
4322
  8
247
  6
CONTINUOUS
 10
7.0000000001400622
 20
-20.000000000319972
 30
0.0
 11
7.0000000001400622
 21
-20.565736619456569
 31
0.0
  0
LINE
  5
4323
  8
247
  6
CONTINUOUS
 10
10.000000000020011
 20
-21.461538461799989
 30
0.0
 11
10.000000000020011
 21
-20.846153846440021
 31
0.0
  0
ARC
  5
4324
  8
247
  6
CONTINUOUS
 10
9.0832851359733677
 20
-19.708791209122861
 30
0.0
 40
2.2526500823422122
 50
202.3594881415259
 51
254.99324854284609
  0
ARC
  5
4325
  8
247
  6
CONTINUOUS
 10
7.8083126551945261
 20
-20.37406947921323
 30
0.0
 40
0.8906723995727782
 50
94.994589319075374
 51
155.1663289573039
1001
GENIUS_GENOBJ-N-FIL_13
1002
{
1000
OWNER
1000
GEN
1002
}
1001
GENIUS_GENODEF_13
1002
{
1000
HIER
1070
     0
1002
}
1002
{
1000
MANEDIT
1070
     0
1002
}
1002
{
1000
NOSEL
1070
     0
1002
}
1002
{
1000
BEHIND
1070
     0
1002
}
1002
{
1000
OTHER
1070
     0
1002
}
1002
{
1000
REACTOR
1002
}
  0
ARC
  5
4326
  8
247
  6
CONTINUOUS
 10
8.6601458886677847
 20
-21.22645888621258
 30
0.0
 40
1.392781735586712
 50
15.8460965557808
 51
82.325137004169065
  0
ARC
  5
4327
  8
247
  6
CONTINUOUS
 10
8.9592434315272822
 20
-20.642212725840348
 30
0.0
 40
1.324563662670287
 50
249.7136016704969
 51
321.78874565640689
1001
GENIUS_GENOBJ-N-FIL_13
1002
{
1000
OWNER
1000
GEN
1002
}
1001
GENIUS_GENODEF_13
1002
{
1000
HIER
1070
     0
1002
}
1002
{
1000
MANEDIT
1070
     0
1002
}
1002
{
1000
NOSEL
1070
     0
1002
}
1002
{
1000
BEHIND
1070
     0
1002
}
1002
{
1000
OTHER
1070
     0
1002
}
1002
{
1000
REACTOR
1002
}
  0
LINE
  5
4328
  8
247
  6
CONTINUOUS
 10
8.8461538462199751
 20
-20.538461538759979
 30
0.0
 11
8.8461538462199751
 21
-19.846153846479961
 31
0.0
  0
LINE
  5
4329
  8
247
  6
CONTINUOUS
 10
7.0000000001400018
 20
-26.250000000070042
 30
0.0
 11
7.0000000001400018
 21
-25.576923077020069
 31
0.0
  0
LINE
  5
432A
  8
241
  6
CONTINUOUS
 10
52.299999999999997
 20
-49.85000000000008
 30
0.0
 11
52.299999999999997
 21
49.85000000000008
 31
0.0
  0
LINE
  5
432B
  8
240
  6
CONTINUOUS
 10
37.999999999999972
 20
-49.850000000000819
 30
0.0
 11
37.740192378865828
 21
-49.999999999999822
 31
0.0
  0
LINE
  5
432E
  8
240
  6
CONTINUOUS
 10
38.000000000001812
 20
49.849999999999753
 30
0.0
 11
37.740192378865828
 21
49.999999999999822
 31
0.0
  0
LINE
  5
432F
  8
240
  6
CONTINUOUS
 10
38.000000000001812
 20
49.849999999999753
 30
0.0
 11
72.800000000000011
 21
49.850000000000527
 31
0.0
  0
LINE
  5
4330
  8
240
  6
CONTINUOUS
 10
114.8
 20
-33.243183665788763
 30
0.0
 11
116.3
 21
-33.243183665788763
 31
0.0
  0
LINE
  5
4331
  8
240
  6
CONTINUOUS
 10
116.3
 20
-33.243183665788763
 30
0.0
 11
116.3
 21
33.243183665788763
 31
0.0
  0
LINE
  5
4332
  8
240
  6
CONTINUOUS
 10
114.8
 20
33.243183665788763
 30
0.0
 11
116.3
 21
33.243183665788763
 31
0.0
  0
LINE
  5
4333
  8
241
  6
CONTINUOUS
 10
114.8
 20
33.243183665788763
 30
0.0
 11
114.8
 21
-33.243183665788763
 31
0.0
  0
LINE
  5
4334
  8
243
  6
HIDDEN2
 10
23.166025403784371
 20
19.050000000000018
 30
0.0
 11
116.3
 21
19.050000000000018
 31
0.0
1001
GRPNAME
1000
PASTMD1J
  0
LINE
  5
4336
  8
240
  6
CONTINUOUS
 10
114.8
 20
33.243183665788763
 30
0.0
 11
114.8
 21
38.365474827849027
 31
0.0
  0
ARC
  5
4337
  8
240
  6
CONTINUOUS
 10
108.7999999999999
 20
-38.365474827849027
 30
0.0
 40
6.0
 50
293.99999999999892
 51
0.0
  0
LINE
  5
4338
  8
240
  6
CONTINUOUS
 10
73.150000000004155
 20
-49.499999999999929
 30
0.0
 11
72.800000000000011
 21
-49.850000000000023
 31
0.0
  0
LINE
  5
4339
  8
240
  6
CONTINUOUS
 10
73.150000000004155
 20
-49.499999999999929
 30
0.0
 11
97.800000000002015
 21
-49.5
 31
0.0
  0
LINE
  5
433A
  8
240
  6
CONTINUOUS
 10
99.666025403777425
 20
-49.000000000002998
 30
0.0
 11
97.799999999999955
 21
-49.500000000000632
 31
0.0
  0
LINE
  5
433B
  8
240
  6
CONTINUOUS
 10
111.2404198584548
 20
-43.84674757370464
 30
0.0
 11
99.666025403777425
 21
-49.000000000002998
 31
0.0
  0
LINE
  5
433C
  8
241
  6
CONTINUOUS
 10
97.799999999999955
 20
-49.500000000000632
 30
0.0
 11
97.799999999999955
 21
49.5
 31
0.0
  0
LINE
  5
433D
  8
241
  6
CONTINUOUS
 10
72.800000000000011
 20
-49.850000000000591
 30
0.0
 11
72.800000000000011
 21
49.850000000000527
 31
0.0
  0
ARC
  5
433E
  8
240
  6
CONTINUOUS
 10
108.7999999999999
 20
38.365474827849027
 30
0.0
 40
6.0
 50
0.0
 51
66.000000000000725
  0
LINE
  5
433F
  8
240
  6
CONTINUOUS
 10
73.150000000004155
 20
49.499999999999929
 30
0.0
 11
72.800000000000011
 21
49.849999999999952
 31
0.0
  0
LINE
  5
4340
  8
240
  6
CONTINUOUS
 10
73.150000000004155
 20
49.499999999999929
 30
0.0
 11
97.800000000002015
 21
49.5
 31
0.0
  0
LINE
  5
4341
  8
240
  6
CONTINUOUS
 10
99.666025403777425
 20
49.000000000002998
 30
0.0
 11
97.799999999999955
 21
49.500000000000632
 31
0.0
  0
LINE
  5
4342
  8
240
  6
CONTINUOUS
 10
111.2404198584548
 20
43.84674757370464
 30
0.0
 11
99.666025403777425
 21
49.000000000002998
 31
0.0
  0
LINE
  5
4343
  8
243
  6
HIDDEN2
 10
23.166025403784371
 20
-19.050000000000011
 30
0.0
 11
116.3
 21
-19.050000000000011
 31
0.0
1001
GRPNAME
1000
PASTMD1J
  0
LINE
  5
4344
  8
250
  6
CONTINUOUS
 10
116.8
 20
-19.050000000000011
 30
0.0
 11
134.30000000000001
 21
-19.050000000000011
 31
0.0
  0
LINE
  5
4345
  8
250
  6
CONTINUOUS
 10
116.8
 20
19.050000000000018
 30
0.0
 11
134.30000000000001
 21
19.049999999999962
 31
0.0
  0
LINE
  5
4346
  8
250
  6
CONTINUOUS
 10
133.30000000000001
 20
-19.0
 30
0.0
 11
133.30000000000001
 21
18.99999999999994
 31
0.0
  0
LINE
  5
4347
  8
250
  6
CONTINUOUS
 10
133.6333333333333
 20
-17.050000000000011
 30
0.0
 11
133.30000000000001
 21
-19.050000000000011
 31
0.0
  0
LINE
  5
4348
  8
250
  6
CONTINUOUS
 10
132.96666666666661
 20
-17.050000000000011
 30
0.0
 11
133.30000000000001
 21
-19.050000000000011
 31
0.0
  0
LINE
  5
4349
  8
250
  6
CONTINUOUS
 10
133.30000000000001
 20
-19.050000000000011
 30
0.0
 11
133.30000000000001
 21
-17.050000000000011
 31
0.0
  0
LINE
  5
434A
  8
250
  6
CONTINUOUS
 10
132.96666666666661
 20
17.049999999999962
 30
0.0
 11
133.30000000000001
 21
19.049999999999962
 31
0.0
  0
LINE
  5
434B
  8
250
  6
CONTINUOUS
 10
133.6333333333333
 20
17.049999999999962
 30
0.0
 11
133.30000000000001
 21
19.049999999999962
 31
0.0
  0
LINE
  5
434C
  8
250
  6
CONTINUOUS
 10
133.30000000000001
 20
19.049999999999962
 30
0.0
 11
133.30000000000001
 21
17.049999999999962
 31
0.0
  0
TEXT
  5
434D
  8
250
  6
CONTINUOUS
 10
132.37986890376411
 20
-7.1269815484212682
 30
0.0
 40
2.799999999999998
  1
\U+22051.500
 50
90.0
  0
LINE
  5
434E
  8
250
  6
CONTINUOUS
 10
98.300000000000054
 20
-49.500000000000632
 30
0.0
 11
141.30000000000001
 21
-49.500000000000632
 31
0.0
  0
LINE
  5
434F
  8
250
  6
CONTINUOUS
 10
98.300000000000054
 20
49.500000000000632
 30
0.0
 11
141.30000000000001
 21
49.500000000000632
 31
0.0
  0
LINE
  5
4350
  8
250
  6
CONTINUOUS
 10
140.30000000000001
 20
-47.500000000000632
 30
0.0
 11
140.30000000000001
 21
47.500000000000632
 31
0.0
  0
LINE
  5
4351
  8
250
  6
CONTINUOUS
 10
140.63333333333321
 20
-47.500000000000632
 30
0.0
 11
140.30000000000001
 21
-49.500000000000632
 31
0.0
  0
LINE
  5
4352
  8
250
  6
CONTINUOUS
 10
139.96666666666661
 20
-47.500000000000632
 30
0.0
 11
140.30000000000001
 21
-49.500000000000632
 31
0.0
  0
LINE
  5
4353
  8
250
  6
CONTINUOUS
 10
140.30000000000001
 20
-49.500000000000632
 30
0.0
 11
140.30000000000001
 21
-47.500000000000632
 31
0.0
  0
LINE
  5
4354
  8
250
  6
CONTINUOUS
 10
139.96666666666661
 20
47.500000000000632
 30
0.0
 11
140.30000000000001
 21
49.500000000000632
 31
0.0
  0
LINE
  5
4355
  8
250
  6
CONTINUOUS
 10
140.63333333333321
 20
47.500000000000632
 30
0.0
 11
140.30000000000001
 21
49.500000000000632
 31
0.0
  0
LINE
  5
4356
  8
250
  6
CONTINUOUS
 10
140.30000000000001
 20
49.500000000000632
 30
0.0
 11
140.30000000000001
 21
47.500000000000632
 31
0.0
  0
TEXT
  5
4357
  8
250
  6
CONTINUOUS
 10
139.37986890376411
 20
-7.0603148817546053
 30
0.0
 40
2.799999999999998
  1
\U+22053.898
 50
90.0
  0
LINE
  5
4358
  8
240
  6
CONTINUOUS
 10
114.8
 20
-33.243183665788763
 30
0.0
 11
114.8
 21
-38.365474827849027
 31
0.0
  0
TEXT
  5
4359
  8
250
  6
CONTINUOUS
 10
119.0492711759351
 20
23.613517841677609
 30
0.0
 40
2.799999999999998
  1
Coolant
  7
YOKO
 11
119.0492711759351
 21
23.613517841677609
 31
0.0
 73
     1
  0
LINE
  5
435A
  8
250
  6
CONTINUOUS
 10
132.5785622841548
 20
22.37166666666673
 30
0.0
 11
134.80856228415479
 21
22.00000000000006
 31
0.0
  0
LINE
  5
435B
  8
250
  6
CONTINUOUS
 10
132.5785622841548
 20
21.628333333333391
 30
0.0
 11
134.80856228415479
 21
22.00000000000006
 31
0.0
  0
LINE
  5
435C
  8
250
  6
CONTINUOUS
 10
134.80856228415479
 20
22.00000000000006
 30
0.0
 11
132.5785622841548
 21
22.00000000000006
 31
0.0
  0
LINE
  5
435D
  8
250
  6
CONTINUOUS
 10
132.5785622841548
 20
22.00000000000006
 30
0.0
 11
119.2999999999991
 21
22.00000000000006
 31
0.0
  0
LINE
  5
435E
  8
250
  6
CONTINUOUS
 10
132.5785622841552
 20
-21.62833333333333
 30
0.0
 11
134.80856228415519
 21
-22.0
 31
0.0
  0
LINE
  5
435F
  8
250
  6
CONTINUOUS
 10
132.5785622841552
 20
-22.37166666666667
 30
0.0
 11
134.80856228415519
 21
-22.0
 31
0.0
  0
LINE
  5
4360
  8
250
  6
CONTINUOUS
 10
134.80856228415519
 20
-22.0
 30
0.0
 11
132.5785622841552
 21
-22.0
 31
0.0
  0
LINE
  5
4361
  8
250
  6
CONTINUOUS
 10
132.5785622841552
 20
-22.0
 30
0.0
 11
119.2999999999995
 21
-22.0
 31
0.0
  0
TEXT
  5
4362
  8
250
  6
CONTINUOUS
 10
118.886900841792
 20
-26.815545675999381
 30
0.0
 40
2.799999999999998
  1
Coolant
  7
YOKO
 11
118.886900841792
 21
-26.815545675999381
 31
0.0
 73
     1
  0
TEXT
  5
4377
  8
241
  6
CONTINUOUS
 10
-101.8
 20
84.0
 30
0.0
 40
5.0
  1
BBT50-MEGA1.500DS-4.5
  7
YOKO
 11
-101.8
 21
84.0
 31
0.0
 73
     1
  0
LINE
  5
43A2
  8
240
  6
CONTINUOUS
 10
37.999999999999972
 20
-49.849999999999952
 30
0.0
 11
72.800000000000011
 21
-49.850000000000591
 31
0.0
  0
LINE
  5
43A3
  8
241
  6
CONTINUOUS
 10
47.699999999999363
 20
-49.849999999999248
 30
0.0
 11
47.699999999998688
 21
49.84999999999998
 31
0.0
  0
LINE
  5
43A4
  8
241
  6
CONTINUOUS
 10
48.899999999999352
 20
-49.84999999999944
 30
0.0
 11
48.899999999995487
 21
49.850000000000001
 31
0.0
  0
LINE
  5
4405
  8
250
  6
CONTINUOUS
 10
7.300000000000181
 20
19.250000000000028
 30
0.0
 11
7.3000000000001837
 21
63.999999999999943
 31
0.0
  0
LINE
  5
4406
  8
250
  6
CONTINUOUS
 10
116.3
 20
33.743183665788763
 30
0.0
 11
116.3
 21
63.999999999999943
 31
0.0
  0
LINE
  5
4407
  8
250
  6
CONTINUOUS
 10
9.5300000000001841
 20
62.999999999999929
 30
0.0
 11
114.06999999999999
 21
62.999999999999929
 31
0.0
  0
LINE
  5
440B
  8
250
  6
CONTINUOUS
 10
0.0
 20
35.425000000000011
 30
0.0
 11
0.0000000000000022
 21
71.0
 31
0.0
  0
LINE
  5
440C
  8
250
  6
CONTINUOUS
 10
116.3
 20
33.743183665788763
 30
0.0
 11
116.3
 21
71.0
 31
0.0
  0
LINE
  5
440D
  8
250
  6
CONTINUOUS
 10
2.2300000000000022
 20
70.0
 30
0.0
 11
114.06999999999999
 21
70.0
 31
0.0
  0
TEXT
  5
4411
  8
250
  6
CONTINUOUS
 10
56.200000000000088
 20
63.99999999999995
 30
0.0
 40
2.7999999999999989
  1
(max.4.29)
  0
LINE
  5
4412
  8
250
  6
CONTINUOUS
 10
114.06999999999999
 20
63.371666666666613
 30
0.0
 11
116.3
 21
62.999999999999929
 31
0.0
  0
LINE
  5
4413
  8
250
  6
CONTINUOUS
 10
114.06999999999999
 20
62.628333333333259
 30
0.0
 11
116.3
 21
62.999999999999929
 31
0.0
  0
LINE
  5
4414
  8
250
  6
CONTINUOUS
 10
116.3
 20
62.999999999999929
 30
0.0
 11
114.06999999999999
 21
62.999999999999929
 31
0.0
  0
LINE
  5
4415
  8
250
  6
CONTINUOUS
 10
9.5300000000001841
 20
62.628333333333259
 30
0.0
 11
7.3000000000001837
 21
62.999999999999929
 31
0.0
  0
LINE
  5
4416
  8
250
  6
CONTINUOUS
 10
9.5300000000001841
 20
63.371666666666613
 30
0.0
 11
7.3000000000001837
 21
62.999999999999929
 31
0.0
  0
LINE
  5
4417
  8
250
  6
CONTINUOUS
 10
7.3000000000001837
 20
62.999999999999929
 30
0.0
 11
9.5300000000001841
 21
62.999999999999929
 31
0.0
  0
TEXT
  5
4418
  8
250
  6
CONTINUOUS
 10
52.216666666666669
 20
71.000000000000014
 30
0.0
 40
2.7999999999999989
  1
4.58
  0
LINE
  5
4419
  8
250
  6
CONTINUOUS
 10
114.06999999999999
 20
70.37166666666667
 30
0.0
 11
116.3
 21
70.0
 31
0.0
  0
LINE
  5
441A
  8
250
  6
CONTINUOUS
 10
114.06999999999999
 20
69.62833333333333
 30
0.0
 11
116.3
 21
70.0
 31
0.0
  0
LINE
  5
441B
  8
250
  6
CONTINUOUS
 10
116.3
 20
70.0
 30
0.0
 11
114.06999999999999
 21
70.0
 31
0.0
  0
LINE
  5
441C
  8
250
  6
CONTINUOUS
 10
2.2300000000000022
 20
69.62833333333333
 30
0.0
 11
0.0000000000000021
 21
70.0
 31
0.0
  0
LINE
  5
441D
  8
250
  6
CONTINUOUS
 10
2.2300000000000022
 20
70.37166666666667
 30
0.0
 11
0.0000000000000021
 21
70.0
 31
0.0
  0
LINE
  5
441E
  8
250
  6
CONTINUOUS
 10
0.0000000000000021
 20
70.0
 30
0.0
 11
2.2300000000000022
 21
70.0
 31
0.0
  0
VIEWPORT
  5
22
 67
     1
  8
0
 10
261.51769911504419
 20
148.5
 30
0.0
 40
523.0353982300885
 41
297.0
 68
     1
 69
     1
1001
ACAD
1000
MVIEW
1002
{
1070
    16
1010
0.0
1020
0.0
1030
0.0
1010
0.0
1020
0.0
1030
1.0
1040
0.0
1040
297.0
1040
261.51769911504419
1040
148.5
1040
50.0
1040
0.0
1040
0.0
1070
     0
1070
   100
1070
     1
1070
     1
1070
     0
1070
     0
1070
     0
1070
     0
1040
0.0
1040
0.0
1040
0.0
1040
1.0
1040
1.0
1040
10.0
1040
10.0
1070
     0
1002
{
1002
}
1002
}
1001
GENIUS_GENODEF_13
1002
{
1000
HIER
1070
     0
1002
}
1002
{
1000
MANEDIT
1070
     0
1002
}
1002
{
1000
NOSEL
1070
     0
1002
}
1002
{
1000
BEHIND
1070
     0
1002
}
1002
{
1000
OTHER
1070
     0
1002
}
1002
{
1000
REACTOR
1002
}
1001
GENIUS_GENOBJ-N-SDF_13
1002
{
1000
OWNER
1000
GEN
1002
}
1001
GENIUS_GENSCREG_15
1000
PF
1040
1.0
1000
DF
1040
1.0
1000
MIN
1011
0.0
1021
0.0
1031
0.0
1021
0.0
1031
0.0
1000
MAX
1011
523.0353982300885
1021
0.0
1031
0.0
1021
297.0
1031
0.0
1000
FLAGS
1070
     4
  0
ENDSEC
  0
EOF
