ISO-10303-21;
HEADER;
FILE_DESCRIPTION((''),'1');
FILE_NAME('U:/Translate/BIG-HP/\X2\30C030A630F330ED30FC30C930C730FC30BF\X0\/201309/LINK\X2\7528FF83FF9EFF70FF80FF8EFF99FF80FF9E\X0\/CK\X2\FF8DFF6FFF84FF9E30FBFF71FF78FF7EFF7BFF98\X0\/11_CK\X2\8D85786CFF7DFF84FF9AFF70FF84FF7CFF6CFF9DFF78\X0\/02_CK\X2\8D85786C\X0\ST\X2\7528FF8AFF72FF84FF9EFF9BFF81FF6CFF6FFF78\X0\/BBT50-HDC31L-90.stp','2013-10-11T07:29:42',(''),(''),'Spatial Interop R18','Kubotek KeyCreator V8.5.1 (14335)',' ');
FILE_SCHEMA(('CONFIG_CONTROL_DESIGN'));
ENDSEC;
DATA;
#1=DESIGN_CONTEXT('',#27,'design');
#2=APPLICATION_PROTOCOL_DEFINITION('INTERNATIONAL STANDARD','config_control_design',1994,#27);
#3=PRODUCT_CATEGORY_RELATIONSHIP('NONE','NONE',#28,#29);
#4=DATE_AND_TIME(#30,#31);
#5=DATE_TIME_ROLE('creation_date');
#6=DATE_TIME_ROLE('classification_date');
#7=PERSON_AND_ORGANIZATION_ROLE('creator');
#8=PERSON_AND_ORGANIZATION_ROLE('design_supplier');
#9=PERSON_AND_ORGANIZATION_ROLE('classification_officer');
#10=PERSON_AND_ORGANIZATION_ROLE('design_owner');
#11=APPROVAL_PERSON_ORGANIZATION(#32,#33,#34);
#12=APPROVAL_DATE_TIME(#4,#33);
#13=CC_DESIGN_APPROVAL(#33,(#35,#36,#37));
#14=CC_DESIGN_DATE_AND_TIME_ASSIGNMENT(#4,#5,(#37));
#15=CC_DESIGN_DATE_AND_TIME_ASSIGNMENT(#4,#6,(#35));
#16=CC_DESIGN_PERSON_AND_ORGANIZATION_ASSIGNMENT(#32,#10,(#38));
#17=CC_DESIGN_PERSON_AND_ORGANIZATION_ASSIGNMENT(#32,#7,(#37));
#18=CC_DESIGN_PERSON_AND_ORGANIZATION_ASSIGNMENT(#32,#7,(#36));
#19=CC_DESIGN_PERSON_AND_ORGANIZATION_ASSIGNMENT(#32,#8,(#36));
#20=CC_DESIGN_SECURITY_CLASSIFICATION(#35,(#36));
#21=CC_DESIGN_PERSON_AND_ORGANIZATION_ASSIGNMENT(#32,#9,(#35));
#22=SHAPE_DEFINITION_REPRESENTATION(#39,#40);
#23= (GEOMETRIC_REPRESENTATION_CONTEXT(3)GLOBAL_UNCERTAINTY_ASSIGNED_CONTEXT((#43))GLOBAL_UNIT_ASSIGNED_CONTEXT((#45,#46,#47))REPRESENTATION_CONTEXT('NONE','WORKSPACE'));
#27=APPLICATION_CONTEXT('CONFIGURATION CONTROLLED 3D DESIGNS OF MECHANICAL PARTS AND ASSEMBLIES');
#28=PRODUCT_CATEGORY('part','NONE');
#29=PRODUCT_RELATED_PRODUCT_CATEGORY('detail',' ',(#38));
#30=CALENDAR_DATE(2013,11,9);
#31=LOCAL_TIME(16,29,42.0,#49);
#32=PERSON_AND_ORGANIZATION(#50,#51);
#33=APPROVAL(#52,'SOLID MODEL');
#34=APPROVAL_ROLE('APPROVED');
#35=SECURITY_CLASSIFICATION('','',#53);
#36=PRODUCT_DEFINITION_FORMATION_WITH_SPECIFIED_SOURCE(' ','NONE',#38,.NOT_KNOWN.);
#37=PRODUCT_DEFINITION('NONE','NONE',#36,#1);
#38=PRODUCT('1','1','PART-1-DESC',(#54));
#39=PRODUCT_DEFINITION_SHAPE('NONE','NONE',#37);
#40=ADVANCED_BREP_SHAPE_REPRESENTATION('1',(#55,#56),#23);
#43=UNCERTAINTY_MEASURE_WITH_UNIT(LENGTH_MEASURE(1.0E-006),#45,'','');
#45= (CONVERSION_BASED_UNIT('MILLIMETRE',#59)LENGTH_UNIT()NAMED_UNIT(#62));
#46= (NAMED_UNIT(#64)PLANE_ANGLE_UNIT()SI_UNIT($,.RADIAN.));
#47= (NAMED_UNIT(#64)SOLID_ANGLE_UNIT()SI_UNIT($,.STERADIAN.));
#49=COORDINATED_UNIVERSAL_TIME_OFFSET(9,0,.AHEAD.);
#50=PERSON('','UNSPECIFIED',$,$,$,$);
#51=ORGANIZATION('UNSPECIFIED','UNSPECIFIED','UNSPECIFIED');
#52=APPROVAL_STATUS('approved');
#53=SECURITY_CLASSIFICATION_LEVEL('unclassified');
#54=MECHANICAL_CONTEXT('',#27,'mechanical');
#55=MANIFOLD_SOLID_BREP('1',#70);
#56=AXIS2_PLACEMENT_3D('',#71,#72,#73);
#59=LENGTH_MEASURE_WITH_UNIT(LENGTH_MEASURE(1.0),#74);
#62=DIMENSIONAL_EXPONENTS(1.0,0.0,0.0,0.0,0.0,0.0,0.0);
#64=DIMENSIONAL_EXPONENTS(0.0,0.0,0.0,0.0,0.0,0.0,0.0);
#70=CLOSED_SHELL('',(#75,#76,#77,#78,#79,#80,#81,#82,#83,#84,#85,#86,#87,#88,#89,#90,#91,#92));
#71=CARTESIAN_POINT('',(0.0,0.0,0.0));
#72=DIRECTION('',(0.0,0.0,1.0));
#73=DIRECTION('',(1.0,0.0,0.0));
#74= (NAMED_UNIT(#62)LENGTH_UNIT()SI_UNIT(.MILLI.,.METRE.));
#75=ADVANCED_FACE('',(#94),#95,.T.);
#76=ADVANCED_FACE('',(#96,#97),#98,.T.);
#77=ADVANCED_FACE('',(#99,#100),#101,.T.);
#78=ADVANCED_FACE('',(#102,#103),#104,.T.);
#79=ADVANCED_FACE('',(#105,#106),#107,.T.);
#80=ADVANCED_FACE('',(#108,#109),#110,.T.);
#81=ADVANCED_FACE('',(#111,#112),#113,.T.);
#82=ADVANCED_FACE('',(#114,#115),#116,.T.);
#83=ADVANCED_FACE('',(#117,#118),#119,.T.);
#84=ADVANCED_FACE('',(#120,#121),#122,.T.);
#85=ADVANCED_FACE('',(#123,#124),#125,.T.);
#86=ADVANCED_FACE('',(#126,#127),#128,.T.);
#87=ADVANCED_FACE('',(#129,#130),#131,.T.);
#88=ADVANCED_FACE('',(#132,#133),#134,.T.);
#89=ADVANCED_FACE('',(#135,#136),#137,.T.);
#90=ADVANCED_FACE('',(#138,#139),#140,.T.);
#91=ADVANCED_FACE('',(#141,#142),#143,.T.);
#92=ADVANCED_FACE('',(#144),#145,.T.);
#94=FACE_OUTER_BOUND('',#146,.T.);
#95=PLANE('',#147);
#96=FACE_BOUND('',#148,.T.);
#97=FACE_BOUND('',#149,.T.);
#98=CONICAL_SURFACE('',#150,27.5020833333334,0.144812498238939);
#99=FACE_BOUND('',#151,.T.);
#100=FACE_BOUND('',#152,.T.);
#101=CYLINDRICAL_SURFACE('',#153,34.925);
#102=FACE_OUTER_BOUND('',#154,.T.);
#103=FACE_BOUND('',#155,.T.);
#104=PLANE('',#156);
#105=FACE_BOUND('',#157,.T.);
#106=FACE_BOUND('',#158,.T.);
#107=CYLINDRICAL_SURFACE('',#159,50.0);
#108=FACE_BOUND('',#160,.T.);
#109=FACE_BOUND('',#161,.T.);
#110=CONICAL_SURFACE('',#162,46.25,1.0471975511966);
#111=FACE_BOUND('',#163,.T.);
#112=FACE_BOUND('',#164,.T.);
#113=CYLINDRICAL_SURFACE('',#165,42.5);
#114=FACE_BOUND('',#166,.T.);
#115=FACE_BOUND('',#167,.T.);
#116=CONICAL_SURFACE('',#168,46.25,1.0471975511966);
#117=FACE_BOUND('',#169,.T.);
#118=FACE_BOUND('',#170,.T.);
#119=CYLINDRICAL_SURFACE('',#171,50.0);
#120=FACE_BOUND('',#172,.T.);
#121=FACE_OUTER_BOUND('',#173,.T.);
#122=PLANE('',#174);
#123=FACE_BOUND('',#175,.T.);
#124=FACE_BOUND('',#176,.T.);
#125=CONICAL_SURFACE('',#177,43.3033008588994,1.17809724509612);
#126=FACE_BOUND('',#178,.T.);
#127=FACE_BOUND('',#179,.T.);
#128=CONICAL_SURFACE('',#180,39.2071067811855,0.785398163397414);
#129=FACE_BOUND('',#181,.T.);
#130=FACE_BOUND('',#182,.T.);
#131=CONICAL_SURFACE('',#183,36.4393398282178,0.392699081698704);
#132=FACE_BOUND('',#184,.T.);
#133=FACE_BOUND('',#185,.T.);
#134=CYLINDRICAL_SURFACE('',#186,35.9999999999971);
#135=FACE_BOUND('',#187,.T.);
#136=FACE_BOUND('',#188,.T.);
#137=CONICAL_SURFACE('',#189,31.7499999999979,0.43633231299857);
#138=FACE_BOUND('',#190,.T.);
#139=FACE_OUTER_BOUND('',#191,.T.);
#140=PLANE('',#192);
#141=FACE_BOUND('',#193,.T.);
#142=FACE_BOUND('',#194,.T.);
#143=CONICAL_SURFACE('',#195,21.1499999999958,0.785398163398951);
#144=FACE_OUTER_BOUND('',#196,.T.);
#145=PLANE('',#197);
#146=EDGE_LOOP('',(#198));
#147=AXIS2_PLACEMENT_3D('',#199,#200,#201);
#148=EDGE_LOOP('',(#202));
#149=EDGE_LOOP('',(#203));
#150=AXIS2_PLACEMENT_3D('',#204,#205,#206);
#151=EDGE_LOOP('',(#207));
#152=EDGE_LOOP('',(#208));
#153=AXIS2_PLACEMENT_3D('',#209,#210,#211);
#154=EDGE_LOOP('',(#212));
#155=EDGE_LOOP('',(#213));
#156=AXIS2_PLACEMENT_3D('',#214,#215,#216);
#157=EDGE_LOOP('',(#217));
#158=EDGE_LOOP('',(#218));
#159=AXIS2_PLACEMENT_3D('',#219,#220,#221);
#160=EDGE_LOOP('',(#222));
#161=EDGE_LOOP('',(#223));
#162=AXIS2_PLACEMENT_3D('',#224,#225,#226);
#163=EDGE_LOOP('',(#227));
#164=EDGE_LOOP('',(#228));
#165=AXIS2_PLACEMENT_3D('',#229,#230,#231);
#166=EDGE_LOOP('',(#232));
#167=EDGE_LOOP('',(#233));
#168=AXIS2_PLACEMENT_3D('',#234,#235,#236);
#169=EDGE_LOOP('',(#237));
#170=EDGE_LOOP('',(#238));
#171=AXIS2_PLACEMENT_3D('',#239,#240,#241);
#172=EDGE_LOOP('',(#242));
#173=EDGE_LOOP('',(#243));
#174=AXIS2_PLACEMENT_3D('',#244,#245,#246);
#175=EDGE_LOOP('',(#247));
#176=EDGE_LOOP('',(#248));
#177=AXIS2_PLACEMENT_3D('',#249,#250,#251);
#178=EDGE_LOOP('',(#252));
#179=EDGE_LOOP('',(#253));
#180=AXIS2_PLACEMENT_3D('',#254,#255,#256);
#181=EDGE_LOOP('',(#257));
#182=EDGE_LOOP('',(#258));
#183=AXIS2_PLACEMENT_3D('',#259,#260,#261);
#184=EDGE_LOOP('',(#262));
#185=EDGE_LOOP('',(#263));
#186=AXIS2_PLACEMENT_3D('',#264,#265,#266);
#187=EDGE_LOOP('',(#267));
#188=EDGE_LOOP('',(#268));
#189=AXIS2_PLACEMENT_3D('',#269,#270,#271);
#190=EDGE_LOOP('',(#272));
#191=EDGE_LOOP('',(#273));
#192=AXIS2_PLACEMENT_3D('',#274,#275,#276);
#193=EDGE_LOOP('',(#277));
#194=EDGE_LOOP('',(#278));
#195=AXIS2_PLACEMENT_3D('',#279,#280,#281);
#196=EDGE_LOOP('',(#282));
#197=AXIS2_PLACEMENT_3D('',#283,#284,#285);
#198=ORIENTED_EDGE('',*,*,#286,.F.);
#199=CARTESIAN_POINT('',(-6.23345220766003E-015,10.0395833333333,101.8));
#200=DIRECTION('',(-6.12323399573677E-017,-1.22464679914735E-016,1.0));
#201=DIRECTION('',(1.23259516440783E-032,-1.0,-1.22464679914735E-016));
#202=ORIENTED_EDGE('',*,*,#287,.F.);
#203=ORIENTED_EDGE('',*,*,#286,.T.);
#204=CARTESIAN_POINT('',(-3.11672610383001E-015,-6.23345220766003E-015,50.9));
#205=DIRECTION('',(6.12323399573677E-017,1.22464679914677E-016,-1.0));
#206=DIRECTION('',(-1.23259516440813E-032,1.0,1.22464679914677E-016));
#207=ORIENTED_EDGE('',*,*,#288,.F.);
#208=ORIENTED_EDGE('',*,*,#287,.T.);
#209=CARTESIAN_POINT('',(4.59242549680257E-017,9.18485099360515E-017,-0.75));
#210=DIRECTION('',(-6.12323399573677E-017,-1.22464679914705E-016,1.0));
#211=DIRECTION('',(-1.23259516440793E-032,1.0,1.22464679914705E-016));
#212=ORIENTED_EDGE('',*,*,#289,.F.);
#213=ORIENTED_EDGE('',*,*,#288,.T.);
#214=CARTESIAN_POINT('',(9.18485099360522E-017,42.4625,-1.50000000000002));
#215=DIRECTION('',(-6.12323399573677E-017,1.04115215518162E-015,1.0));
#216=DIRECTION('',(-5.89250299826577E-032,-1.0,1.04115215518162E-015));
#217=ORIENTED_EDGE('',*,*,#290,.F.);
#218=ORIENTED_EDGE('',*,*,#289,.T.);
#219=CARTESIAN_POINT('',(5.26598123633362E-016,1.05319624726672E-015,-8.59999999999999));
#220=DIRECTION('',(-6.12323399573677E-017,-1.22464679914736E-016,1.0));
#221=DIRECTION('',(-1.23259516440783E-032,1.0,1.22464679914736E-016));
#222=ORIENTED_EDGE('',*,*,#291,.F.);
#223=ORIENTED_EDGE('',*,*,#290,.T.);
#224=CARTESIAN_POINT('',(1.09391964217128E-015,2.18783928434257E-015,-17.8650635094611));
#225=DIRECTION('',(-6.12323399573677E-017,-1.22464679914748E-016,1.0));
#226=DIRECTION('',(-1.23259516440783E-032,1.0,1.22464679914748E-016));
#227=ORIENTED_EDGE('',*,*,#292,.F.);
#228=ORIENTED_EDGE('',*,*,#291,.T.);
#229=CARTESIAN_POINT('',(1.42059028701093E-015,2.84118057402185E-015,-23.2));
#230=DIRECTION('',(-6.12323399573677E-017,-1.22464679914763E-016,1.0));
#231=DIRECTION('',(-1.23259516440783E-032,1.0,1.22464679914763E-016));
#232=ORIENTED_EDGE('',*,*,#293,.F.);
#233=ORIENTED_EDGE('',*,*,#292,.T.);
#234=CARTESIAN_POINT('',(1.74726093185057E-015,3.49452186370114E-015,-28.5349364905389));
#235=DIRECTION('',(6.12323399573677E-017,1.22464679914748E-016,-1.0));
#236=DIRECTION('',(-1.23259516440783E-032,1.0,1.22464679914748E-016));
#237=ORIENTED_EDGE('',*,*,#294,.F.);
#238=ORIENTED_EDGE('',*,*,#293,.T.);
#239=CARTESIAN_POINT('',(2.10333087753558E-015,4.20666175507115E-015,-34.35));
#240=DIRECTION('',(-6.12323399573677E-017,-1.22464679914736E-016,1.0));
#241=DIRECTION('',(-1.23259516440783E-032,1.0,1.22464679914736E-016));
#242=ORIENTED_EDGE('',*,*,#295,.F.);
#243=ORIENTED_EDGE('',*,*,#294,.T.);
#244=CARTESIAN_POINT('',(2.32682891837997E-015,47.5355339059329,-38.0));
#245=DIRECTION('',(6.12323399573677E-017,1.16550678262211E-014,-1.0));
#246=DIRECTION('',(-7.1849422809212E-031,1.0,1.16550678262211E-014));
#247=ORIENTED_EDGE('',*,*,#296,.F.);
#248=ORIENTED_EDGE('',*,*,#295,.T.);
#249=CARTESIAN_POINT('',(2.37166526124396E-015,4.74333052248792E-015,-38.7322330470338));
#250=DIRECTION('',(-6.12323399573677E-017,-1.22464679914772E-016,1.0));
#251=DIRECTION('',(-1.23259516440777E-032,1.0,1.22464679914772E-016));
#252=ORIENTED_EDGE('',*,*,#297,.F.);
#253=ORIENTED_EDGE('',*,*,#296,.T.);
#254=CARTESIAN_POINT('',(2.55907664537646E-015,5.11815329075292E-015,-41.7928932188152));
#255=DIRECTION('',(-6.12323399573677E-017,-1.22464679914754E-016,1.0));
#256=DIRECTION('',(-1.23259516440804E-032,1.0,1.22464679914754E-016));
#257=ORIENTED_EDGE('',*,*,#298,.F.);
#258=ORIENTED_EDGE('',*,*,#297,.T.);
#259=CARTESIAN_POINT('',(2.76659839086262E-015,5.53319678172524E-015,-45.1819805153426));
#260=DIRECTION('',(-6.12323399573677E-017,-1.22464679914707E-016,1.0));
#261=DIRECTION('',(-1.23259516440763E-032,1.0,1.22464679914707E-016));
#262=ORIENTED_EDGE('',*,*,#299,.F.);
#263=ORIENTED_EDGE('',*,*,#298,.T.);
#264=CARTESIAN_POINT('',(3.59171552524715E-015,7.1834310504943E-015,-58.6571659313991));
#265=DIRECTION('',(-6.12323399573677E-017,-1.22464679914703E-016,1.0));
#266=DIRECTION('',(-1.23259516440793E-032,1.0,1.22464679914703E-016));
#267=ORIENTED_EDGE('',*,*,#300,.F.);
#268=ORIENTED_EDGE('',*,*,#299,.T.);
#269=CARTESIAN_POINT('',(4.90996695680353E-015,9.81993391360705E-015,-80.1858455878387));
#270=DIRECTION('',(-6.12323399573676E-017,-1.22464679914722E-016,1.0));
#271=DIRECTION('',(-1.23259516440791E-032,1.0,1.22464679914722E-016));
#272=ORIENTED_EDGE('',*,*,#301,.F.);
#273=ORIENTED_EDGE('',*,*,#300,.T.);
#274=CARTESIAN_POINT('',(5.46804795819302E-015,24.4999999999971,-89.3000000000015));
#275=DIRECTION('',(6.12323399573677E-017,-9.35143846354587E-015,-1.0));
#276=DIRECTION('',(5.67783306359476E-031,1.0,-9.35143846354587E-015));
#277=ORIENTED_EDGE('',*,*,#302,.F.);
#278=ORIENTED_EDGE('',*,*,#301,.T.);
#279=CARTESIAN_POINT('',(5.48947927717797E-015,1.09789585543559E-014,-89.6499999999993));
#280=DIRECTION('',(-6.12323399573676E-017,-1.22464679914729E-016,1.0));
#281=DIRECTION('',(-1.23259516440774E-032,1.0,1.22464679914729E-016));
#282=ORIENTED_EDGE('',*,*,#302,.T.);
#283=CARTESIAN_POINT('',(5.51091059616291E-015,10.3999999999984,-89.9999999999971));
#284=DIRECTION('',(6.12323399573677E-017,-1.62746753760901E-014,-1.0));
#285=DIRECTION('',(9.9170930259378E-031,1.0,-1.62746753760901E-014));
#286=EDGE_CURVE('',#303,#303,#304,.T.);
#287=EDGE_CURVE('',#305,#305,#306,.T.);
#288=EDGE_CURVE('',#307,#307,#308,.T.);
#289=EDGE_CURVE('',#309,#309,#310,.T.);
#290=EDGE_CURVE('',#311,#311,#312,.T.);
#291=EDGE_CURVE('',#313,#313,#314,.T.);
#292=EDGE_CURVE('',#315,#315,#316,.T.);
#293=EDGE_CURVE('',#317,#317,#318,.T.);
#294=EDGE_CURVE('',#319,#319,#320,.T.);
#295=EDGE_CURVE('',#321,#321,#322,.T.);
#296=EDGE_CURVE('',#323,#323,#324,.T.);
#297=EDGE_CURVE('',#325,#325,#326,.T.);
#298=EDGE_CURVE('',#327,#327,#328,.T.);
#299=EDGE_CURVE('',#329,#329,#330,.T.);
#300=EDGE_CURVE('',#331,#331,#332,.T.);
#301=EDGE_CURVE('',#333,#333,#334,.T.);
#302=EDGE_CURVE('',#335,#335,#336,.T.);
#303=VERTEX_POINT('',#337);
#304=CIRCLE('',#338,20.0791666666667);
#305=VERTEX_POINT('',#339);
#306=CIRCLE('',#340,34.925);
#307=VERTEX_POINT('',#341);
#308=CIRCLE('',#342,34.925);
#309=VERTEX_POINT('',#343);
#310=CIRCLE('',#344,50.0);
#311=VERTEX_POINT('',#345);
#312=CIRCLE('',#346,50.0);
#313=VERTEX_POINT('',#347);
#314=CIRCLE('',#348,42.5);
#315=VERTEX_POINT('',#349);
#316=CIRCLE('',#350,42.5);
#317=VERTEX_POINT('',#351);
#318=CIRCLE('',#352,50.0);
#319=VERTEX_POINT('',#353);
#320=CIRCLE('',#354,50.0);
#321=VERTEX_POINT('',#355);
#322=CIRCLE('',#356,45.0710678118657);
#323=VERTEX_POINT('',#357);
#324=CIRCLE('',#358,41.535533905933);
#325=VERTEX_POINT('',#359);
#326=CIRCLE('',#360,36.8786796564379);
#327=VERTEX_POINT('',#361);
#328=CIRCLE('',#362,35.9999999999977);
#329=VERTEX_POINT('',#363);
#330=CIRCLE('',#364,35.9999999999965);
#331=VERTEX_POINT('',#365);
#332=CIRCLE('',#366,27.4999999999994);
#333=VERTEX_POINT('',#367);
#334=CIRCLE('',#368,21.4999999999947);
#335=VERTEX_POINT('',#369);
#336=CIRCLE('',#370,20.7999999999968);
#337=CARTESIAN_POINT('',(-6.23345220766003E-015,20.0791666666667,101.8));
#338=AXIS2_PLACEMENT_3D('',#371,#372,#373);
#339=CARTESIAN_POINT('',(-4.30483861169435E-031,34.925,4.27707894602213E-015));
#340=AXIS2_PLACEMENT_3D('',#374,#375,#376);
#341=CARTESIAN_POINT('',(9.18485099360518E-017,34.925,-1.50000000000001));
#342=AXIS2_PLACEMENT_3D('',#377,#378,#379);
#343=CARTESIAN_POINT('',(9.18485099360527E-017,50.0,-1.50000000000002));
#344=AXIS2_PLACEMENT_3D('',#380,#381,#382);
#345=CARTESIAN_POINT('',(9.61347737330669E-016,50.0,-15.7));
#346=AXIS2_PLACEMENT_3D('',#383,#384,#385);
#347=CARTESIAN_POINT('',(1.2264915470119E-015,42.5,-20.0301270189222));
#348=AXIS2_PLACEMENT_3D('',#386,#387,#388);
#349=CARTESIAN_POINT('',(1.61468902700996E-015,42.5,-26.3698729810777));
#350=AXIS2_PLACEMENT_3D('',#389,#390,#391);
#351=CARTESIAN_POINT('',(1.87983283669118E-015,50.0,-30.7));
#352=AXIS2_PLACEMENT_3D('',#392,#393,#394);
#353=CARTESIAN_POINT('',(2.32682891837997E-015,50.0,-38.0));
#354=AXIS2_PLACEMENT_3D('',#395,#396,#397);
#355=CARTESIAN_POINT('',(2.32682891837997E-015,45.0710678118657,-38.0));
#356=AXIS2_PLACEMENT_3D('',#398,#399,#400);
#357=CARTESIAN_POINT('',(2.41650160410795E-015,41.535533905933,-39.4644660940675));
#358=AXIS2_PLACEMENT_3D('',#401,#402,#403);
#359=CARTESIAN_POINT('',(2.70165168664497E-015,36.8786796564379,-44.1213203435629));
#360=AXIS2_PLACEMENT_3D('',#404,#405,#406);
#361=CARTESIAN_POINT('',(2.83154509508027E-015,35.9999999999977,-46.2426406871223));
#362=AXIS2_PLACEMENT_3D('',#407,#408,#409);
#363=CARTESIAN_POINT('',(4.35188595541403E-015,35.9999999999965,-71.0716911756759));
#364=AXIS2_PLACEMENT_3D('',#410,#411,#412);
#365=CARTESIAN_POINT('',(5.46804795819302E-015,27.4999999999994,-89.3000000000015));
#366=AXIS2_PLACEMENT_3D('',#413,#414,#415);
#367=CARTESIAN_POINT('',(5.46804795819302E-015,21.4999999999947,-89.3000000000014));
#368=AXIS2_PLACEMENT_3D('',#416,#417,#418);
#369=CARTESIAN_POINT('',(5.51091059616292E-015,20.7999999999968,-89.9999999999972));
#370=AXIS2_PLACEMENT_3D('',#419,#420,#421);
#371=CARTESIAN_POINT('',(-6.23345220766003E-015,-1.24669044153201E-014,101.8));
#372=DIRECTION('',(6.12323399573677E-017,1.22464679914708E-016,-1.0));
#373=DIRECTION('',(-1.23259516440804E-032,1.0,1.22464679914708E-016));
#374=CARTESIAN_POINT('',(0.0,0.0,0.0));
#375=DIRECTION('',(6.12323399573677E-017,1.22464679914705E-016,-1.0));
#376=DIRECTION('',(-1.23259516440793E-032,1.0,1.22464679914705E-016));
#377=CARTESIAN_POINT('',(9.18485099360524E-017,1.83697019872105E-016,-1.50000000000001));
#378=DIRECTION('',(6.12323399573677E-017,1.22464679914705E-016,-1.0));
#379=DIRECTION('',(-1.23259516440793E-032,1.0,1.22464679914705E-016));
#380=CARTESIAN_POINT('',(9.18485099360532E-017,1.83697019872106E-016,-1.50000000000003));
#381=DIRECTION('',(6.12323399573677E-017,1.22464679914736E-016,-1.0));
#382=DIRECTION('',(-1.23259516440783E-032,1.0,1.22464679914736E-016));
#383=CARTESIAN_POINT('',(9.6134773733067E-016,1.92269547466134E-015,-15.7));
#384=DIRECTION('',(6.12323399573677E-017,1.22464679914736E-016,-1.0));
#385=DIRECTION('',(-1.23259516440783E-032,1.0,1.22464679914736E-016));
#386=CARTESIAN_POINT('',(1.2264915470119E-015,2.4529830940238E-015,-20.0301270189222));
#387=DIRECTION('',(6.12323399573677E-017,1.22464679914763E-016,-1.0));
#388=DIRECTION('',(-1.23259516440783E-032,1.0,1.22464679914763E-016));
#389=CARTESIAN_POINT('',(1.61468902700996E-015,3.22937805401991E-015,-26.3698729810777));
#390=DIRECTION('',(6.12323399573677E-017,1.22464679914763E-016,-1.0));
#391=DIRECTION('',(-1.23259516440783E-032,1.0,1.22464679914763E-016));
#392=CARTESIAN_POINT('',(1.87983283669118E-015,3.75966567338237E-015,-30.7));
#393=DIRECTION('',(6.12323399573677E-017,1.22464679914736E-016,-1.0));
#394=DIRECTION('',(-1.23259516440783E-032,1.0,1.22464679914736E-016));
#395=CARTESIAN_POINT('',(2.32682891837997E-015,4.65365783675994E-015,-38.0));
#396=DIRECTION('',(6.12323399573677E-017,1.22464679914736E-016,-1.0));
#397=DIRECTION('',(-1.23259516440783E-032,1.0,1.22464679914736E-016));
#398=CARTESIAN_POINT('',(2.32682891837997E-015,4.65365783675995E-015,-38.0));
#399=DIRECTION('',(6.12323399573677E-017,1.22464679914754E-016,-1.0));
#400=DIRECTION('',(-1.23259516440776E-032,1.0,1.22464679914754E-016));
#401=CARTESIAN_POINT('',(2.41650160410795E-015,4.8330032082159E-015,-39.4644660940675));
#402=DIRECTION('',(6.12323399573677E-017,1.22464679914713E-016,-1.0));
#403=DIRECTION('',(-1.23259516440779E-032,1.0,1.22464679914713E-016));
#404=CARTESIAN_POINT('',(2.70165168664497E-015,5.40330337328993E-015,-44.1213203435629));
#405=DIRECTION('',(6.12323399573677E-017,1.22464679914714E-016,-1.0));
#406=DIRECTION('',(-1.23259516440784E-032,1.0,1.22464679914714E-016));
#407=CARTESIAN_POINT('',(2.83154509508027E-015,5.66309019016055E-015,-46.2426406871223));
#408=DIRECTION('',(6.12323399573677E-017,1.22464679914701E-016,-1.0));
#409=DIRECTION('',(-1.23259516440791E-032,1.0,1.22464679914701E-016));
#410=CARTESIAN_POINT('',(4.35188595541403E-015,8.70377191082806E-015,-71.0716911756759));
#411=DIRECTION('',(6.12323399573677E-017,1.22464679914705E-016,-1.0));
#412=DIRECTION('',(-1.23259516440795E-032,1.0,1.22464679914705E-016));
#413=CARTESIAN_POINT('',(5.46804795819302E-015,1.0936095916386E-014,-89.3000000000015));
#414=DIRECTION('',(6.12323399573677E-017,1.22464679914745E-016,-1.0));
#415=DIRECTION('',(-1.23259516440786E-032,1.0,1.22464679914745E-016));
#416=CARTESIAN_POINT('',(5.46804795819302E-015,1.0936095916386E-014,-89.3000000000014));
#417=DIRECTION('',(6.12323399573677E-017,1.22464679914711E-016,-1.0));
#418=DIRECTION('',(-1.23259516440772E-032,1.0,1.22464679914711E-016));
#419=CARTESIAN_POINT('',(5.51091059616292E-015,1.10218211923258E-014,-89.9999999999972));
#420=DIRECTION('',(6.12323399573677E-017,1.22464679914748E-016,-1.0));
#421=DIRECTION('',(-1.23259516440776E-032,1.0,1.22464679914748E-016));
ENDSEC;
END-ISO-10303-21;
